999
DXF file: 3-2534ts_RIGHT.dxf
999
Pro/ENGINEER 2018400 by Parametric Technology Corporation
  0
SECTION
  2
HEADER
  9
$ACADVER
  1
AC1027
  9
$DWGCODEPAGE
  3
ANSI_1252
  9
$EXTMAX
 10
11.0
 20
8.5
 30
0.0
  9
$EXTMIN
 10
0.0
 20
0.0
 30
0.0
  9
$LIMMIN
 10
0.0
 20
0.0
  9
$LIMMAX
 10
11.0
 20
8.5
  9
$VIEWCTR
 10
5.5
 20
4.25
  9
$VIEWSIZE
 40
8.5
  9
$CLAYER
  8
0
  9
$LTSCALE
 40
0.605
  9
$CELTYPE
  6
BYLAYER
  9
$DIMSCALE
 40
1.0
  9
$DIMASZ
 40
0.1
  9
$DIMEXO
 40
0.0625
  9
$DIMDLI
 40
0.418
  9
$DIMEXE
 40
0.125
  9
$DIMCEN
 40
0.099
  9
$DIMLFAC
 40
1.0
  9
$DIMBLK
  1
_FILLED
  9
$DIMALT
 70
1
  9
$DIMALTD
 70
2
  9
$DIMALTTD
 70
2
  9
$DIMALTF
 40
25.4
  9
$DIMTXT
 40
0.08
  9
$DIMTOL
 70
1
  9
$DIMLIM
 70
0
  9
$DIMTFAC
 40
1.0
  9
$DIMTP
 40
0.001
  9
$DIMTM
 40
0.001
  9
$DIMGAP
 40
0.09
  9
$DIMDSEP
 70
46
  9
$AUNITS
 70
0
  9
$PDMODE
 70
3
  9
$PDSIZE
 40
0.3125
  9
$HANDSEED
  5
48A
  9
$TILEMODE
 70
1
  9
$MEASUREMENT
 70
0
  9
$INSUNITS
 70
1
  0
ENDSEC
  0
SECTION
  2
CLASSES
  0
CLASS
  1
ACDBDICTIONARYWDFLT
  2
AcDbDictionaryWithDefault
  3
AutoCAD 2000
 90
0
 91
1
280
0
281
0
  0
CLASS
  1
ACDBPLACEHOLDER
  2
AcDbPlaceHolder
  3
AutoCAD 2000
 90
0
 91
1
280
0
281
0
  0
CLASS
  1
LAYOUT
  2
AcDbLayout
  3
AutoCAD 2000
 90
0
 91
0
280
0
281
0
  0
ENDSEC
  0
SECTION
  2
TABLES
  0
TABLE
  2
VPORT
  5
8
100
AcDbSymbolTable
 70
2
  0
VPORT
  5
1F4
100
AcDbSymbolTableRecord
100
AcDbViewportTableRecord
  2
*ACTIVE
 70
0
 10
0.0
 20
0.0
 11
1.0
 21
1.0
 12
5.5
 22
4.25
 13
0.0
 23
0.0
 14
1.0
 24
1.0
 15
0.0
 25
0.0
 16
0.0
 26
0.0
 36
1.0
 17
0.0
 27
0.0
 37
0.0
 40
8.5
 41
1.2941176471
 42
50.0
 43
0.0
 44
0.0
 50
0.0
 51
0.0
 71
0
 72
100
 73
1
 74
1
 75
0
 76
0
 77
0
 78
0
  0
ENDTAB
  0
TABLE
  2
LTYPE
  5
5
100
AcDbSymbolTable
 70
6
  0
LTYPE
  5
14
100
AcDbSymbolTableRecord
100
AcDbLinetypeTableRecord
  2
BYBLOCK
 70
0
  3

 72
65
 73
0
 40
0.0
  0
LTYPE
  5
15
100
AcDbSymbolTableRecord
100
AcDbLinetypeTableRecord
  2
BYLAYER
 70
0
  3

 72
65
 73
0
 40
0.0
  0
LTYPE
  5
16
100
AcDbSymbolTableRecord
100
AcDbLinetypeTableRecord
  2
CONTINUOUS
 70
64
  3
Solid line
 72
65
 73
0
 40
0.0
  0
LTYPE
  5
1F5
100
AcDbSymbolTableRecord
100
AcDbLinetypeTableRecord
  2
CENTER
 70
64
  3
____ _ ____ _ ____ _ ____ _ ____ _ ____ _ ____
 72
65
 73
4
 40
0.6
 49
0.375
 74
0
 49
-0.075
 74
0
 49
0.075
 74
0
 49
-0.075
 74
0
  0
LTYPE
  5
1F6
100
AcDbSymbolTableRecord
100
AcDbLinetypeTableRecord
  2
HIDDEN
 70
64
  3
- - - - - - - - - - - - - - - - - - - -
 72
65
 73
2
 40
0.2
 49
0.1
 74
0
 49
-0.1
 74
0
  0
LTYPE
  5
1F7
100
AcDbSymbolTableRecord
100
AcDbLinetypeTableRecord
  2
PHANTOM
 70
64
  3
_____ _ _ _____ _ _ _____ _ _ _____
 72
65
 73
6
 40
0.8
 49
0.45
 74
0
 49
-0.05
 74
0
 49
0.1
 74
0
 49
-0.05
 74
0
 49
0.1
 74
0
 49
-0.05
 74
0
  0
LTYPE
  5
1F8
100
AcDbSymbolTableRecord
100
AcDbLinetypeTableRecord
  2
DOT
 70
64
  3
. . . . . . . . . . . . . . . . . . . .
 72
65
 73
2
 40
0.2
 49
0.1
 74
0
 49
-0.1
 74
0
  0
LTYPE
  5
1F9
100
AcDbSymbolTableRecord
100
AcDbLinetypeTableRecord
  2
DASHED
 70
64
  3
- - - - - - - - - - - - - - - - - - - -
 72
65
 73
2
 40
0.2
 49
0.1
 74
0
 49
-0.1
 74
0
  0
ENDTAB
  0
TABLE
  2
LAYER
  5
2
100
AcDbSymbolTable
 70
36
  0
LAYER
  5
10
100
AcDbSymbolTableRecord
100
AcDbLayerTableRecord
  2
0
 70
0
 62
7
  6
CONTINUOUS
370
-3
390
F
  0
LAYER
  5
1FA
100
AcDbSymbolTableRecord
100
AcDbLayerTableRecord
  2
DEFAULT_1
 70
0
 62
7
  6
CENTER
370
-3
390
F
  0
LAYER
  5
1FB
100
AcDbSymbolTableRecord
100
AcDbLayerTableRecord
  2
DEFAULT_2
 70
0
 62
8
  6
HIDDEN
370
-3
390
F
  0
LAYER
  5
1FC
100
AcDbSymbolTableRecord
100
AcDbLayerTableRecord
  2
DEFAULT_3
 70
0
 62
7
  6
PHANTOM
370
-3
390
F
  0
LAYER
  5
1FD
100
AcDbSymbolTableRecord
100
AcDbLayerTableRecord
  2
ALL_ASSEMBLY_MEMBERS
 70
0
 62
7
  6
CONTINUOUS
370
-3
390
F
  0
LAYER
  5
1FE
100
AcDbSymbolTableRecord
100
AcDbLayerTableRecord
  2
ALL_FEATURES
 70
0
 62
7
  6
CONTINUOUS
370
-3
390
F
  0
LAYER
  5
1FF
100
AcDbSymbolTableRecord
100
AcDbLayerTableRecord
  2
AXES_FEATURES
 70
0
 62
7
  6
CONTINUOUS
370
-3
390
F
  0
LAYER
  5
200
100
AcDbSymbolTableRecord
100
AcDbLayerTableRecord
  2
CHAMFER_FEATURES
 70
0
 62
7
  6
CONTINUOUS
370
-3
390
F
  0
LAYER
  5
201
100
AcDbSymbolTableRecord
100
AcDbLayerTableRecord
  2
COSMETIC_SKETCHES
 70
0
 62
7
  6
CONTINUOUS
370
-3
390
F
  0
LAYER
  5
202
100
AcDbSymbolTableRecord
100
AcDbLayerTableRecord
  2
CUT_FEATURES
 70
0
 62
7
  6
CONTINUOUS
370
-3
390
F
  0
LAYER
  5
203
100
AcDbSymbolTableRecord
100
AcDbLayerTableRecord
  2
DATUM_CURVES
 70
0
 62
7
  6
CONTINUOUS
370
-3
390
F
  0
LAYER
  5
204
100
AcDbSymbolTableRecord
100
AcDbLayerTableRecord
  2
DATUM_PLANES
 70
0
 62
7
  6
CONTINUOUS
370
-3
390
F
  0
LAYER
  5
205
100
AcDbSymbolTableRecord
100
AcDbLayerTableRecord
  2
DATUM_POINTS
 70
0
 62
7
  6
CONTINUOUS
370
-3
390
F
  0
LAYER
  5
206
100
AcDbSymbolTableRecord
100
AcDbLayerTableRecord
  2
DEFAULT_COORDINATE_SYSTEM
 70
0
 62
7
  6
CONTINUOUS
370
-3
390
F
  0
LAYER
  5
207
100
AcDbSymbolTableRecord
100
AcDbLayerTableRecord
  2
DEFAULT_DATUM_AXES
 70
0
 62
7
  6
CONTINUOUS
370
-3
390
F
  0
LAYER
  5
208
100
AcDbSymbolTableRecord
100
AcDbLayerTableRecord
  2
DEFAULT_DATUM_CURVES
 70
0
 62
7
  6
CONTINUOUS
370
-3
390
F
  0
LAYER
  5
209
100
AcDbSymbolTableRecord
100
AcDbLayerTableRecord
  2
DEFAULT_DATUM_PLANES
 70
0
 62
7
  6
CONTINUOUS
370
-3
390
F
  0
LAYER
  5
20A
100
AcDbSymbolTableRecord
100
AcDbLayerTableRecord
  2
DEFAULT_SURFACES
 70
0
 62
7
  6
CONTINUOUS
370
-3
390
F
  0
LAYER
  5
20B
100
AcDbSymbolTableRecord
100
AcDbLayerTableRecord
  2
DIMENSIONS
 70
0
 62
7
  6
CONTINUOUS
370
-3
390
F
  0
LAYER
  5
20C
100
AcDbSymbolTableRecord
100
AcDbLayerTableRecord
  2
HOLE_FEATURES
 70
0
 62
7
  6
CONTINUOUS
370
-3
390
F
  0
LAYER
  5
20D
100
AcDbSymbolTableRecord
100
AcDbLayerTableRecord
  2
HOLE_PATTERN
 70
0
 62
7
  6
CONTINUOUS
370
-3
390
F
  0
LAYER
  5
20E
100
AcDbSymbolTableRecord
100
AcDbLayerTableRecord
  2
NONE
 70
0
 62
7
  6
CONTINUOUS
370
-3
390
F
  0
LAYER
  5
20F
100
AcDbSymbolTableRecord
100
AcDbLayerTableRecord
  2
PART_REFERENCE_DIMENSIONS
 70
0
 62
7
  6
CONTINUOUS
370
-3
390
F
  0
LAYER
  5
210
100
AcDbSymbolTableRecord
100
AcDbLayerTableRecord
  2
PLATED_SURFACE_AREA
 70
0
 62
7
  6
CONTINUOUS
370
-3
390
F
  0
LAYER
  5
211
100
AcDbSymbolTableRecord
100
AcDbLayerTableRecord
  2
POINTS
 70
0
 62
7
  6
CONTINUOUS
370
-3
390
F
  0
LAYER
  5
212
100
AcDbSymbolTableRecord
100
AcDbLayerTableRecord
  2
PROTRUSION
 70
0
 62
7
  6
CONTINUOUS
370
-3
390
F
  0
LAYER
  5
213
100
AcDbSymbolTableRecord
100
AcDbLayerTableRecord
  2
PROTRUSION_FEATURES
 70
0
 62
7
  6
CONTINUOUS
370
-3
390
F
  0
LAYER
  5
214
100
AcDbSymbolTableRecord
100
AcDbLayerTableRecord
  2
QUILT
 70
0
 62
7
  6
CONTINUOUS
370
-3
390
F
  0
LAYER
  5
215
100
AcDbSymbolTableRecord
100
AcDbLayerTableRecord
  2
QUILTS
 70
0
 62
7
  6
CONTINUOUS
370
-3
390
F
  0
LAYER
  5
216
100
AcDbSymbolTableRecord
100
AcDbLayerTableRecord
  2
REFERENCE_DIMENSIONS
 70
0
 62
7
  6
CONTINUOUS
370
-3
390
F
  0
LAYER
  5
217
100
AcDbSymbolTableRecord
100
AcDbLayerTableRecord
  2
ROUND_FEATURES
 70
0
 62
7
  6
CONTINUOUS
370
-3
390
F
  0
LAYER
  5
218
100
AcDbSymbolTableRecord
100
AcDbLayerTableRecord
  2
SATIN_DIRECTION
 70
0
 62
7
  6
CONTINUOUS
370
-3
390
F
  0
LAYER
  5
219
100
AcDbSymbolTableRecord
100
AcDbLayerTableRecord
  2
SHELL_FEATURES
 70
0
 62
7
  6
CONTINUOUS
370
-3
390
F
  0
LAYER
  5
21A
100
AcDbSymbolTableRecord
100
AcDbLayerTableRecord
  2
SURFACE_FEATURES
 70
0
 62
7
  6
CONTINUOUS
370
-3
390
F
  0
LAYER
  5
21B
100
AcDbSymbolTableRecord
100
AcDbLayerTableRecord
  2
XSEC_DATUMS
 70
0
 62
7
  6
CONTINUOUS
370
-3
390
F
  0
ENDTAB
  0
TABLE
  2
STYLE
  5
3
100
AcDbSymbolTable
 70
1
  0
STYLE
  5
11
100
AcDbSymbolTableRecord
100
AcDbTextStyleTableRecord
  2
STANDARD
 70
0
 40
0.0
 41
0.8
 50
0.0
 71
0
 42
0.2
  3
txt
  4

  0
STYLE
  5
21C
100
AcDbSymbolTableRecord
100
AcDbTextStyleTableRecord
  2
TEXTSTYLE_1
 70
0
 40
0.0
 41
0.8
 50
0.0
 71
0
 42
0.2
  3
gdt
  4

  0
ENDTAB
  0
TABLE
  2
VIEW
  5
6
100
AcDbSymbolTable
 70
0
  0
ENDTAB
  0
TABLE
  2
UCS
  5
7
100
AcDbSymbolTable
 70
0
  0
ENDTAB
  0
TABLE
  2
APPID
  5
9
100
AcDbSymbolTable
 70
1
  0
APPID
  5
21D
100
AcDbSymbolTableRecord
100
AcDbRegAppTableRecord
  2
ACAD
 70
0
  0
ENDTAB
  0
TABLE
  2
BLOCK_RECORD
  5
1
100
AcDbSymbolTable
 70
0
  0
BLOCK_RECORD
  5
21E
100
AcDbSymbolTableRecord
100
AcDbBlockTableRecord
  2
*Model_Space
  0
BLOCK_RECORD
  5
21F
100
AcDbSymbolTableRecord
100
AcDbBlockTableRecord
  2
*Paper_Space
  0
BLOCK_RECORD
  5
220
100
AcDbSymbolTableRecord
100
AcDbBlockTableRecord
  2
_FILLED
  0
ENDTAB
  0
TABLE
  2
DIMSTYLE
  5
A
100
AcDbSymbolTable
 70
1
100
AcDbDimStyleTable
 71
0
  0
DIMSTYLE
105
221
100
AcDbSymbolTableRecord
100
AcDbDimStyleTableRecord
  2
STANDARD
 70
0
  3

  4

 40
1.0
 41
0.1
 42
0.0625
 43
0.38
 44
0.125
 45
0.0
 46
0.0
 47
0.001
 48
0.001
140
0.08
141
0.09
142
0.0
143
25.4
144
1.0
145
0.0
146
1.0
147
0.09
 71
1.0
 72
0.0
 73
1
 74
1
 75
0
 76
0
 77
0
 78
4
 79
1
170
1
171
2
172
0
173
0
174
0
175
0
176
0
177
0
178
0
270
2
179
3
271
3
272
3
273
2
274
2
275
0
280
0
281
0
282
0
283
1
284
4
285
0
286
0
287
3
288
0
340
11
278
46
341
220
342
220
343
220
344
220
  0
ENDTAB
  0
ENDSEC
  0
SECTION
  2
BLOCKS
  0
BLOCK
  5
20
100
AcDbEntity
  8
0
100
AcDbBlockBegin
  2
*Model_Space
 70
0
 10
0.0
 20
0.0
 30
0.0
  3
*Model_Space
  1

  0
ENDBLK
  5
21
100
AcDbEntity
  8
0
100
AcDbBlockEnd
  0
BLOCK
  5
1C
100
AcDbEntity
  8
0
100
AcDbBlockBegin
  2
*Paper_Space
 70
0
 10
0.0
 20
0.0
 30
0.0
  3
*Paper_Space
  1

  0
ENDBLK
  5
1D
100
AcDbEntity
  8
0
100
AcDbBlockEnd
  0
BLOCK
  5
222
100
AcDbEntity
  8
0
100
AcDbBlockBegin
  2
_FILLED
 70
64
 10
0.0
 20
0.0
  3
_FILLED
  1

  0
SOLID
  5
223
100
AcDbEntity
  8
0
  6
BYBLOCK
 62
0
100
AcDbTrace
 10
0.0
 20
0.0
 11
-1.0
 21
0.2
 12
-1.0
 22
-0.2
 13
-1.0
 23
-0.2
  0
ENDBLK
  5
224
100
AcDbEntity
  8
0
  6
BYBLOCK
 62
0
100
AcDbBlockEnd
  0
ENDSEC
  0
SECTION
  2
ENTITIES
  0
MTEXT
  5
225
100
AcDbEntity
  8
0
100
AcDbMText
 62
2
  6
CONTINUOUS
  7
STANDARD
 71
3
 72
1
 10
4.7736413043
 20
2.2612852185
 30
0.0
 11
1.0
 21
0.0
 31
0.0
 73
2
 44
0.9
  1
SCALE  .500
 40
0.08
 41
0.704
  0
LINE
  5
226
100
AcDbEntity
  8
0
100
AcDbLine
 62
7
  6
CONTINUOUS
 10
0.0
 20
0.0
 11
0.0
 21
8.5
  0
LINE
  5
227
100
AcDbEntity
  8
0
100
AcDbLine
 62
7
  6
CONTINUOUS
 10
0.0
 20
0.0
 11
11.0
 21
0.0
  0
LINE
  5
228
100
AcDbEntity
  8
0
100
AcDbLine
 62
7
  6
CONTINUOUS
 10
0.0
 20
8.5
 11
11.0
 21
8.5
  0
LINE
  5
229
100
AcDbEntity
  8
0
100
AcDbLine
 62
7
  6
CONTINUOUS
 10
11.0
 20
0.0
 11
11.0
 21
8.5
  0
LINE
  5
22A
100
AcDbEntity
  8
ALL_ASSEMBLY_MEMBERS
100
AcDbLine
 62
7
  6
CONTINUOUS
 10
5.5151040621
 20
2.9185983219
 11
5.6301040621
 21
2.9185983219
  0
LINE
  5
22B
100
AcDbEntity
  8
ALL_ASSEMBLY_MEMBERS
100
AcDbLine
 62
7
  6
CONTINUOUS
 10
5.5151040621
 20
2.9810983219
 11
5.4586040621
 21
2.9810983219
  0
LINE
  5
22C
100
AcDbEntity
  8
ALL_ASSEMBLY_MEMBERS
100
AcDbLine
 62
7
  6
CONTINUOUS
 10
5.4586040621
 20
3.1260983219
 11
5.6301040621
 21
3.1260983219
  0
LINE
  5
22D
100
AcDbEntity
  8
ALL_ASSEMBLY_MEMBERS
100
AcDbLine
 62
7
  6
CONTINUOUS
 10
5.6301040621
 20
3.1485983219
 11
5.4586040621
 21
3.1485983219
  0
LINE
  5
22E
100
AcDbEntity
  8
ALL_ASSEMBLY_MEMBERS
100
AcDbLine
 62
7
  6
CONTINUOUS
 10
3.7359488845
 20
3.3569080556
 11
3.7359488845
 21
3.3569305228
  0
LINE
  5
22F
100
AcDbEntity
  8
ALL_ASSEMBLY_MEMBERS
100
AcDbLine
 62
7
  6
CONTINUOUS
 10
5.5151040621
 20
3.1685983219
 11
5.6301040621
 21
3.1685983219
  0
LINE
  5
230
100
AcDbEntity
  8
ALL_ASSEMBLY_MEMBERS
100
AcDbLine
 62
7
  6
CONTINUOUS
 10
5.5151040621
 20
3.2310983219
 11
5.4586040621
 21
3.2310983219
  0
LINE
  5
231
100
AcDbEntity
  8
ALL_ASSEMBLY_MEMBERS
100
AcDbLine
 62
7
  6
CONTINUOUS
 10
3.8137691922
 20
3.2327537555
 11
3.8137691922
 21
3.2327341653
  0
LINE
  5
232
100
AcDbEntity
  8
ALL_ASSEMBLY_MEMBERS
100
AcDbLine
 62
7
  6
CONTINUOUS
 10
3.8501434322
 20
4.1705226693
 11
3.8501434322
 21
4.777847268
  0
LINE
  5
233
100
AcDbEntity
  8
ALL_ASSEMBLY_MEMBERS
100
AcDbLine
 62
7
  6
CONTINUOUS
 10
3.8751434322
 20
4.1687936826
 11
3.8751434322
 21
4.8028483219
  0
LINE
  5
234
100
AcDbEntity
  8
ALL_ASSEMBLY_MEMBERS
100
AcDbLine
 62
7
  6
CONTINUOUS
 10
3.8796434322
 20
4.1763387491
 11
3.8796434322
 21
4.8028483219
  0
LINE
  5
235
100
AcDbEntity
  8
ALL_ASSEMBLY_MEMBERS
100
AcDbLine
 62
7
  6
CONTINUOUS
 10
3.8996434322
 20
4.8270972466
 11
3.8996434245
 21
4.1749183012
  0
LINE
  5
236
100
AcDbEntity
  8
ALL_ASSEMBLY_MEMBERS
100
AcDbLine
 62
7
  6
CONTINUOUS
 10
3.87940965
 20
4.1380848031
 11
3.8796434322
 21
4.1763387491
  0
LINE
  5
237
100
AcDbEntity
  8
ALL_ASSEMBLY_MEMBERS
100
AcDbLine
 62
7
  6
CONTINUOUS
 10
3.8993835148
 20
4.1346530976
 11
3.8994080054
 21
4.1366015068
  0
LINE
  5
238
100
AcDbEntity
  8
ALL_ASSEMBLY_MEMBERS
100
AcDbLine
 62
7
  6
CONTINUOUS
 10
5.4586040621
 20
3.3760983219
 11
5.6301040621
 21
3.3760983219
  0
LINE
  5
239
100
AcDbEntity
  8
ALL_ASSEMBLY_MEMBERS
100
AcDbLine
 62
7
  6
CONTINUOUS
 10
3.9978787824
 20
4.1366049987
 11
3.997903801
 21
4.1346182999
  0
LINE
  5
23A
100
AcDbEntity
  8
ALL_ASSEMBLY_MEMBERS
100
AcDbLine
 62
7
  6
CONTINUOUS
 10
4.0176434322
 20
4.1763387491
 11
4.0178772143
 21
4.1380848036
  0
LINE
  5
23B
100
AcDbEntity
  8
ALL_ASSEMBLY_MEMBERS
100
AcDbLine
 62
7
  6
CONTINUOUS
 10
3.9246434322
 20
4.8520983219
 11
3.9246434322
 21
4.1725152203
  0
LINE
  5
23C
100
AcDbEntity
  8
ALL_ASSEMBLY_MEMBERS
100
AcDbLine
 62
7
  6
CONTINUOUS
 10
3.9726434322
 20
4.1725152203
 11
3.9726434322
 21
4.8520983219
  0
LINE
  5
23D
100
AcDbEntity
  8
ALL_ASSEMBLY_MEMBERS
100
AcDbLine
 62
7
  6
CONTINUOUS
 10
3.9976435703
 20
4.1749183003
 11
3.9976434322
 21
4.8270972466
  0
LINE
  5
23E
100
AcDbEntity
  8
ALL_ASSEMBLY_MEMBERS
100
AcDbLine
 62
7
  6
CONTINUOUS
 10
4.0176434322
 20
4.8028483219
 11
4.0176434322
 21
4.1763387491
  0
LINE
  5
23F
100
AcDbEntity
  8
ALL_ASSEMBLY_MEMBERS
100
AcDbLine
 62
7
  6
CONTINUOUS
 10
4.0221434322
 20
4.8028483219
 11
4.0221434322
 21
4.1687936826
  0
LINE
  5
240
100
AcDbEntity
  8
ALL_ASSEMBLY_MEMBERS
100
AcDbLine
 62
7
  6
CONTINUOUS
 10
4.0471434322
 20
4.777847268
 11
4.0471434322
 21
4.1705226693
  0
LINE
  5
241
100
AcDbEntity
  8
ALL_ASSEMBLY_MEMBERS
100
AcDbLine
 62
7
  6
CONTINUOUS
 10
3.8224058282
 20
3.2830050307
 11
3.8191059717
 21
3.2640729228
  0
LINE
  5
242
100
AcDbEntity
  8
ALL_ASSEMBLY_MEMBERS
100
AcDbLine
 62
7
  6
CONTINUOUS
 10
3.813769212
 20
3.2327538695
 11
3.8180509141
 21
3.2572951205
  0
LINE
  5
243
100
AcDbEntity
  8
ALL_ASSEMBLY_MEMBERS
100
AcDbLine
 62
7
  6
CONTINUOUS
 10
3.8265287235
 20
3.3065661657
 11
3.8224052795
 21
3.2830048865
  0
LINE
  5
244
100
AcDbEntity
  8
ALL_ASSEMBLY_MEMBERS
100
AcDbLine
 62
7
  6
CONTINUOUS
 10
4.0707581409
 20
3.3065661657
 11
4.0748815431
 21
3.2830051258
  0
LINE
  5
245
100
AcDbEntity
  8
ALL_ASSEMBLY_MEMBERS
100
AcDbLine
 62
7
  6
CONTINUOUS
 10
4.0835176685
 20
3.2327537767
 11
4.0792359502
 21
3.2572951205
  0
LINE
  5
246
100
AcDbEntity
  8
ALL_ASSEMBLY_MEMBERS
100
AcDbLine
 62
7
  6
CONTINUOUS
 10
4.0748816581
 20
3.2830048946
 11
4.0781803128
 21
3.2640728624
  0
LINE
  5
247
100
AcDbEntity
  8
ALL_ASSEMBLY_MEMBERS
100
AcDbLine
 62
7
  6
CONTINUOUS
 10
4.0835176721
 20
3.2327537555
 11
4.0835176721
 21
3.2327341653
  0
LINE
  5
248
100
AcDbEntity
  8
ALL_ASSEMBLY_MEMBERS
100
AcDbLine
 62
7
  6
CONTINUOUS
 10
4.1451434322
 20
4.4388483219
 11
4.1451434322
 21
4.7733483219
  0
LINE
  5
249
100
AcDbEntity
  8
ALL_ASSEMBLY_MEMBERS
100
AcDbLine
 62
7
  6
CONTINUOUS
 10
4.1613379798
 20
3.3569080556
 11
4.1613379798
 21
3.3569305228
  0
LINE
  5
24A
100
AcDbEntity
  8
ALL_ASSEMBLY_MEMBERS
100
AcDbLine
 62
7
  6
CONTINUOUS
 10
4.1851434322
 20
4.42860316
 11
4.1851434322
 21
4.7835934837
  0
LINE
  5
24B
100
AcDbEntity
  8
ALL_ASSEMBLY_MEMBERS
100
AcDbLine
 62
7
  6
CONTINUOUS
 10
5.4586040621
 20
3.7348483219
 11
5.4186040621
 21
3.7348483219
  0
LINE
  5
24C
100
AcDbEntity
  8
ALL_ASSEMBLY_MEMBERS
100
AcDbLine
 62
7
  6
CONTINUOUS
 10
4.7051434322
 20
4.9862117278
 11
4.7049887168
 21
4.986054968
  0
LINE
  5
24D
100
AcDbEntity
  8
ALL_ASSEMBLY_MEMBERS
100
AcDbLine
 62
7
  6
CONTINUOUS
 10
4.7051423068
 20
4.9862038448
 11
4.705021939
 21
4.9860846882
  0
LINE
  5
24E
100
AcDbEntity
  8
ALL_ASSEMBLY_MEMBERS
100
AcDbLine
 62
7
  6
CONTINUOUS
 10
5.3935747237
 20
3.8825264255
 11
5.3932263352
 21
3.882460445
  0
LINE
  5
24F
100
AcDbEntity
  8
ALL_ASSEMBLY_MEMBERS
100
AcDbLine
 62
7
  6
CONTINUOUS
 10
5.3869901169
 20
3.9207705341
 11
5.3868947908
 21
3.9207524805
  0
LINE
  5
250
100
AcDbEntity
  8
ALL_ASSEMBLY_MEMBERS
100
AcDbLine
 62
7
  6
CONTINUOUS
 10
5.3796106418
 20
3.9600608053
 11
5.3795096089
 21
3.9600416709
  0
LINE
  5
251
100
AcDbEntity
  8
ALL_ASSEMBLY_MEMBERS
100
AcDbLine
 62
7
  6
CONTINUOUS
 10
5.3778166825
 20
3.97108972
 11
5.3777016408
 21
3.9710679325
  0
LINE
  5
252
100
AcDbEntity
  8
ALL_ASSEMBLY_MEMBERS
100
AcDbLine
 62
7
  6
CONTINUOUS
 10
5.3733043758
 20
3.9892114086
 11
5.3743627964
 21
3.9894118606
  0
LINE
  5
253
100
AcDbEntity
  8
ALL_ASSEMBLY_MEMBERS
100
AcDbLine
 62
7
  6
CONTINUOUS
 10
5.3724258353
 20
3.9922932138
 11
5.3737755432
 21
3.992548832
  0
LINE
  5
254
100
AcDbEntity
  8
ALL_ASSEMBLY_MEMBERS
100
AcDbLine
 62
7
  6
CONTINUOUS
 10
5.3729628836
 20
3.9968398151
 11
5.3716131972
 21
3.996584201
  0
LINE
  5
255
100
AcDbEntity
  8
ALL_ASSEMBLY_MEMBERS
100
AcDbLine
 62
7
  6
CONTINUOUS
 10
5.4186040621
 20
3.7748483219
 11
5.4136040621
 21
3.7748483219
  0
LINE
  5
256
100
AcDbEntity
  8
ALL_ASSEMBLY_MEMBERS
100
AcDbLine
 62
7
  6
CONTINUOUS
 10
3.9975465928
 20
3.7835983219
 11
3.8997402716
 21
3.7835983219
  0
LINE
  5
257
100
AcDbEntity
  8
ALL_ASSEMBLY_MEMBERS
100
AcDbLine
 62
7
  6
CONTINUOUS
 10
3.8631502079
 20
3.9030983219
 11
3.8682331772
 21
3.9030983219
  0
LINE
  5
258
100
AcDbEntity
  8
ALL_ASSEMBLY_MEMBERS
100
AcDbLine
 62
7
  6
CONTINUOUS
 10
4.029053687
 20
3.9030983219
 11
4.0341366565
 21
3.9030983219
  0
LINE
  5
259
100
AcDbEntity
  8
ALL_ASSEMBLY_MEMBERS
100
AcDbLine
 62
7
  6
CONTINUOUS
 10
4.5463934322
 20
4.8841673023
 11
4.5463934322
 21
5.0142858219
  0
LINE
  5
25A
100
AcDbEntity
  8
ALL_ASSEMBLY_MEMBERS
100
AcDbLine
 62
7
  6
CONTINUOUS
 10
4.5601434322
 20
5.0142858219
 11
4.5601434322
 21
5.1142858219
  0
LINE
  5
25B
100
AcDbEntity
  8
ALL_ASSEMBLY_MEMBERS
100
AcDbLine
 62
7
  6
CONTINUOUS
 10
5.3906702343
 20
4.1439758913
 11
5.3933133427
 21
4.1442630079
  0
LINE
  5
25C
100
AcDbEntity
  8
ALL_ASSEMBLY_MEMBERS
100
AcDbLine
 62
7
  6
CONTINUOUS
 10
5.3799420389
 20
4.172511588
 11
5.3840711443
 21
4.1729601259
  0
LINE
  5
25D
100
AcDbEntity
  8
ALL_ASSEMBLY_MEMBERS
100
AcDbLine
 62
7
  6
CONTINUOUS
 10
5.3901833688
 20
4.1744689151
 11
5.3914798389
 21
4.1746097485
  0
LINE
  5
25E
100
AcDbEntity
  8
ALL_ASSEMBLY_MEMBERS
100
AcDbLine
 62
7
  6
CONTINUOUS
 10
5.3814892896
 20
4.1827335451
 11
5.3859813036
 21
4.1832215052
  0
LINE
  5
25F
100
AcDbEntity
  8
ALL_ASSEMBLY_MEMBERS
100
AcDbLine
 62
7
  6
CONTINUOUS
 10
5.3824106837
 20
4.1835710797
 11
5.3869740724
 21
4.1840667931
  0
LINE
  5
260
100
AcDbEntity
  8
ALL_ASSEMBLY_MEMBERS
100
AcDbLine
 62
7
  6
CONTINUOUS
 10
5.3876024111
 20
4.1877725435
 11
5.3888554957
 21
4.187908664
  0
LINE
  5
261
100
AcDbEntity
  8
ALL_ASSEMBLY_MEMBERS
100
AcDbLine
 62
7
  6
CONTINUOUS
 10
5.3738628534
 20
4.2014018282
 11
5.3747518009
 21
4.2014983931
  0
LINE
  5
262
100
AcDbEntity
  8
ALL_ASSEMBLY_MEMBERS
100
AcDbLine
 62
7
  6
CONTINUOUS
 10
5.3901193621
 20
4.2194552748
 11
5.393028259
 21
4.2197712635
  0
LINE
  5
263
100
AcDbEntity
  8
ALL_ASSEMBLY_MEMBERS
100
AcDbLine
 62
7
  6
CONTINUOUS
 10
5.371033927
 20
4.2363211382
 11
5.3744996311
 21
4.2366976119
  0
LINE
  5
264
100
AcDbEntity
  8
ALL_ASSEMBLY_MEMBERS
100
AcDbLine
 62
7
  6
CONTINUOUS
 10
5.3904715294
 20
4.2474251569
 11
5.3939237061
 21
4.2478001611
  0
LINE
  5
265
100
AcDbEntity
  8
ALL_ASSEMBLY_MEMBERS
100
AcDbLine
 62
7
  6
CONTINUOUS
 10
5.3714872717
 20
4.2480010223
 11
5.3730100811
 21
4.2481664426
  0
LINE
  5
266
100
AcDbEntity
  8
ALL_ASSEMBLY_MEMBERS
100
AcDbLine
 62
7
  6
CONTINUOUS
 10
5.3902032065
 20
4.2601793572
 11
5.3917149072
 21
4.2603435707
  0
LINE
  5
267
100
AcDbEntity
  8
ALL_ASSEMBLY_MEMBERS
100
AcDbLine
 62
7
  6
CONTINUOUS
 10
5.1851434322
 20
4.1135983219
 11
5.3556040621
 21
4.1135983219
  0
LINE
  5
268
100
AcDbEntity
  8
ALL_ASSEMBLY_MEMBERS
100
AcDbLine
 62
7
  6
CONTINUOUS
 10
4.9276434322
 20
4.1160983219
 11
5.1851434322
 21
4.1160983219
  0
LINE
  5
269
100
AcDbEntity
  8
ALL_ASSEMBLY_MEMBERS
100
AcDbLine
 62
7
  6
CONTINUOUS
 10
4.8681434322
 20
4.1460983219
 11
4.8976434322
 21
4.1460983219
  0
LINE
  5
26A
100
AcDbEntity
  8
ALL_ASSEMBLY_MEMBERS
100
AcDbLine
 62
7
  6
CONTINUOUS
 10
3.8751434322
 20
4.1960314554
 11
3.8796434322
 21
4.1960314554
  0
LINE
  5
26B
100
AcDbEntity
  8
ALL_ASSEMBLY_MEMBERS
100
AcDbLine
 62
7
  6
CONTINUOUS
 10
4.0176434322
 20
4.1960314554
 11
4.0221434322
 21
4.1960314554
  0
LINE
  5
26C
100
AcDbEntity
  8
ALL_ASSEMBLY_MEMBERS
100
AcDbLine
 62
7
  6
CONTINUOUS
 10
4.6851434322
 20
5.0142858219
 11
4.6851434322
 21
5.1142858219
  0
LINE
  5
26D
100
AcDbEntity
  8
ALL_ASSEMBLY_MEMBERS
100
AcDbLine
 62
7
  6
CONTINUOUS
 10
4.6988934322
 20
4.9800839949
 11
4.6988934322
 21
5.0142858219
  0
LINE
  5
26E
100
AcDbEntity
  8
ALL_ASSEMBLY_MEMBERS
100
AcDbLine
 62
7
  6
CONTINUOUS
 10
5.3883220153
 20
4.2737387648
 11
5.3889984931
 21
4.2738122495
  0
LINE
  5
26F
100
AcDbEntity
  8
ALL_ASSEMBLY_MEMBERS
100
AcDbLine
 62
7
  6
CONTINUOUS
 10
5.3715665783
 20
4.2941906973
 11
5.3738005354
 21
4.2944333684
  0
LINE
  5
270
100
AcDbEntity
  8
ALL_ASSEMBLY_MEMBERS
100
AcDbLine
 62
7
  6
CONTINUOUS
 10
3.9726434322
 20
4.2087813404
 11
3.9246434322
 21
4.2087813404
  0
LINE
  5
271
100
AcDbEntity
  8
ALL_ASSEMBLY_MEMBERS
100
AcDbLine
 62
7
  6
CONTINUOUS
 10
4.6525459697
 20
4.2640598531
 11
4.6521434322
 21
4.2642752809
  0
LINE
  5
272
100
AcDbEntity
  8
ALL_ASSEMBLY_MEMBERS
100
AcDbLine
 62
7
  6
CONTINUOUS
 10
4.8163912124
 20
4.1254381928
 11
4.8163912124
 21
5.086758451
  0
LINE
  5
273
100
AcDbEntity
  8
ALL_ASSEMBLY_MEMBERS
100
AcDbLine
 62
7
  6
CONTINUOUS
 10
4.8681434322
 20
5.0660983219
 11
4.8681434322
 21
4.1460983219
  0
LINE
  5
274
100
AcDbEntity
  8
ALL_ASSEMBLY_MEMBERS
100
AcDbLine
 62
7
  6
CONTINUOUS
 10
4.8976434322
 20
5.0660983219
 11
4.8976434322
 21
4.1460983219
  0
LINE
  5
275
100
AcDbEntity
  8
ALL_ASSEMBLY_MEMBERS
100
AcDbLine
 62
7
  6
CONTINUOUS
 10
4.9276434322
 20
4.1160983219
 11
4.9276434322
 21
5.0960983219
  0
LINE
  5
276
100
AcDbEntity
  8
ALL_ASSEMBLY_MEMBERS
100
AcDbLine
 62
7
  6
CONTINUOUS
 10
5.3759239426
 20
4.4901522018
 11
5.3808309679
 21
4.4903135784
  0
LINE
  5
277
100
AcDbEntity
  8
ALL_ASSEMBLY_MEMBERS
100
AcDbLine
 62
7
  6
CONTINUOUS
 10
4.1451434322
 20
4.4485983219
 11
4.0471434322
 21
4.4485983219
  0
LINE
  5
278
100
AcDbEntity
  8
ALL_ASSEMBLY_MEMBERS
100
AcDbLine
 62
7
  6
CONTINUOUS
 10
3.9726434322
 20
4.4562824578
 11
3.9246434322
 21
4.4562824578
  0
LINE
  5
279
100
AcDbEntity
  8
ALL_ASSEMBLY_MEMBERS
100
AcDbLine
 62
7
  6
CONTINUOUS
 10
3.8751434322
 20
4.4870593601
 11
3.8796434322
 21
4.4870593601
  0
LINE
  5
27A
100
AcDbEntity
  8
ALL_ASSEMBLY_MEMBERS
100
AcDbLine
 62
7
  6
CONTINUOUS
 10
4.0176434322
 20
4.4870593601
 11
4.0221434322
 21
4.4870593601
  0
LINE
  5
27B
100
AcDbEntity
  8
ALL_ASSEMBLY_MEMBERS
100
AcDbLine
 62
7
  6
CONTINUOUS
 10
5.1851434322
 20
5.0985983219
 11
5.1851434322
 21
4.1135983219
  0
LINE
  5
27C
100
AcDbEntity
  8
ALL_ASSEMBLY_MEMBERS
100
AcDbLine
 62
7
  6
CONTINUOUS
 10
5.3932224841
 20
5.3297300757
 11
5.392116175
 21
5.3236571728
  0
LINE
  5
27D
100
AcDbEntity
  8
ALL_ASSEMBLY_MEMBERS
100
AcDbLine
 62
7
  6
CONTINUOUS
 10
5.4136040621
 20
5.4373483219
 11
5.3932224841
 21
5.3297300757
  0
LINE
  5
27E
100
AcDbEntity
  8
ALL_ASSEMBLY_MEMBERS
100
AcDbLine
 62
7
  6
CONTINUOUS
 10
5.3709262729
 20
5.2120022369
 11
5.3556040621
 21
5.1310983219
  0
LINE
  5
27F
100
AcDbEntity
  8
ALL_ASSEMBLY_MEMBERS
100
AcDbLine
 62
7
  6
CONTINUOUS
 10
5.3719964898
 20
5.2174074844
 11
5.3709262729
 21
5.2120022369
  0
LINE
  5
280
100
AcDbEntity
  8
ALL_ASSEMBLY_MEMBERS
100
AcDbLine
 62
7
  6
CONTINUOUS
 10
5.3852112131
 20
5.1320235052
 11
5.3898793547
 21
5.150906189
  0
LINE
  5
281
100
AcDbEntity
  8
ALL_ASSEMBLY_MEMBERS
100
AcDbLine
 62
7
  6
CONTINUOUS
 10
4.1451434322
 20
4.7635983219
 11
4.0471434322
 21
4.7635983219
  0
LINE
  5
282
100
AcDbEntity
  8
ALL_ASSEMBLY_MEMBERS
100
AcDbLine
 62
7
  6
CONTINUOUS
 10
5.3738628534
 20
4.7072017798
 11
5.3782262456
 21
4.7069878987
  0
LINE
  5
283
100
AcDbEntity
  8
ALL_ASSEMBLY_MEMBERS
100
AcDbLine
 62
7
  6
CONTINUOUS
 10
5.3764437242
 20
4.7119643048
 11
5.3808404548
 21
4.7117487896
  0
LINE
  5
284
100
AcDbEntity
  8
ALL_ASSEMBLY_MEMBERS
100
AcDbLine
 62
7
  6
CONTINUOUS
 10
5.3781242013
 20
4.7131358689
 11
5.3825083369
 21
4.712920971
  0
LINE
  5
285
100
AcDbEntity
  8
ALL_ASSEMBLY_MEMBERS
100
AcDbLine
 62
7
  6
CONTINUOUS
 10
5.3906702343
 20
4.7221220645
 11
5.3937865521
 21
4.7219693115
  0
LINE
  5
286
100
AcDbEntity
  8
ALL_ASSEMBLY_MEMBERS
100
AcDbLine
 62
7
  6
CONTINUOUS
 10
5.3824106837
 20
4.7294070023
 11
5.3861619417
 21
4.7292231263
  0
LINE
  5
287
100
AcDbEntity
  8
ALL_ASSEMBLY_MEMBERS
100
AcDbLine
 62
7
  6
CONTINUOUS
 10
5.371033927
 20
4.736648532
 11
5.3730604109
 21
4.7365491995
  0
LINE
  5
288
100
AcDbEntity
  8
ALL_ASSEMBLY_MEMBERS
100
AcDbLine
 62
7
  6
CONTINUOUS
 10
5.3714872717
 20
4.7531386908
 11
5.3743323186
 21
4.7529992347
  0
LINE
  5
289
100
AcDbEntity
  8
ALL_ASSEMBLY_MEMBERS
100
AcDbLine
 62
7
  6
CONTINUOUS
 10
5.3901833688
 20
4.7581649867
 11
5.3927440102
 21
4.7580394713
  0
LINE
  5
28A
100
AcDbEntity
  8
ALL_ASSEMBLY_MEMBERS
100
AcDbLine
 62
7
  6
CONTINUOUS
 10
5.3556040621
 20
5.1310983219
 11
5.3556040621
 21
4.0810983219
  0
LINE
  5
28B
100
AcDbEntity
  8
ALL_ASSEMBLY_MEMBERS
100
AcDbLine
 62
7
  6
CONTINUOUS
 10
5.3808309679
 20
4.4979628742
 11
5.3808309679
 21
4.4903135784
  0
LINE
  5
28C
100
AcDbEntity
  8
ALL_ASSEMBLY_MEMBERS
100
AcDbLine
 62
7
  6
CONTINUOUS
 10
4.5405507063
 20
4.8828946349
 11
4.5401434322
 21
4.8828155541
  0
LINE
  5
28D
100
AcDbEntity
  8
ALL_ASSEMBLY_MEMBERS
100
AcDbLine
 62
7
  6
CONTINUOUS
 10
4.0221434322
 20
4.8028483219
 11
4.0176434322
 21
4.8028483219
  0
LINE
  5
28E
100
AcDbEntity
  8
ALL_ASSEMBLY_MEMBERS
100
AcDbLine
 62
7
  6
CONTINUOUS
 10
3.8796434322
 20
4.8028483219
 11
3.8751434322
 21
4.8028483219
  0
LINE
  5
28F
100
AcDbEntity
  8
ALL_ASSEMBLY_MEMBERS
100
AcDbLine
 62
7
  6
CONTINUOUS
 10
3.9726434322
 20
4.8520983219
 11
3.9246434322
 21
4.8520983219
  0
LINE
  5
290
100
AcDbEntity
  8
ALL_ASSEMBLY_MEMBERS
100
AcDbLine
 62
7
  6
CONTINUOUS
 10
5.3876024111
 20
4.7613596618
 11
5.392432163
 21
4.761122921
  0
LINE
  5
291
100
AcDbEntity
  8
ALL_ASSEMBLY_MEMBERS
100
AcDbLine
 62
7
  6
CONTINUOUS
 10
5.3725888294
 20
4.7812184768
 11
5.3774602448
 21
4.7809796939
  0
LINE
  5
292
100
AcDbEntity
  8
ALL_ASSEMBLY_MEMBERS
100
AcDbLine
 62
7
  6
CONTINUOUS
 10
5.374452856
 20
4.7888287002
 11
5.3792950555
 21
4.7885913494
  0
LINE
  5
293
100
AcDbEntity
  8
ALL_ASSEMBLY_MEMBERS
100
AcDbLine
 62
7
  6
CONTINUOUS
 10
5.3755666379
 20
4.7896359723
 11
5.3804141753
 21
4.7893983598
  0
LINE
  5
294
100
AcDbEntity
  8
ALL_ASSEMBLY_MEMBERS
100
AcDbLine
 62
7
  6
CONTINUOUS
 10
5.3786463539
 20
4.8010926926
 11
5.3820631677
 21
4.8009252101
  0
LINE
  5
295
100
AcDbEntity
  8
ALL_ASSEMBLY_MEMBERS
100
AcDbLine
 62
7
  6
CONTINUOUS
 10
5.3711971345
 20
4.8041357147
 11
5.3723795988
 21
4.8040777537
  0
LINE
  5
296
100
AcDbEntity
  8
ALL_ASSEMBLY_MEMBERS
100
AcDbLine
 62
7
  6
CONTINUOUS
 10
5.387555434
 20
4.809787698
 11
5.39238494
 21
4.8095509693
  0
LINE
  5
297
100
AcDbEntity
  8
ALL_ASSEMBLY_MEMBERS
100
AcDbLine
 62
7
  6
CONTINUOUS
 10
5.3888462723
 20
4.8106883685
 11
5.3924320765
 21
4.8105126026
  0
LINE
  5
298
100
AcDbEntity
  8
ALL_ASSEMBLY_MEMBERS
100
AcDbLine
 62
7
  6
CONTINUOUS
 10
5.3834529954
 20
4.8122142715
 11
5.3859573213
 21
4.8120915165
  0
LINE
  5
299
100
AcDbEntity
  8
ALL_ASSEMBLY_MEMBERS
100
AcDbLine
 62
7
  6
CONTINUOUS
 10
5.3912555613
 20
4.818881611
 11
5.3928561382
 21
4.8188031552
  0
LINE
  5
29A
100
AcDbEntity
  8
ALL_ASSEMBLY_MEMBERS
100
AcDbLine
 62
7
  6
CONTINUOUS
 10
5.3815932602
 20
4.8227558329
 11
5.3845096001
 21
4.8226128822
  0
LINE
  5
29B
100
AcDbEntity
  8
ALL_ASSEMBLY_MEMBERS
100
AcDbLine
 62
7
  6
CONTINUOUS
 10
5.3731171255
 20
4.8299220468
 11
5.3759898998
 21
4.8297812316
  0
LINE
  5
29C
100
AcDbEntity
  8
ALL_ASSEMBLY_MEMBERS
100
AcDbLine
 62
7
  6
CONTINUOUS
 10
5.3825497191
 20
4.8297887984
 11
5.3856354611
 21
4.8296375441
  0
LINE
  5
29D
100
AcDbEntity
  8
ALL_ASSEMBLY_MEMBERS
100
AcDbLine
 62
7
  6
CONTINUOUS
 10
5.3826679654
 20
4.8326081469
 11
5.3783143152
 21
4.8328215504
  0
LINE
  5
29E
100
AcDbEntity
  8
ALL_ASSEMBLY_MEMBERS
100
AcDbLine
 62
7
  6
CONTINUOUS
 10
5.3922992605
 20
4.8330344595
 11
5.3933891252
 21
4.8329810375
  0
LINE
  5
29F
100
AcDbEntity
  8
ALL_ASSEMBLY_MEMBERS
100
AcDbLine
 62
7
  6
CONTINUOUS
 10
5.3915559256
 20
4.844199707
 11
5.3933507812
 21
4.8441117283
  0
LINE
  5
2A0
100
AcDbEntity
  8
ALL_ASSEMBLY_MEMBERS
100
AcDbLine
 62
7
  6
CONTINUOUS
 10
5.377174004
 20
4.8449795763
 11
5.3802535969
 21
4.8448286234
  0
LINE
  5
2A1
100
AcDbEntity
  8
ALL_ASSEMBLY_MEMBERS
100
AcDbLine
 62
7
  6
CONTINUOUS
 10
5.3932321139
 20
4.846720793
 11
5.3902360315
 21
4.8468676524
  0
LINE
  5
2A2
100
AcDbEntity
  8
ALL_ASSEMBLY_MEMBERS
100
AcDbLine
 62
7
  6
CONTINUOUS
 10
5.3860381708
 20
4.8512702914
 11
5.3902754887
 21
4.8510625901
  0
LINE
  5
2A3
100
AcDbEntity
  8
ALL_ASSEMBLY_MEMBERS
100
AcDbLine
 62
7
  6
CONTINUOUS
 10
5.3886397451
 20
4.8581561109
 11
5.3912553673
 21
4.8580279006
  0
LINE
  5
2A4
100
AcDbEntity
  8
ALL_ASSEMBLY_MEMBERS
100
AcDbLine
 62
7
  6
CONTINUOUS
 10
5.3805601901
 20
4.4859010622
 11
5.3759239426
 21
4.4901522018
  0
LINE
  5
2A5
100
AcDbEntity
  8
ALL_ASSEMBLY_MEMBERS
100
AcDbLine
 62
7
  6
CONTINUOUS
 10
5.3808309679
 20
4.4903135784
 11
5.3898747045
 21
4.4820214458
  0
LINE
  5
2A6
100
AcDbEntity
  8
ALL_ASSEMBLY_MEMBERS
100
AcDbLine
 62
7
  6
CONTINUOUS
 10
5.3881069934
 20
4.2190089215
 11
5.3928855385
 21
4.1975349485
  0
LINE
  5
2A7
100
AcDbEntity
  8
ALL_ASSEMBLY_MEMBERS
100
AcDbLine
 62
7
  6
CONTINUOUS
 10
5.3836098974
 20
4.2491739395
 11
5.3901193621
 21
4.2194552748
  0
LINE
  5
2A8
100
AcDbEntity
  8
ALL_ASSEMBLY_MEMBERS
100
AcDbLine
 62
7
  6
CONTINUOUS
 10
5.3724547946
 20
3.9921525489
 11
5.3724258353
 21
3.9922932138
  0
LINE
  5
2A9
100
AcDbEntity
  8
ALL_ASSEMBLY_MEMBERS
100
AcDbLine
 62
7
  6
CONTINUOUS
 10
5.3888343899
 20
4.1880154066
 11
5.3929993258
 21
4.1669325954
  0
LINE
  5
2AA
100
AcDbEntity
  8
ALL_ASSEMBLY_MEMBERS
100
AcDbLine
 62
7
  6
CONTINUOUS
 10
5.3846716215
 20
4.2092226599
 11
5.387389459
 21
4.1953604852
  0
LINE
  5
2AB
100
AcDbEntity
  8
ALL_ASSEMBLY_MEMBERS
100
AcDbLine
 62
7
  6
CONTINUOUS
 10
5.3924136909
 20
3.8867514318
 11
5.4136040621
 21
3.7748483219
  0
LINE
  5
2AC
100
AcDbEntity
  8
ALL_ASSEMBLY_MEMBERS
100
AcDbLine
 62
7
  6
CONTINUOUS
 10
5.3556040621
 20
4.0810983219
 11
5.3724258353
 21
3.9922932138
  0
LINE
  5
2AD
100
AcDbEntity
  8
ALL_ASSEMBLY_MEMBERS
100
AcDbLine
 62
7
  6
CONTINUOUS
 10
5.37596319
 20
3.9739014031
 11
5.3889759487
 21
3.9051621124
  0
LINE
  5
2AE
100
AcDbEntity
  8
ALL_ASSEMBLY_MEMBERS
100
AcDbLine
 62
7
  6
CONTINUOUS
 10
5.3871278238
 20
3.9156764736
 11
5.3891113465
 21
3.9051877551
  0
LINE
  5
2AF
100
AcDbEntity
  8
ALL_ASSEMBLY_MEMBERS
100
AcDbLine
 62
7
  6
CONTINUOUS
 10
5.3831813458
 20
3.936546584
 11
5.3841653941
 21
3.9313424722
  0
LINE
  5
2B0
100
AcDbEntity
  8
ALL_ASSEMBLY_MEMBERS
100
AcDbLine
 62
7
  6
CONTINUOUS
 10
5.3776304833
 20
3.9659046714
 11
5.3817769913
 21
3.9439737009
  0
LINE
  5
2B1
100
AcDbEntity
  8
ALL_ASSEMBLY_MEMBERS
100
AcDbLine
 62
7
  6
CONTINUOUS
 10
5.3743347776
 20
3.9833375719
 11
5.3751569092
 21
3.9789886823
  0
LINE
  5
2B2
100
AcDbEntity
  8
ALL_ASSEMBLY_MEMBERS
100
AcDbLine
 62
7
  6
CONTINUOUS
 10
5.3924136909
 20
3.8867514318
 11
5.3922398308
 21
3.887747354
  0
LINE
  5
2B3
100
AcDbEntity
  8
ALL_ASSEMBLY_MEMBERS
100
AcDbLine
 62
7
  6
CONTINUOUS
 10
5.3924136909
 20
3.8867514318
 11
5.3924010039
 21
3.8868274238
  0
LINE
  5
2B4
100
AcDbEntity
  8
ALL_ASSEMBLY_MEMBERS
100
AcDbLine
 62
7
  6
CONTINUOUS
 10
5.390564394
 20
4.7281264616
 11
5.3906702343
 21
4.7221220645
  0
LINE
  5
2B5
100
AcDbEntity
  8
ALL_ASSEMBLY_MEMBERS
100
AcDbLine
 62
7
  6
CONTINUOUS
 10
5.3903060405
 20
4.1642948861
 11
5.3903822693
 21
4.1592115089
  0
LINE
  5
2B6
100
AcDbEntity
  8
ALL_ASSEMBLY_MEMBERS
100
AcDbLine
 62
7
  6
CONTINUOUS
 10
5.3901833688
 20
4.7581649867
 11
5.390239733
 21
4.7521550794
  0
LINE
  5
2B7
100
AcDbEntity
  8
ALL_ASSEMBLY_MEMBERS
100
AcDbLine
 62
7
  6
CONTINUOUS
 10
5.4136040621
 20
5.4373483219
 11
5.4136040621
 21
3.7748483219
  0
LINE
  5
2B8
100
AcDbEntity
  8
ALL_ASSEMBLY_MEMBERS
100
AcDbLine
 62
7
  6
CONTINUOUS
 10
5.4186040621
 20
5.4773483219
 11
5.4186040621
 21
3.7348483219
  0
LINE
  5
2B9
100
AcDbEntity
  8
ALL_ASSEMBLY_MEMBERS
100
AcDbLine
 62
7
  6
CONTINUOUS
 10
5.4586040621
 20
2.9810983219
 11
5.4586040621
 21
6.2310983219
  0
LINE
  5
2BA
100
AcDbEntity
  8
ALL_ASSEMBLY_MEMBERS
100
AcDbLine
 62
7
  6
CONTINUOUS
 10
5.5151040621
 20
2.9185983219
 11
5.5151040621
 21
6.2935983219
  0
LINE
  5
2BB
100
AcDbEntity
  8
ALL_ASSEMBLY_MEMBERS
100
AcDbLine
 62
7
  6
CONTINUOUS
 10
5.3904715294
 20
4.2474251569
 11
5.3903920723
 21
4.242761918
  0
LINE
  5
2BC
100
AcDbEntity
  8
ALL_ASSEMBLY_MEMBERS
100
AcDbLine
 62
7
  6
CONTINUOUS
 10
4.6988934322
 20
5.0142858219
 11
4.5463934322
 21
5.0142858219
  0
LINE
  5
2BD
100
AcDbEntity
  8
ALL_ASSEMBLY_MEMBERS
100
AcDbLine
 62
7
  6
CONTINUOUS
 10
4.8681434322
 20
5.0660983219
 11
4.8976434322
 21
5.0660983219
  0
LINE
  5
2BE
100
AcDbEntity
  8
ALL_ASSEMBLY_MEMBERS
100
AcDbLine
 62
7
  6
CONTINUOUS
 10
5.3915751007
 20
4.7648301856
 11
5.3929993258
 21
4.7632481705
  0
LINE
  5
2BF
100
AcDbEntity
  8
ALL_ASSEMBLY_MEMBERS
100
AcDbLine
 62
7
  6
CONTINUOUS
 10
5.3897496445
 20
4.7587009807
 11
5.3901833688
 21
4.7581649867
  0
LINE
  5
2C0
100
AcDbEntity
  8
ALL_ASSEMBLY_MEMBERS
100
AcDbLine
 62
7
  6
CONTINUOUS
 10
5.392432163
 20
4.761122921
 11
5.3930253519
 21
4.7603749734
  0
LINE
  5
2C1
100
AcDbEntity
  8
ALL_ASSEMBLY_MEMBERS
100
AcDbLine
 62
7
  6
CONTINUOUS
 10
5.6301040621
 20
2.9185983219
 11
5.6301040621
 21
6.2935983219
  0
LINE
  5
2C2
100
AcDbEntity
  8
ALL_ASSEMBLY_MEMBERS
100
AcDbLine
 62
7
  6
CONTINUOUS
 10
5.330153153
 20
5.0985983218
 11
5.3297771516
 21
5.0985910204
  0
LINE
  5
2C3
100
AcDbEntity
  8
ALL_ASSEMBLY_MEMBERS
100
AcDbLine
 62
7
  6
CONTINUOUS
 10
5.329782292
 20
5.098591138
 11
5.330153153
 21
5.0985983218
  0
LINE
  5
2C4
100
AcDbEntity
  8
ALL_ASSEMBLY_MEMBERS
100
AcDbLine
 62
7
  6
CONTINUOUS
 10
4.9276434322
 20
5.0960983219
 11
5.1851434322
 21
5.0960983219
  0
LINE
  5
2C5
100
AcDbEntity
  8
ALL_ASSEMBLY_MEMBERS
100
AcDbLine
 62
7
  6
CONTINUOUS
 10
5.3201434322
 20
5.098496799
 11
5.2401434322
 21
5.098496799
  0
LINE
  5
2C6
100
AcDbEntity
  8
ALL_ASSEMBLY_MEMBERS
100
AcDbLine
 62
7
  6
CONTINUOUS
 10
5.1851434322
 20
5.0985983219
 11
5.2301434322
 21
5.0985983219
  0
LINE
  5
2C7
100
AcDbEntity
  8
ALL_ASSEMBLY_MEMBERS
100
AcDbLine
 62
7
  6
CONTINUOUS
 10
5.3301434322
 20
5.0985983219
 11
5.3556040621
 21
5.0985983219
  0
LINE
  5
2C8
100
AcDbEntity
  8
ALL_ASSEMBLY_MEMBERS
100
AcDbLine
 62
7
  6
CONTINUOUS
 10
4.5601434322
 20
5.1142858219
 11
4.6851434322
 21
5.1142858219
  0
LINE
  5
2C9
100
AcDbEntity
  8
ALL_ASSEMBLY_MEMBERS
100
AcDbLine
 62
7
  6
CONTINUOUS
 10
4.5801441703
 20
5.1342858219
 11
4.6651426941
 21
5.1342858219
  0
LINE
  5
2CA
100
AcDbEntity
  8
ALL_ASSEMBLY_MEMBERS
100
AcDbLine
 62
7
  6
CONTINUOUS
 10
5.2301337164
 20
5.0985983219
 11
5.2305033787
 21
5.0985911612
  0
LINE
  5
2CB
100
AcDbEntity
  8
ALL_ASSEMBLY_MEMBERS
100
AcDbLine
 62
7
  6
CONTINUOUS
 10
5.2305084759
 20
5.0985910445
 11
5.2301337143
 21
5.0985983218
  0
LINE
  5
2CC
100
AcDbEntity
  8
ALL_ASSEMBLY_MEMBERS
100
AcDbLine
 62
7
  6
CONTINUOUS
 10
5.3759239426
 20
5.0944562161
 11
5.3778415121
 21
5.0941780162
  0
LINE
  5
2CD
100
AcDbEntity
  8
ALL_ASSEMBLY_MEMBERS
100
AcDbLine
 62
7
  6
CONTINUOUS
 10
5.4186040621
 20
5.4373483219
 11
5.4136040621
 21
5.4373483219
  0
LINE
  5
2CE
100
AcDbEntity
  8
ALL_ASSEMBLY_MEMBERS
100
AcDbLine
 62
7
  6
CONTINUOUS
 10
5.4586040621
 20
5.4773483219
 11
5.4186040621
 21
5.4773483219
  0
LINE
  5
2CF
100
AcDbEntity
  8
ALL_ASSEMBLY_MEMBERS
100
AcDbLine
 62
7
  6
CONTINUOUS
 10
5.4586040621
 20
5.8360983219
 11
5.6301040621
 21
5.8360983219
  0
LINE
  5
2D0
100
AcDbEntity
  8
ALL_ASSEMBLY_MEMBERS
100
AcDbLine
 62
7
  6
CONTINUOUS
 10
5.5151040621
 20
5.9810983219
 11
5.4586040621
 21
5.9810983219
  0
LINE
  5
2D1
100
AcDbEntity
  8
ALL_ASSEMBLY_MEMBERS
100
AcDbLine
 62
7
  6
CONTINUOUS
 10
5.5151040621
 20
6.0435983219
 11
5.6301040621
 21
6.0435983219
  0
LINE
  5
2D2
100
AcDbEntity
  8
ALL_ASSEMBLY_MEMBERS
100
AcDbLine
 62
7
  6
CONTINUOUS
 10
5.6301040621
 20
6.0635983219
 11
5.4586040621
 21
6.0635983219
  0
LINE
  5
2D3
100
AcDbEntity
  8
ALL_ASSEMBLY_MEMBERS
100
AcDbLine
 62
7
  6
CONTINUOUS
 10
5.4586040621
 20
6.0860983219
 11
5.6301040621
 21
6.0860983219
  0
LINE
  5
2D4
100
AcDbEntity
  8
ALL_ASSEMBLY_MEMBERS
100
AcDbLine
 62
7
  6
CONTINUOUS
 10
5.5151040621
 20
6.2310983219
 11
5.4586040621
 21
6.2310983219
  0
LINE
  5
2D5
100
AcDbEntity
  8
ALL_ASSEMBLY_MEMBERS
100
AcDbLine
 62
7
  6
CONTINUOUS
 10
5.5151040621
 20
6.2935983219
 11
5.6301040621
 21
6.2935983219
  0
ARC
  5
2D6
100
AcDbEntity
  8
ALL_ASSEMBLY_MEMBERS
100
AcDbCircle
 62
7
  6
CONTINUOUS
 10
3.02455011
 20
3.535156619
 40
2.3919842352
100
AcDbArc
 50
10.7689854665
 51
10.9186429243
  0
ARC
  5
2D7
100
AcDbEntity
  8
ALL_ASSEMBLY_MEMBERS
100
AcDbCircle
 62
7
  6
CONTINUOUS
 10
0.7504914687
 20
4.1751048264
 40
3.1491519613
100
AcDbArc
 50
359.299517991
 51
359.9966063536
  0
ARC
  5
2D8
100
AcDbEntity
  8
ALL_ASSEMBLY_MEMBERS
100
AcDbCircle
 62
7
  6
CONTINUOUS
 10
0.8949676642
 20
4.1706474503
 40
3.0295982324
100
AcDbArc
 50
344.0249271703
 51
352.660064947
  0
ARC
  5
2D9
100
AcDbEntity
  8
ALL_ASSEMBLY_MEMBERS
100
AcDbCircle
 62
7
  6
CONTINUOUS
 10
0.8929090206
 20
4.1694735528
 40
3.0071030239
100
AcDbArc
 50
344.0598226853
 51
352.6900948614
  0
ARC
  5
2DA
100
AcDbEntity
  8
ALL_ASSEMBLY_MEMBERS
100
AcDbCircle
 62
7
  6
CONTINUOUS
 10
0.8912330242
 20
4.1684550095
 40
2.9891367714
100
AcDbArc
 50
344.0882010191
 51
352.7144455656
  0
ARC
  5
2DB
100
AcDbEntity
  8
ALL_ASSEMBLY_MEMBERS
100
AcDbCircle
 62
7
  6
CONTINUOUS
 10
0.8974747691
 20
4.1700433994
 40
2.9776652738
100
AcDbArc
 50
344.0133817112
 51
354.8565783336
  0
ARC
  5
2DC
100
AcDbEntity
  8
ALL_ASSEMBLY_MEMBERS
100
AcDbCircle
 62
7
  6
CONTINUOUS
 10
0.8947073114
 20
4.1702942775
 40
2.9554361296
100
AcDbArc
 50
354.8582638414
 51
0.0044277344
  0
ARC
  5
2DD
100
AcDbEntity
  8
ALL_ASSEMBLY_MEMBERS
100
AcDbCircle
 62
7
  6
CONTINUOUS
 10
0.8974706364
 20
4.1701330489
 40
2.9526694761
100
AcDbArc
 50
344.9175243506
 51
354.8565742927
  0
ARC
  5
2DE
100
AcDbEntity
  8
ALL_ASSEMBLY_MEMBERS
100
AcDbCircle
 62
7
  6
CONTINUOUS
 10
0.8977050502
 20
4.1700670126
 40
2.9524259541
100
AcDbArc
 50
344.0133722177
 51
344.9175780062
  0
ARC
  5
2DF
100
AcDbEntity
  8
ALL_ASSEMBLY_MEMBERS
100
AcDbCircle
 62
7
  6
CONTINUOUS
 10
0.931038342
 20
4.1685692964
 40
2.9441050988
100
AcDbArc
 50
354.8265929727
 51
0.0043668203
  0
ARC
  5
2E0
100
AcDbEntity
  8
ALL_ASSEMBLY_MEMBERS
100
AcDbCircle
 62
7
  6
CONTINUOUS
 10
4.1021933293
 20
3.4470972875
 40
0.985
100
AcDbArc
 50
56.0599622452
 51
85.1692117801
  0
ARC
  5
2E1
100
AcDbEntity
  8
ALL_ASSEMBLY_MEMBERS
100
AcDbCircle
 62
7
  6
CONTINUOUS
 10
4.1021933293
 20
3.4470972875
 40
0.985
100
AcDbArc
 50
43.5249964731
 51
48.9656192099
  0
ARC
  5
2E2
100
AcDbEntity
  8
ALL_ASSEMBLY_MEMBERS
100
AcDbCircle
 62
7
  6
CONTINUOUS
 10
3.8308206578
 20
3.3297633195
 40
0.0986850859
100
AcDbArc
 50
166.6861113619
 51
169.3515176122
  0
ARC
  5
2E3
100
AcDbEntity
  8
ALL_ASSEMBLY_MEMBERS
100
AcDbCircle
 62
7
  6
CONTINUOUS
 10
4.0664662382
 20
3.3297633268
 40
0.0986850534
100
AcDbArc
 50
10.64849397
 51
13.3138960662
  0
ARC
  5
2E4
100
AcDbEntity
  8
ALL_ASSEMBLY_MEMBERS
100
AcDbCircle
 62
7
  6
CONTINUOUS
 10
4.0666119925
 20
3.3299377898
 40
0.0986436199
100
AcDbArc
 50
282.5346979495
 51
287.5890858515
  0
ARC
  5
2E5
100
AcDbEntity
  8
ALL_ASSEMBLY_MEMBERS
100
AcDbCircle
 62
7
  6
CONTINUOUS
 10
3.8306748686
 20
3.3299377744
 40
0.0986436043
100
AcDbArc
 50
252.4109400696
 51
257.4653092275
  0
ARC
  5
2E6
100
AcDbEntity
  8
ALL_ASSEMBLY_MEMBERS
100
AcDbCircle
 62
7
  6
CONTINUOUS
 10
3.8307126041
 20
3.3298058201
 40
0.0985734736
100
AcDbArc
 50
182.0820672428
 51
182.7049334323
  0
ARC
  5
2E7
100
AcDbEntity
  8
ALL_ASSEMBLY_MEMBERS
100
AcDbCircle
 62
7
  6
CONTINUOUS
 10
4.0665742644
 20
3.3298058198
 40
0.0985734695
100
AcDbArc
 50
357.295076288
 51
357.9179391319
  0
ARC
  5
2E8
100
AcDbEntity
  8
ALL_ASSEMBLY_MEMBERS
100
AcDbCircle
 62
7
  6
CONTINUOUS
 10
4.0666102942
 20
3.3297987235
 40
0.0985374552
100
AcDbArc
 50
2.6365234377
 51
5.3054297971
  0
ARC
  5
2E9
100
AcDbEntity
  8
ALL_ASSEMBLY_MEMBERS
100
AcDbCircle
 62
7
  6
CONTINUOUS
 10
3.8306765611
 20
3.3297987243
 40
0.0985374461
100
AcDbArc
 50
174.6945847976
 51
177.3634886373
  0
ARC
  5
2EA
100
AcDbEntity
  8
ALL_ASSEMBLY_MEMBERS
100
AcDbCircle
 62
7
  6
CONTINUOUS
 10
4.0666320082
 20
3.3297936664
 40
0.0985165319
100
AcDbArc
 50
7.9791392389
 51
10.648967583
  0
ARC
  5
2EB
100
AcDbEntity
  8
ALL_ASSEMBLY_MEMBERS
100
AcDbCircle
 62
7
  6
CONTINUOUS
 10
3.8306548514
 20
3.3297936659
 40
0.0985165273
100
AcDbArc
 50
169.3510439975
 51
172.0208752366
  0
ARC
  5
2EC
100
AcDbEntity
  8
ALL_ASSEMBLY_MEMBERS
100
AcDbCircle
 62
7
  6
CONTINUOUS
 10
4.0666454842
 20
3.3297997849
 40
0.0985020512
100
AcDbArc
 50
287.5947731363
 51
357.2966277215
  0
ARC
  5
2ED
100
AcDbEntity
  8
ALL_ASSEMBLY_MEMBERS
100
AcDbCircle
 62
7
  6
CONTINUOUS
 10
3.8306410257
 20
3.3297996202
 40
0.0985016825
100
AcDbArc
 50
182.70329601
 51
252.4054212467
  0
ARC
  5
2EE
100
AcDbEntity
  8
ALL_ASSEMBLY_MEMBERS
100
AcDbCircle
 62
7
  6
CONTINUOUS
 10
3.8306391765
 20
3.3297787614
 40
0.0985
100
AcDbArc
 50
180.0
 51
260.138397614
  0
ARC
  5
2EF
100
AcDbEntity
  8
ALL_ASSEMBLY_MEMBERS
100
AcDbCircle
 62
7
  6
CONTINUOUS
 10
4.0666476878
 20
3.3297787614
 40
0.0985
100
AcDbArc
 50
279.861602386
 51
360.0
  0
ARC
  5
2F0
100
AcDbEntity
  8
ALL_ASSEMBLY_MEMBERS
100
AcDbCircle
 62
7
  6
CONTINUOUS
 10
3.830623297
 20
3.3298108699
 40
0.0984820793
100
AcDbArc
 50
164.0155461179
 51
166.6865902023
  0
ARC
  5
2F1
100
AcDbEntity
  8
ALL_ASSEMBLY_MEMBERS
100
AcDbCircle
 62
7
  6
CONTINUOUS
 10
4.0666636332
 20
3.3298108853
 40
0.0984820118
100
AcDbArc
 50
13.3134172319
 51
15.9844558342
  0
ARC
  5
2F2
100
AcDbEntity
  8
ALL_ASSEMBLY_MEMBERS
100
AcDbCircle
 62
7
  6
CONTINUOUS
 10
3.8306174466
 20
3.3298014004
 40
0.0984782711
100
AcDbArc
 50
177.3634619407
 51
182.0822890741
  0
ARC
  5
2F3
100
AcDbEntity
  8
ALL_ASSEMBLY_MEMBERS
100
AcDbCircle
 62
7
  6
CONTINUOUS
 10
4.0666694191
 20
3.3298014001
 40
0.0984782698
100
AcDbArc
 50
357.9177172987
 51
2.6365501356
  0
ARC
  5
2F4
100
AcDbEntity
  8
ALL_ASSEMBLY_MEMBERS
100
AcDbCircle
 62
7
  6
CONTINUOUS
 10
4.0666472873
 20
3.3297736848
 40
0.0984757663
100
AcDbArc
 50
279.8642899961
 51
282.535374171
  0
ARC
  5
2F5
100
AcDbEntity
  8
ALL_ASSEMBLY_MEMBERS
100
AcDbCircle
 62
7
  6
CONTINUOUS
 10
3.8306395621
 20
3.3297736188
 40
0.0984756987
100
AcDbArc
 50
257.4646332309
 51
260.135711959
  0
ARC
  5
2F6
100
AcDbEntity
  8
ALL_ASSEMBLY_MEMBERS
100
AcDbCircle
 62
7
  6
CONTINUOUS
 10
4.0667234506
 20
3.3298092795
 40
0.0984238075
100
AcDbArc
 50
5.305401945
 51
7.9775275283
  0
ARC
  5
2F7
100
AcDbEntity
  8
ALL_ASSEMBLY_MEMBERS
100
AcDbCircle
 62
7
  6
CONTINUOUS
 10
3.8305633951
 20
3.3298092812
 40
0.0984237888
100
AcDbArc
 50
172.0224870541
 51
174.6946126488
  0
ARC
  5
2F8
100
AcDbEntity
  8
ALL_ASSEMBLY_MEMBERS
100
AcDbCircle
 62
7
  6
CONTINUOUS
 10
4.0666451019
 20
3.3297111311
 40
0.0735026157
100
AcDbArc
 50
279.8633183105
 51
15.9877426698
  0
ARC
  5
2F9
100
AcDbEntity
  8
ALL_ASSEMBLY_MEMBERS
100
AcDbCircle
 62
7
  6
CONTINUOUS
 10
3.8306417599
 20
3.3297111315
 40
0.0735026157
100
AcDbArc
 50
164.0122571193
 51
260.1366836713
  0
ARC
  5
2FA
100
AcDbEntity
  8
ALL_ASSEMBLY_MEMBERS
100
AcDbCircle
 62
7
  6
CONTINUOUS
 10
4.0666301871
 20
3.3304740854
 40
0.0673997878
100
AcDbArc
 50
279.867554866
 51
15.9191521636
  0
ARC
  5
2FB
100
AcDbEntity
  8
ALL_ASSEMBLY_MEMBERS
100
AcDbCircle
 62
7
  6
CONTINUOUS
 10
3.8306566029
 20
3.3304741788
 40
0.0673997763
100
AcDbArc
 50
164.0804156915
 51
260.1320266908
  0
ARC
  5
2FC
100
AcDbEntity
  8
ALL_ASSEMBLY_MEMBERS
100
AcDbCircle
 62
7
  6
CONTINUOUS
 10
3.8306562691
 20
3.3304094144
 40
0.0481185306
100
AcDbArc
 50
164.063038074
 51
260.126304912
  0
ARC
  5
2FD
100
AcDbEntity
  8
ALL_ASSEMBLY_MEMBERS
100
AcDbCircle
 62
7
  6
CONTINUOUS
 10
4.0666306128
 20
3.3304094443
 40
0.04811853
100
AcDbArc
 50
279.8736682291
 51
15.9369331509
  0
ARC
  5
2FE
100
AcDbEntity
  8
ALL_ASSEMBLY_MEMBERS
100
AcDbCircle
 62
7
  6
CONTINUOUS
 10
3.8306563725
 20
3.3302254223
 40
0.0240177896
100
AcDbArc
 50
164.0045527678
 51
260.1036482003
  0
ARC
  5
2FF
100
AcDbEntity
  8
ALL_ASSEMBLY_MEMBERS
100
AcDbCircle
 62
7
  6
CONTINUOUS
 10
4.0666305074
 20
3.3302254628
 40
0.0240177895
100
AcDbArc
 50
279.8962987554
 51
15.9953647089
  0
ARC
  5
300
100
AcDbEntity
  8
ALL_ASSEMBLY_MEMBERS
100
AcDbCircle
 62
7
  6
CONTINUOUS
 10
4.3241144522
 20
3.7193804547
 40
1.0816897619
100
AcDbArc
 50
10.7290216512
 51
11.3280237525
  0
ARC
  5
301
100
AcDbEntity
  8
ALL_ASSEMBLY_MEMBERS
100
AcDbCircle
 62
7
  6
CONTINUOUS
 10
5.0607923746
 20
3.8286207199
 40
0.3366799297
100
AcDbArc
 50
10.1145509659
 51
10.5037831435
  0
ARC
  5
302
100
AcDbEntity
  8
ALL_ASSEMBLY_MEMBERS
100
AcDbCircle
 62
7
  6
CONTINUOUS
 10
3.9486434322
 20
4.0085983219
 40
0.7875
100
AcDbArc
 50
260.138397614
 51
279.861602386
  0
ARC
  5
303
100
AcDbEntity
  8
ALL_ASSEMBLY_MEMBERS
100
AcDbCircle
 62
7
  6
CONTINUOUS
 10
3.9486434322
 20
4.0085924994
 40
0.7874749628
100
AcDbArc
 50
260.138080938
 51
279.861919062
  0
ARC
  5
304
100
AcDbEntity
  8
ALL_ASSEMBLY_MEMBERS
100
AcDbCircle
 62
7
  6
CONTINUOUS
 10
3.9486434322
 20
4.0085035611
 40
0.7624752632
100
AcDbArc
 50
260.1380744796
 51
279.8619255204
  0
ARC
  5
305
100
AcDbEntity
  8
ALL_ASSEMBLY_MEMBERS
100
AcDbCircle
 62
7
  6
CONTINUOUS
 10
3.9486433154
 20
4.0095495537
 40
0.7566474285
100
AcDbArc
 50
260.1424565818
 51
279.8575168042
  0
ARC
  5
306
100
AcDbEntity
  8
ALL_ASSEMBLY_MEMBERS
100
AcDbCircle
 62
7
  6
CONTINUOUS
 10
3.9486434734
 20
4.0091414824
 40
0.7370281118
100
AcDbArc
 50
260.1377492122
 51
279.862244458
  0
ARC
  5
307
100
AcDbEntity
  8
ALL_ASSEMBLY_MEMBERS
100
AcDbCircle
 62
7
  6
CONTINUOUS
 10
3.9486434322
 20
4.0085218263
 40
0.7124982466
100
AcDbArc
 50
260.1313834316
 51
279.8686165684
  0
ARC
  5
308
100
AcDbEntity
  8
ALL_ASSEMBLY_MEMBERS
100
AcDbCircle
 62
7
  6
CONTINUOUS
 10
5.6954832577
 20
4.2473187409
 40
0.3248815897
100
AcDbArc
 50
188.1250639051
 51
188.8161181601
  0
ARC
  5
309
100
AcDbEntity
  8
ALL_ASSEMBLY_MEMBERS
100
AcDbCircle
 62
7
  6
CONTINUOUS
 10
5.6890292583
 20
4.246456623
 40
0.3183705346
100
AcDbArc
 50
186.6389426357
 51
188.1356292637
  0
ARC
  5
30A
100
AcDbEntity
  8
ALL_ASSEMBLY_MEMBERS
100
AcDbCircle
 62
7
  6
CONTINUOUS
 10
5.6654078376
 20
4.2436550417
 40
0.2945836167
100
AcDbArc
 50
185.8378445584
 51
186.6288543785
  0
ARC
  5
30B
100
AcDbEntity
  8
ALL_ASSEMBLY_MEMBERS
100
AcDbCircle
 62
7
  6
CONTINUOUS
 10
5.6576825621
 20
4.2414081328
 40
0.2866216192
100
AcDbArc
 50
188.8066635645
 51
189.5628633107
  0
ARC
  5
30C
100
AcDbEntity
  8
ALL_ASSEMBLY_MEMBERS
100
AcDbCircle
 62
7
  6
CONTINUOUS
 10
5.6496954863
 20
4.2420105441
 40
0.2787854888
100
AcDbArc
 50
184.9989257975
 51
185.8300734411
  0
ARC
  5
30D
100
AcDbEntity
  8
ALL_ASSEMBLY_MEMBERS
100
AcDbCircle
 62
7
  6
CONTINUOUS
 10
5.6286427377
 20
4.2402408868
 40
0.257658625
100
AcDbArc
 50
182.4464523976
 51
185.0148361371
  0
ARC
  5
30E
100
AcDbEntity
  8
ALL_ASSEMBLY_MEMBERS
100
AcDbCircle
 62
7
  6
CONTINUOUS
 10
5.6160493597
 20
4.2343367201
 40
0.2443921904
100
AcDbArc
 50
189.5495846931
 51
190.4050631548
  0
ARC
  5
30F
100
AcDbEntity
  8
ALL_ASSEMBLY_MEMBERS
100
AcDbCircle
 62
7
  6
CONTINUOUS
 10
5.6017255051
 20
4.2388623583
 40
0.2307071956
100
AcDbArc
 50
181.4990691504
 51
182.3897564794
  0
ARC
  5
310
100
AcDbEntity
  8
ALL_ASSEMBLY_MEMBERS
100
AcDbCircle
 62
7
  6
CONTINUOUS
 10
5.5943998146
 20
4.2385666951
 40
0.2233771788
100
AcDbArc
 50
180.3342724565
 51
180.5759480651
  0
ARC
  5
311
100
AcDbEntity
  8
ALL_ASSEMBLY_MEMBERS
100
AcDbCircle
 62
7
  6
CONTINUOUS
 10
5.5898881124
 20
4.2385409723
 40
0.2188654469
100
AcDbArc
 50
180.5810869694
 51
181.496032046
  0
ARC
  5
312
100
AcDbEntity
  8
ALL_ASSEMBLY_MEMBERS
100
AcDbCircle
 62
7
  6
CONTINUOUS
 10
5.5838645174
 20
4.2283974722
 40
0.2116639491
100
AcDbArc
 50
190.3972665685
 51
191.3549785377
  0
ARC
  5
313
100
AcDbEntity
  8
ALL_ASSEMBLY_MEMBERS
100
AcDbCircle
 62
7
  6
CONTINUOUS
 10
5.2340021295
 20
4.204310813
 40
0.1503428589
100
AcDbArc
 50
355.4207378679
 51
355.8198957519
  0
ARC
  5
314
100
AcDbEntity
  8
ALL_ASSEMBLY_MEMBERS
100
AcDbCircle
 62
7
  6
CONTINUOUS
 10
5.4430488407
 20
4.0001312419
 40
0.0706261931
100
AcDbArc
 50
189.7705067177
 51
190.0754227735
  0
ARC
  5
315
100
AcDbEntity
  8
ALL_ASSEMBLY_MEMBERS
100
AcDbCircle
 62
7
  6
CONTINUOUS
 10
5.3447520168
 20
4.2558477121
 40
0.045657133
100
AcDbArc
 50
4.4568299882
 51
5.4440302862
  0
ARC
  5
316
100
AcDbEntity
  8
ALL_ASSEMBLY_MEMBERS
100
AcDbCircle
 62
7
  6
CONTINUOUS
 10
4.9276434322
 20
4.1460983219
 40
0.03
100
AcDbArc
 50
180.0
 51
270.0
  0
ARC
  5
317
100
AcDbEntity
  8
ALL_ASSEMBLY_MEMBERS
100
AcDbCircle
 62
7
  6
CONTINUOUS
 10
4.8381434322
 20
4.1460983219
 40
0.03
100
AcDbArc
 50
223.5249964731
 51
360.0
  0
ARC
  5
318
100
AcDbEntity
  8
ALL_ASSEMBLY_MEMBERS
100
AcDbCircle
 62
7
  6
CONTINUOUS
 10
5.3922527641
 20
4.2447758215
 40
0.0210144615
100
AcDbArc
 50
171.171544353
 51
172.7549890889
  0
ARC
  5
319
100
AcDbEntity
  8
ALL_ASSEMBLY_MEMBERS
100
AcDbCircle
 62
7
  6
CONTINUOUS
 10
4.1651434322
 20
4.4388483219
 40
0.02
100
AcDbArc
 50
180.0
 51
360.0
  0
ARC
  5
31A
100
AcDbEntity
  8
ALL_ASSEMBLY_MEMBERS
100
AcDbCircle
 62
7
  6
CONTINUOUS
 10
5.385894124
 20
4.1839949052
 40
0.0007776843
100
AcDbArc
 50
276.4307934134
 51
285.1875834239
  0
ARC
  5
31B
100
AcDbEntity
  8
ALL_ASSEMBLY_MEMBERS
100
AcDbCircle
 62
7
  6
CONTINUOUS
 10
3.9111941936
 20
4.8048275986
 40
1.4738310539
100
AcDbArc
 50
358.4929567333
 51
358.7448531524
  0
ARC
  5
31C
100
AcDbEntity
  8
ALL_ASSEMBLY_MEMBERS
100
AcDbCircle
 62
7
  6
CONTINUOUS
 10
4.3317382708
 20
4.9514673694
 40
1.0577155375
100
AcDbArc
 50
352.8784614869
 51
353.0104545812
  0
ARC
  5
31D
100
AcDbEntity
  8
ALL_ASSEMBLY_MEMBERS
100
AcDbCircle
 62
7
  6
CONTINUOUS
 10
4.4222284056
 20
4.7953911573
 40
0.9676177804
100
AcDbArc
 50
358.1967279573
 51
358.3323671177
  0
ARC
  5
31E
100
AcDbEntity
  8
ALL_ASSEMBLY_MEMBERS
100
AcDbCircle
 62
7
  6
CONTINUOUS
 10
4.5032555846
 20
4.9298412357
 40
0.8848401249
100
AcDbArc
 50
352.5495233319
 51
352.7958456317
  0
ARC
  5
31F
100
AcDbEntity
  8
ALL_ASSEMBLY_MEMBERS
100
AcDbCircle
 62
7
  6
CONTINUOUS
 10
4.5201134187
 20
4.7922862996
 40
0.8696835405
100
AcDbArc
 50
357.9571842616
 51
358.1982491747
  0
ARC
  5
320
100
AcDbEntity
  8
ALL_ASSEMBLY_MEMBERS
100
AcDbCircle
 62
7
  6
CONTINUOUS
 10
4.5704999123
 20
4.9056373466
 40
0.8183034806
100
AcDbArc
 50
353.0883501814
 51
353.444431338
  0
ARC
  5
321
100
AcDbEntity
  8
ALL_ASSEMBLY_MEMBERS
100
AcDbCircle
 62
7
  6
CONTINUOUS
 10
3.8751434322
 20
4.7778483219
 40
0.025
100
AcDbArc
 50
90.0
 51
180.0
  0
ARC
  5
322
100
AcDbEntity
  8
ALL_ASSEMBLY_MEMBERS
100
AcDbCircle
 62
7
  6
CONTINUOUS
 10
4.0221434322
 20
4.7778483219
 40
0.025
100
AcDbArc
 50
0.0
 51
90.0
  0
ARC
  5
323
100
AcDbEntity
  8
ALL_ASSEMBLY_MEMBERS
100
AcDbCircle
 62
7
  6
CONTINUOUS
 10
3.9726434322
 20
4.8270983219
 40
0.025
100
AcDbArc
 50
0.0
 51
90.0
  0
ARC
  5
324
100
AcDbEntity
  8
ALL_ASSEMBLY_MEMBERS
100
AcDbCircle
 62
7
  6
CONTINUOUS
 10
3.9246434322
 20
4.8270983219
 40
0.025
100
AcDbArc
 50
90.0
 51
180.0
  0
ARC
  5
325
100
AcDbEntity
  8
ALL_ASSEMBLY_MEMBERS
100
AcDbCircle
 62
7
  6
CONTINUOUS
 10
4.5801434322
 20
5.1142858219
 40
0.02
100
AcDbArc
 50
90.0
 51
180.0
  0
ARC
  5
326
100
AcDbEntity
  8
ALL_ASSEMBLY_MEMBERS
100
AcDbCircle
 62
7
  6
CONTINUOUS
 10
3.8796434322
 20
4.8228483219
 40
0.02
100
AcDbArc
 50
270.0
 51
360.0
  0
ARC
  5
327
100
AcDbEntity
  8
ALL_ASSEMBLY_MEMBERS
100
AcDbCircle
 62
7
  6
CONTINUOUS
 10
4.0176434322
 20
4.8228483219
 40
0.02
100
AcDbArc
 50
180.0
 51
270.0
  0
ARC
  5
328
100
AcDbEntity
  8
ALL_ASSEMBLY_MEMBERS
100
AcDbCircle
 62
7
  6
CONTINUOUS
 10
4.1651434322
 20
4.7733483219
 40
0.02
100
AcDbArc
 50
0.0
 51
180.0
  0
ARC
  5
329
100
AcDbEntity
  8
ALL_ASSEMBLY_MEMBERS
100
AcDbCircle
 62
7
  6
CONTINUOUS
 10
3.0638466651
 20
5.722159766
 40
2.3632297054
100
AcDbArc
 50
349.7758669991
 51
349.9440131616
  0
ARC
  5
32A
100
AcDbEntity
  8
ALL_ASSEMBLY_MEMBERS
100
AcDbCircle
 62
7
  6
CONTINUOUS
 10
3.3012093325
 20
5.6411484016
 40
2.1150176142
100
AcDbArc
 50
348.8829415459
 51
349.0808838154
  0
ARC
  5
32B
100
AcDbEntity
  8
ALL_ASSEMBLY_MEMBERS
100
AcDbCircle
 62
7
  6
CONTINUOUS
 10
4.3211509307
 20
5.493102003
 40
1.0856517522
100
AcDbArc
 50
350.4412208936
 51
350.6157692722
  0
ARC
  5
32C
100
AcDbEntity
  8
ALL_ASSEMBLY_MEMBERS
100
AcDbCircle
 62
7
  6
CONTINUOUS
 10
4.6098897783
 20
4.9158572016
 40
0.7772929132
100
AcDbArc
 50
352.279702242
 51
352.5523834562
  0
ARC
  5
32D
100
AcDbEntity
  8
ALL_ASSEMBLY_MEMBERS
100
AcDbCircle
 62
7
  6
CONTINUOUS
 10
4.7583490861
 20
4.883034556
 40
0.6290994584
100
AcDbArc
 50
352.8524290354
 51
353.0731414197
  0
ARC
  5
32E
100
AcDbEntity
  8
ALL_ASSEMBLY_MEMBERS
100
AcDbCircle
 62
7
  6
CONTINUOUS
 10
4.8272776912
 20
4.8858230953
 40
0.5578410563
100
AcDbArc
 50
351.2634753316
 51
352.3370733065
  0
ARC
  5
32F
100
AcDbEntity
  8
ALL_ASSEMBLY_MEMBERS
100
AcDbCircle
 62
7
  6
CONTINUOUS
 10
4.9040455526
 20
4.8647217304
 40
0.4822566255
100
AcDbArc
 50
352.3107298737
 51
352.8574408334
  0
ARC
  5
330
100
AcDbEntity
  8
ALL_ASSEMBLY_MEMBERS
100
AcDbCircle
 62
7
  6
CONTINUOUS
 10
5.1041918024
 20
4.7992862113
 40
0.2800241733
100
AcDbArc
 50
6.2535466082
 51
6.4662524437
  0
ARC
  5
331
100
AcDbEntity
  8
ALL_ASSEMBLY_MEMBERS
100
AcDbCircle
 62
7
  6
CONTINUOUS
 10
5.2476988425
 20
4.7471838016
 40
0.1358797488
100
AcDbArc
 50
351.3643554431
 51
352.4831821944
  0
ARC
  5
332
100
AcDbEntity
  8
ALL_ASSEMBLY_MEMBERS
100
AcDbCircle
 62
7
  6
CONTINUOUS
 10
5.2701361915
 20
4.8176796488
 40
0.1097705904
100
AcDbArc
 50
349.862075554
 51
351.3086802734
  0
ARC
  5
333
100
AcDbEntity
  8
ALL_ASSEMBLY_MEMBERS
100
AcDbCircle
 62
7
  6
CONTINUOUS
 10
5.2763298048
 20
4.7427784177
 40
0.1069119157
100
AcDbArc
 50
350.0688521919
 51
351.3946289723
  0
ARC
  5
334
100
AcDbEntity
  8
ALL_ASSEMBLY_MEMBERS
100
AcDbCircle
 62
7
  6
CONTINUOUS
 10
5.3314319914
 20
4.8281552898
 40
0.0605380936
100
AcDbArc
 50
349.8317433746
 51
351.1878131911
  0
ARC
  5
335
100
AcDbEntity
  8
ALL_ASSEMBLY_MEMBERS
100
AcDbCircle
 62
7
  6
CONTINUOUS
 10
4.9276434322
 20
5.0660983219
 40
0.03
100
AcDbArc
 50
90.0
 51
180.0
  0
ARC
  5
336
100
AcDbEntity
  8
ALL_ASSEMBLY_MEMBERS
100
AcDbCircle
 62
7
  6
CONTINUOUS
 10
4.8381434322
 20
5.0660983219
 40
0.03
100
AcDbArc
 50
0.0
 51
136.4750035269
  0
ARC
  5
337
100
AcDbEntity
  8
ALL_ASSEMBLY_MEMBERS
100
AcDbCircle
 62
7
  6
CONTINUOUS
 10
4.6651434322
 20
5.1142858219
 40
0.02
100
AcDbArc
 50
0.0
 51
90.0
  0
ARC
  5
338
100
AcDbEntity
  8
ALL_ASSEMBLY_MEMBERS
100
AcDbCircle
 62
7
  6
CONTINUOUS
 10
6.1248057537
 20
4.7294027424
 40
0.7490136054
100
AcDbArc
 50
171.8733929172
 51
172.2977938676
  0
ARC
  5
339
100
AcDbEntity
  8
ALL_ASSEMBLY_MEMBERS
100
AcDbCircle
 62
7
  6
CONTINUOUS
 10
5.6642038171
 20
4.8002229488
 40
0.2930328314
100
AcDbArc
 50
179.235268034
 51
179.5118406125
  0
ARC
  5
33A
100
AcDbEntity
  8
ALL_ASSEMBLY_MEMBERS
100
AcDbCircle
 62
7
  6
CONTINUOUS
 10
5.6468811423
 20
4.7390723284
 40
0.2758578678
100
AcDbArc
 50
179.1319110429
 51
180.5033936192
  0
ARC
  5
33B
100
AcDbEntity
  8
ALL_ASSEMBLY_MEMBERS
100
AcDbCircle
 62
7
  6
CONTINUOUS
 10
5.6348661582
 20
4.8004573725
 40
0.2636942405
100
AcDbArc
 50
179.5084644327
 51
179.9020381825
  0
ARC
  5
33C
100
AcDbEntity
  8
ALL_ASSEMBLY_MEMBERS
100
AcDbCircle
 62
7
  6
CONTINUOUS
 10
5.6333540938
 20
4.7388087006
 40
0.2623290652
100
AcDbArc
 50
180.471773665
 51
181.3446653643
  0
ARC
  5
33D
100
AcDbEntity
  8
ALL_ASSEMBLY_MEMBERS
100
AcDbCircle
 62
7
  6
CONTINUOUS
 10
5.6083880347
 20
4.8009794745
 40
0.2372119237
100
AcDbArc
 50
178.5255021016
 51
179.2380462308
  0
ARC
  5
33E
100
AcDbEntity
  8
ALL_ASSEMBLY_MEMBERS
100
AcDbCircle
 62
7
  6
CONTINUOUS
 10
5.5999450055
 20
4.8011902094
 40
0.2287662676
100
AcDbArc
 50
177.7909350036
 51
178.5238513618
  0
ARC
  5
33F
100
AcDbEntity
  8
ALL_ASSEMBLY_MEMBERS
100
AcDbCircle
 62
7
  6
CONTINUOUS
 10
5.5970362187
 20
4.7379021251
 40
0.2259999234
100
AcDbArc
 50
181.3309585538
 51
182.3037456887
  0
ARC
  5
340
100
AcDbEntity
  8
ALL_ASSEMBLY_MEMBERS
100
AcDbCircle
 62
7
  6
CONTINUOUS
 10
5.5900030471
 20
4.7397083521
 40
0.2189767811
100
AcDbArc
 50
178.7868244382
 51
179.0728359824
  0
ARC
  5
341
100
AcDbEntity
  8
ALL_ASSEMBLY_MEMBERS
100
AcDbCircle
 62
7
  6
CONTINUOUS
 10
5.5894174288
 20
4.801587159
 40
0.2182312141
100
AcDbArc
 50
177.0248109261
 51
177.788535239
  0
ARC
  5
342
100
AcDbEntity
  8
ALL_ASSEMBLY_MEMBERS
100
AcDbCircle
 62
7
  6
CONTINUOUS
 10
5.5737267374
 20
4.8024245483
 40
0.2025182099
100
AcDbArc
 50
174.5809007697
 51
177.0309950852
  0
ARC
  5
343
100
AcDbEntity
  8
ALL_ASSEMBLY_MEMBERS
100
AcDbCircle
 62
7
  6
CONTINUOUS
 10
5.5715739502
 20
4.8002942107
 40
0.2004025877
100
AcDbArc
 50
179.8244509157
 51
181.5295772425
  0
ARC
  5
344
100
AcDbEntity
  8
ALL_ASSEMBLY_MEMBERS
100
AcDbCircle
 62
7
  6
CONTINUOUS
 10
5.5605793285
 20
4.7363742933
 40
0.1895110942
100
AcDbArc
 50
182.2852624005
 51
183.399471545
  0
ARC
  5
345
100
AcDbEntity
  8
ALL_ASSEMBLY_MEMBERS
100
AcDbCircle
 62
7
  6
CONTINUOUS
 10
5.5593126661
 20
4.7404016154
 40
0.1882786066
100
AcDbArc
 50
177.461305723
 51
178.8000076679
  0
ARC
  5
346
100
AcDbEntity
  8
ALL_ASSEMBLY_MEMBERS
100
AcDbCircle
 62
7
  6
CONTINUOUS
 10
5.5502312187
 20
4.8045053301
 40
0.1789312548
100
AcDbArc
 50
172.7258723369
 51
174.5336891371
  0
ARC
  5
347
100
AcDbEntity
  8
ALL_ASSEMBLY_MEMBERS
100
AcDbCircle
 62
7
  6
CONTINUOUS
 10
5.5584061404
 20
4.8292871061
 40
0.1757841991
100
AcDbArc
 50
185.5735716907
 51
186.2540415014
  0
ARC
  5
348
100
AcDbEntity
  8
ALL_ASSEMBLY_MEMBERS
100
AcDbCircle
 62
7
  6
CONTINUOUS
 10
5.5351461884
 20
4.8063875688
 40
0.1637293159
100
AcDbArc
 50
171.7356685669
 51
172.7108504447
  0
ARC
  5
349
100
AcDbEntity
  8
ALL_ASSEMBLY_MEMBERS
100
AcDbCircle
 62
7
  6
CONTINUOUS
 10
5.5443274497
 20
4.828592744
 40
0.1569939129
100
AcDbArc
 50
186.9127450208
 51
187.3796873163
  0
ARC
  5
34A
100
AcDbEntity
  8
ALL_ASSEMBLY_MEMBERS
100
AcDbCircle
 62
7
  6
CONTINUOUS
 10
5.5366325314
 20
4.8269131287
 40
0.1538815588
100
AcDbArc
 50
186.2585477027
 51
186.5354245575
  0
ARC
  5
34B
100
AcDbEntity
  8
ALL_ASSEMBLY_MEMBERS
100
AcDbCircle
 62
7
  6
CONTINUOUS
 10
5.5192258932
 20
4.7988952926
 40
0.1480358422
100
AcDbArc
 50
181.5291539798
 51
182.5917001053
  0
ARC
  5
34C
100
AcDbEntity
  8
ALL_ASSEMBLY_MEMBERS
100
AcDbCircle
 62
7
  6
CONTINUOUS
 10
5.5159166982
 20
4.7422223372
 40
0.1448446199
100
AcDbArc
 50
176.5483506386
 51
177.4204635921
  0
ARC
  5
34D
100
AcDbEntity
  8
ALL_ASSEMBLY_MEMBERS
100
AcDbCircle
 62
7
  6
CONTINUOUS
 10
5.4975680375
 20
4.7433106796
 40
0.1264637207
100
AcDbArc
 50
176.0410803551
 51
176.5400436469
  0
ARC
  5
34E
100
AcDbEntity
  8
ALL_ASSEMBLY_MEMBERS
100
AcDbCircle
 62
7
  6
CONTINUOUS
 10
5.5062658732
 20
4.8233403794
 40
0.1233056269
100
AcDbArc
 50
186.4920826994
 51
187.708888897
  0
ARC
  5
34F
100
AcDbEntity
  8
ALL_ASSEMBLY_MEMBERS
100
AcDbCircle
 62
7
  6
CONTINUOUS
 10
5.5095305005
 20
4.824052819
 40
0.1219020734
100
AcDbArc
 50
187.3642427269
 51
188.8106342781
  0
ARC
  5
350
100
AcDbEntity
  8
ALL_ASSEMBLY_MEMBERS
100
AcDbCircle
 62
7
  6
CONTINUOUS
 10
5.485611752
 20
4.7441394806
 40
0.1144787438
100
AcDbArc
 50
175.491281219
 51
176.0417544124
  0
ARC
  5
351
100
AcDbEntity
  8
ALL_ASSEMBLY_MEMBERS
100
AcDbCircle
 62
7
  6
CONTINUOUS
 10
5.4757878871
 20
4.7292351333
 40
0.1044030087
100
AcDbArc
 50
186.0709630497
 51
187.8047521168
  0
ARC
  5
352
100
AcDbEntity
  8
ALL_ASSEMBLY_MEMBERS
100
AcDbCircle
 62
7
  6
CONTINUOUS
 10
5.4762209862
 20
4.8177148891
 40
0.0995782801
100
AcDbArc
 50
170.1660508239
 51
171.54791109
  0
ARC
  5
353
100
AcDbEntity
  8
ALL_ASSEMBLY_MEMBERS
100
AcDbCircle
 62
7
  6
CONTINUOUS
 10
5.4715345962
 20
4.796672286
 40
0.0955233642
100
AcDbArc
 50
184.7717651138
 51
185.0734466137
  0
ARC
  5
354
100
AcDbEntity
  8
ALL_ASSEMBLY_MEMBERS
100
AcDbCircle
 62
7
  6
CONTINUOUS
 10
5.4649751125
 20
4.7286965786
 40
0.0923205359
100
AcDbArc
 50
174.1340871714
 51
180.7290486873
  0
ARC
  5
355
100
AcDbEntity
  8
ALL_ASSEMBLY_MEMBERS
100
AcDbCircle
 62
7
  6
CONTINUOUS
 10
5.4458583926
 20
4.7224207297
 40
0.0693851107
100
AcDbArc
 50
188.7092272213
 51
190.9366820176
  0
ARC
  5
356
100
AcDbEntity
  8
ALL_ASSEMBLY_MEMBERS
100
AcDbCircle
 62
7
  6
CONTINUOUS
 10
5.4399045251
 20
4.8394752729
 40
0.050963783
100
AcDbArc
 50
165.6253060899
 51
166.8580852544
  0
ARC
  5
357
100
AcDbEntity
  8
ALL_ASSEMBLY_MEMBERS
100
AcDbCircle
 62
7
  6
CONTINUOUS
 10
5.4233670715
 20
4.8421043733
 40
0.0384377534
100
AcDbArc
 50
166.2042548586
 51
167.1757793513
  0
ARC
  5
358
100
AcDbEntity
  8
ALL_ASSEMBLY_MEMBERS
100
AcDbCircle
 62
7
  6
CONTINUOUS
 10
4.6296848683
 20
5.442210833
 40
0.7729488767
100
AcDbArc
 50
350.6085251549
 51
350.83118772
  0
ARC
  5
359
100
AcDbEntity
  8
ALL_ASSEMBLY_MEMBERS
100
AcDbCircle
 62
7
  6
CONTINUOUS
 10
4.887220626
 20
5.4007518732
 40
0.5120973971
100
AcDbArc
 50
350.8191611108
 51
351.1200021258
  0
ARC
  5
35A
100
AcDbEntity
  8
ALL_ASSEMBLY_MEMBERS
100
AcDbCircle
 62
7
  6
CONTINUOUS
 10
5.3201429448
 20
5.5910077065
 40
0.4925109075
100
AcDbArc
 50
270.0000566929
 51
271.1214557203
  0
ARC
  5
35B
100
AcDbEntity
  8
ALL_ASSEMBLY_MEMBERS
100
AcDbCircle
 62
7
  6
CONTINUOUS
 10
5.2401367635
 20
5.5902773569
 40
0.4917805579
100
AcDbArc
 50
268.8775733666
 51
270.0007769503
  0
ARC
  5
35C
100
AcDbEntity
  8
ALL_ASSEMBLY_MEMBERS
100
AcDbCircle
 62
7
  6
CONTINUOUS
 10
11.7401546261
 20
4.0813859987
 40
6.4678318425
100
AcDbArc
 50
169.116203058
 51
169.3044980427
  0
ARC
  5
35D
100
AcDbEntity
  8
ALL_ASSEMBLY_MEMBERS
100
AcDbCircle
 62
7
  6
CONTINUOUS
 10
10.8863223082
 20
4.2350235829
 40
5.6005710222
100
AcDbArc
 50
169.0020470928
 51
169.1940465268
  0
ARC
  5
35E
100
AcDbEntity
  8
ALL_ASSEMBLY_MEMBERS
100
AcDbCircle
 62
7
  6
CONTINUOUS
 10
9.9027694387
 20
4.4099994145
 40
4.6016337622
100
AcDbArc
 50
169.3276878259
 51
169.5957787042
  0
ARC
  5
35F
100
AcDbEntity
  8
ALL_ASSEMBLY_MEMBERS
100
AcDbCircle
 62
7
  6
CONTINUOUS
 10
9.1348385254
 20
4.4835110803
 40
3.7449642288
100
AcDbArc
 50
179.905831288
 51
180.094168712
  0
ARC
  5
360
100
AcDbEntity
  8
ALL_ASSEMBLY_MEMBERS
100
AcDbCircle
 62
7
  6
CONTINUOUS
 10
8.7300004375
 20
4.4963072503
 40
3.3540821424
100
AcDbArc
 50
179.8948569289
 51
180.1051430711
  0
ARC
  5
361
100
AcDbEntity
  8
ALL_ASSEMBLY_MEMBERS
100
AcDbCircle
 62
7
  6
CONTINUOUS
 10
7.1370373222
 20
4.175044887
 40
3.139393885
100
AcDbArc
 50
180.0023101717
 51
180.7015653848
  0
ARC
  5
362
100
AcDbEntity
  8
ALL_ASSEMBLY_MEMBERS
100
AcDbCircle
 62
7
  6
CONTINUOUS
 10
7.0023199202
 20
4.1706475989
 40
3.0295989656
100
AcDbArc
 50
187.3399360997
 51
195.9750717829
  0
ARC
  5
363
100
AcDbEntity
  8
ALL_ASSEMBLY_MEMBERS
100
AcDbCircle
 62
7
  6
CONTINUOUS
 10
7.0043781501
 20
4.1694736223
 40
3.0071033366
100
AcDbArc
 50
187.3099057094
 51
195.9401769888
  0
ARC
  5
364
100
AcDbEntity
  8
ALL_ASSEMBLY_MEMBERS
100
AcDbCircle
 62
7
  6
CONTINUOUS
 10
7.0060441884
 20
4.168453351
 40
2.9891269873
100
AcDbArc
 50
187.2855463603
 51
195.9118302037
  0
ARC
  5
365
100
AcDbEntity
  8
ALL_ASSEMBLY_MEMBERS
100
AcDbCircle
 62
7
  6
CONTINUOUS
 10
6.999812095
 20
4.1700433993
 40
2.9776652735
100
AcDbArc
 50
185.1434216659
 51
195.9866182894
  0
ARC
  5
366
100
AcDbEntity
  8
ALL_ASSEMBLY_MEMBERS
100
AcDbCircle
 62
7
  6
CONTINUOUS
 10
7.0025796085
 20
4.17029428
 40
2.9554361851
100
AcDbArc
 50
179.9955723141
 51
185.1417361102
  0
ARC
  5
367
100
AcDbEntity
  8
ALL_ASSEMBLY_MEMBERS
100
AcDbCircle
 62
7
  6
CONTINUOUS
 10
6.9998162166
 20
4.1701330474
 40
2.9526694647
100
AcDbArc
 50
185.1434256988
 51
195.0824760558
  0
ARC
  5
368
100
AcDbEntity
  8
ALL_ASSEMBLY_MEMBERS
100
AcDbCircle
 62
7
  6
CONTINUOUS
 10
6.9995824799
 20
4.1700671914
 40
2.9524266433
100
AcDbArc
 50
195.0824223595
 51
195.9866275601
  0
ARC
  5
369
100
AcDbEntity
  8
ALL_ASSEMBLY_MEMBERS
100
AcDbCircle
 62
7
  6
CONTINUOUS
 10
6.9662486345
 20
4.1685693015
 40
2.9441052109
100
AcDbArc
 50
179.9956332784
 51
185.1734069287
  0
ARC
  5
36A
100
AcDbEntity
  8
ALL_ASSEMBLY_MEMBERS
100
AcDbCircle
 62
7
  6
CONTINUOUS
 10
8.0841462031
 20
4.1916312573
 40
2.6912690047
100
AcDbArc
 50
178.7287999134
 51
179.3016205738
  0
ARC
  5
36B
100
AcDbEntity
  8
ALL_ASSEMBLY_MEMBERS
100
AcDbCircle
 62
7
  6
CONTINUOUS
 10
8.059615516
 20
4.1919736353
 40
2.666735967
100
AcDbArc
 50
179.3025520705
 51
179.4952175245
  0
ARC
  5
36C
100
AcDbEntity
  8
ALL_ASSEMBLY_MEMBERS
100
AcDbCircle
 62
7
  6
CONTINUOUS
 10
8.0506508234
 20
4.1920507258
 40
2.6577709432
100
AcDbArc
 50
179.4951767473
 51
179.8817719644
  0
ARC
  5
36D
100
AcDbEntity
  8
ALL_ASSEMBLY_MEMBERS
100
AcDbCircle
 62
7
  6
CONTINUOUS
 10
8.0481197745
 20
4.1921633228
 40
2.6552403256
100
AcDbArc
 50
180.5444463661
 51
181.3581049183
  0
ARC
  5
36E
100
AcDbEntity
  8
ALL_ASSEMBLY_MEMBERS
100
AcDbCircle
 62
7
  6
CONTINUOUS
 10
8.0080463486
 20
4.2004779245
 40
2.617995769
100
AcDbArc
 50
179.0745593464
 51
179.5846702221
  0
ARC
  5
36F
100
AcDbEntity
  8
ALL_ASSEMBLY_MEMBERS
100
AcDbCircle
 62
7
  6
CONTINUOUS
 10
7.9960461842
 20
4.2008400425
 40
2.605996426
100
AcDbArc
 50
180.9152893345
 51
181.2503219258
  0
ARC
  5
370
100
AcDbEntity
  8
ALL_ASSEMBLY_MEMBERS
100
AcDbCircle
 62
7
  6
CONTINUOUS
 10
7.9855027786
 20
4.200673823
 40
2.5954517018
100
AcDbArc
 50
180.578495116
 51
180.8031079131
  0
ARC
  5
371
100
AcDbEntity
  8
ALL_ASSEMBLY_MEMBERS
100
AcDbCircle
 62
7
  6
CONTINUOUS
 10
7.6381917147
 20
4.2571273413
 40
2.266928142
100
AcDbArc
 50
178.8157427292
 51
179.0631954973
  0
ARC
  5
372
100
AcDbEntity
  8
ALL_ASSEMBLY_MEMBERS
100
AcDbCircle
 62
7
  6
CONTINUOUS
 10
9.1102063476
 20
4.7931729781
 40
3.7173274723
100
AcDbArc
 50
180.4612409605
 51
181.1482431984
  0
ARC
  5
373
100
AcDbEntity
  8
ALL_ASSEMBLY_MEMBERS
100
AcDbCircle
 62
7
  6
CONTINUOUS
 10
9.0321010297
 20
4.7893453337
 40
3.642051183
100
AcDbArc
 50
180.5850773475
 51
180.9631243534
  0
ARC
  5
374
100
AcDbEntity
  8
ALL_ASSEMBLY_MEMBERS
100
AcDbCircle
 62
7
  6
CONTINUOUS
 10
8.8838179043
 20
4.623367801
 40
3.5607587568
100
AcDbArc
 50
168.8651046693
 51
168.9889534022
  0
ARC
  5
375
100
AcDbEntity
  8
ALL_ASSEMBLY_MEMBERS
100
AcDbCircle
 62
7
  6
CONTINUOUS
 10
7.2976043638
 20
4.8859695237
 40
1.95309426
100
AcDbArc
 50
169.5550442067
 51
169.8551889741
  0
ARC
  5
376
100
AcDbEntity
  8
ALL_ASSEMBLY_MEMBERS
100
AcDbCircle
 62
7
  6
CONTINUOUS
 10
7.038767713
 20
4.9335401931
 40
1.6901706426
100
AcDbArc
 50
169.7468122534
 51
169.9620227545
  0
ARC
  5
377
100
AcDbEntity
  8
ALL_ASSEMBLY_MEMBERS
100
AcDbCircle
 62
7
  6
CONTINUOUS
 10
6.9853157727
 20
5.1468887664
 40
1.5954414761
100
AcDbArc
 50
179.8557254503
 51
180.1442745497
  0
ARC
  5
378
100
AcDbEntity
  8
ALL_ASSEMBLY_MEMBERS
100
AcDbCircle
 62
7
  6
CONTINUOUS
 10
6.8048358676
 20
5.0904387936
 40
1.4289175725
100
AcDbArc
 50
179.8389118694
 51
180.1610881306
  0
ARC
  5
379
100
AcDbEntity
  8
ALL_ASSEMBLY_MEMBERS
100
AcDbCircle
 62
7
  6
CONTINUOUS
 10
6.2474746313
 20
5.074726184
 40
0.8861359762
100
AcDbArc
 50
169.9094532878
 51
170.2287822817
  0
ARC
  5
37A
100
AcDbEntity
  8
ALL_ASSEMBLY_MEMBERS
100
AcDbCircle
 62
7
  6
CONTINUOUS
 10
0.7772603566
 20
6.137023664
 40
4.6871458128
100
AcDbArc
 50
349.4800596079
 51
349.7464211606
  0
ARC
  5
37B
100
AcDbEntity
  8
ALL_ASSEMBLY_MEMBERS
100
AcDbCircle
 62
7
  6
CONTINUOUS
 10
1.2300740026
 20
6.040594108
 40
4.2243204425
100
AcDbArc
 50
349.0823325075
 51
349.3618308573
  0
ARC
  5
37C
100
AcDbEntity
  8
ALL_ASSEMBLY_MEMBERS
100
AcDbCircle
 62
7
  6
CONTINUOUS
 10
6.8995613339
 20
6.1213924772
 40
2.0283697009
100
AcDbArc
 50
221.6816765287
 51
221.9740839235
  0
ARC
  5
37D
100
AcDbEntity
  8
ALL_ASSEMBLY_MEMBERS
100
AcDbCircle
 62
7
  6
CONTINUOUS
 10
4.1021933293
 20
5.7650993562
 40
0.985
100
AcDbArc
 50
274.8307882199
 51
296.3989902659
  0
ARC
  5
37E
100
AcDbEntity
  8
ALL_ASSEMBLY_MEMBERS
100
AcDbCircle
 62
7
  6
CONTINUOUS
 10
4.1021933293
 20
5.7650993562
 40
0.985
100
AcDbArc
 50
307.7438267057
 51
316.4750035269
  0
ARC
  5
37F
100
AcDbEntity
  8
ALL_ASSEMBLY_MEMBERS
100
AcDbCircle
 62
7
  6
CONTINUOUS
 10
12.5109413816
 20
3.9220928371
 40
7.2547863537
100
AcDbArc
 50
169.3629766422
 51
169.5331312153
  0
ARC
  5
380
100
AcDbEntity
  8
ALL_ASSEMBLY_MEMBERS
100
AcDbCircle
 62
7
  6
CONTINUOUS
 10
22.9464353267
 20
8.1213506547
 40
17.9867497025
100
AcDbArc
 50
192.2851195845
 51
192.530334494
  0
ARC
  5
381
100
AcDbEntity
  8
ALL_ASSEMBLY_MEMBERS
100
AcDbCircle
 62
7
  6
CONTINUOUS
 10
20.4545425207
 20
7.5398070682
 40
15.4259935345
100
AcDbArc
 50
192.1085580755
 51
192.3168326845
  0
SPLINE
  5
382
100
AcDbEntity
  8
ALL_ASSEMBLY_MEMBERS
100
AcDbSpline
 62
7
  6
CONTINUOUS
 70
0
 71
3
 72
25
 73
21
 74
0
 42
0.0000001
 43
0.0000001
 44
0.0000000001
 40
0.0
 40
0.0
 40
0.0
 40
0.0
 40
0.1912928625
 40
0.3753773696
 40
0.4624776571
 40
0.5452064623
 40
0.622780537
 40
0.6944571567
 40
0.7595923809
 40
0.8175835001
 40
0.8679447596
 40
0.9102641696
 40
0.9283233507
 40
0.9442955367
 40
0.9581825378
 40
0.9700095288
 40
0.9798536481
 40
0.9878774731
 40
0.9943957733
 40
1.0
 40
1.0
 40
1.0
 40
1.0
 10
3.9246434322
 20
4.2087813404
 30
0.0
 10
3.9230177293
 20
4.2087813404
 30
0.0
 10
3.9198274799
 20
4.2088165525
 30
0.0
 10
3.915898946
 20
4.2089495054
 30
0.0
 10
3.9128954371
 20
4.2091104919
 30
0.0
 10
3.9107976335
 20
4.2092529711
 30
0.0
 10
3.908832964
 20
4.2094178128
 30
0.0
 10
3.9070203781
 20
4.2096035844
 30
0.0
 10
3.9053773726
 20
4.2098080875
 30
0.0
 10
3.903919446
 20
4.2100293888
 30
0.0
 10
3.9026605428
 20
4.2102649074
 30
0.0
 10
3.9017437909
 20
4.2104803745
 30
0.0
 10
3.9011209373
 20
4.210662831
 30
0.0
 10
3.9007353936
 20
4.2107944749
 30
0.0
 10
3.9004069245
 20
4.210927863
 30
0.0
 10
3.9001361055
 20
4.211062819
 30
0.0
 10
3.8999229618
 20
4.2111992056
 30
0.0
 10
3.8997670767
 20
4.211337576
 30
0.0
 10
3.8996679744
 20
4.211480187
 30
0.0
 10
3.8996434322
 20
4.2115838465
 30
0.0
 10
3.8996434322
 20
4.211631474
 30
0.0
  0
SPLINE
  5
383
100
AcDbEntity
  8
ALL_ASSEMBLY_MEMBERS
100
AcDbSpline
 62
7
  6
CONTINUOUS
 70
0
 71
3
 72
9
 73
5
 74
0
 42
0.0000001
 43
0.0000001
 44
0.0000000001
 40
0.0
 40
0.0
 40
0.0
 40
0.0
 40
0.5000186935
 40
1.0
 40
1.0
 40
1.0
 40
1.0
 10
3.875571699
 20
3.7868615436
 30
0.0
 10
3.8780150056
 20
3.8059050216
 30
0.0
 10
3.8824997084
 20
3.8440431569
 30
0.0
 10
3.8861936155
 20
3.8822657399
 30
0.0
 10
3.8878506961
 20
3.9013922337
 30
0.0
  0
SPLINE
  5
384
100
AcDbEntity
  8
ALL_ASSEMBLY_MEMBERS
100
AcDbSpline
 62
7
  6
CONTINUOUS
 70
0
 71
3
 72
10
 73
6
 74
0
 42
0.0000001
 43
0.0000001
 44
0.0000000001
 40
0.0
 40
0.0
 40
0.0
 40
0.0
 40
0.5003320879
 40
0.7502790063
 40
1.0
 40
1.0
 40
1.0
 40
1.0
 10
3.8878506961
 20
3.9013922337
 30
0.0
 10
3.8912132514
 20
3.9402044039
 30
0.0
 10
3.89516796
 20
3.9985075803
 30
0.0
 10
3.89828416
 20
4.076311246
 30
0.0
 10
3.8991329364
 20
4.1152105736
 30
0.0
 10
3.8993835093
 20
4.1346530849
 30
0.0
  0
SPLINE
  5
385
100
AcDbEntity
  8
ALL_ASSEMBLY_MEMBERS
100
AcDbSpline
 62
7
  6
CONTINUOUS
 70
0
 71
3
 72
21
 73
17
 74
0
 42
0.0000001
 43
0.0000001
 44
0.0000000001
 40
0.0
 40
0.0
 40
0.0
 40
0.0
 40
0.1842830689
 40
0.3622741581
 40
0.5277269072
 40
0.6750587382
 40
0.7403268023
 40
0.7992506555
 40
0.8513489145
 40
0.8962288754
 40
0.9335593688
 40
0.9631778683
 40
0.9750966166
 40
0.9851268412
 40
0.9933649942
 40
1.0
 40
1.0
 40
1.0
 40
1.0
 10
3.9246434322
 20
4.1725152203
 30
0.0
 10
3.9230941816
 20
4.1725152203
 30
0.0
 10
3.9200484923
 20
4.1725447264
 30
0.0
 10
3.9156135683
 20
4.1726762652
 30
0.0
 10
3.9114928654
 20
4.1728902228
 30
0.0
 10
3.9083237313
 20
4.1731383674
 30
0.0
 10
3.9060536311
 20
4.1733789047
 30
0.0
 10
3.9045833768
 20
4.1735667416
 30
0.0
 10
3.9032880358
 20
4.1737676122
 30
0.0
 10
3.9021785081
 20
4.1739790411
 30
0.0
 10
3.9012642393
 20
4.1741993411
 30
0.0
 10
3.9006307452
 20
4.1743991426
 30
0.0
 10
3.9002313799
 20
4.1745686838
 30
0.0
 10
3.900006725
 20
4.1746877708
 30
0.0
 10
3.8998344746
 20
4.1748077097
 30
0.0
 10
3.8997456508
 20
4.1748977597
 30
0.0
 10
3.8997132443
 20
4.1749431603
 30
0.0
  0
LINE
  5
386
100
AcDbEntity
  8
ALL_ASSEMBLY_MEMBERS
100
AcDbLine
 62
7
  6
CONTINUOUS
 10
3.8997132443
 20
4.1749431603
 11
3.8996434322
 21
4.1751386907
  0
LINE
  5
387
100
AcDbEntity
  8
ALL_ASSEMBLY_MEMBERS
100
AcDbLine
 62
7
  6
CONTINUOUS
 10
3.8997402716
 20
3.7835983219
 11
3.875571698
 21
3.7868615437
  0
LINE
  5
388
100
AcDbEntity
  8
ALL_ASSEMBLY_MEMBERS
100
AcDbLine
 62
7
  6
CONTINUOUS
 10
3.8075674303
 20
3.3368440845
 11
3.784386087
 21
3.3436220997
  0
LINE
  5
389
100
AcDbEntity
  8
ALL_ASSEMBLY_MEMBERS
100
AcDbLine
 62
7
  6
CONTINUOUS
 10
4.0897194341
 20
3.3368440845
 11
4.1129010424
 21
3.3436221751
  0
SPLINE
  5
38A
100
AcDbEntity
  8
ALL_ASSEMBLY_MEMBERS
100
AcDbSpline
 62
7
  6
CONTINUOUS
 70
0
 71
3
 72
9
 73
5
 74
0
 42
0.0000001
 43
0.0000001
 44
0.0000000001
 40
0.0
 40
0.0
 40
0.0
 40
0.0
 40
0.4999813065
 40
1.0
 40
1.0
 40
1.0
 40
1.0
 10
4.0094361682
 20
3.9013922325
 30
0.0
 10
4.0110932493
 20
3.882265739
 30
0.0
 10
4.0147871565
 20
3.8440431564
 30
0.0
 10
4.0192718583
 20
3.8059050214
 30
0.0
 10
4.0217151653
 20
3.7868615436
 30
0.0
  0
LINE
  5
38B
100
AcDbEntity
  8
ALL_ASSEMBLY_MEMBERS
100
AcDbLine
 62
7
  6
CONTINUOUS
 10
3.9975465928
 20
3.7835983219
 11
4.0217151653
 21
3.7868615436
  0
SPLINE
  5
38C
100
AcDbEntity
  8
ALL_ASSEMBLY_MEMBERS
100
AcDbSpline
 62
7
  6
CONTINUOUS
 70
0
 71
3
 72
21
 73
17
 74
0
 42
0.0000001
 43
0.0000001
 44
0.0000000001
 40
0.0
 40
0.0
 40
0.0
 40
0.0
 40
0.1842830689
 40
0.3622741581
 40
0.5277269072
 40
0.6750587382
 40
0.7403268023
 40
0.7992506555
 40
0.8513489145
 40
0.8962288754
 40
0.9335593688
 40
0.9631778683
 40
0.9750966166
 40
0.9851268412
 40
0.9933649942
 40
1.0
 40
1.0
 40
1.0
 40
1.0
 10
3.9726434322
 20
4.1725152203
 30
0.0
 10
3.9741926828
 20
4.1725152203
 30
0.0
 10
3.9772383721
 20
4.1725447264
 30
0.0
 10
3.981673296
 20
4.1726762652
 30
0.0
 10
3.985793999
 20
4.1728902228
 30
0.0
 10
3.9889631331
 20
4.1731383674
 30
0.0
 10
3.9912332332
 20
4.1733789047
 30
0.0
 10
3.9927034875
 20
4.1735667416
 30
0.0
 10
3.9939988286
 20
4.1737676122
 30
0.0
 10
3.9951083562
 20
4.1739790411
 30
0.0
 10
3.996022625
 20
4.1741993411
 30
0.0
 10
3.9966561192
 20
4.1743991426
 30
0.0
 10
3.9970554844
 20
4.1745686838
 30
0.0
 10
3.9972801393
 20
4.1746877708
 30
0.0
 10
3.9974523898
 20
4.1748077097
 30
0.0
 10
3.9975412135
 20
4.1748977597
 30
0.0
 10
3.99757362
 20
4.1749431603
 30
0.0
  0
LINE
  5
38D
100
AcDbEntity
  8
ALL_ASSEMBLY_MEMBERS
100
AcDbLine
 62
7
  6
CONTINUOUS
 10
3.99757362
 20
4.1749431603
 11
3.9976434322
 21
4.1751386907
  0
SPLINE
  5
38E
100
AcDbEntity
  8
ALL_ASSEMBLY_MEMBERS
100
AcDbSpline
 62
7
  6
CONTINUOUS
 70
0
 71
3
 72
25
 73
21
 74
0
 42
0.0000001
 43
0.0000001
 44
0.0000000001
 40
0.0
 40
0.0
 40
0.0
 40
0.0
 40
0.1912928623
 40
0.3753773691
 40
0.4624776566
 40
0.5452064617
 40
0.6227805364
 40
0.6944571561
 40
0.7595923804
 40
0.8175834997
 40
0.8679447593
 40
0.9102641693
 40
0.9283233505
 40
0.9442955365
 40
0.9581825377
 40
0.9700095287
 40
0.979853648
 40
0.987877473
 40
0.9943957733
 40
1.0
 40
1.0
 40
1.0
 40
1.0
 10
3.9726434322
 20
4.2087813404
 30
0.0
 10
3.974269135
 20
4.2087813404
 30
0.0
 10
3.9774593844
 20
4.2088165525
 30
0.0
 10
3.9813879183
 20
4.2089495054
 30
0.0
 10
3.9843914272
 20
4.2091104919
 30
0.0
 10
3.9864892308
 20
4.2092529711
 30
0.0
 10
3.9884539003
 20
4.2094178128
 30
0.0
 10
3.9902664862
 20
4.2096035844
 30
0.0
 10
3.9919094917
 20
4.2098080875
 30
0.0
 10
3.9933674183
 20
4.2100293888
 30
0.0
 10
3.9946263216
 20
4.2102649074
 30
0.0
 10
3.9955430735
 20
4.2104803745
 30
0.0
 10
3.996165927
 20
4.210662831
 30
0.0
 10
3.9965514708
 20
4.2107944749
 30
0.0
 10
3.9968799399
 20
4.2109278629
 30
0.0
 10
3.9971507588
 20
4.211062819
 30
0.0
 10
3.9973639025
 20
4.2111992056
 30
0.0
 10
3.9975197876
 20
4.211337576
 30
0.0
 10
3.9976188899
 20
4.211480187
 30
0.0
 10
3.9976434322
 20
4.2115838465
 30
0.0
 10
3.9976434322
 20
4.211631474
 30
0.0
  0
SPLINE
  5
38F
100
AcDbEntity
  8
ALL_ASSEMBLY_MEMBERS
100
AcDbSpline
 62
7
  6
CONTINUOUS
 70
0
 71
3
 72
18
 73
14
 74
0
 42
0.0000001
 43
0.0000001
 44
0.0000000001
 40
0.0
 40
0.0
 40
0.0
 40
0.0
 40
0.1525181241
 40
0.3014245706
 40
0.4433111354
 40
0.5755294083
 40
0.6963934471
 40
0.7525287911
 40
0.8059101154
 40
0.8568420143
 40
0.9057829976
 40
0.953298006
 40
1.0
 40
1.0
 40
1.0
 40
1.0
 10
3.9726434322
 20
4.4562824578
 30
0.0
 10
3.9742719552
 20
4.4562824578
 30
0.0
 10
3.9774938712
 20
4.4564734529
 30
0.0
 10
3.9821620782
 20
4.4573246824
 30
0.0
 10
3.9864764863
 20
4.4587099976
 30
0.0
 10
3.9902758484
 20
4.4605777515
 30
0.0
 10
3.9929636123
 20
4.4625342942
 30
0.0
 10
3.9946975595
 20
4.4642857654
 30
0.0
 10
3.9957552944
 20
4.4656390204
 30
0.0
 10
3.9965910692
 20
4.4670516214
 30
0.0
 10
3.997195679
 20
4.4685108598
 30
0.0
 10
3.9975609974
 20
4.4700012073
 30
0.0
 10
3.9976434322
 20
4.4710089834
 30
0.0
 10
3.9976434322
 20
4.4715076472
 30
0.0
  0
SPLINE
  5
390
100
AcDbEntity
  8
ALL_ASSEMBLY_MEMBERS
100
AcDbSpline
 62
7
  6
CONTINUOUS
 70
0
 71
3
 72
10
 73
6
 74
0
 42
0.0000001
 43
0.0000001
 44
0.0000000001
 40
0.0
 40
0.0
 40
0.0
 40
0.0
 40
0.2497209935
 40
0.4996679119
 40
1.0
 40
1.0
 40
1.0
 40
1.0
 10
3.9979033525
 20
4.1346532694
 30
0.0
 10
3.998153924
 20
4.1152107426
 30
0.0
 10
3.9990027003
 20
4.0763113841
 30
0.0
 10
4.0021189004
 20
3.9985076565
 30
0.0
 10
4.0060736075
 20
3.9402044333
 30
0.0
 10
4.0094361682
 20
3.9013922325
 30
0.0
  0
SPLINE
  5
391
100
AcDbEntity
  8
ALL_ASSEMBLY_MEMBERS
100
AcDbSpline
 62
7
  6
CONTINUOUS
 70
0
 71
3
 72
18
 73
14
 74
0
 42
0.0000001
 43
0.0000001
 44
0.0000000001
 40
0.0
 40
0.0
 40
0.0
 40
0.0
 40
0.0464962064
 40
0.0938172708
 40
0.1425870111
 40
0.1933781434
 40
0.2466538228
 40
0.3027206667
 40
0.4235581331
 40
0.555881636
 40
0.6979775906
 40
0.8471649047
 40
1.0
 40
1.0
 40
1.0
 40
1.0
 10
4.0471434322
 20
4.5021850224
 30
0.0
 10
4.0471434322
 20
4.5016895971
 30
0.0
 10
4.0470609651
 20
4.5006881793
 30
0.0
 10
4.0466955403
 20
4.49920739
 30
0.0
 10
4.0460908031
 20
4.4977575934
 30
0.0
 10
4.0452549192
 20
4.4963542155
 30
0.0
 10
4.0441971161
 20
4.4950098515
 30
0.0
 10
4.0424625155
 20
4.4932693286
 30
0.0
 10
4.0397740654
 20
4.491325556
 30
0.0
 10
4.0359751081
 20
4.4894705054
 30
0.0
 10
4.031661158
 20
4.4880945606
 30
0.0
 10
4.0269934094
 20
4.4872490655
 30
0.0
 10
4.0237719171
 20
4.4870593601
 30
0.0
 10
4.0221434322
 20
4.4870593601
 30
0.0
  0
SPLINE
  5
392
100
AcDbEntity
  8
ALL_ASSEMBLY_MEMBERS
100
AcDbSpline
 62
7
  6
CONTINUOUS
 70
0
 71
3
 72
24
 73
20
 74
0
 42
0.0000001
 43
0.0000001
 44
0.0000000001
 40
0.0
 40
0.0
 40
0.0
 40
0.0
 40
0.0038712598
 40
0.0062402553
 40
0.0090203736
 40
0.016005718
 40
0.0250719922
 40
0.0363123253
 40
0.0497574348
 40
0.0654015096
 40
0.0832256387
 40
0.1253027675
 40
0.1756623753
 40
0.2338458832
 40
0.2993356817
 40
0.4496827194
 40
0.6210004053
 40
0.8068330618
 40
1.0
 40
1.0
 40
1.0
 40
1.0
 10
4.0471434322
 20
4.1979285765
 30
0.0
 10
4.0471434322
 20
4.1978959969
 30
0.0
 10
4.0471234066
 20
4.1978434699
 30
0.0
 10
4.0470743853
 20
4.1977855436
 30
0.0
 10
4.0469966943
 20
4.1977185511
 30
0.0
 10
4.0468587751
 20
4.1976385775
 30
0.0
 10
4.0466471612
 20
4.197548721
 30
0.0
 10
4.0463772269
 20
4.1974594616
 30
0.0
 10
4.0460494618
 20
4.1973709568
 30
0.0
 10
4.0456643696
 20
4.1972835014
 30
0.0
 10
4.0450402684
 20
4.1971618668
 30
0.0
 10
4.044123186
 20
4.1970185411
 30
0.0
 10
4.0428651976
 20
4.1968619452
 30
0.0
 10
4.0414078852
 20
4.1967147255
 30
0.0
 10
4.0391095683
 20
4.1965244599
 30
0.0
 10
4.0358568877
 20
4.1963284132
 30
0.0
 10
4.031589056
 20
4.1961592164
 30
0.0
 10
4.0269586964
 20
4.1960548737
 30
0.0
 10
4.0237690779
 20
4.1960314554
 30
0.0
 10
4.0221434322
 20
4.1960314554
 30
0.0
  0
SPLINE
  5
393
100
AcDbEntity
  8
ALL_ASSEMBLY_MEMBERS
100
AcDbSpline
 62
7
  6
CONTINUOUS
 70
0
 71
3
 72
15
 73
11
 74
0
 42
0.0000001
 43
0.0000001
 44
0.0000000001
 40
0.0
 40
0.0
 40
0.0
 40
0.0
 40
0.1031029927
 40
0.1419173075
 40
0.1868697042
 40
0.2960373102
 40
0.4317451355
 40
0.594376754
 40
0.7838700743
 40
1.0
 40
1.0
 40
1.0
 40
1.0
 10
4.0471434322
 20
4.1705226693
 30
0.0
 10
4.0471434322
 20
4.1704577178
 30
0.0
 10
4.0470672518
 20
4.1703803924
 30
0.0
 10
4.0469702914
 20
4.1703185522
 30
0.0
 10
4.0468621405
 20
4.170261185
 30
0.0
 10
4.0466929136
 20
4.1701928505
 30
0.0
 10
4.0464479626
 20
4.1701150052
 30
0.0
 10
4.0461503888
 20
4.170037998
 30
0.0
 10
4.0458005505
 20
4.169961705
 30
0.0
 10
4.0455493651
 20
4.1699146291
 30
0.0
 10
4.0454152765
 20
4.1698909995
 30
0.0
  0
SPLINE
  5
394
100
AcDbEntity
  8
ALL_ASSEMBLY_MEMBERS
100
AcDbSpline
 62
7
  6
CONTINUOUS
 70
0
 71
3
 72
14
 73
10
 74
0
 42
0.0000001
 43
0.0000001
 44
0.0000000001
 40
0.0
 40
0.0
 40
0.0
 40
0.0
 40
0.0702467503
 40
0.1609833208
 40
0.2702939763
 40
0.395787046
 40
0.5346824944
 40
0.6839017631
 40
1.0
 40
1.0
 40
1.0
 40
1.0
 10
4.0454152765
 20
4.1698909995
 30
0.0
 10
4.044877626
 20
4.1697962528
 30
0.0
 10
4.0436370881
 20
4.1696281198
 30
0.0
 10
4.0415464184
 20
4.1694224403
 30
0.0
 10
4.0390228391
 20
4.1692388177
 30
0.0
 10
4.0361227219
 20
4.1690816482
 30
0.0
 10
4.0329106737
 20
4.168955215
 30
0.0
 10
4.0282165309
 20
4.1688295227
 30
0.0
 10
4.0246000451
 20
4.1687936826
 30
0.0
 10
4.0221434322
 20
4.1687936826
 30
0.0
  0
LINE
  5
395
100
AcDbEntity
  8
ALL_ASSEMBLY_MEMBERS
100
AcDbLine
 62
7
  6
CONTINUOUS
 10
4.0590359624
 20
3.9054286157
 11
4.0341366565
 21
3.9030983219
  0
LINE
  5
396
100
AcDbEntity
  8
ALL_ASSEMBLY_MEMBERS
100
AcDbLine
 62
7
  6
CONTINUOUS
 10
4.1613378686
 20
3.3569304909
 11
4.1373049108
 21
3.349956147
  0
LINE
  5
397
100
AcDbEntity
  8
ALL_ASSEMBLY_MEMBERS
100
AcDbLine
 62
7
  6
CONTINUOUS
 10
3.7359488816
 20
3.3569305236
 11
3.7599819536
 21
3.349956147
  0
LINE
  5
398
100
AcDbEntity
  8
ALL_ASSEMBLY_MEMBERS
100
AcDbLine
 62
7
  6
CONTINUOUS
 10
3.8382509043
 20
3.9054286155
 11
3.8631502079
 21
3.9030983219
  0
SPLINE
  5
399
100
AcDbEntity
  8
ALL_ASSEMBLY_MEMBERS
100
AcDbSpline
 62
7
  6
CONTINUOUS
 70
0
 71
3
 72
15
 73
11
 74
0
 42
0.0000001
 43
0.0000001
 44
0.0000000001
 40
0.0
 40
0.0
 40
0.0
 40
0.0
 40
0.1031029912
 40
0.1419173059
 40
0.1868697025
 40
0.2960373085
 40
0.4317451341
 40
0.5943767529
 40
0.7838700737
 40
1.0
 40
1.0
 40
1.0
 40
1.0
 10
3.8501434322
 20
4.1705226693
 30
0.0
 10
3.8501434322
 20
4.1704577178
 30
0.0
 10
3.8502196125
 20
4.1703803924
 30
0.0
 10
3.8503165729
 20
4.1703185522
 30
0.0
 10
3.8504247238
 20
4.170261185
 30
0.0
 10
3.8505939507
 20
4.1701928505
 30
0.0
 10
3.8508389017
 20
4.1701150052
 30
0.0
 10
3.8511364756
 20
4.170037998
 30
0.0
 10
3.8514863138
 20
4.169961705
 30
0.0
 10
3.8517374993
 20
4.1699146291
 30
0.0
 10
3.8518715879
 20
4.1698909995
 30
0.0
  0
SPLINE
  5
39A
100
AcDbEntity
  8
ALL_ASSEMBLY_MEMBERS
100
AcDbSpline
 62
7
  6
CONTINUOUS
 70
0
 71
3
 72
14
 73
10
 74
0
 42
0.0000001
 43
0.0000001
 44
0.0000000001
 40
0.0
 40
0.0
 40
0.0
 40
0.0
 40
0.0702467504
 40
0.160983321
 40
0.2702939765
 40
0.3957870463
 40
0.5346824946
 40
0.6839017633
 40
1.0
 40
1.0
 40
1.0
 40
1.0
 10
3.8518715879
 20
4.1698909995
 30
0.0
 10
3.8524092384
 20
4.1697962528
 30
0.0
 10
3.8536497763
 20
4.1696281198
 30
0.0
 10
3.855740446
 20
4.1694224403
 30
0.0
 10
3.8582640253
 20
4.1692388177
 30
0.0
 10
3.8611641424
 20
4.1690816482
 30
0.0
 10
3.8643761907
 20
4.168955215
 30
0.0
 10
3.8690703335
 20
4.1688295227
 30
0.0
 10
3.8726868193
 20
4.1687936826
 30
0.0
 10
3.8751434322
 20
4.1687936826
 30
0.0
  0
SPLINE
  5
39B
100
AcDbEntity
  8
ALL_ASSEMBLY_MEMBERS
100
AcDbSpline
 62
7
  6
CONTINUOUS
 70
0
 71
3
 72
24
 73
20
 74
0
 42
0.0000001
 43
0.0000001
 44
0.0000000001
 40
0.0
 40
0.0
 40
0.0
 40
0.0
 40
0.0038712598
 40
0.0062402554
 40
0.0090203736
 40
0.0160057181
 40
0.0250719923
 40
0.0363123255
 40
0.0497574351
 40
0.06540151
 40
0.0832256393
 40
0.1253027682
 40
0.1756623762
 40
0.2338458842
 40
0.2993356828
 40
0.4496827205
 40
0.6210004063
 40
0.8068330622
 40
1.0
 40
1.0
 40
1.0
 40
1.0
 10
3.8501434322
 20
4.1979285765
 30
0.0
 10
3.8501434322
 20
4.1978959969
 30
0.0
 10
3.8501634578
 20
4.1978434699
 30
0.0
 10
3.8502124791
 20
4.1977855436
 30
0.0
 10
3.8502901701
 20
4.1977185511
 30
0.0
 10
3.8504280892
 20
4.1976385775
 30
0.0
 10
3.8506397032
 20
4.197548721
 30
0.0
 10
3.8509096375
 20
4.1974594616
 30
0.0
 10
3.8512374026
 20
4.1973709568
 30
0.0
 10
3.8516224947
 20
4.1972835014
 30
0.0
 10
3.8522465959
 20
4.1971618668
 30
0.0
 10
3.8531636784
 20
4.1970185411
 30
0.0
 10
3.8544216668
 20
4.1968619452
 30
0.0
 10
3.8558789792
 20
4.1967147255
 30
0.0
 10
3.8581772961
 20
4.1965244599
 30
0.0
 10
3.8614299767
 20
4.1963284132
 30
0.0
 10
3.8656978084
 20
4.1961592164
 30
0.0
 10
3.8703281679
 20
4.1960548737
 30
0.0
 10
3.8735177864
 20
4.1960314554
 30
0.0
 10
3.8751434322
 20
4.1960314554
 30
0.0
  0
SPLINE
  5
39C
100
AcDbEntity
  8
ALL_ASSEMBLY_MEMBERS
100
AcDbSpline
 62
7
  6
CONTINUOUS
 70
0
 71
3
 72
18
 73
14
 74
0
 42
0.0000001
 43
0.0000001
 44
0.0000000001
 40
0.0
 40
0.0
 40
0.0
 40
0.0
 40
0.0464962061
 40
0.0938172699
 40
0.1425870095
 40
0.1933781413
 40
0.2466538204
 40
0.3027206641
 40
0.4235581303
 40
0.5558816335
 40
0.6979775885
 40
0.8471649039
 40
1.0
 40
1.0
 40
1.0
 40
1.0
 10
3.8501434322
 20
4.5021850224
 30
0.0
 10
3.8501434322
 20
4.5016895971
 30
0.0
 10
3.8502258993
 20
4.5006881793
 30
0.0
 10
3.850591324
 20
4.49920739
 30
0.0
 10
3.8511960612
 20
4.4977575935
 30
0.0
 10
3.8520319451
 20
4.4963542156
 30
0.0
 10
3.8530897482
 20
4.4950098515
 30
0.0
 10
3.8548243488
 20
4.4932693287
 30
0.0
 10
3.8575127989
 20
4.4913255561
 30
0.0
 10
3.8613117562
 20
4.4894705055
 30
0.0
 10
3.8656257063
 20
4.4880945606
 30
0.0
 10
3.870293455
 20
4.4872490655
 30
0.0
 10
3.8735149472
 20
4.4870593601
 30
0.0
 10
3.8751434322
 20
4.4870593601
 30
0.0
  0
SPLINE
  5
39D
100
AcDbEntity
  8
ALL_ASSEMBLY_MEMBERS
100
AcDbSpline
 62
7
  6
CONTINUOUS
 70
0
 71
3
 72
11
 73
7
 74
0
 42
0.0000001
 43
0.0000001
 44
0.0000000001
 40
0.0
 40
0.0
 40
0.0
 40
0.0
 40
0.249408503
 40
0.4993112007
 40
0.7495586595
 40
1.0
 40
1.0
 40
1.0
 40
1.0
 10
3.9246434322
 20
4.1725152203
 30
0.0
 10
3.9246434305
 20
4.1400947832
 30
0.0
 10
3.9236413912
 20
4.0751848412
 30
0.0
 10
3.9190218683
 20
3.9778433599
 30
0.0
 10
3.911236039
 20
3.8805689742
 30
0.0
 10
3.9039255934
 20
3.8158828576
 30
0.0
 10
3.8997402716
 20
3.7835983219
 30
0.0
  0
SPLINE
  5
39E
100
AcDbEntity
  8
ALL_ASSEMBLY_MEMBERS
100
AcDbSpline
 62
7
  6
CONTINUOUS
 70
0
 71
3
 72
18
 73
14
 74
0
 42
0.0000001
 43
0.0000001
 44
0.0000000001
 40
0.0
 40
0.0
 40
0.0
 40
0.0
 40
0.0464962063
 40
0.0938172704
 40
0.1425870103
 40
0.1933781424
 40
0.2466538216
 40
0.3027206654
 40
0.4235581317
 40
0.5558816347
 40
0.6979775895
 40
0.8471649043
 40
1.0
 40
1.0
 40
1.0
 40
1.0
 10
3.9976434322
 20
4.4749588304
 30
0.0
 10
3.9976434322
 20
4.4753551706
 30
0.0
 10
3.9977094058
 20
4.4761563048
 30
0.0
 10
3.9980017457
 20
4.4773409362
 30
0.0
 10
3.9984855354
 20
4.4785007735
 30
0.0
 10
3.9991542425
 20
4.4796234758
 30
0.0
 10
4.000000485
 20
4.4806989671
 30
0.0
 10
4.0013881655
 20
4.4820913853
 30
0.0
 10
4.0035389256
 20
4.4836464034
 30
0.0
 10
4.0065780914
 20
4.4851304439
 30
0.0
 10
4.0100292515
 20
4.4862311998
 30
0.0
 10
4.0137634504
 20
4.4869075958
 30
0.0
 10
4.0163406442
 20
4.4870593601
 30
0.0
 10
4.0176434322
 20
4.4870593601
 30
0.0
  0
SPLINE
  5
39F
100
AcDbEntity
  8
ALL_ASSEMBLY_MEMBERS
100
AcDbSpline
 62
7
  6
CONTINUOUS
 70
0
 71
3
 72
23
 73
19
 74
0
 42
0.0000001
 43
0.0000001
 44
0.0000000001
 40
0.0
 40
0.0
 40
0.0
 40
0.0
 40
0.003871329
 40
0.0090026455
 40
0.0159881148
 40
0.0250545512
 40
0.0362950855
 40
0.0497404354
 40
0.0653847902
 40
0.0832092381
 40
0.1252871197
 40
0.1756476284
 40
0.2338321771
 40
0.2993231472
 40
0.4496728746
 40
0.6209936252
 40
0.8068296062
 40
1.0
 40
1.0
 40
1.0
 40
1.0
 10
3.9976434322
 20
4.1945137585
 30
0.0
 10
3.9976434322
 20
4.1945398222
 30
0.0
 10
3.9976667416
 20
4.1946000471
 30
0.0
 10
3.9977475694
 20
4.1946734611
 30
0.0
 10
3.9978709493
 20
4.1947458896
 30
0.0
 10
3.998040527
 20
4.1948175936
 30
0.0
 10
3.9982563688
 20
4.1948890679
 30
0.0
 10
3.9985186178
 20
4.1949598484
 30
0.0
 10
3.9988266792
 20
4.1950298205
 30
0.0
 10
3.9993259653
 20
4.1951271249
 30
0.0
 10
4.0000596282
 20
4.1952417874
 30
0.0
 10
4.0010660202
 20
4.1953670634
 30
0.0
 10
4.0022318696
 20
4.1954848394
 30
0.0
 10
4.0040705234
 20
4.1956370518
 30
0.0
 10
4.0066726677
 20
4.1957938892
 30
0.0
 10
4.0100869331
 20
4.1959292466
 30
0.0
 10
4.0137912208
 20
4.1960127208
 30
0.0
 10
4.0163429156
 20
4.1960314554
 30
0.0
 10
4.0176434322
 20
4.1960314554
 30
0.0
  0
SPLINE
  5
3A0
100
AcDbEntity
  8
ALL_ASSEMBLY_MEMBERS
100
AcDbSpline
 62
7
  6
CONTINUOUS
 70
0
 71
3
 72
14
 73
10
 74
0
 42
0.0000001
 43
0.0000001
 44
0.0000000001
 40
0.0
 40
0.0
 40
0.0
 40
0.0
 40
0.1046011479
 40
0.1885423612
 40
0.2977243832
 40
0.4332496405
 40
0.5955283862
 40
0.784516202
 40
1.0
 40
1.0
 40
1.0
 40
1.0
 10
3.9976434322
 20
4.1749183002
 30
0.0
 10
3.9976434322
 20
4.1749712243
 30
0.0
 10
3.9977214915
 20
4.1750532074
 30
0.0
 10
3.9978491915
 20
4.1751242277
 30
0.0
 10
3.9980040987
 20
4.1751897101
 30
0.0
 10
3.9981995885
 20
4.1752530179
 30
0.0
 10
3.9984378494
 20
4.1753165262
 30
0.0
 10
3.9987176741
 20
4.1753791299
 30
0.0
 10
3.998918673
 20
4.1754178333
 30
0.0
 10
3.9990259568
 20
4.1754372485
 30
0.0
  0
LINE
  5
3A1
100
AcDbEntity
  8
ALL_ASSEMBLY_MEMBERS
100
AcDbLine
 62
7
  6
CONTINUOUS
 10
3.9990259568
 20
4.1754372485
 11
3.9996240549
 21
4.1755346099
  0
SPLINE
  5
3A2
100
AcDbEntity
  8
ALL_ASSEMBLY_MEMBERS
100
AcDbSpline
 62
7
  6
CONTINUOUS
 70
0
 71
3
 72
13
 73
9
 74
0
 42
0.0000001
 43
0.0000001
 44
0.0000000001
 40
0.0
 40
0.0
 40
0.0
 40
0.0
 40
0.0776153061
 40
0.1731203716
 40
0.2847206903
 40
0.4102759608
 40
0.6931874559
 40
1.0
 40
1.0
 40
1.0
 40
1.0
 10
3.9996240549
 20
4.1755346099
 30
0.0
 10
4.0000859928
 20
4.1756027246
 30
0.0
 10
4.0011204548
 20
4.175726436
 30
0.0
 10
4.0028266243
 20
4.1758791424
 30
0.0
 10
4.0048234626
 20
4.176014503
 30
0.0
 10
4.0079482061
 20
4.1761741404
 30
0.0
 10
4.0122497995
 20
4.1763043874
 30
0.0
 10
4.0157976514
 20
4.1763387491
 30
0.0
 10
4.0176434322
 20
4.1763387491
 30
0.0
  0
LINE
  5
3A3
100
AcDbEntity
  8
ALL_ASSEMBLY_MEMBERS
100
AcDbLine
 62
7
  6
CONTINUOUS
 10
3.9978790759
 20
4.1366050024
 11
3.9979317928
 21
4.136697831
  0
LINE
  5
3A4
100
AcDbEntity
  8
ALL_ASSEMBLY_MEMBERS
100
AcDbLine
 62
7
  6
CONTINUOUS
 10
3.9979317928
 20
4.136697831
 11
3.9992480662
 21
4.137072591
  0
SPLINE
  5
3A5
100
AcDbEntity
  8
ALL_ASSEMBLY_MEMBERS
100
AcDbSpline
 62
7
  6
CONTINUOUS
 70
0
 71
3
 72
14
 73
10
 74
0
 42
0.0000001
 43
0.0000001
 44
0.0000000001
 40
0.0
 40
0.0
 40
0.0
 40
0.0
 40
0.0700094615
 40
0.1606147828
 40
0.2698774369
 40
0.3953881098
 40
0.5343504189
 40
0.6836694628
 40
1.0
 40
1.0
 40
1.0
 40
1.0
 10
3.9992480662
 20
4.137072591
 30
0.0
 10
3.9996775404
 20
4.1371456159
 30
0.0
 10
4.0006686953
 20
4.1372778217
 30
0.0
 10
4.002339746
 20
4.1374451482
 30
0.0
 10
4.0043585924
 20
4.1376010217
 30
0.0
 10
4.0066799905
 20
4.1377417482
 30
0.0
 10
4.0092520229
 20
4.1378636072
 30
0.0
 10
4.0130118529
 20
4.1379995175
 30
0.0
 10
4.0159089755
 20
4.1380606593
 30
0.0
 10
4.0178772143
 20
4.1380848019
 30
0.0
  0
LINE
  5
3A6
100
AcDbEntity
  8
ALL_ASSEMBLY_MEMBERS
100
AcDbLine
 62
7
  6
CONTINUOUS
 10
4.0094361726
 20
3.9013922329
 11
4.029053687
 21
3.9030983219
  0
LINE
  5
3A7
100
AcDbEntity
  8
ALL_ASSEMBLY_MEMBERS
100
AcDbLine
 62
7
  6
CONTINUOUS
 10
4.0217151678
 20
3.7868615405
 11
4.041050023
 21
3.7893890483
  0
LINE
  5
3A8
100
AcDbEntity
  8
ALL_ASSEMBLY_MEMBERS
100
AcDbLine
 62
7
  6
CONTINUOUS
 10
4.1129006557
 20
3.3436225456
 11
4.1314464295
 21
3.3489609043
  0
LINE
  5
3A9
100
AcDbEntity
  8
ALL_ASSEMBLY_MEMBERS
100
AcDbLine
 62
7
  6
CONTINUOUS
 10
3.7843858118
 20
3.3436221397
 11
3.765840639
 21
3.3489614467
  0
LINE
  5
3AA
100
AcDbEntity
  8
ALL_ASSEMBLY_MEMBERS
100
AcDbLine
 62
7
  6
CONTINUOUS
 10
3.8755716989
 20
3.7868615471
 11
3.8562368413
 21
3.7893890483
  0
LINE
  5
3AB
100
AcDbEntity
  8
ALL_ASSEMBLY_MEMBERS
100
AcDbLine
 62
7
  6
CONTINUOUS
 10
3.8878506943
 20
3.9013922338
 11
3.8682331772
 21
3.9030983219
  0
LINE
  5
3AC
100
AcDbEntity
  8
ALL_ASSEMBLY_MEMBERS
100
AcDbLine
 62
7
  6
CONTINUOUS
 10
3.8994079427
 20
4.1366049993
 11
3.8993552261
 21
4.1366978274
  0
LINE
  5
3AD
100
AcDbEntity
  8
ALL_ASSEMBLY_MEMBERS
100
AcDbLine
 62
7
  6
CONTINUOUS
 10
3.8993552261
 20
4.1366978274
 11
3.8980389423
 21
4.1370725864
  0
SPLINE
  5
3AE
100
AcDbEntity
  8
ALL_ASSEMBLY_MEMBERS
100
AcDbSpline
 62
7
  6
CONTINUOUS
 70
0
 71
3
 72
14
 73
10
 74
0
 42
0.0000001
 43
0.0000001
 44
0.0000000001
 40
0.0
 40
0.0
 40
0.0
 40
0.0
 40
0.070009545
 40
0.1606149865
 40
0.2698777703
 40
0.3953885517
 40
0.5343509152
 40
0.6836699255
 40
1.0
 40
1.0
 40
1.0
 40
1.0
 10
3.8980389423
 20
4.1370725864
 30
0.0
 10
3.8976094641
 20
4.1371456114
 30
0.0
 10
3.8966183002
 20
4.1372778174
 30
0.0
 10
3.8949472344
 20
4.1374451444
 30
0.0
 10
3.8929283702
 20
4.1376010186
 30
0.0
 10
3.8906069523
 20
4.137741746
 30
0.0
 10
3.8880348993
 20
4.1378636057
 30
0.0
 10
3.8842750429
 20
4.137999517
 30
0.0
 10
3.8813779011
 20
4.1380606593
 30
0.0
 10
3.87940965
 20
4.1380848021
 30
0.0
  0
SPLINE
  5
3AF
100
AcDbEntity
  8
ALL_ASSEMBLY_MEMBERS
100
AcDbSpline
 62
7
  6
CONTINUOUS
 70
0
 71
3
 72
14
 73
10
 74
0
 42
0.0000001
 43
0.0000001
 44
0.0000000001
 40
0.0
 40
0.0
 40
0.0
 40
0.0
 40
0.1046011434
 40
0.1885423559
 40
0.297724378
 40
0.4332496359
 40
0.5955283827
 40
0.7845162
 40
1.0
 40
1.0
 40
1.0
 40
1.0
 10
3.8996434322
 20
4.1749183002
 30
0.0
 10
3.8996434322
 20
4.1749712243
 30
0.0
 10
3.8995653729
 20
4.1750532074
 30
0.0
 10
3.8994376729
 20
4.1751242277
 30
0.0
 10
3.8992827657
 20
4.1751897101
 30
0.0
 10
3.8990872759
 20
4.1752530178
 30
0.0
 10
3.898849015
 20
4.1753165262
 30
0.0
 10
3.8985691903
 20
4.1753791299
 30
0.0
 10
3.8983681914
 20
4.1754178332
 30
0.0
 10
3.8982609076
 20
4.1754372485
 30
0.0
  0
LINE
  5
3B0
100
AcDbEntity
  8
ALL_ASSEMBLY_MEMBERS
100
AcDbLine
 62
7
  6
CONTINUOUS
 10
3.8982609076
 20
4.1754372485
 11
3.8976628095
 21
4.1755346099
  0
SPLINE
  5
3B1
100
AcDbEntity
  8
ALL_ASSEMBLY_MEMBERS
100
AcDbSpline
 62
7
  6
CONTINUOUS
 70
0
 71
3
 72
13
 73
9
 74
0
 42
0.0000001
 43
0.0000001
 44
0.0000000001
 40
0.0
 40
0.0
 40
0.0
 40
0.0
 40
0.077615305
 40
0.1731203698
 40
0.2847206883
 40
0.4102759587
 40
0.6931874545
 40
1.0
 40
1.0
 40
1.0
 40
1.0
 10
3.8976628095
 20
4.1755346099
 30
0.0
 10
3.8972008716
 20
4.1756027245
 30
0.0
 10
3.8961664097
 20
4.175726436
 30
0.0
 10
3.8944602402
 20
4.1758791423
 30
0.0
 10
3.8924634019
 20
4.1760145029
 30
0.0
 10
3.8893386584
 20
4.1761741403
 30
0.0
 10
3.8850370649
 20
4.1763043874
 30
0.0
 10
3.881489213
 20
4.1763387491
 30
0.0
 10
3.8796434322
 20
4.1763387491
 30
0.0
  0
SPLINE
  5
3B2
100
AcDbEntity
  8
ALL_ASSEMBLY_MEMBERS
100
AcDbSpline
 62
7
  6
CONTINUOUS
 70
0
 71
3
 72
23
 73
19
 74
0
 42
0.0000001
 43
0.0000001
 44
0.0000000001
 40
0.0
 40
0.0
 40
0.0
 40
0.0
 40
0.003871329
 40
0.0090026454
 40
0.0159881148
 40
0.0250545511
 40
0.0362950853
 40
0.0497404352
 40
0.0653847898
 40
0.0832092376
 40
0.125287119
 40
0.1756476274
 40
0.2338321761
 40
0.299323146
 40
0.4496728734
 40
0.6209936241
 40
0.8068296058
 40
1.0
 40
1.0
 40
1.0
 40
1.0
 10
3.8996434322
 20
4.1945137585
 30
0.0
 10
3.8996434322
 20
4.1945398222
 30
0.0
 10
3.8996201228
 20
4.1946000471
 30
0.0
 10
3.899539295
 20
4.1946734611
 30
0.0
 10
3.8994159151
 20
4.1947458896
 30
0.0
 10
3.8992463374
 20
4.1948175936
 30
0.0
 10
3.8990304955
 20
4.1948890679
 30
0.0
 10
3.8987682465
 20
4.1949598484
 30
0.0
 10
3.8984601852
 20
4.1950298205
 30
0.0
 10
3.897960899
 20
4.1951271249
 30
0.0
 10
3.8972272362
 20
4.1952417874
 30
0.0
 10
3.8962208442
 20
4.1953670634
 30
0.0
 10
3.8950549947
 20
4.1954848394
 30
0.0
 10
3.893216341
 20
4.1956370518
 30
0.0
 10
3.8906141966
 20
4.1957938892
 30
0.0
 10
3.8871999312
 20
4.1959292467
 30
0.0
 10
3.8834956436
 20
4.1960127208
 30
0.0
 10
3.8809439488
 20
4.1960314554
 30
0.0
 10
3.8796434322
 20
4.1960314554
 30
0.0
  0
SPLINE
  5
3B3
100
AcDbEntity
  8
ALL_ASSEMBLY_MEMBERS
100
AcDbSpline
 62
7
  6
CONTINUOUS
 70
0
 71
3
 72
18
 73
14
 74
0
 42
0.0000001
 43
0.0000001
 44
0.0000000001
 40
0.0
 40
0.0
 40
0.0
 40
0.0
 40
0.0464962065
 40
0.0938172713
 40
0.142587012
 40
0.1933781446
 40
0.246653824
 40
0.3027206681
 40
0.4235581347
 40
0.5558816374
 40
0.6979775918
 40
0.8471649052
 40
1.0
 40
1.0
 40
1.0
 40
1.0
 10
3.8996434322
 20
4.4749588304
 30
0.0
 10
3.8996434322
 20
4.4753551706
 30
0.0
 10
3.8995774585
 20
4.4761563048
 30
0.0
 10
3.8992851187
 20
4.4773409363
 30
0.0
 10
3.8988013289
 20
4.4785007735
 30
0.0
 10
3.8981326218
 20
4.4796234759
 30
0.0
 10
3.8972863793
 20
4.4806989671
 30
0.0
 10
3.8958986988
 20
4.4820913854
 30
0.0
 10
3.8937479387
 20
4.4836464035
 30
0.0
 10
3.8907087729
 20
4.4851304439
 30
0.0
 10
3.8872576128
 20
4.4862311998
 30
0.0
 10
3.8835234139
 20
4.4869075958
 30
0.0
 10
3.8809462201
 20
4.4870593601
 30
0.0
 10
3.8796434322
 20
4.4870593601
 30
0.0
  0
SPLINE
  5
3B4
100
AcDbEntity
  8
ALL_ASSEMBLY_MEMBERS
100
AcDbSpline
 62
7
  6
CONTINUOUS
 70
0
 71
3
 72
11
 73
7
 74
0
 42
0.0000001
 43
0.0000001
 44
0.0000000001
 40
0.0
 40
0.0
 40
0.0
 40
0.0
 40
0.2504413375
 40
0.5006890018
 40
0.7505916298
 40
1.0
 40
1.0
 40
1.0
 40
1.0
 10
3.9975465928
 20
3.7835983219
 30
0.0
 10
3.9933612706
 20
3.8158828571
 30
0.0
 10
3.9860508236
 20
3.8805690001
 30
0.0
 10
3.9782649919
 20
3.977843403
 30
0.0
 10
3.9736454732
 20
4.0751848848
 30
0.0
 10
3.9726434337
 20
4.1400948004
 30
0.0
 10
3.9726434322
 20
4.1725152203
 30
0.0
  0
SPLINE
  5
3B5
100
AcDbEntity
  8
ALL_ASSEMBLY_MEMBERS
100
AcDbSpline
 62
7
  6
CONTINUOUS
 70
0
 71
3
 72
10
 73
6
 74
0
 42
0.0000001
 43
0.0000001
 44
0.0000000001
 40
0.0
 40
0.0
 40
0.0
 40
0.0
 40
0.2498003338
 40
0.4997737096
 40
1.0
 40
1.0
 40
1.0
 40
1.0
 10
4.0178772143
 20
4.1380848036
 30
0.0
 10
4.018117325
 20
4.1184941035
 30
0.0
 10
4.0189347906
 20
4.0793021402
 30
0.0
 10
4.0219493643
 20
4.0009262858
 30
0.0
 10
4.0257864388
 20
3.9421954529
 30
0.0
 10
4.029053687
 20
3.9030983219
 30
0.0
  0
SPLINE
  5
3B6
100
AcDbEntity
  8
ALL_ASSEMBLY_MEMBERS
100
AcDbSpline
 62
7
  6
CONTINUOUS
 70
0
 71
3
 72
10
 73
6
 74
0
 42
0.0000001
 43
0.0000001
 44
0.0000000001
 40
0.0
 40
0.0
 40
0.0
 40
0.0
 40
0.5002262906
 40
0.7501996664
 40
1.0
 40
1.0
 40
1.0
 40
1.0
 10
3.8682331772
 20
3.9030983219
 30
0.0
 10
3.871500422
 20
3.9421954531
 30
0.0
 10
3.8753375012
 20
4.0009262855
 30
0.0
 10
3.8783520742
 20
4.0793021398
 30
0.0
 10
3.879169539
 20
4.1184941031
 30
0.0
 10
3.87940965
 20
4.1380848031
 30
0.0
  0
SPLINE
  5
3B7
100
AcDbEntity
  8
ALL_ASSEMBLY_MEMBERS
100
AcDbSpline
 62
7
  6
CONTINUOUS
 70
0
 71
3
 72
9
 73
5
 74
0
 42
0.0000001
 43
0.0000001
 44
0.0000000001
 40
0.0
 40
0.0
 40
0.0
 40
0.0
 40
0.5000003726
 40
1.0
 40
1.0
 40
1.0
 40
1.0
 10
4.029053687
 20
3.9030983219
 30
0.0
 10
4.0306486422
 20
3.8841073157
 30
0.0
 10
4.0342254163
 20
3.8461566362
 30
0.0
 10
4.0386328044
 20
3.8082929677
 30
0.0
 10
4.041050023
 20
3.7893890483
 30
0.0
  0
SPLINE
  5
3B8
100
AcDbEntity
  8
ALL_ASSEMBLY_MEMBERS
100
AcDbSpline
 62
7
  6
CONTINUOUS
 70
0
 71
3
 72
9
 73
5
 74
0
 42
0.0000001
 43
0.0000001
 44
0.0000000001
 40
0.0
 40
0.0
 40
0.0
 40
0.0
 40
0.4999996274
 40
1.0
 40
1.0
 40
1.0
 40
1.0
 10
3.8562368413
 20
3.7893890483
 30
0.0
 10
3.8586540593
 20
3.8082929678
 30
0.0
 10
3.8630614492
 20
3.846156636
 30
0.0
 10
3.8666382221
 20
3.8841073157
 30
0.0
 10
3.8682331772
 20
3.9030983219
 30
0.0
  0
SPLINE
  5
3B9
100
AcDbEntity
  8
ALL_ASSEMBLY_MEMBERS
100
AcDbSpline
 62
7
  6
CONTINUOUS
 70
0
 71
3
 72
18
 73
14
 74
0
 42
0.0000001
 43
0.0000001
 44
0.0000000001
 40
0.0
 40
0.0
 40
0.0
 40
0.0
 40
0.1525181234
 40
0.3014245688
 40
0.4433111333
 40
0.575529406
 40
0.6963934449
 40
0.7525287891
 40
0.8059101137
 40
0.856842013
 40
0.9057829969
 40
0.9532980057
 40
1.0
 40
1.0
 40
1.0
 40
1.0
 10
3.9246434322
 20
4.4562824578
 30
0.0
 10
3.9230149092
 20
4.4562824578
 30
0.0
 10
3.9197929932
 20
4.4564734529
 30
0.0
 10
3.9151247862
 20
4.4573246824
 30
0.0
 10
3.9108103781
 20
4.4587099975
 30
0.0
 10
3.907011016
 20
4.4605777514
 30
0.0
 10
3.9043232521
 20
4.4625342941
 30
0.0
 10
3.9025893049
 20
4.4642857654
 30
0.0
 10
3.90153157
 20
4.4656390203
 30
0.0
 10
3.9006957951
 20
4.4670516214
 30
0.0
 10
3.9000911854
 20
4.4685108598
 30
0.0
 10
3.899725867
 20
4.4700012073
 30
0.0
 10
3.8996434322
 20
4.4710089834
 30
0.0
 10
3.8996434322
 20
4.4715076472
 30
0.0
  0
SPLINE
  5
3BA
100
AcDbEntity
  8
ALL_ASSEMBLY_MEMBERS
100
AcDbSpline
 62
7
  6
CONTINUOUS
 70
0
 71
3
 72
15
 73
11
 74
0
 42
0.0000001
 43
0.0000001
 44
0.0000000001
 40
0.0
 40
0.0
 40
0.0
 40
0.0
 40
0.0894130084
 40
0.178435092
 40
0.2664767311
 40
0.3529024348
 40
0.6678676294
 40
0.7958529805
 40
0.8963609241
 40
1.0
 40
1.0
 40
1.0
 40
1.0
 10
4.6226434322
 20
4.9181007719
 30
0.0
 10
4.6203911698
 20
4.9166509186
 30
0.0
 10
4.6158625701
 20
4.9138097911
 30
0.0
 10
4.6089980595
 20
4.9097333429
 30
0.0
 10
4.6021060798
 20
4.9058827217
 30
0.0
 10
4.5891159353
 20
4.8990838863
 30
0.0
 10
4.5745569646
 20
4.8926773947
 30
0.0
 10
4.5591085083
 20
4.8875174135
 30
0.0
 10
4.5495188318
 20
4.8848519202
 30
0.0
 10
4.5435519907
 20
4.8834971352
 30
0.0
 10
4.5405076495
 20
4.8828876649
 30
0.0
  0
SPLINE
  5
3BB
100
AcDbEntity
  8
ALL_ASSEMBLY_MEMBERS
100
AcDbSpline
 62
7
  6
CONTINUOUS
 70
0
 71
3
 72
15
 73
11
 74
0
 42
0.0000001
 43
0.0000001
 44
0.0000000001
 40
0.0
 40
0.0
 40
0.0
 40
0.0
 40
0.167801683
 40
0.3321787396
 40
0.489873843
 40
0.637494145
 40
0.7704593901
 40
0.8820322184
 40
0.9624329978
 40
1.0
 40
1.0
 40
1.0
 40
1.0
 10
4.6226434322
 20
4.9181007719
 30
0.0
 10
4.6276755307
 20
4.9213400945
 30
0.0
 10
4.6374728202
 20
4.9280105313
 30
0.0
 10
4.6514733803
 20
4.9384689183
 30
0.0
 10
4.6645150592
 20
4.9489872227
 30
0.0
 10
4.6763755451
 20
4.9591717011
 30
0.0
 10
4.6867529452
 20
4.9685502392
 30
0.0
 10
4.6951932829
 20
4.9764922135
 30
0.0
 10
4.7010735891
 20
4.9821881515
 30
0.0
 10
4.7040696377
 20
4.9851419622
 30
0.0
 10
4.705021804
 20
4.9860845529
 30
0.0
  0
SPLINE
  5
3BC
100
AcDbEntity
  8
ALL_ASSEMBLY_MEMBERS
100
AcDbSpline
 62
7
  6
CONTINUOUS
 70
0
 71
3
 72
10
 73
6
 74
0
 42
0.0000001
 43
0.0000001
 44
0.0000000001
 40
0.0
 40
0.0
 40
0.0
 40
0.0
 40
0.3226795887
 40
0.6225601041
 40
1.0
 40
1.0
 40
1.0
 40
1.0
 10
4.7006434322
 20
4.2325899831
 30
0.0
 10
4.706121914
 20
4.2283641339
 30
0.0
 10
4.7164963448
 20
4.2199548895
 30
0.0
 10
4.7325992989
 20
4.2057907712
 30
0.0
 10
4.7431295825
 20
4.1957818775
 30
0.0
 10
4.7488911383
 20
4.1900983219
 30
0.0
  0
SPLINE
  5
3BD
100
AcDbEntity
  8
ALL_ASSEMBLY_MEMBERS
100
AcDbSpline
 62
7
  6
CONTINUOUS
 70
0
 71
3
 72
11
 73
7
 74
0
 42
0.0000001
 43
0.0000001
 44
0.0000000001
 40
0.0
 40
0.0
 40
0.0
 40
0.0
 40
0.1202471712
 40
0.3582149869
 40
0.6651883386
 40
1.0
 40
1.0
 40
1.0
 40
1.0
 10
4.6525271158
 20
4.264071312
 30
0.0
 10
4.6545629415
 20
4.2629856526
 30
0.0
 10
4.6605884099
 20
4.2596775608
 30
0.0
 10
4.6715578795
 20
4.2531443876
 30
0.0
 10
4.6856357636
 20
4.2438176544
 30
0.0
 10
4.6955567422
 20
4.236513622
 30
0.0
 10
4.7006434322
 20
4.2325899831
 30
0.0
  0
SPLINE
  5
3BE
100
AcDbEntity
  8
ALL_ASSEMBLY_MEMBERS
100
AcDbSpline
 62
7
  6
CONTINUOUS
 70
0
 71
3
 72
14
 73
10
 74
0
 42
0.0000001
 43
0.0000001
 44
0.0000000001
 40
0.0
 40
0.0
 40
0.0
 40
0.0
 40
0.0554441525
 40
0.1232486656
 40
0.2112387938
 40
0.3224275269
 40
0.4578445402
 40
0.6172110948
 40
1.0
 40
1.0
 40
1.0
 40
1.0
 10
5.3721470556
 20
4.2497605923
 30
0.0
 10
5.3721782471
 20
4.2497640604
 30
0.0
 10
5.3722502582
 20
4.2497523757
 30
0.0
 10
5.3723507926
 20
4.2496836979
 30
0.0
 10
5.3724519316
 20
4.2495704546
 30
0.0
 10
5.3725561883
 20
4.249411776
 30
0.0
 10
5.3726631597
 20
4.2492081311
 30
0.0
 10
5.3728179331
 20
4.2488570017
 30
0.0
 10
5.3729209313
 20
4.2485675006
 30
0.0
 10
5.372988865
 20
4.2483617514
 30
0.0
  0
SPLINE
  5
3BF
100
AcDbEntity
  8
ALL_ASSEMBLY_MEMBERS
100
AcDbSpline
 62
7
  6
CONTINUOUS
 70
0
 71
3
 72
11
 73
7
 74
0
 42
0.0000001
 43
0.0000001
 44
0.0000000001
 40
0.0
 40
0.0
 40
0.0
 40
0.0
 40
0.15605347
 40
0.3656305727
 40
0.6470321484
 40
1.0
 40
1.0
 40
1.0
 40
1.0
 10
5.3733874303
 20
4.7613271833
 30
0.0
 10
5.3734447514
 20
4.7613248849
 30
0.0
 10
5.3735758671
 20
4.7612650358
 30
0.0
 10
5.373722534
 20
4.7610731979
 30
0.0
 10
5.3738613428
 20
4.7607950963
 30
0.0
 10
5.3739383394
 20
4.760574313
 30
0.0
 10
5.3739768536
 20
4.7604504052
 30
0.0
  0
SPLINE
  5
3C0
100
AcDbEntity
  8
ALL_ASSEMBLY_MEMBERS
100
AcDbSpline
 62
7
  6
CONTINUOUS
 70
0
 71
3
 72
11
 73
7
 74
0
 42
0.0000001
 43
0.0000001
 44
0.0000000001
 40
0.0
 40
0.0
 40
0.0
 40
0.0
 40
0.1948448131
 40
0.4179212199
 40
0.684316684
 40
1.0
 40
1.0
 40
1.0
 40
1.0
 10
5.3902360328
 20
4.8468676766
 30
0.0
 10
5.3901717563
 20
4.8468708116
 30
0.0
 10
5.390031684
 20
4.8468459899
 30
0.0
 10
5.3898334897
 20
4.846731827
 30
0.0
 10
5.3896368394
 20
4.846550798
 30
0.0
 10
5.3895159837
 20
4.8464005731
 30
0.0
 10
5.389454564
 20
4.846316321
 30
0.0
  0
LINE
  5
3C1
100
AcDbEntity
  8
ALL_ASSEMBLY_MEMBERS
100
AcDbLine
 62
7
  6
CONTINUOUS
 10
5.3783134252
 20
4.8328071768
 11
5.3777772926
 21
4.8326494106
  0
LINE
  5
3C2
100
AcDbEntity
  8
ALL_ASSEMBLY_MEMBERS
100
AcDbLine
 62
7
  6
CONTINUOUS
 10
5.3777772926
 20
4.8326494106
 11
5.377113522
 21
4.8319879304
  0
SPLINE
  5
3C3
100
AcDbEntity
  8
ALL_ASSEMBLY_MEMBERS
100
AcDbSpline
 62
7
  6
CONTINUOUS
 70
0
 71
3
 72
14
 73
10
 74
0
 42
0.0000001
 43
0.0000001
 44
0.0000000001
 40
0.0
 40
0.0
 40
0.0
 40
0.0
 40
0.0679878905
 40
0.1451297321
 40
0.2379322367
 40
0.350004233
 40
0.4829277413
 40
0.6363728914
 40
1.0
 40
1.0
 40
1.0
 40
1.0
 10
5.3900438864
 20
4.8591536234
 30
0.0
 10
5.3901516732
 20
4.8591479563
 30
0.0
 10
5.3903806812
 20
4.8590856758
 30
0.0
 10
5.3906913773
 20
4.8588616724
 30
0.0
 10
5.390983125
 20
4.8585183332
 30
0.0
 10
5.3912595991
 20
4.8580569278
 30
0.0
 10
5.3915214366
 20
4.8574801011
 30
0.0
 10
5.3918731474
 20
4.8565092555
 30
0.0
 10
5.3920839077
 20
4.855714233
 30
0.0
 10
5.3922156792
 20
4.8551521894
 30
0.0
  0
SPLINE
  5
3C4
100
AcDbEntity
  8
ALL_ASSEMBLY_MEMBERS
100
AcDbSpline
 62
7
  6
CONTINUOUS
 70
0
 71
3
 72
13
 73
9
 74
0
 42
0.0000001
 43
0.0000001
 44
0.0000000001
 40
0.0
 40
0.0
 40
0.0
 40
0.0
 40
0.0804849435
 40
0.1670000005
 40
0.2646705814
 40
0.3768572242
 40
0.6517379633
 40
1.0
 40
1.0
 40
1.0
 40
1.0
 10
5.3786116233
 20
4.8460151705
 30
0.0
 10
5.3786863991
 20
4.8460114388
 30
0.0
 10
5.3788412729
 20
4.8459804084
 30
0.0
 10
5.3790616801
 20
4.8458650955
 30
0.0
 10
5.3792731549
 20
4.8456855816
 30
0.0
 10
5.379564298
 20
4.8453392546
 30
0.0
 10
5.3798979625
 20
4.8447363432
 30
0.0
 10
5.3801049605
 20
4.8441939811
 30
0.0
 10
5.380207424
 20
4.8438866505
 30
0.0
  0
LINE
  5
3C5
100
AcDbEntity
  8
ALL_ASSEMBLY_MEMBERS
100
AcDbLine
 62
7
  6
CONTINUOUS
 10
5.3751569087
 20
3.9789886822
 11
5.3776304833
 21
3.9659046714
  0
LINE
  5
3C6
100
AcDbEntity
  8
ALL_ASSEMBLY_MEMBERS
100
AcDbLine
 62
7
  6
CONTINUOUS
 10
5.3728877798
 20
5.2219465103
 11
5.3722667982
 21
5.2187804015
  0
LINE
  5
3C7
100
AcDbEntity
  8
ALL_ASSEMBLY_MEMBERS
100
AcDbLine
 62
7
  6
CONTINUOUS
 10
5.3722667982
 20
5.2187804015
 11
5.3719958433
 21
5.2174039755
  0
LINE
  5
3C8
100
AcDbEntity
  8
ALL_ASSEMBLY_MEMBERS
100
AcDbLine
 62
7
  6
CONTINUOUS
 10
5.3761638963
 20
5.2293574985
 11
5.3741302776
 21
5.2197736682
  0
LINE
  5
3C9
100
AcDbEntity
  8
ALL_ASSEMBLY_MEMBERS
100
AcDbLine
 62
7
  6
CONTINUOUS
 10
5.3741302776
 20
5.2197736682
 11
5.3724683451
 21
5.2129307289
  0
LINE
  5
3CA
100
AcDbEntity
  8
ALL_ASSEMBLY_MEMBERS
100
AcDbLine
 62
7
  6
CONTINUOUS
 10
5.3724683451
 20
5.2129307289
 11
5.3721693295
 21
5.212041705
  0
LINE
  5
3CB
100
AcDbEntity
  8
ALL_ASSEMBLY_MEMBERS
100
AcDbLine
 62
7
  6
CONTINUOUS
 10
5.3721693295
 20
5.212041705
 11
5.3719915729
 21
5.2117797189
  0
LINE
  5
3CC
100
AcDbEntity
  8
ALL_ASSEMBLY_MEMBERS
100
AcDbLine
 62
7
  6
CONTINUOUS
 10
5.3843392861
 20
5.2714132633
 11
5.3761638963
 21
5.2293574985
  0
LINE
  5
3CD
100
AcDbEntity
  8
ALL_ASSEMBLY_MEMBERS
100
AcDbLine
 62
7
  6
CONTINUOUS
 10
5.3917292357
 20
5.3128193913
 11
5.3843392861
 21
5.2714132633
  0
SPLINE
  5
3CE
100
AcDbEntity
  8
ALL_ASSEMBLY_MEMBERS
100
AcDbSpline
 62
7
  6
CONTINUOUS
 70
0
 71
3
 72
18
 73
14
 74
0
 42
0.0000001
 43
0.0000001
 44
0.0000000001
 40
0.0
 40
0.0
 40
0.0
 40
0.0
 40
0.0053261242
 40
0.0169020144
 40
0.0356853588
 40
0.0620251564
 40
0.0961738641
 40
0.1383558918
 40
0.2476662246
 40
0.3909390856
 40
0.5660709538
 40
0.7700855802
 40
1.0
 40
1.0
 40
1.0
 40
1.0
 10
5.3941325538
 20
5.329564572
 30
0.0
 10
5.3941464061
 20
5.3295619486
 30
0.0
 10
5.3941677084
 20
5.3295111344
 30
0.0
 10
5.3941757663
 20
5.3294237446
 30
0.0
 10
5.3941804807
 20
5.3292699962
 30
0.0
 10
5.3941724369
 20
5.3290618077
 30
0.0
 10
5.394154664
 20
5.3287899897
 30
0.0
 10
5.3941111549
 20
5.3283007799
 30
0.0
 10
5.394023682
 20
5.3275251631
 30
0.0
 10
5.393877745
 20
5.3264024928
 30
0.0
 10
5.3936850236
 20
5.3250330671
 30
0.0
 10
5.3934485872
 20
5.3234382876
 30
0.0
 10
5.3932738121
 20
5.3223030234
 30
0.0
 10
5.3931799291
 20
5.3217017141
 30
0.0
  0
LINE
  5
3CF
100
AcDbEntity
  8
ALL_ASSEMBLY_MEMBERS
100
AcDbLine
 62
7
  6
CONTINUOUS
 10
5.3898793547
 20
5.1428713439
 11
5.3759239426
 21
5.086421371
  0
SPLINE
  5
3D0
100
AcDbEntity
  8
ALL_ASSEMBLY_MEMBERS
100
AcDbSpline
 62
7
  6
CONTINUOUS
 70
0
 71
3
 72
12
 73
8
 74
0
 42
0.0000001
 43
0.0000001
 44
0.0000000001
 40
0.0
 40
0.0
 40
0.0
 40
0.0
 40
0.094368952
 40
0.2013228422
 40
0.4433708379
 40
0.712321417
 40
1.0
 40
1.0
 40
1.0
 40
1.0
 10
5.380207424
 20
4.8438866505
 30
0.0
 10
5.380339446
 20
4.843490662
 30
0.0
 10
5.3805827562
 20
4.8426331631
 30
0.0
 10
5.3810223324
 20
4.8407215655
 30
0.0
 10
5.3814985042
 20
4.8380285542
 30
0.0
 10
5.3819967943
 20
4.8345309779
 30
0.0
 10
5.3822912146
 20
4.8320863382
 30
0.0
 10
5.3824345629
 20
4.8308219665
 30
0.0
  0
SPLINE
  5
3D1
100
AcDbEntity
  8
ALL_ASSEMBLY_MEMBERS
100
AcDbSpline
 62
7
  6
CONTINUOUS
 70
0
 71
3
 72
11
 73
7
 74
0
 42
0.0000001
 43
0.0000001
 44
0.0000000001
 40
0.0
 40
0.0
 40
0.0
 40
0.0
 40
0.3136575875
 40
0.579516824
 40
0.8032857473
 40
1.0
 40
1.0
 40
1.0
 40
1.0
 10
5.3765409029
 20
4.7777440958
 30
0.0
 10
5.3764240751
 20
4.7775844271
 30
0.0
 10
5.3761936827
 20
4.7772992565
 30
0.0
 10
5.3758179818
 20
4.7769553815
 30
0.0
 10
5.3754373596
 20
4.7767382855
 30
0.0
 10
5.375167992
 20
4.7766919774
 30
0.0
 10
5.3750440788
 20
4.7766984319
 30
0.0
  0
SPLINE
  5
3D2
100
AcDbEntity
  8
ALL_ASSEMBLY_MEMBERS
100
AcDbSpline
 62
7
  6
CONTINUOUS
 70
0
 71
3
 72
12
 73
8
 74
0
 42
0.0000001
 43
0.0000001
 44
0.0000000001
 40
0.0
 40
0.0
 40
0.0
 40
0.0
 40
0.3169850106
 40
0.5957352768
 40
0.8260520357
 40
0.9204467549
 40
1.0
 40
1.0
 40
1.0
 40
1.0
 10
5.3797866977
 20
4.7871384056
 30
0.0
 10
5.3795510922
 20
4.7861099386
 30
0.0
 10
5.3790799542
 20
4.7841830583
 30
0.0
 10
5.3783045559
 20
4.7815443213
 30
0.0
 10
5.377599627
 20
4.7796588142
 30
0.0
 10
5.377002361
 20
4.7784518956
 30
0.0
 10
5.3766972667
 20
4.7779577986
 30
0.0
 10
5.3765409029
 20
4.7777440958
 30
0.0
  0
SPLINE
  5
3D3
100
AcDbEntity
  8
ALL_ASSEMBLY_MEMBERS
100
AcDbSpline
 62
7
  6
CONTINUOUS
 70
0
 71
3
 72
10
 73
6
 74
0
 42
0.0000001
 43
0.0000001
 44
0.0000000001
 40
0.0
 40
0.0
 40
0.0
 40
0.0
 40
0.5253812447
 40
0.7725527893
 40
1.0
 40
1.0
 40
1.0
 40
1.0
 10
5.3819658587
 20
4.8001955046
 30
0.0
 10
5.3816544372
 20
4.7978976282
 30
0.0
 10
5.3811694016
 20
4.7945218644
 30
0.0
 10
5.3804237299
 20
4.790171401
 30
0.0
 10
5.3800108656
 20
4.7881169445
 30
0.0
 10
5.3797866977
 20
4.7871384056
 30
0.0
  0
SPLINE
  5
3D4
100
AcDbEntity
  8
ALL_ASSEMBLY_MEMBERS
100
AcDbSpline
 62
7
  6
CONTINUOUS
 70
0
 71
3
 72
11
 73
7
 74
0
 42
0.0000001
 43
0.0000001
 44
0.0000000001
 40
0.0
 40
0.0
 40
0.0
 40
0.0
 40
0.3138285974
 40
0.578027067
 40
0.80143109
 40
1.0
 40
1.0
 40
1.0
 40
1.0
 10
5.3886276965
 20
4.797173512
 30
0.0
 10
5.388536642
 20
4.7970490622
 30
0.0
 10
5.3883564142
 20
4.7968282652
 30
0.0
 10
5.3880597754
 20
4.7965657325
 30
0.0
 10
5.387759233
 20
4.7964040366
 30
0.0
 10
5.3875492723
 20
4.7963698449
 30
0.0
 10
5.3874517721
 20
4.796373511
 30
0.0
  0
LINE
  5
3D5
100
AcDbEntity
  8
ALL_ASSEMBLY_MEMBERS
100
AcDbLine
 62
7
  6
CONTINUOUS
 10
5.3919794958
 20
4.8099385275
 11
5.3913824683
 21
4.8059993231
  0
SPLINE
  5
3D6
100
AcDbEntity
  8
ALL_ASSEMBLY_MEMBERS
100
AcDbSpline
 62
7
  6
CONTINUOUS
 70
0
 71
3
 72
12
 73
8
 74
0
 42
0.0000001
 43
0.0000001
 44
0.0000000001
 40
0.0
 40
0.0
 40
0.0
 40
0.0
 40
0.3360328102
 40
0.6183181806
 40
0.8386766806
 40
0.9262144535
 40
1.0
 40
1.0
 40
1.0
 40
1.0
 10
5.3913824683
 20
4.8059993231
 30
0.0
 10
5.3912036557
 20
4.8049725363
 30
0.0
 10
5.3908359533
 20
4.803089157
 30
0.0
 10
5.3901827923
 20
4.800569737
 30
0.0
 10
5.3895616071
 20
4.7988419165
 30
0.0
 10
5.389030191
 20
4.7977826799
 30
0.0
 10
5.3887628306
 20
4.7973582081
 30
0.0
 10
5.3886276965
 20
4.797173512
 30
0.0
  0
SPLINE
  5
3D7
100
AcDbEntity
  8
ALL_ASSEMBLY_MEMBERS
100
AcDbSpline
 62
7
  6
CONTINUOUS
 70
0
 71
3
 72
10
 73
6
 74
0
 42
0.0000001
 43
0.0000001
 44
0.0000000001
 40
0.0
 40
0.0
 40
0.0
 40
0.0
 40
0.5025766887
 40
0.7562440957
 40
1.0
 40
1.0
 40
1.0
 40
1.0
 10
5.393449293
 20
4.8342085215
 30
0.0
 10
5.3934042836
 20
4.8301333941
 30
0.0
 10
5.3932334545
 20
4.8240005861
 30
0.0
 10
5.3926679277
 20
4.8159102815
 30
0.0
 10
5.3922389079
 20
4.8118980385
 30
0.0
 10
5.3919794958
 20
4.8099385275
 30
0.0
  0
SPLINE
  5
3D8
100
AcDbEntity
  8
ALL_ASSEMBLY_MEMBERS
100
AcDbSpline
 62
7
  6
CONTINUOUS
 70
0
 71
3
 72
11
 73
7
 74
0
 42
0.0000001
 43
0.0000001
 44
0.0000000001
 40
0.0
 40
0.0
 40
0.0
 40
0.0
 40
0.1977177757
 40
0.4357084312
 40
0.7058745791
 40
1.0
 40
1.0
 40
1.0
 40
1.0
 10
5.3922156792
 20
4.8551521894
 30
0.0
 10
5.3924052289
 20
4.8543437055
 30
0.0
 10
5.3927211538
 20
4.8525385897
 30
0.0
 10
5.3930540972
 20
4.8495918731
 30
0.0
 10
5.3932822932
 20
4.8462291298
 30
0.0
 10
5.3933701354
 20
4.843860502
 30
0.0
 10
5.3934023673
 20
4.8426256077
 30
0.0
  0
LINE
  5
3D9
100
AcDbEntity
  8
ALL_ASSEMBLY_MEMBERS
100
AcDbLine
 62
7
  6
CONTINUOUS
 10
5.3934023673
 20
4.8426256077
 11
5.393449293
 21
4.8342085215
  0
SPLINE
  5
3DA
100
AcDbEntity
  8
ALL_ASSEMBLY_MEMBERS
100
AcDbSpline
 62
7
  6
CONTINUOUS
 70
0
 71
3
 72
13
 73
9
 74
0
 42
0.0000001
 43
0.0000001
 44
0.0000000001
 40
0.0
 40
0.0
 40
0.0
 40
0.0
 40
0.346824145
 40
0.6221696184
 40
0.7345019233
 40
0.8322432235
 40
0.9191136718
 40
1.0
 40
1.0
 40
1.0
 40
1.0
 10
5.3743712526
 20
4.7145523205
 30
0.0
 10
5.3745116578
 20
4.7141763189
 30
0.0
 10
5.3747920689
 20
4.7135121258
 30
0.0
 10
5.3752302375
 20
4.7127765071
 30
0.0
 10
5.3756067465
 20
4.7123569609
 30
0.0
 10
5.3758780322
 20
4.7121425489
 30
0.0
 10
5.376156861
 20
4.712006951
 30
0.0
 10
5.3763502527
 20
4.711969708
 30
0.0
 10
5.3764437385
 20
4.7119649768
 30
0.0
  0
SPLINE
  5
3DB
100
AcDbEntity
  8
ALL_ASSEMBLY_MEMBERS
100
AcDbSpline
 62
7
  6
CONTINUOUS
 70
0
 71
3
 72
11
 73
7
 74
0
 42
0.0000001
 43
0.0000001
 44
0.0000000001
 40
0.0
 40
0.0
 40
0.0
 40
0.0
 40
0.3202587353
 40
0.5996594736
 40
0.8258223089
 40
1.0
 40
1.0
 40
1.0
 40
1.0
 10
5.3726620501
 20
4.7275218961
 30
0.0
 10
5.3726787707
 20
4.7261198237
 30
0.0
 10
5.3727670667
 20
4.7234945227
 30
0.0
 10
5.3731059652
 20
4.7198917727
 30
0.0
 10
5.3736195818
 20
4.716956704
 30
0.0
 10
5.3741044805
 20
4.7152667299
 30
0.0
 10
5.3743712526
 20
4.7145523205
 30
0.0
  0
LINE
  5
3DC
100
AcDbEntity
  8
ALL_ASSEMBLY_MEMBERS
100
AcDbLine
 62
7
  6
CONTINUOUS
 10
5.374001329
 20
4.7467795414
 11
5.3731379857
 21
4.7381318054
  0
LINE
  5
3DD
100
AcDbEntity
  8
ALL_ASSEMBLY_MEMBERS
100
AcDbLine
 62
7
  6
CONTINUOUS
 10
5.3744325685
 20
4.7550444334
 11
5.374001329
 21
4.7467795414
  0
SPLINE
  5
3DE
100
AcDbEntity
  8
ALL_ASSEMBLY_MEMBERS
100
AcDbSpline
 62
7
  6
CONTINUOUS
 70
0
 71
3
 72
12
 73
8
 74
0
 42
0.0000001
 43
0.0000001
 44
0.0000000001
 40
0.0
 40
0.0
 40
0.0
 40
0.0
 40
0.0834291719
 40
0.1842214672
 40
0.4261009548
 40
0.70320465
 40
1.0
 40
1.0
 40
1.0
 40
1.0
 10
5.3739768536
 20
4.7604504052
 30
0.0
 10
5.3740217449
 20
4.7603059808
 30
0.0
 10
5.3741003468
 20
4.7599807959
 30
0.0
 10
5.3742314005
 20
4.7592193387
 30
0.0
 10
5.3743441403
 20
4.7581002545
 30
0.0
 10
5.3744154948
 20
4.7566228979
 30
0.0
 10
5.3744304364
 20
4.7555824594
 30
0.0
 10
5.3744325685
 20
4.7550444334
 30
0.0
  0
SPLINE
  5
3DF
100
AcDbEntity
  8
ALL_ASSEMBLY_MEMBERS
100
AcDbSpline
 62
7
  6
CONTINUOUS
 70
0
 71
3
 72
12
 73
8
 74
0
 42
0.0000001
 43
0.0000001
 44
0.0000000001
 40
0.0
 40
0.0
 40
0.0
 40
0.0
 40
0.310784393
 40
0.5133200274
 40
0.6919339288
 40
0.8513828127
 40
1.0
 40
1.0
 40
1.0
 40
1.0
 10
5.3799420389
 20
4.7019547687
 30
0.0
 10
5.3797739259
 20
4.7017235073
 30
0.0
 10
5.3794765817
 20
4.7013543945
 30
0.0
 10
5.3790111924
 20
4.7009174741
 30
0.0
 10
5.3785972911
 20
4.7006367255
 30
0.0
 10
5.3781782154
 20
4.7004675777
 30
0.0
 10
5.3778914906
 20
4.7004371262
 30
0.0
 10
5.3777549497
 20
4.7004441545
 30
0.0
  0
SPLINE
  5
3E0
100
AcDbEntity
  8
ALL_ASSEMBLY_MEMBERS
100
AcDbSpline
 62
7
  6
CONTINUOUS
 70
0
 71
3
 72
13
 73
9
 74
0
 42
0.0000001
 43
0.0000001
 44
0.0000000001
 40
0.0
 40
0.0
 40
0.0
 40
0.0
 40
0.3339645726
 40
0.6176635346
 40
0.73692562
 40
0.8400524895
 40
0.9273749504
 40
1.0
 40
1.0
 40
1.0
 40
1.0
 10
5.3850951497
 20
4.7200431673
 30
0.0
 10
5.3847796111
 20
4.7179590839
 30
0.0
 10
5.3841259801
 20
4.7141147244
 30
0.0
 10
5.3830832935
 20
4.7095765563
 30
0.0
 10
5.382142324
 20
4.706522579
 30
0.0
 10
5.3814509801
 20
4.704692262
 30
0.0
 10
5.3807394972
 20
4.7031898908
 30
0.0
 10
5.3802115623
 20
4.7023255334
 30
0.0
 10
5.3799420389
 20
4.7019547687
 30
0.0
  0
SPLINE
  5
3E1
100
AcDbEntity
  8
ALL_ASSEMBLY_MEMBERS
100
AcDbSpline
 62
7
  6
CONTINUOUS
 70
0
 71
3
 72
12
 73
8
 74
0
 42
0.0000001
 43
0.0000001
 44
0.0000000001
 40
0.0
 40
0.0
 40
0.0
 40
0.0
 40
0.2557121679
 40
0.5124278796
 40
0.7651856919
 40
0.8863073913
 40
1.0
 40
1.0
 40
1.0
 40
1.0
 10
5.3876024111
 20
4.7613596618
 30
0.0
 10
5.3875413644
 20
4.7578298879
 30
0.0
 10
5.3873792985
 20
4.750756997
 30
0.0
 10
5.3869628254
 20
4.7402007849
 30
0.0
 10
5.3864008345
 20
4.7315110387
 30
0.0
 10
5.3857439518
 20
4.7248112613
 30
0.0
 10
5.3853301177
 20
4.7215950938
 30
0.0
 10
5.3850951497
 20
4.7200431673
 30
0.0
  0
LINE
  5
3E2
100
AcDbEntity
  8
ALL_ASSEMBLY_MEMBERS
100
AcDbLine
 62
7
  6
CONTINUOUS
 10
5.3759239426
 20
4.5024622987
 11
5.3898793547
 21
4.4896661287
  0
LINE
  5
3E3
100
AcDbEntity
  8
ALL_ASSEMBLY_MEMBERS
100
AcDbLine
 62
7
  6
CONTINUOUS
 10
5.3886382971
 20
4.2756029565
 11
5.393539555
 21
4.2513365402
  0
SPLINE
  5
3E4
100
AcDbEntity
  8
ALL_ASSEMBLY_MEMBERS
100
AcDbSpline
 62
7
  6
CONTINUOUS
 70
0
 71
3
 72
15
 73
11
 74
0
 42
0.0000001
 43
0.0000001
 44
0.0000000001
 40
0.0
 40
0.0
 40
0.0
 40
0.0
 40
0.2028086995
 40
0.3854253927
 40
0.5456993844
 40
0.6817211162
 40
0.7928027493
 40
0.8801376219
 40
0.9467700066
 40
1.0
 40
1.0
 40
1.0
 40
1.0
 10
5.3781242013
 20
4.1884997079
 30
0.0
 10
5.3782703922
 20
4.1880549602
 30
0.0
 10
5.3785589721
 20
4.1872131915
 30
0.0
 10
5.3790075617
 20
4.1860357899
 30
0.0
 10
5.3794470591
 20
4.1850208164
 30
0.0
 10
5.3798749473
 20
4.1841825377
 30
0.0
 10
5.3802896257
 20
4.1835291034
 30
0.0
 10
5.3806897545
 20
4.1830630013
 30
0.0
 10
5.3810815795
 20
4.182774876
 30
0.0
 10
5.3813671607
 20
4.1827200541
 30
0.0
 10
5.3814892874
 20
4.1827335919
 30
0.0
  0
SPLINE
  5
3E5
100
AcDbEntity
  8
ALL_ASSEMBLY_MEMBERS
100
AcDbSpline
 62
7
  6
CONTINUOUS
 70
0
 71
3
 72
10
 73
6
 74
0
 42
0.0000001
 43
0.0000001
 44
0.0000000001
 40
0.0
 40
0.0
 40
0.0
 40
0.0
 40
0.5612879089
 40
0.7979191537
 40
1.0
 40
1.0
 40
1.0
 40
1.0
 10
5.3743712526
 20
4.2050016067
 30
0.0
 10
5.3748765866
 20
4.2018732276
 30
0.0
 10
5.3757022502
 20
4.1974400207
 30
0.0
 10
5.3770624855
 20
4.1919591762
 30
0.0
 10
5.3777679312
 20
4.1895835675
 30
0.0
 10
5.3781242013
 20
4.1884997079
 30
0.0
  0
SPLINE
  5
3E6
100
AcDbEntity
  8
ALL_ASSEMBLY_MEMBERS
100
AcDbSpline
 62
7
  6
CONTINUOUS
 70
0
 71
3
 72
10
 73
6
 74
0
 42
0.0000001
 43
0.0000001
 44
0.0000000001
 40
0.0
 40
0.0
 40
0.0
 40
0.0
 40
0.2297222471
 40
0.4828071672
 40
1.0
 40
1.0
 40
1.0
 40
1.0
 10
5.3726620501
 20
4.2222501928
 30
0.0
 10
5.3726807662
 20
4.2209220729
 30
0.0
 10
5.3727965027
 20
4.2181315822
 30
0.0
 10
5.3732849471
 20
4.2123690772
 30
0.0
 10
5.3738943873
 20
4.2079537442
 30
0.0
 10
5.3743712526
 20
4.2050016067
 30
0.0
  0
LINE
  5
3E7
100
AcDbEntity
  8
ALL_ASSEMBLY_MEMBERS
100
AcDbLine
 62
7
  6
CONTINUOUS
 10
5.3731379857
 20
4.2288106771
 11
5.3728472513
 21
4.2272063703
  0
LINE
  5
3E8
100
AcDbEntity
  8
ALL_ASSEMBLY_MEMBERS
100
AcDbLine
 62
7
  6
CONTINUOUS
 10
5.3728472513
 20
4.2272063703
 11
5.3726620501
 21
4.2222501928
  0
LINE
  5
3E9
100
AcDbEntity
  8
ALL_ASSEMBLY_MEMBERS
100
AcDbLine
 62
7
  6
CONTINUOUS
 10
5.374001329
 20
4.2322833746
 11
5.3731379857
 21
4.2288106771
  0
SPLINE
  5
3EA
100
AcDbEntity
  8
ALL_ASSEMBLY_MEMBERS
100
AcDbSpline
 62
7
  6
CONTINUOUS
 70
0
 71
3
 72
9
 73
5
 74
0
 42
0.0000001
 43
0.0000001
 44
0.0000000001
 40
0.0
 40
0.0
 40
0.0
 40
0.0
 40
0.580799636
 40
1.0
 40
1.0
 40
1.0
 40
1.0
 10
5.3744325685
 20
4.2373149704
 30
0.0
 10
5.3744371462
 20
4.2363360017
 30
0.0
 10
5.374379177
 20
4.2346482305
 30
0.0
 10
5.3741429628
 20
4.2329756264
 30
0.0
 10
5.374001329
 20
4.2322833746
 30
0.0
  0
SPLINE
  5
3EB
100
AcDbEntity
  8
ALL_ASSEMBLY_MEMBERS
100
AcDbSpline
 62
7
  6
CONTINUOUS
 70
0
 71
3
 72
10
 73
6
 74
0
 42
0.0000001
 43
0.0000001
 44
0.0000000001
 40
0.0
 40
0.0
 40
0.0
 40
0.0
 40
0.2641130361
 40
0.5275956361
 40
1.0
 40
1.0
 40
1.0
 40
1.0
 10
5.3739768536
 20
4.243729243
 30
0.0
 10
5.3740583996
 20
4.243168635
 30
0.0
 10
5.3741942234
 20
4.2420447454
 30
0.0
 10
5.3743752404
 20
4.2399071448
 30
0.0
 10
5.3744278304
 20
4.2383282405
 30
0.0
 10
5.3744325685
 20
4.2373149704
 30
0.0
  0
LINE
  5
3EC
100
AcDbEntity
  8
ALL_ASSEMBLY_MEMBERS
100
AcDbLine
 62
7
  6
CONTINUOUS
 10
5.372988865
 20
4.2483617514
 11
5.3739768536
 21
4.243729243
  0
LINE
  5
3ED
100
AcDbEntity
  8
ALL_ASSEMBLY_MEMBERS
100
AcDbLine
 62
7
  6
CONTINUOUS
 10
5.3850951497
 20
4.1652377324
 11
5.3843921105
 21
4.1648592427
  0
LINE
  5
3EE
100
AcDbEntity
  8
ALL_ASSEMBLY_MEMBERS
100
AcDbLine
 62
7
  6
CONTINUOUS
 10
5.3876024111
 20
4.1877725435
 11
5.3872751702
 21
4.1786881088
  0
SPLINE
  5
3EF
100
AcDbEntity
  8
ALL_ASSEMBLY_MEMBERS
100
AcDbSpline
 62
7
  6
CONTINUOUS
 70
0
 71
3
 72
15
 73
11
 74
0
 42
0.0000001
 43
0.0000001
 44
0.0000000001
 40
0.0
 40
0.0
 40
0.0
 40
0.0
 40
0.3377375931
 40
0.4906457329
 40
0.6301655861
 40
0.7536596013
 40
0.8581912731
 40
0.9407723908
 40
0.9732699596
 40
1.0
 40
1.0
 40
1.0
 40
1.0
 10
5.3872751702
 20
4.1786881088
 30
0.0
 10
5.3871932912
 20
4.1771428806
 30
0.0
 10
5.3870503514
 20
4.1748989581
 30
0.0
 10
5.3867786707
 20
4.1720242824
 30
0.0
 10
5.3865470153
 20
4.170132595
 30
0.0
 10
5.3862768518
 20
4.1684694327
 30
0.0
 10
5.3859641598
 20
4.167080883
 30
0.0
 10
5.3856470835
 20
4.1661206794
 30
0.0
 10
5.3853458182
 20
4.1655436228
 30
0.0
 10
5.3851816686
 20
4.165324409
 30
0.0
 10
5.3850951497
 20
4.1652377324
 30
0.0
  0
LINE
  5
3F0
100
AcDbEntity
  8
ALL_ASSEMBLY_MEMBERS
100
AcDbLine
 62
7
  6
CONTINUOUS
 10
5.387389459
 20
4.1953604852
 11
5.3888343899
 21
4.1880154066
  0
LINE
  5
3F1
100
AcDbEntity
  8
ALL_ASSEMBLY_MEMBERS
100
AcDbLine
 62
7
  6
CONTINUOUS
 10
5.3927641524
 20
3.8868178049
 11
5.3935747237
 21
3.8825264255
  0
LINE
  5
3F2
100
AcDbEntity
  8
ALL_ASSEMBLY_MEMBERS
100
AcDbLine
 62
7
  6
CONTINUOUS
 10
5.3918734133
 20
3.8907533812
 11
5.3927641524
 21
3.8868178049
  0
LINE
  5
3F3
100
AcDbEntity
  8
ALL_ASSEMBLY_MEMBERS
100
AcDbLine
 62
7
  6
CONTINUOUS
 10
5.3891113559
 20
3.9051877056
 11
5.3918734133
 21
3.8907533812
  0
LINE
  5
3F4
100
AcDbEntity
  8
ALL_ASSEMBLY_MEMBERS
100
AcDbLine
 62
7
  6
CONTINUOUS
 10
5.3841653934
 20
3.931342472
 11
5.3871278238
 21
3.9156764736
  0
LINE
  5
3F5
100
AcDbEntity
  8
ALL_ASSEMBLY_MEMBERS
100
AcDbLine
 62
7
  6
CONTINUOUS
 10
5.3796106418
 20
3.9600608053
 11
5.3869901169
 21
3.9207705341
  0
LINE
  5
3F6
100
AcDbEntity
  8
ALL_ASSEMBLY_MEMBERS
100
AcDbLine
 62
7
  6
CONTINUOUS
 10
5.3735118226
 20
3.9877755847
 11
5.374179433
 21
3.9841607743
  0
LINE
  5
3F7
100
AcDbEntity
  8
ALL_ASSEMBLY_MEMBERS
100
AcDbLine
 62
7
  6
CONTINUOUS
 10
5.374179433
 20
3.9841607743
 11
5.3743348021
 21
3.9833374427
  0
LINE
  5
3F8
100
AcDbEntity
  8
ALL_ASSEMBLY_MEMBERS
100
AcDbLine
 62
7
  6
CONTINUOUS
 10
5.3733043204
 20
3.9892113981
 11
5.3734470534
 21
3.9881458193
  0
LINE
  5
3F9
100
AcDbEntity
  8
ALL_ASSEMBLY_MEMBERS
100
AcDbLine
 62
7
  6
CONTINUOUS
 10
5.3729628836
 20
3.9968398151
 11
5.3778166825
 21
3.97108972
  0
LINE
  5
3FA
100
AcDbEntity
  8
ALL_ASSEMBLY_MEMBERS
100
AcDbLine
 62
7
  6
CONTINUOUS
 10
5.389454564
 20
4.846316321
 11
5.3890873738
 21
4.8456855694
  0
LINE
  5
3FB
100
AcDbEntity
  8
ALL_ASSEMBLY_MEMBERS
100
AcDbLine
 62
7
  6
CONTINUOUS
 10
5.3890873738
 20
4.8456855694
 11
5.3880079911
 21
4.8425198571
  0
LINE
  5
3FC
100
AcDbEntity
  8
ALL_ASSEMBLY_MEMBERS
100
AcDbLine
 62
7
  6
CONTINUOUS
 10
5.3880079911
 20
4.8425198571
 11
5.3866326937
 21
4.8359566881
  0
SPLINE
  5
3FD
100
AcDbEntity
  8
ALL_ASSEMBLY_MEMBERS
100
AcDbSpline
 62
7
  6
CONTINUOUS
 70
0
 71
3
 72
9
 73
5
 74
0
 42
0.0000001
 43
0.0000001
 44
0.0000000001
 40
0.0
 40
0.0
 40
0.0
 40
0.0
 40
0.4870402842
 40
1.0
 40
1.0
 40
1.0
 40
1.0
 10
5.3866326937
 20
4.8359566881
 30
0.0
 10
5.3861795575
 20
4.8333727079
 30
0.0
 10
5.3853779417
 20
4.828044842
 30
0.0
 10
5.3847036143
 20
4.8227006341
 30
0.0
 10
5.3843794015
 20
4.8199566971
 30
0.0
  0
SPLINE
  5
3FE
100
AcDbEntity
  8
ALL_ASSEMBLY_MEMBERS
100
AcDbSpline
 62
7
  6
CONTINUOUS
 70
0
 71
3
 72
11
 73
7
 74
0
 42
0.0000001
 43
0.0000001
 44
0.0000000001
 40
0.0
 40
0.0
 40
0.0
 40
0.0
 40
0.3042833565
 40
0.5647706589
 40
0.7916896458
 40
1.0
 40
1.0
 40
1.0
 40
1.0
 10
5.3866309725
 20
4.8104530729
 30
0.0
 10
5.3866980352
 20
4.8103542561
 30
0.0
 10
5.3868335427
 20
4.8101776983
 30
0.0
 10
5.3870634243
 20
4.8099656851
 30
0.0
 10
5.3873037718
 20
4.8098298303
 30
0.0
 10
5.3874738161
 20
4.8097924249
 30
0.0
 10
5.3875554597
 20
4.8097881189
 30
0.0
  0
SPLINE
  5
3FF
100
AcDbEntity
  8
ALL_ASSEMBLY_MEMBERS
100
AcDbSpline
 62
7
  6
CONTINUOUS
 70
0
 71
3
 72
10
 73
6
 74
0
 42
0.0000001
 43
0.0000001
 44
0.0000000001
 40
0.0
 40
0.0
 40
0.0
 40
0.0
 40
0.5373445931
 40
0.7816866755
 40
1.0
 40
1.0
 40
1.0
 40
1.0
 10
5.3843794015
 20
4.8199566971
 30
0.0
 10
5.3845974484
 20
4.8185352548
 30
0.0
 10
5.3849395533
 20
4.8164705085
 30
0.0
 10
5.3854845261
 20
4.8138501968
 30
0.0
 10
5.3857877321
 20
4.8126485706
 30
0.0
 10
5.3859569955
 20
4.8120893648
 30
0.0
  0
LINE
  5
400
100
AcDbEntity
  8
ALL_ASSEMBLY_MEMBERS
100
AcDbLine
 62
7
  6
CONTINUOUS
 10
5.3859569955
 20
4.8120893648
 11
5.3864681465
 21
4.8107325661
  0
LINE
  5
401
100
AcDbEntity
  8
ALL_ASSEMBLY_MEMBERS
100
AcDbLine
 62
7
  6
CONTINUOUS
 10
5.3864681465
 20
4.8107325661
 11
5.3866309725
 21
4.8104530729
  0
SPLINE
  5
402
100
AcDbEntity
  8
ALL_ASSEMBLY_MEMBERS
100
AcDbSpline
 62
7
  6
CONTINUOUS
 70
0
 71
3
 72
13
 73
9
 74
0
 42
0.0000001
 43
0.0000001
 44
0.0000000001
 40
0.0
 40
0.0
 40
0.0
 40
0.0
 40
0.3729347021
 40
0.6563751198
 40
0.7653017467
 40
0.8552436385
 40
0.9312584352
 40
1.0
 40
1.0
 40
1.0
 40
1.0
 10
5.3730883811
 20
4.7912230366
 30
0.0
 10
5.3731676843
 20
4.7908716346
 30
0.0
 10
5.3733308809
 20
4.7902585589
 30
0.0
 10
5.3736092599
 20
4.7895681154
 30
0.0
 10
5.3738657586
 20
4.7891770639
 30
0.0
 10
5.3740513407
 20
4.7889842557
 30
0.0
 10
5.3742471386
 20
4.7888639451
 30
0.0
 10
5.3743865547
 20
4.788832372
 30
0.0
 10
5.3744528724
 20
4.7888290381
 30
0.0
  0
SPLINE
  5
403
100
AcDbEntity
  8
ALL_ASSEMBLY_MEMBERS
100
AcDbSpline
 62
7
  6
CONTINUOUS
 70
0
 71
3
 72
11
 73
7
 74
0
 42
0.0000001
 43
0.0000001
 44
0.0000000001
 40
0.0
 40
0.0
 40
0.0
 40
0.0
 40
0.2940778411
 40
0.5668726512
 40
0.805478693
 40
1.0
 40
1.0
 40
1.0
 40
1.0
 10
5.372312742
 20
4.8027138055
 30
0.0
 10
5.3722989158
 20
4.8015828599
 30
0.0
 10
5.3723003899
 20
4.7994022929
 30
0.0
 10
5.372415703
 20
4.7963054894
 30
0.0
 10
5.3726556576
 20
4.7935998611
 30
0.0
 10
5.3729236866
 20
4.791952817
 30
0.0
 10
5.3730883811
 20
4.7912230366
 30
0.0
  0
SPLINE
  5
404
100
AcDbEntity
  8
ALL_ASSEMBLY_MEMBERS
100
AcDbSpline
 62
7
  6
CONTINUOUS
 70
0
 71
3
 72
9
 73
5
 74
0
 42
0.0000001
 43
0.0000001
 44
0.0000000001
 40
0.0
 40
0.0
 40
0.0
 40
0.0
 40
0.4875020676
 40
1.0
 40
1.0
 40
1.0
 40
1.0
 10
5.3738641464
 20
4.8209652387
 30
0.0
 10
5.3733773639
 20
4.8180265547
 30
0.0
 10
5.3726301486
 20
4.8119547755
 30
0.0
 10
5.3723510223
 20
4.805845029
 30
0.0
 10
5.372312742
 20
4.8027138055
 30
0.0
  0
SPLINE
  5
405
100
AcDbEntity
  8
ALL_ASSEMBLY_MEMBERS
100
AcDbSpline
 62
7
  6
CONTINUOUS
 70
0
 71
3
 72
11
 73
7
 74
0
 42
0.0000001
 43
0.0000001
 44
0.0000000001
 40
0.0
 40
0.0
 40
0.0
 40
0.0
 40
0.1824296812
 40
0.4081011538
 40
0.6806845315
 40
1.0
 40
1.0
 40
1.0
 40
1.0
 10
5.377113522
 20
4.8319879304
 30
0.0
 10
5.3769351893
 20
4.8317430014
 30
0.0
 10
5.3765841721
 20
4.8311603087
 30
0.0
 10
5.3761095614
 20
4.8301328541
 30
0.0
 10
5.3756428783
 20
4.8288564974
 30
0.0
 10
5.3753610382
 20
4.8279142767
 30
0.0
 10
5.3752197972
 20
4.8274031229
 30
0.0
  0
LINE
  5
406
100
AcDbEntity
  8
ALL_ASSEMBLY_MEMBERS
100
AcDbLine
 62
7
  6
CONTINUOUS
 10
5.3752197972
 20
4.8274031229
 11
5.3738641464
 21
4.8209652387
  0
LINE
  5
407
100
AcDbEntity
  8
ALL_ASSEMBLY_MEMBERS
100
AcDbLine
 62
7
  6
CONTINUOUS
 10
5.3902840076
 20
5.3109752581
 11
5.3896406247
 21
5.3076748868
  0
LINE
  5
408
100
AcDbEntity
  8
ALL_ASSEMBLY_MEMBERS
100
AcDbLine
 62
7
  6
CONTINUOUS
 10
5.3896406247
 20
5.3076748868
 11
5.3886651791
 21
5.3026273947
  0
LINE
  5
409
100
AcDbEntity
  8
ALL_ASSEMBLY_MEMBERS
100
AcDbLine
 62
7
  6
CONTINUOUS
 10
5.384686037
 20
5.2817475093
 11
5.3831480079
 21
5.2736048808
  0
LINE
  5
40A
100
AcDbEntity
  8
ALL_ASSEMBLY_MEMBERS
100
AcDbLine
 62
7
  6
CONTINUOUS
 10
5.3906429467
 20
5.312801881
 11
5.3902840076
 21
5.3109752581
  0
LINE
  5
40B
100
AcDbEntity
  8
ALL_ASSEMBLY_MEMBERS
100
AcDbLine
 62
7
  6
CONTINUOUS
 10
5.3731316809
 20
5.2179836941
 11
5.3731585624
 21
5.2178841283
  0
LINE
  5
40C
100
AcDbEntity
  8
ALL_ASSEMBLY_MEMBERS
100
AcDbLine
 62
7
  6
CONTINUOUS
 10
5.3831480079
 20
5.2736048808
 11
5.3819271982
 21
5.2671237621
  0
LINE
  5
40D
100
AcDbEntity
  8
ALL_ASSEMBLY_MEMBERS
100
AcDbLine
 62
7
  6
CONTINUOUS
 10
5.3819271982
 20
5.2671237621
 11
5.3808192572
 21
5.2612282032
  0
SPLINE
  5
40E
100
AcDbEntity
  8
ALL_ASSEMBLY_MEMBERS
100
AcDbSpline
 62
7
  6
CONTINUOUS
 70
0
 71
3
 72
11
 73
7
 74
0
 42
0.0000001
 43
0.0000001
 44
0.0000000001
 40
0.0
 40
0.0
 40
0.0
 40
0.0
 40
0.3163631229
 40
0.583198653
 40
0.8060548109
 40
1.0
 40
1.0
 40
1.0
 40
1.0
 10
5.3886397451
 20
4.8581561109
 30
0.0
 10
5.388750465
 20
4.8583082901
 30
0.0
 10
5.3889680171
 20
4.8585797807
 30
0.0
 10
5.3893212797
 20
4.8589075355
 30
0.0
 10
5.3896768531
 20
4.8591148072
 30
0.0
 10
5.3899286733
 20
4.8591596811
 30
0.0
 10
5.3900438864
 20
4.8591536234
 30
0.0
  0
SPLINE
  5
40F
100
AcDbEntity
  8
ALL_ASSEMBLY_MEMBERS
100
AcDbSpline
 62
7
  6
CONTINUOUS
 70
0
 71
3
 72
11
 73
7
 74
0
 42
0.0000001
 43
0.0000001
 44
0.0000000001
 40
0.0
 40
0.0
 40
0.0
 40
0.0
 40
0.3103049377
 40
0.5823805644
 40
0.8124482949
 40
1.0
 40
1.0
 40
1.0
 40
1.0
 10
5.3860381708
 20
4.8512702914
 30
0.0
 10
5.3862063249
 20
4.8519530759
 30
0.0
 10
5.3865450446
 20
4.8532290319
 30
0.0
 10
5.3871015699
 20
4.8549850817
 30
0.0
 10
5.3876703784
 20
4.8564420536
 30
0.0
 10
5.3880941126
 20
4.8572910863
 30
0.0
 10
5.3883118823
 20
4.8576560694
 30
0.0
  0
LINE
  5
410
100
AcDbEntity
  8
ALL_ASSEMBLY_MEMBERS
100
AcDbLine
 62
7
  6
CONTINUOUS
 10
5.3883118823
 20
4.8576560694
 11
5.3886397451
 21
4.8581561109
  0
SPLINE
  5
411
100
AcDbEntity
  8
ALL_ASSEMBLY_MEMBERS
100
AcDbSpline
 62
7
  6
CONTINUOUS
 70
0
 71
3
 72
12
 73
8
 74
0
 42
0.0000001
 43
0.0000001
 44
0.0000000001
 40
0.0
 40
0.0
 40
0.0
 40
0.0
 40
0.262107522
 40
0.5192934326
 40
0.768209898
 40
0.8872773398
 40
1.0
 40
1.0
 40
1.0
 40
1.0
 10
5.3833136537
 20
4.8352840286
 30
0.0
 10
5.3835063713
 20
4.8366306004
 30
0.0
 10
5.3838968571
 20
4.8392972429
 30
0.0
 10
5.3845100544
 20
4.8432367153
 30
0.0
 10
5.3850508902
 20
4.8464360931
 30
0.0
 10
5.3855130595
 20
4.8488877413
 30
0.0
 10
5.385758153
 20
4.8500656535
 30
0.0
 10
5.3858881244
 20
4.850636044
 30
0.0
  0
SPLINE
  5
412
100
AcDbEntity
  8
ALL_ASSEMBLY_MEMBERS
100
AcDbSpline
 62
7
  6
CONTINUOUS
 70
0
 71
3
 72
10
 73
6
 74
0
 42
0.0000001
 43
0.0000001
 44
0.0000000001
 40
0.0
 40
0.0
 40
0.0
 40
0.0
 40
0.2385317801
 40
0.488797928
 40
1.0
 40
1.0
 40
1.0
 40
1.0
 10
5.3824109095
 20
4.7294083932
 30
0.0
 10
5.3826401862
 20
4.7311392677
 30
0.0
 10
5.3830153942
 20
4.7346986068
 30
0.0
 10
5.3835788893
 20
4.7419969299
 30
0.0
 10
5.3838608711
 20
4.7475644924
 30
0.0
 10
5.3840204048
 20
4.7513029631
 30
0.0
  0
LINE
  5
413
100
AcDbEntity
  8
ALL_ASSEMBLY_MEMBERS
100
AcDbLine
 62
7
  6
CONTINUOUS
 10
5.3840204048
 20
4.7513029631
 11
5.3845154486
 21
4.7660660863
  0
SPLINE
  5
414
100
AcDbEntity
  8
ALL_ASSEMBLY_MEMBERS
100
AcDbSpline
 62
7
  6
CONTINUOUS
 70
0
 71
3
 72
9
 73
5
 74
0
 42
0.0000001
 43
0.0000001
 44
0.0000000001
 40
0.0
 40
0.0
 40
0.0
 40
0.0
 40
0.434665068
 40
1.0
 40
1.0
 40
1.0
 40
1.0
 10
5.3781242013
 20
4.7131358689
 30
0.0
 10
5.3784460468
 20
4.7135776894
 30
0.0
 10
5.3790612334
 20
4.7146836433
 30
0.0
 10
5.3795227297
 20
4.7158553796
 30
0.0
 10
5.3797559811
 20
4.7165269687
 30
0.0
  0
LINE
  5
415
100
AcDbEntity
  8
ALL_ASSEMBLY_MEMBERS
100
AcDbLine
 62
7
  6
CONTINUOUS
 10
5.3797559811
 20
4.7165269687
 11
5.3802650885
 21
4.7181458101
  0
LINE
  5
416
100
AcDbEntity
  8
ALL_ASSEMBLY_MEMBERS
100
AcDbLine
 62
7
  6
CONTINUOUS
 10
5.3802650885
 20
4.7181458101
 11
5.3816397219
 21
4.7243398957
  0
LINE
  5
417
100
AcDbEntity
  8
ALL_ASSEMBLY_MEMBERS
100
AcDbLine
 62
7
  6
CONTINUOUS
 10
5.372988865
 20
4.7610520071
 11
5.3733874303
 21
4.7613271833
  0
SPLINE
  5
418
100
AcDbEntity
  8
ALL_ASSEMBLY_MEMBERS
100
AcDbSpline
 62
7
  6
CONTINUOUS
 70
0
 71
3
 72
11
 73
7
 74
0
 42
0.0000001
 43
0.0000001
 44
0.0000000001
 40
0.0
 40
0.0
 40
0.0
 40
0.0
 40
0.2847783597
 40
0.5567504442
 40
0.8019155591
 40
1.0
 40
1.0
 40
1.0
 40
1.0
 10
5.3714872761
 20
4.7531387459
 30
0.0
 10
5.3715393468
 20
4.7537983928
 30
0.0
 10
5.3716538074
 20
4.755087049
 30
0.0
 10
5.3718711855
 20
4.7569381675
 30
0.0
 10
5.3721374096
 20
4.7585788192
 30
0.0
 10
5.3723748704
 20
4.759583605
 30
0.0
 10
5.3725159476
 20
4.7600217112
 30
0.0
  0
LINE
  5
419
100
AcDbEntity
  8
ALL_ASSEMBLY_MEMBERS
100
AcDbLine
 62
7
  6
CONTINUOUS
 10
5.3725159476
 20
4.7600217112
 11
5.372869816
 21
4.7608671567
  0
LINE
  5
41A
100
AcDbEntity
  8
ALL_ASSEMBLY_MEMBERS
100
AcDbLine
 62
7
  6
CONTINUOUS
 10
5.372869816
 20
4.7608671567
 11
5.372988865
 21
4.7610520071
  0
SPLINE
  5
41B
100
AcDbEntity
  8
ALL_ASSEMBLY_MEMBERS
100
AcDbSpline
 62
7
  6
CONTINUOUS
 70
0
 71
3
 72
9
 73
5
 74
0
 42
0.0000001
 43
0.0000001
 44
0.0000000001
 40
0.0
 40
0.0
 40
0.0
 40
0.0
 40
0.4621110355
 40
1.0
 40
1.0
 40
1.0
 40
1.0
 10
5.3738628534
 20
4.7072017798
 30
0.0
 10
5.373546551
 20
4.7083933091
 30
0.0
 10
5.3729704867
 20
4.7110006445
 30
0.0
 10
5.3725473542
 20
4.713635845
 30
0.0
 10
5.3723520073
 20
4.7150574401
 30
0.0
  0
LINE
  5
41C
100
AcDbEntity
  8
ALL_ASSEMBLY_MEMBERS
100
AcDbLine
 62
7
  6
CONTINUOUS
 10
5.371970405
 20
4.7181934568
 11
5.3714017027
 21
4.7251368224
  0
LINE
  5
41D
100
AcDbEntity
  8
ALL_ASSEMBLY_MEMBERS
100
AcDbLine
 62
7
  6
CONTINUOUS
 10
5.3876024111
 20
4.7613596618
 11
5.3897496445
 21
4.7587009807
  0
LINE
  5
41E
100
AcDbEntity
  8
ALL_ASSEMBLY_MEMBERS
100
AcDbLine
 62
7
  6
CONTINUOUS
 10
5.3906702343
 20
4.7221220645
 11
5.3936253391
 21
4.7186804009
  0
LINE
  5
41F
100
AcDbEntity
  8
ALL_ASSEMBLY_MEMBERS
100
AcDbLine
 62
7
  6
CONTINUOUS
 10
5.3898793547
 20
4.4773560318
 11
5.3805601901
 21
4.4859010622
  0
SPLINE
  5
420
100
AcDbEntity
  8
ALL_ASSEMBLY_MEMBERS
100
AcDbSpline
 62
7
  6
CONTINUOUS
 70
0
 71
3
 72
10
 73
6
 74
0
 42
0.0000001
 43
0.0000001
 44
0.0000000001
 40
0.0
 40
0.0
 40
0.0
 40
0.0
 40
0.2048997019
 40
0.5590791096
 40
1.0
 40
1.0
 40
1.0
 40
1.0
 10
5.3744528724
 20
4.7888290381
 30
0.0
 10
5.3745296042
 20
4.7888251806
 30
0.0
 10
5.3747420713
 20
4.7888574085
 30
0.0
 10
5.3750685847
 20
4.7890589929
 30
0.0
 10
5.3752759544
 20
4.7892749076
 30
0.0
 10
5.3753826851
 20
4.7894011671
 30
0.0
  0
LINE
  5
421
100
AcDbEntity
  8
ALL_ASSEMBLY_MEMBERS
100
AcDbLine
 62
7
  6
CONTINUOUS
 10
5.3753826851
 20
4.7894011671
 11
5.375566643
 21
4.7896359794
  0
LINE
  5
422
100
AcDbEntity
  8
ALL_ASSEMBLY_MEMBERS
100
AcDbLine
 62
7
  6
CONTINUOUS
 10
5.3886382971
 20
4.2756029565
 11
5.3883220153
 21
4.2737387648
  0
LINE
  5
423
100
AcDbEntity
  8
ALL_ASSEMBLY_MEMBERS
100
AcDbLine
 62
7
  6
CONTINUOUS
 10
5.3902032065
 20
4.2601793572
 11
5.3897241013
 21
4.2642847702
  0
LINE
  5
424
100
AcDbEntity
  8
ALL_ASSEMBLY_MEMBERS
100
AcDbLine
 62
7
  6
CONTINUOUS
 10
5.3897241013
 20
4.2642847702
 11
5.3883220153
 21
4.2737387648
  0
LINE
  5
425
100
AcDbEntity
  8
ALL_ASSEMBLY_MEMBERS
100
AcDbLine
 62
7
  6
CONTINUOUS
 10
5.3904716213
 20
4.2474312827
 11
5.3904436447
 21
4.2561271779
  0
LINE
  5
426
100
AcDbEntity
  8
ALL_ASSEMBLY_MEMBERS
100
AcDbLine
 62
7
  6
CONTINUOUS
 10
5.3904436447
 20
4.2561271779
 11
5.3902710903
 21
4.2593956337
  0
SPLINE
  5
427
100
AcDbEntity
  8
ALL_ASSEMBLY_MEMBERS
100
AcDbSpline
 62
7
  6
CONTINUOUS
 70
0
 71
3
 72
15
 73
11
 74
0
 42
0.0000001
 43
0.0000001
 44
0.0000000001
 40
0.0
 40
0.0
 40
0.0
 40
0.0
 40
0.0579406211
 40
0.1270371275
 40
0.2149066479
 40
0.3249693346
 40
0.4585819417
 40
0.6162121763
 40
0.7972364097
 40
1.0
 40
1.0
 40
1.0
 40
1.0
 10
5.3843921105
 20
4.1648592427
 30
0.0
 10
5.3842543596
 20
4.1648442397
 30
0.0
 10
5.3839418119
 20
4.164887455
 30
0.0
 10
5.3834945062
 20
4.1651576561
 30
0.0
 10
5.3830431726
 20
4.165614493
 30
0.0
 10
5.3825767092
 20
4.1662580563
 30
0.0
 10
5.382094327
 20
4.1670890155
 30
0.0
 10
5.381598503
 20
4.1681045624
 30
0.0
 10
5.3810914817
 20
4.1692964082
 30
0.0
 10
5.3807646627
 20
4.1701542921
 30
0.0
 10
5.3805984671
 20
4.1706098328
 30
0.0
  0
LINE
  5
428
100
AcDbEntity
  8
ALL_ASSEMBLY_MEMBERS
100
AcDbLine
 62
7
  6
CONTINUOUS
 10
5.3805984671
 20
4.1706098328
 11
5.3799420389
 21
4.172511588
  0
SPLINE
  5
429
100
AcDbEntity
  8
ALL_ASSEMBLY_MEMBERS
100
AcDbSpline
 62
7
  6
CONTINUOUS
 70
0
 71
3
 72
12
 73
8
 74
0
 42
0.0000001
 43
0.0000001
 44
0.0000000001
 40
0.0
 40
0.0
 40
0.0
 40
0.0
 40
0.0823312545
 40
0.179570327
 40
0.4131458928
 40
0.6895066421
 40
1.0
 40
1.0
 40
1.0
 40
1.0
 10
5.3824109095
 20
4.1835712451
 30
0.0
 10
5.3824766349
 20
4.1836912169
 30
0.0
 10
5.3825985839
 20
4.1839645217
 30
0.0
 10
5.3828194008
 20
4.1846149436
 30
0.0
 10
5.3830531809
 20
4.1855981202
 30
0.0
 10
5.3832885884
 20
4.1869409694
 30
0.0
 10
5.3834192277
 20
4.187907524
 30
0.0
 10
5.3834821401
 20
4.188419567
 30
0.0
  0
LINE
  5
42A
100
AcDbEntity
  8
ALL_ASSEMBLY_MEMBERS
100
AcDbLine
 62
7
  6
CONTINUOUS
 10
5.3834821401
 20
4.188419567
 11
5.38386507
 21
4.1923077186
  0
LINE
  5
42B
100
AcDbEntity
  8
ALL_ASSEMBLY_MEMBERS
100
AcDbLine
 62
7
  6
CONTINUOUS
 10
5.3839450536
 20
4.1933520395
 11
5.3846716215
 21
4.2092226599
  0
SPLINE
  5
42C
100
AcDbEntity
  8
ALL_ASSEMBLY_MEMBERS
100
AcDbSpline
 62
7
  6
CONTINUOUS
 70
0
 71
3
 72
13
 73
9
 74
0
 42
0.0000001
 43
0.0000001
 44
0.0000000001
 40
0.0
 40
0.0
 40
0.0
 40
0.0
 40
0.0839117311
 40
0.1737425374
 40
0.2737860478
 40
0.3870315576
 40
0.6598534894
 40
1.0
 40
1.0
 40
1.0
 40
1.0
 10
5.3777549497
 20
4.7004441545
 30
0.0
 10
5.3776338855
 20
4.7004503861
 30
0.0
 10
5.3773840075
 20
4.700498468
 30
0.0
 10
5.3770234896
 20
4.7006688358
 30
0.0
 10
5.3766715391
 20
4.7009333916
 30
0.0
 10
5.3761825685
 20
4.7014405331
 30
0.0
 10
5.3756053206
 20
4.7023257793
 30
0.0
 10
5.3752322913
 20
4.703130439
 30
0.0
 10
5.3750438591
 20
4.7035842734
 30
0.0
  0
LINE
  5
42D
100
AcDbEntity
  8
ALL_ASSEMBLY_MEMBERS
100
AcDbLine
 62
7
  6
CONTINUOUS
 10
5.3750438591
 20
4.7035842734
 11
5.3738628534
 21
4.7072017798
  0
LINE
  5
42E
100
AcDbEntity
  8
ALL_ASSEMBLY_MEMBERS
100
AcDbLine
 62
7
  6
CONTINUOUS
 10
5.3714872761
 20
4.24800105
 11
5.3716298866
 21
4.2487576358
  0
SPLINE
  5
42F
100
AcDbEntity
  8
ALL_ASSEMBLY_MEMBERS
100
AcDbSpline
 62
7
  6
CONTINUOUS
 70
0
 71
3
 72
12
 73
8
 74
0
 42
0.0000001
 43
0.0000001
 44
0.0000000001
 40
0.0
 40
0.0
 40
0.0
 40
0.0
 40
0.3514004173
 40
0.6374889405
 40
0.7533013625
 40
0.8506992582
 40
1.0
 40
1.0
 40
1.0
 40
1.0
 10
5.3716298866
 20
4.2487576358
 30
0.0
 10
5.3716607676
 20
4.2488912717
 30
0.0
 10
5.3717237388
 20
4.2491321651
 30
0.0
 10
5.3718239342
 20
4.2494095316
 30
0.0
 10
5.3719179422
 20
4.2495813991
 30
0.0
 10
5.3720014936
 20
4.2496943445
 30
0.0
 10
5.3720891379
 20
4.2497541527
 30
0.0
 10
5.3721470556
 20
4.2497605923
 30
0.0
  0
LINE
  5
430
100
AcDbEntity
  8
ALL_ASSEMBLY_MEMBERS
100
AcDbLine
 62
7
  6
CONTINUOUS
 10
5.3710264373
 20
4.2372634854
 11
5.3710753516
 21
4.2424358223
  0
LINE
  5
431
100
AcDbEntity
  8
ALL_ASSEMBLY_MEMBERS
100
AcDbLine
 62
7
  6
CONTINUOUS
 10
5.3710753516
 20
4.2424358223
 11
5.3714060834
 21
4.2474260097
  0
LINE
  5
432
100
AcDbEntity
  8
ALL_ASSEMBLY_MEMBERS
100
AcDbLine
 62
7
  6
CONTINUOUS
 10
5.3799420389
 20
4.172511588
 11
5.3784704424
 21
4.17749851
  0
LINE
  5
433
100
AcDbEntity
  8
ALL_ASSEMBLY_MEMBERS
100
AcDbLine
 62
7
  6
CONTINUOUS
 10
5.3784704424
 20
4.17749851
 11
5.3763436391
 21
4.1867235903
  0
LINE
  5
434
100
AcDbEntity
  8
ALL_ASSEMBLY_MEMBERS
100
AcDbLine
 62
7
  6
CONTINUOUS
 10
5.3876024111
 20
4.1877725435
 11
5.3901833688
 21
4.1744689151
  0
LINE
  5
435
100
AcDbEntity
  8
ALL_ASSEMBLY_MEMBERS
100
AcDbLine
 62
7
  6
CONTINUOUS
 10
5.3906702343
 20
4.1439758913
 11
5.3936253391
 21
4.1292309863
  0
SPLINE
  5
436
100
AcDbEntity
  8
ALL_ASSEMBLY_MEMBERS
100
AcDbSpline
 62
7
  6
CONTINUOUS
 70
0
 71
3
 72
15
 73
11
 74
0
 42
0.0000001
 43
0.0000001
 44
0.0000000001
 40
0.0
 40
0.0
 40
0.0
 40
0.0
 40
0.3208633466
 40
0.5565418572
 40
0.7224334404
 40
0.8369656129
 40
0.9138509947
 40
0.9624089061
 40
0.989182808
 40
1.0
 40
1.0
 40
1.0
 40
1.0
 10
5.3847314942
 20
3.9318521731
 30
0.0
 10
5.3846272199
 20
3.9323690199
 30
0.0
 10
5.3844426455
 20
3.9332646434
 30
0.0
 10
5.3841880239
 20
3.9344245885
 30
0.0
 10
5.3839934949
 20
3.9352492411
 30
0.0
 10
5.383844559
 20
3.93581919
 30
0.0
 10
5.3837362964
 20
3.9361943428
 30
0.0
 10
5.3836481984
 20
3.9364369725
 30
0.0
 10
5.383597445
 20
3.9365555394
 30
0.0
 10
5.3835482654
 20
3.9366160741
 30
0.0
 10
5.3835308004
 20
3.9366127664
 30
0.0
  0
LINE
  5
437
100
AcDbEntity
  8
ALL_ASSEMBLY_MEMBERS
100
AcDbLine
 62
7
  6
CONTINUOUS
 10
5.3817297895
 20
3.9477272676
 11
5.3795096089
 21
3.9600416709
  0
SPLINE
  5
438
100
AcDbEntity
  8
ALL_ASSEMBLY_MEMBERS
100
AcDbSpline
 62
7
  6
CONTINUOUS
 70
0
 71
3
 72
15
 73
11
 74
0
 42
0.0000001
 43
0.0000001
 44
0.0000000001
 40
0.0
 40
0.0
 40
0.0
 40
0.0
 40
0.0119347319
 40
0.0231341688
 40
0.0389507872
 40
0.0870930895
 40
0.1629211267
 40
0.2745181683
 40
0.4380634078
 40
1.0
 40
1.0
 40
1.0
 40
1.0
 10
5.3821303431
 20
3.9440406214
 30
0.0
 10
5.3821449245
 20
3.9440433829
 30
0.0
 10
5.3821614444
 20
3.9440748586
 30
0.0
 10
5.3821710341
 20
3.9441200143
 30
0.0
 10
5.3821818112
 20
3.9442142612
 30
0.0
 10
5.3821810301
 20
3.944387443
 30
0.0
 10
5.3821634082
 20
3.944680363
 30
0.0
 10
5.3821201646
 20
3.9451145176
 30
0.0
 10
5.3819879392
 20
3.9461472015
 30
0.0
 10
5.3818449468
 20
3.9470380638
 30
0.0
 10
5.3817297895
 20
3.9477272676
 30
0.0
  0
SPLINE
  5
439
100
AcDbEntity
  8
ALL_ASSEMBLY_MEMBERS
100
AcDbSpline
 62
7
  6
CONTINUOUS
 70
0
 71
3
 72
16
 73
12
 74
0
 42
0.0000001
 43
0.0000001
 44
0.0000000001
 40
0.0
 40
0.0
 40
0.0
 40
0.0
 40
0.30708363
 40
0.5390812904
 40
0.7061692787
 40
0.8239704387
 40
0.9052534345
 40
0.9575177107
 40
0.9748315749
 40
0.9871192356
 40
1.0
 40
1.0
 40
1.0
 40
1.0
 10
5.3750328957
 20
3.9845417402
 30
0.0
 10
5.3749282589
 20
3.9850379906
 30
0.0
 10
5.374740008
 20
3.9859082263
 30
0.0
 10
5.3744773249
 20
3.987044512
 30
0.0
 10
5.3742693233
 20
3.9878726668
 30
0.0
 10
5.3741068776
 20
3.98845494
 30
0.0
 10
5.3739800012
 20
3.9888510957
 30
0.0
 10
5.3738918523
 20
3.989082885
 30
0.0
 10
5.3738290053
 20
3.9892051342
 30
0.0
 10
5.3737932588
 20
3.9892611306
 30
0.0
 10
5.3737554286
 20
3.9892968325
 30
0.0
 10
5.373734527
 20
3.989292874
 30
0.0
  0
LINE
  5
43A
100
AcDbEntity
  8
ALL_ASSEMBLY_MEMBERS
100
AcDbLine
 62
7
  6
CONTINUOUS
 10
5.3777016408
 20
3.9710679325
 11
5.3750328957
 21
3.9845417402
  0
LINE
  5
43B
100
AcDbEntity
  8
ALL_ASSEMBLY_MEMBERS
100
AcDbLine
 62
7
  6
CONTINUOUS
 10
5.3731358023
 20
3.988731305
 11
5.3724547946
 21
3.9921525489
  0
LINE
  5
43C
100
AcDbEntity
  8
ALL_ASSEMBLY_MEMBERS
100
AcDbLine
 62
7
  6
CONTINUOUS
 10
5.3759631909
 20
3.9739013984
 11
5.3756210746
 21
3.9757079814
  0
LINE
  5
43D
100
AcDbEntity
  8
ALL_ASSEMBLY_MEMBERS
100
AcDbLine
 62
7
  6
CONTINUOUS
 10
5.3756210746
 20
3.9757079814
 11
5.3744080043
 21
3.9820978435
  0
LINE
  5
43E
100
AcDbEntity
  8
ALL_ASSEMBLY_MEMBERS
100
AcDbLine
 62
7
  6
CONTINUOUS
 10
5.3916969978
 20
3.8907185679
 11
5.391566179
 21
3.8914211224
  0
LINE
  5
43F
100
AcDbEntity
  8
ALL_ASSEMBLY_MEMBERS
100
AcDbLine
 62
7
  6
CONTINUOUS
 10
5.391566179
 20
3.8914211224
 11
5.3907648807
 21
3.8956917876
  0
LINE
  5
440
100
AcDbEntity
  8
ALL_ASSEMBLY_MEMBERS
100
AcDbLine
 62
7
  6
CONTINUOUS
 10
5.3907648807
 20
3.8956917876
 11
5.3889759494
 21
3.9051621086
  0
LINE
  5
441
100
AcDbEntity
  8
ALL_ASSEMBLY_MEMBERS
100
AcDbLine
 62
7
  6
CONTINUOUS
 10
5.3918305158
 20
3.8899976219
 11
5.3916969978
 21
3.8907185679
  0
SPLINE
  5
442
100
AcDbEntity
  8
ALL_ASSEMBLY_MEMBERS
100
AcDbSpline
 62
7
  6
CONTINUOUS
 70
0
 71
3
 72
13
 73
9
 74
0
 42
0.0000001
 43
0.0000001
 44
0.0000000001
 40
0.0
 40
0.0
 40
0.0
 40
0.0
 40
0.3670522258
 40
0.6560522762
 40
0.7684728921
 40
0.8604994604
 40
0.9354283074
 40
1.0
 40
1.0
 40
1.0
 40
1.0
 10
5.3915564311
 20
4.844197286
 30
0.0
 10
5.3914785632
 20
4.8445698127
 30
0.0
 10
5.3913201032
 20
4.8452314134
 30
0.0
 10
5.3910600853
 20
4.845988667
 30
0.0
 10
5.3908153374
 20
4.8464396019
 30
0.0
 10
5.3906371987
 20
4.8466701815
 30
0.0
 10
5.3904466037
 20
4.8468219645
 30
0.0
 10
5.3903029044
 20
4.8468644152
 30
0.0
 10
5.3902360328
 20
4.8468676766
 30
0.0
  0
LINE
  5
443
100
AcDbEntity
  8
ALL_ASSEMBLY_MEMBERS
100
AcDbLine
 62
7
  6
CONTINUOUS
 10
5.3922992359
 20
4.8330319516
 11
5.3922010869
 21
4.838638504
  0
LINE
  5
444
100
AcDbEntity
  8
ALL_ASSEMBLY_MEMBERS
100
AcDbLine
 62
7
  6
CONTINUOUS
 10
5.3922010869
 20
4.838638504
 11
5.3917356788
 21
4.8432351115
  0
LINE
  5
445
100
AcDbEntity
  8
ALL_ASSEMBLY_MEMBERS
100
AcDbLine
 62
7
  6
CONTINUOUS
 10
5.3917356788
 20
4.8432351115
 11
5.3915564311
 21
4.844197286
  0
LINE
  5
446
100
AcDbEntity
  8
ALL_ASSEMBLY_MEMBERS
100
AcDbLine
 62
7
  6
CONTINUOUS
 10
5.3912554824
 20
4.8188810943
 11
5.391812972
 21
4.8233605979
  0
SPLINE
  5
447
100
AcDbEntity
  8
ALL_ASSEMBLY_MEMBERS
100
AcDbSpline
 62
7
  6
CONTINUOUS
 70
0
 71
3
 72
9
 73
5
 74
0
 42
0.0000001
 43
0.0000001
 44
0.0000000001
 40
0.0
 40
0.0
 40
0.0
 40
0.0
 40
0.2501272662
 40
1.0
 40
1.0
 40
1.0
 40
1.0
 10
5.391812972
 20
4.8233605979
 30
0.0
 10
5.3918905104
 20
4.8241643868
 30
0.0
 10
5.39215607
 20
4.8273821787
 30
0.0
 10
5.3922720056
 20
4.8306111876
 30
0.0
 10
5.3922992359
 20
4.8330319516
 30
0.0
  0
SPLINE
  5
448
100
AcDbEntity
  8
ALL_ASSEMBLY_MEMBERS
100
AcDbSpline
 62
7
  6
CONTINUOUS
 70
0
 71
3
 72
11
 73
7
 74
0
 42
0.0000001
 43
0.0000001
 44
0.0000000001
 40
0.0
 40
0.0
 40
0.0
 40
0.0
 40
0.1762896857
 40
0.3992541494
 40
0.6737928814
 40
1.0
 40
1.0
 40
1.0
 40
1.0
 10
5.3888462814
 20
4.8106883831
 30
0.0
 10
5.389008714
 20
4.8109104978
 30
0.0
 10
5.3893270352
 20
4.811449582
 30
0.0
 10
5.3897484363
 20
4.8124147881
 30
0.0
 10
5.3901570123
 20
4.8136352475
 30
0.0
 10
5.3903974695
 20
4.8145421415
 30
0.0
 10
5.3905163813
 20
4.8150372399
 30
0.0
  0
LINE
  5
449
100
AcDbEntity
  8
ALL_ASSEMBLY_MEMBERS
100
AcDbLine
 62
7
  6
CONTINUOUS
 10
5.3905163813
 20
4.8150372399
 11
5.3910192475
 21
4.8174679285
  0
LINE
  5
44A
100
AcDbEntity
  8
ALL_ASSEMBLY_MEMBERS
100
AcDbLine
 62
7
  6
CONTINUOUS
 10
5.3811104375
 20
4.8188777104
 11
5.38129396
 21
4.8203376109
  0
LINE
  5
44B
100
AcDbEntity
  8
ALL_ASSEMBLY_MEMBERS
100
AcDbLine
 62
7
  6
CONTINUOUS
 10
5.375566643
 20
4.7896359794
 11
5.3766996639
 21
4.7920587138
  0
LINE
  5
44C
100
AcDbEntity
  8
ALL_ASSEMBLY_MEMBERS
100
AcDbLine
 62
7
  6
CONTINUOUS
 10
5.3766996639
 20
4.7920587138
 11
5.377227459
 21
4.7938433912
  0
LINE
  5
44D
100
AcDbEntity
  8
ALL_ASSEMBLY_MEMBERS
100
AcDbLine
 62
7
  6
CONTINUOUS
 10
5.377227459
 20
4.7938433912
 11
5.3777212901
 21
4.7959401617
  0
LINE
  5
44E
100
AcDbEntity
  8
ALL_ASSEMBLY_MEMBERS
100
AcDbLine
 62
7
  6
CONTINUOUS
 10
5.3777212901
 20
4.7959401617
 11
5.3781929214
 21
4.798358012
  0
SPLINE
  5
44F
100
AcDbEntity
  8
ALL_ASSEMBLY_MEMBERS
100
AcDbSpline
 62
7
  6
CONTINUOUS
 70
0
 71
3
 72
13
 73
9
 74
0
 42
0.0000001
 43
0.0000001
 44
0.0000000001
 40
0.0
 40
0.0
 40
0.0
 40
0.0
 40
0.0761377229
 40
0.1598962845
 40
0.2573298013
 40
0.3713608735
 40
0.6518820024
 40
1.0
 40
1.0
 40
1.0
 40
1.0
 10
5.3874517721
 20
4.796373511
 30
0.0
 10
5.3873652417
 20
4.7963767647
 30
0.0
 10
5.3871835004
 20
4.7964161789
 30
0.0
 10
5.3869289993
 20
4.7965680677
 30
0.0
 10
5.3866876798
 20
4.7968045487
 30
0.0
 10
5.3863550397
 20
4.7972564259
 30
0.0
 10
5.3859768538
 20
4.7980170072
 30
0.0
 10
5.3857335176
 20
4.7986897842
 30
0.0
 10
5.3856118274
 20
4.799066534
 30
0.0
  0
SPLINE
  5
450
100
AcDbEntity
  8
ALL_ASSEMBLY_MEMBERS
100
AcDbSpline
 62
7
  6
CONTINUOUS
 70
0
 71
3
 72
10
 73
6
 74
0
 42
0.0000001
 43
0.0000001
 44
0.0000000001
 40
0.0
 40
0.0
 40
0.0
 40
0.0
 40
0.2098678472
 40
0.4502913674
 40
1.0
 40
1.0
 40
1.0
 40
1.0
 10
5.3856118274
 20
4.799066534
 30
0.0
 10
5.3854421158
 20
4.7995919572
 30
0.0
 10
5.3851318108
 20
4.8007366298
 30
0.0
 10
5.3845850003
 20
4.8033106993
 30
0.0
 10
5.3842690437
 20
4.8053670424
 30
0.0
 10
5.3840746331
 20
4.8068001718
 30
0.0
  0
LINE
  5
451
100
AcDbEntity
  8
ALL_ASSEMBLY_MEMBERS
100
AcDbLine
 62
7
  6
CONTINUOUS
 10
5.3815932602
 20
4.8227558329
 11
5.3812351661
 21
4.8251139208
  0
SPLINE
  5
452
100
AcDbEntity
  8
ALL_ASSEMBLY_MEMBERS
100
AcDbSpline
 62
7
  6
CONTINUOUS
 70
0
 71
3
 72
10
 73
6
 74
0
 42
0.0000001
 43
0.0000001
 44
0.0000000001
 40
0.0
 40
0.0
 40
0.0
 40
0.0
 40
0.5476884368
 40
0.7875031286
 40
1.0
 40
1.0
 40
1.0
 40
1.0
 10
5.3812351661
 20
4.8251139208
 30
0.0
 10
5.3810685966
 20
4.8261181191
 30
0.0
 10
5.3808022327
 20
4.8275585504
 30
0.0
 10
5.3803599064
 20
4.8293641409
 30
0.0
 10
5.3801177893
 20
4.8301699437
 30
0.0
 10
5.3799884854
 20
4.8305431178
 30
0.0
  0
LINE
  5
453
100
AcDbEntity
  8
ALL_ASSEMBLY_MEMBERS
100
AcDbLine
 62
7
  6
CONTINUOUS
 10
5.3799884854
 20
4.8305431178
 11
5.3794976266
 21
4.8317180424
  0
SPLINE
  5
454
100
AcDbEntity
  8
ALL_ASSEMBLY_MEMBERS
100
AcDbSpline
 62
7
  6
CONTINUOUS
 70
0
 71
3
 72
11
 73
7
 74
0
 42
0.0000001
 43
0.0000001
 44
0.0000000001
 40
0.0
 40
0.0
 40
0.0
 40
0.0
 40
0.3216258816
 40
0.5880549175
 40
0.8074432628
 40
1.0
 40
1.0
 40
1.0
 40
1.0
 10
5.3794976266
 20
4.8317180424
 30
0.0
 10
5.379414552
 20
4.8318775263
 30
0.0
 10
5.3792486266
 20
4.8321624707
 30
0.0
 10
5.3789613699
 20
4.8325144216
 30
0.0
 10
5.3786509196
 20
4.8327425023
 30
0.0
 10
5.378421004
 20
4.8328029967
 30
0.0
 10
5.3783134252
 20
4.8328071768
 30
0.0
  0
LINE
  5
455
100
AcDbEntity
  8
ALL_ASSEMBLY_MEMBERS
100
AcDbLine
 62
7
  6
CONTINUOUS
 10
5.3837762674
 20
5.2713489324
 11
5.3845396768
 21
5.2754372843
  0
LINE
  5
456
100
AcDbEntity
  8
ALL_ASSEMBLY_MEMBERS
100
AcDbLine
 62
7
  6
CONTINUOUS
 10
5.3845396768
 20
5.2754372843
 11
5.3856219294
 21
5.2812553046
  0
LINE
  5
457
100
AcDbEntity
  8
ALL_ASSEMBLY_MEMBERS
100
AcDbLine
 62
7
  6
CONTINUOUS
 10
5.3761916418
 20
5.2315799905
 11
5.3765392792
 21
5.2333431531
  0
LINE
  5
458
100
AcDbEntity
  8
ALL_ASSEMBLY_MEMBERS
100
AcDbLine
 62
7
  6
CONTINUOUS
 10
5.3817893044
 20
5.2607587062
 11
5.3837762674
 21
5.2713489324
  0
LINE
  5
459
100
AcDbEntity
  8
ALL_ASSEMBLY_MEMBERS
100
AcDbLine
 62
7
  6
CONTINUOUS
 10
5.375807922
 20
5.2296490819
 11
5.3761916418
 21
5.2315799905
  0
SPLINE
  5
45A
100
AcDbEntity
  8
ALL_ASSEMBLY_MEMBERS
100
AcDbSpline
 62
7
  6
CONTINUOUS
 70
0
 71
3
 72
9
 73
5
 74
0
 42
0.0000001
 43
0.0000001
 44
0.0000000001
 40
0.0
 40
0.0
 40
0.0
 40
0.0
 40
0.5650658137
 40
1.0
 40
1.0
 40
1.0
 40
1.0
 10
5.3869740724
 20
4.1840667931
 30
0.0
 10
5.3868564682
 20
4.1838687508
 30
0.0
 10
5.3866221535
 20
4.183531418
 30
0.0
 10
5.3862689837
 20
4.1832907236
 30
0.0
 10
5.3860978618
 20
4.1832443828
 30
0.0
  0
LINE
  5
45B
100
AcDbEntity
  8
ALL_ASSEMBLY_MEMBERS
100
AcDbLine
 62
7
  6
CONTINUOUS
 10
5.3814564073
 20
4.182712269
 11
5.3825724455
 21
4.1780674808
  0
LINE
  5
45C
100
AcDbEntity
  8
ALL_ASSEMBLY_MEMBERS
100
AcDbLine
 62
7
  6
CONTINUOUS
 10
5.3825724455
 20
4.1780674808
 11
5.3840711443
 21
4.1729601259
  0
LINE
  5
45D
100
AcDbEntity
  8
ALL_ASSEMBLY_MEMBERS
100
AcDbLine
 62
7
  6
CONTINUOUS
 10
5.3848387691
 20
4.7184272679
 11
5.3836526182
 21
4.7150038134
  0
LINE
  5
45E
100
AcDbEntity
  8
ALL_ASSEMBLY_MEMBERS
100
AcDbLine
 62
7
  6
CONTINUOUS
 10
5.3836526182
 20
4.7150038134
 11
5.383093119
 21
4.7138523533
  0
LINE
  5
45F
100
AcDbEntity
  8
ALL_ASSEMBLY_MEMBERS
100
AcDbLine
 62
7
  6
CONTINUOUS
 10
5.383093119
 20
4.7138523533
 11
5.3825083369
 21
4.712920971
  0
SPLINE
  5
460
100
AcDbEntity
  8
ALL_ASSEMBLY_MEMBERS
100
AcDbSpline
 62
7
  6
CONTINUOUS
 70
0
 71
3
 72
9
 73
5
 74
0
 42
0.0000001
 43
0.0000001
 44
0.0000000001
 40
0.0
 40
0.0
 40
0.0
 40
0.0
 40
0.5599915773
 40
1.0
 40
1.0
 40
1.0
 40
1.0
 10
5.3840711443
 20
4.1729601259
 30
0.0
 10
5.3843949604
 20
4.1719794223
 30
0.0
 10
5.3850111311
 20
4.1702404926
 30
0.0
 10
5.3857518451
 20
4.168547315
 30
0.0
 10
5.3861288023
 20
4.1678286823
 30
0.0
  0
SPLINE
  5
461
100
AcDbEntity
  8
ALL_ASSEMBLY_MEMBERS
100
AcDbSpline
 62
7
  6
CONTINUOUS
 70
0
 71
3
 72
11
 73
7
 74
0
 42
0.0000001
 43
0.0000001
 44
0.0000000001
 40
0.0
 40
0.0
 40
0.0
 40
0.0
 40
0.3133049644
 40
0.5794114097
 40
0.8033531749
 40
1.0
 40
1.0
 40
1.0
 40
1.0
 10
5.3825083369
 20
4.712920971
 30
0.0
 10
5.3823780676
 20
4.7127429438
 30
0.0
 10
5.3821213313
 20
4.7124244061
 30
0.0
 10
5.3817034133
 20
4.7120390867
 30
0.0
 10
5.3812795769
 20
4.7117942228
 30
0.0
 10
5.3809787602
 20
4.7117421475
 30
0.0
 10
5.3808404796
 20
4.7117491821
 30
0.0
  0
LINE
  5
462
100
AcDbEntity
  8
ALL_ASSEMBLY_MEMBERS
100
AcDbLine
 62
7
  6
CONTINUOUS
 10
5.3777334926
 20
4.7092567037
 11
5.3782262456
 21
4.7069878987
  0
SPLINE
  5
463
100
AcDbEntity
  8
ALL_ASSEMBLY_MEMBERS
100
AcDbSpline
 62
7
  6
CONTINUOUS
 70
0
 71
3
 72
10
 73
6
 74
0
 42
0.0000001
 43
0.0000001
 44
0.0000000001
 40
0.0
 40
0.0
 40
0.0
 40
0.0
 40
0.5704855168
 40
0.8024094167
 40
1.0
 40
1.0
 40
1.0
 40
1.0
 10
5.3782262456
 20
4.7069878987
 30
0.0
 10
5.3784644285
 20
4.7060042854
 30
0.0
 10
5.378839697
 20
4.7046279572
 30
0.0
 10
5.3794626611
 20
4.7029658434
 30
0.0
 10
5.3797870834
 20
4.7022747627
 30
0.0
 10
5.3799551948
 20
4.7019671808
 30
0.0
  0
LINE
  5
464
100
AcDbEntity
  8
ALL_ASSEMBLY_MEMBERS
100
AcDbLine
 62
7
  6
CONTINUOUS
 10
5.3883683006
 20
4.1903869322
 11
5.3880038807
 21
4.1878040653
  0
LINE
  5
465
100
AcDbEntity
  8
ALL_ASSEMBLY_MEMBERS
100
AcDbLine
 62
7
  6
CONTINUOUS
 10
5.3875417497
 20
4.1855749208
 11
5.3873098336
 21
4.1848160835
  0
LINE
  5
466
100
AcDbEntity
  8
ALL_ASSEMBLY_MEMBERS
100
AcDbLine
 62
7
  6
CONTINUOUS
 10
5.3873098336
 20
4.1848160835
 11
5.3869740724
 21
4.1840667931
  0
SPLINE
  5
467
100
AcDbEntity
  8
ALL_ASSEMBLY_MEMBERS
100
AcDbSpline
 62
7
  6
CONTINUOUS
 70
0
 71
3
 72
11
 73
7
 74
0
 42
0.0000001
 43
0.0000001
 44
0.0000000001
 40
0.0
 40
0.0
 40
0.0
 40
0.0
 40
0.1988803001
 40
0.423291373
 40
0.6885333028
 40
1.0
 40
1.0
 40
1.0
 40
1.0
 10
5.3764437385
 20
4.7119649768
 30
0.0
 10
5.376584364
 20
4.7119578598
 30
0.0
 10
5.3768888883
 20
4.7120084387
 30
0.0
 10
5.3773179028
 20
4.7122528107
 30
0.0
 10
5.377737733
 20
4.7126385102
 30
0.0
 10
5.3779943627
 20
4.7129576301
 30
0.0
 10
5.3781242013
 20
4.7131358689
 30
0.0
  0
SPLINE
  5
468
100
AcDbEntity
  8
ALL_ASSEMBLY_MEMBERS
100
AcDbSpline
 62
7
  6
CONTINUOUS
 70
0
 71
3
 72
10
 73
6
 74
0
 42
0.0000001
 43
0.0000001
 44
0.0000000001
 40
0.0
 40
0.0
 40
0.0
 40
0.0
 40
0.2013130668
 40
0.5521877797
 40
1.0
 40
1.0
 40
1.0
 40
1.0
 10
5.3814892874
 20
4.1827335919
 30
0.0
 10
5.3815751142
 20
4.1827431059
 30
0.0
 10
5.3818063781
 20
4.1828180487
 30
0.0
 10
5.3821334268
 20
4.1831125064
 30
0.0
 10
5.3823186184
 20
4.1834027817
 30
0.0
 10
5.3824109095
 20
4.1835712451
 30
0.0
  0
SPLINE
  5
469
100
AcDbEntity
  8
ALL_ASSEMBLY_MEMBERS
100
AcDbSpline
 62
7
  6
CONTINUOUS
 70
0
 71
3
 72
10
 73
6
 74
0
 42
0.0000001
 43
0.0000001
 44
0.0000000001
 40
0.0
 40
0.0
 40
0.0
 40
0.0
 40
0.302667552
 40
0.683844774
 40
1.0
 40
1.0
 40
1.0
 40
1.0
 10
5.3802076841
 20
4.7891374695
 30
0.0
 10
5.38013551
 20
4.7890539448
 30
0.0
 10
5.3799630003
 20
4.7888734057
 30
0.0
 10
5.3796682787
 20
4.7886513653
 30
0.0
 10
5.3794102193
 20
4.7885854877
 30
0.0
 10
5.37929507
 20
4.7885915153
 30
0.0
  0
LINE
  5
46A
100
AcDbEntity
  8
ALL_ASSEMBLY_MEMBERS
100
AcDbLine
 62
7
  6
CONTINUOUS
 10
5.3803930253
 20
4.8433119211
 11
5.3793118179
 21
4.8402460416
  0
LINE
  5
46B
100
AcDbEntity
  8
ALL_ASSEMBLY_MEMBERS
100
AcDbLine
 62
7
  6
CONTINUOUS
 10
5.3793118179
 20
4.8402460416
 11
5.3789015565
 21
4.8386568087
  0
LINE
  5
46C
100
AcDbEntity
  8
ALL_ASSEMBLY_MEMBERS
100
AcDbLine
 62
7
  6
CONTINUOUS
 10
5.3789015565
 20
4.8386568087
 11
5.3781058224
 21
4.834722197
  0
SPLINE
  5
46D
100
AcDbEntity
  8
ALL_ASSEMBLY_MEMBERS
100
AcDbSpline
 62
7
  6
CONTINUOUS
 70
0
 71
3
 72
13
 73
9
 74
0
 42
0.0000001
 43
0.0000001
 44
0.0000000001
 40
0.0
 40
0.0
 40
0.0
 40
0.0
 40
0.0746944214
 40
0.1568959761
 40
0.2521785425
 40
0.3640307348
 40
0.6441167137
 40
1.0
 40
1.0
 40
1.0
 40
1.0
 10
5.3750440788
 20
4.7766984319
 30
0.0
 10
5.3749446394
 20
4.7767036116
 30
0.0
 10
5.3747365086
 20
4.776751937
 30
0.0
 10
5.3744445801
 20
4.7769262696
 30
0.0
 10
5.374165436
 20
4.7771959833
 30
0.0
 10
5.3737787569
 20
4.7777204977
 30
0.0
 10
5.3733455745
 20
4.778625782
 30
0.0
 10
5.3730756739
 20
4.7794300361
 30
0.0
 10
5.3729406211
 20
4.7798848311
 30
0.0
  0
LINE
  5
46E
100
AcDbEntity
  8
ALL_ASSEMBLY_MEMBERS
100
AcDbLine
 62
7
  6
CONTINUOUS
 10
5.3729406211
 20
4.7798848311
 11
5.3725888595
 21
4.7812182875
  0
LINE
  5
46F
100
AcDbEntity
  8
ALL_ASSEMBLY_MEMBERS
100
AcDbLine
 62
7
  6
CONTINUOUS
 10
5.3763854776
 20
4.7882248991
 11
5.376861924
 21
4.7841220772
  0
LINE
  5
470
100
AcDbEntity
  8
ALL_ASSEMBLY_MEMBERS
100
AcDbLine
 62
7
  6
CONTINUOUS
 10
5.376861924
 20
4.7841220772
 11
5.3771470071
 21
4.7824364439
  0
LINE
  5
471
100
AcDbEntity
  8
ALL_ASSEMBLY_MEMBERS
100
AcDbLine
 62
7
  6
CONTINUOUS
 10
5.3771470071
 20
4.7824364439
 11
5.3774602448
 21
4.7809796939
  0
LINE
  5
472
100
AcDbEntity
  8
ALL_ASSEMBLY_MEMBERS
100
AcDbLine
 62
7
  6
CONTINUOUS
 10
5.3774602448
 20
4.7809796939
 11
5.3777127717
 21
4.7800142388
  0
LINE
  5
473
100
AcDbEntity
  8
ALL_ASSEMBLY_MEMBERS
100
AcDbLine
 62
7
  6
CONTINUOUS
 10
5.3890668752
 20
4.8053811696
 11
5.3900596843
 21
4.8003143669
  0
LINE
  5
474
100
AcDbEntity
  8
ALL_ASSEMBLY_MEMBERS
100
AcDbLine
 62
7
  6
CONTINUOUS
 10
5.3919151242
 20
4.8563160701
 11
5.3905362701
 21
4.8521276468
  0
LINE
  5
475
100
AcDbEntity
  8
ALL_ASSEMBLY_MEMBERS
100
AcDbLine
 62
7
  6
CONTINUOUS
 10
5.3846499887
 20
4.8296989605
 11
5.3853082119
 21
4.8272765714
  0
LINE
  5
476
100
AcDbEntity
  8
ALL_ASSEMBLY_MEMBERS
100
AcDbLine
 62
7
  6
CONTINUOUS
 10
5.3902754887
 20
4.8510625901
 11
5.3900360425
 21
4.8499630133
  0
LINE
  5
477
100
AcDbEntity
  8
ALL_ASSEMBLY_MEMBERS
100
AcDbLine
 62
7
  6
CONTINUOUS
 10
5.3900360425
 20
4.8499630133
 11
5.3893475931
 21
4.8461361868
  0
SPLINE
  5
478
100
AcDbEntity
  8
ALL_ASSEMBLY_MEMBERS
100
AcDbSpline
 62
7
  6
CONTINUOUS
 70
0
 71
3
 72
9
 73
5
 74
0
 42
0.0000001
 43
0.0000001
 44
0.0000000001
 40
0.0
 40
0.0
 40
0.0
 40
0.0
 40
0.4468060523
 40
1.0
 40
1.0
 40
1.0
 40
1.0
 10
5.3875554597
 20
4.8097881189
 30
0.0
 10
5.3877070146
 20
4.8097801255
 30
0.0
 10
5.3880519228
 20
4.8098734368
 30
0.0
 10
5.3883180517
 20
4.810093062
 30
0.0
 10
5.3884521745
 20
4.8102246609
 30
0.0
  0
LINE
  5
479
100
AcDbEntity
  8
ALL_ASSEMBLY_MEMBERS
100
AcDbLine
 62
7
  6
CONTINUOUS
 10
5.3884521745
 20
4.8102246609
 11
5.3888462814
 21
4.8106883831
  0
LINE
  5
47A
100
AcDbEntity
  8
ALL_ASSEMBLY_MEMBERS
100
AcDbLine
 62
7
  6
CONTINUOUS
 10
5.3755877503
 20
5.234387684
 11
5.3763848756
 21
5.2387750209
  0
LINE
  5
47B
100
AcDbEntity
  8
ALL_ASSEMBLY_MEMBERS
100
AcDbLine
 62
7
  6
CONTINUOUS
 10
5.3763848756
 20
5.2387750209
 11
5.3767949644
 21
5.2410158637
  0
LINE
  5
47C
100
AcDbEntity
  8
ALL_ASSEMBLY_MEMBERS
100
AcDbLine
 62
7
  6
CONTINUOUS
 10
5.3807328781
 20
5.2621840342
 11
5.3821790033
 21
5.2698565111
  0
SPLINE
  5
47D
100
AcDbEntity
  8
ALL_ASSEMBLY_MEMBERS
100
AcDbSpline
 62
7
  6
CONTINUOUS
 70
0
 71
3
 72
18
 73
14
 74
0
 42
0.0000001
 43
0.0000001
 44
0.0000000001
 40
0.0
 40
0.0
 40
0.0
 40
0.0
 40
0.0058295107
 40
0.0179736096
 40
0.0375784404
 40
0.0650522346
 40
0.1006800206
 40
0.1446146466
 40
0.2569769332
 40
0.4010592436
 40
0.5750906746
 40
0.7758689666
 40
1.0
 40
1.0
 40
1.0
 40
1.0
 10
5.3719915729
 20
5.2117797189
 30
0.0
 10
5.3719764312
 20
5.2117825865
 30
0.0
 10
5.3719509024
 20
5.211834213
 30
0.0
 10
5.3719418654
 20
5.2119275524
 30
0.0
 10
5.3719362414
 20
5.212087134
 30
0.0
 10
5.371945541
 20
5.2123044061
 30
0.0
 10
5.3719658606
 20
5.2125871451
 30
0.0
 10
5.3720150994
 20
5.2130919272
 30
0.0
 10
5.372111339
 20
5.2138803907
 30
0.0
 10
5.3722683415
 20
5.215007467
 30
0.0
 10
5.3724728969
 20
5.2163639145
 30
0.0
 10
5.3727206803
 20
5.2179277609
 30
0.0
 10
5.3729025585
 20
5.2190362324
 30
0.0
 10
5.3729996314
 20
5.2196207371
 30
0.0
  0
LINE
  5
47E
100
AcDbEntity
  8
ALL_ASSEMBLY_MEMBERS
100
AcDbLine
 62
7
  6
CONTINUOUS
 10
5.3921494339
 20
5.3212919554
 11
5.39370548
 21
5.3283492536
  0
LINE
  5
47F
100
AcDbEntity
  8
ALL_ASSEMBLY_MEMBERS
100
AcDbLine
 62
7
  6
CONTINUOUS
 10
5.3821790033
 20
5.2698565111
 11
5.3831592125
 21
5.275035917
  0
LINE
  5
480
100
AcDbEntity
  8
ALL_ASSEMBLY_MEMBERS
100
AcDbLine
 62
7
  6
CONTINUOUS
 10
5.3831592125
 20
5.275035917
 11
5.3841201904
 21
5.2800964831
  0
LINE
  5
481
100
AcDbEntity
  8
ALL_ASSEMBLY_MEMBERS
100
AcDbLine
 62
7
  6
CONTINUOUS
 10
5.3841201904
 20
5.2800964831
 11
5.3850618711
 21
5.2850375725
  0
LINE
  5
482
100
AcDbEntity
  8
ALL_ASSEMBLY_MEMBERS
100
AcDbLine
 62
7
  6
CONTINUOUS
 10
5.3759239426
 20
5.0944562161
 11
5.3852112131
 21
5.1320235052
  0
SPLINE
  5
483
100
AcDbEntity
  8
ALL_ASSEMBLY_MEMBERS
100
AcDbSpline
 62
7
  6
CONTINUOUS
 70
0
 71
3
 72
11
 73
7
 74
0
 42
0.0000001
 43
0.0000001
 44
0.0000000001
 40
0.0
 40
0.0
 40
0.0
 40
0.0
 40
0.3162230172
 40
0.5836588638
 40
0.8067748157
 40
1.0
 40
1.0
 40
1.0
 40
1.0
 10
5.377174004
 20
4.8449795763
 30
0.0
 10
5.3772876587
 20
4.8451360497
 30
0.0
 10
5.3775107831
 20
4.8454158708
 30
0.0
 10
5.3778719938
 20
4.8457554142
 30
0.0
 10
5.3782351782
 20
4.8459724008
 30
0.0
 10
5.3784935984
 20
4.8460210606
 30
0.0
 10
5.3786116233
 20
4.8460151705
 30
0.0
  0
LINE
  5
484
100
AcDbEntity
  8
ALL_ASSEMBLY_MEMBERS
100
AcDbLine
 62
7
  6
CONTINUOUS
 10
5.3731171255
 20
4.8299220468
 11
5.3742917137
 21
4.8366605474
  0
SPLINE
  5
485
100
AcDbEntity
  8
ALL_ASSEMBLY_MEMBERS
100
AcDbSpline
 62
7
  6
CONTINUOUS
 70
0
 71
3
 72
11
 73
7
 74
0
 42
0.0000001
 43
0.0000001
 44
0.0000000001
 40
0.0
 40
0.0
 40
0.0
 40
0.0
 40
0.3318456997
 40
0.6116941422
 40
0.8333053278
 40
1.0
 40
1.0
 40
1.0
 40
1.0
 10
5.3742917137
 20
4.8366605474
 30
0.0
 10
5.3744949813
 20
4.8376183164
 30
0.0
 10
5.3749059479
 20
4.8393763436
 30
0.0
 10
5.375602289
 20
4.8417369893
 30
0.0
 10
5.3763269783
 20
4.8435727708
 30
0.0
 10
5.3768849645
 20
4.8445816431
 30
0.0
 10
5.377174004
 20
4.8449795763
 30
0.0
  0
LINE
  5
486
100
AcDbEntity
  8
ALL_ASSEMBLY_MEMBERS
100
AcDbLine
 62
7
  6
CONTINUOUS
 10
5.3725888595
 20
4.7812182875
 11
5.371678902
 21
4.7872305871
  0
LINE
  5
487
100
AcDbEntity
  8
ALL_ASSEMBLY_MEMBERS
100
AcDbLine
 62
7
  6
CONTINUOUS
 10
5.371678902
 20
4.7872305871
 11
5.3713414724
 21
4.792201367
  0
ENDSEC
  0
SECTION
  2
OBJECTS
  0
DICTIONARY
  5
C
100
AcDbDictionary
280
0
281
1
  3
ACAD_GROUP
350
D
  3
ACAD_MLINESTYLE
350
17
  3
ACAD_LAYOUT
350
1A
  3
ACAD_PLOTSETTINGS
350
19
  3
ACAD_PLOTSTYLENAME
350
E
  0
DICTIONARY
  5
D
102
{ACAD_REACTORS
330
C
102
}
100
AcDbDictionary
280
0
281
1
  0
ACDBDICTIONARYWDFLT
  5
E
102
{ACAD_REACTORS
330
C
102
}
100
AcDbDictionary
281
1
  3
Normal
350
F
100
AcDbDictionaryWithDefault
340
F
  0
DICTIONARY
  5
17
102
{ACAD_REACTORS
330
C
102
}
100
AcDbDictionary
280
0
281
1
  3
Standard
350
18
  0
DICTIONARY
  5
19
102
{ACAD_REACTORS
330
C
102
}
100
AcDbDictionary
281
1
  0
DICTIONARY
  5
1A
102
{ACAD_REACTORS
330
C
102
}
100
AcDbDictionary
281
1
  3
Model
350
488
  3
Layout1
350
489
  0
ACDBPLACEHOLDER
  5
F
102
{ACAD_REACTORS
330
E
102
}
  0
MLINESTYLE
  5
18
102
{ACAD_REACTORS
330
17
102
}
100
AcDbMlineStyle
  2
STANDARD
 70
0
  3

 62
256
 51
90.0
 52
90.0
 71
2
 49
0.5
 62
256
  6
BYLAYER
 49
-0.5
 62
256
  6
BYLAYER
  0
LAYOUT
  5
488
102
{ACAD_REACTORS
330
1A
102
}
100
AcDbPlotSettings
  1

  2
none_device
  4
ANSI_A_(11.00_x_8.50_Inches)
  6

 40
0.0
 41
0.0
 42
0.0
 43
0.0
 44
279.4
 45
215.9
 46
0.0
 47
0.0
 48
0.0
 49
0.0
140
0.0
141
0.0
142
1.0
143
1.0
 70
1024
 72
0
 73
0
 74
0
  7

 75
0
147
1.0
148
0.0
149
0.0
100
AcDbLayout
  1
Model
 70
0
 71
0
 10
0.0
 20
0.0
 11
11.0
 21
8.5
 12
0.0
 22
0.0
 32
0.0
 14
0.0
 24
0.0
 34
0.0
 15
0.0
 25
0.0
 35
0.0
146
0.0
 13
0.0
 23
0.0
 33
0.0
 16
1.0
 26
0.0
 36
0.0
 17
0.0
 27
1.0
 37
0.0
 76
0
330
21E
345
0
346
0
  0
LAYOUT
  5
489
102
{ACAD_REACTORS
330
1A
102
}
100
AcDbPlotSettings
  1

  2
none_device
  4
ANSI_A_(11.00_x_8.50_Inches)
  6

 40
0.0
 41
0.0
 42
0.0
 43
0.0
 44
279.4
 45
215.9
 46
0.0
 47
0.0
 48
0.0
 49
0.0
140
0.0
141
0.0
142
1.0
143
1.0
 70
0
 72
0
 73
0
 74
0
  7

 75
0
147
1.0
148
0.0
149
0.0
100
AcDbLayout
  1
Layout1
 70
0
 71
1
 10
0.0
 20
0.0
 11
11.0
 21
8.5
 12
0.0
 22
0.0
 32
0.0
 14
0.0
 24
0.0
 34
0.0
 15
0.0
 25
0.0
 35
0.0
146
0.0
 13
0.0
 23
0.0
 33
0.0
 16
1.0
 26
0.0
 36
0.0
 17
0.0
 27
1.0
 37
0.0
 76
0
330
21F
345
0
346
0
  0
ENDSEC
  0
EOF
