999
DXF file: 3-2534ts_TOP.dxf
999
Pro/ENGINEER 2018400 by Parametric Technology Corporation
  0
SECTION
  2
HEADER
  9
$ACADVER
  1
AC1027
  9
$DWGCODEPAGE
  3
ANSI_1252
  9
$EXTMAX
 10
11.0
 20
8.5
 30
0.0
  9
$EXTMIN
 10
0.0
 20
0.0
 30
0.0
  9
$LIMMIN
 10
0.0
 20
0.0
  9
$LIMMAX
 10
11.0
 20
8.5
  9
$VIEWCTR
 10
5.5
 20
4.25
  9
$VIEWSIZE
 40
8.5
  9
$CLAYER
  8
0
  9
$LTSCALE
 40
0.605
  9
$CELTYPE
  6
BYLAYER
  9
$DIMSCALE
 40
1.0
  9
$DIMASZ
 40
0.1
  9
$DIMEXO
 40
0.0625
  9
$DIMDLI
 40
0.418
  9
$DIMEXE
 40
0.125
  9
$DIMCEN
 40
0.099
  9
$DIMLFAC
 40
1.0
  9
$DIMBLK
  1
_FILLED
  9
$DIMALT
 70
1
  9
$DIMALTD
 70
2
  9
$DIMALTTD
 70
2
  9
$DIMALTF
 40
25.4
  9
$DIMTXT
 40
0.08
  9
$DIMTOL
 70
1
  9
$DIMLIM
 70
0
  9
$DIMTFAC
 40
1.0
  9
$DIMTP
 40
0.001
  9
$DIMTM
 40
0.001
  9
$DIMGAP
 40
0.09
  9
$DIMDSEP
 70
46
  9
$AUNITS
 70
0
  9
$PDMODE
 70
3
  9
$PDSIZE
 40
0.3125
  9
$HANDSEED
  5
48C
  9
$TILEMODE
 70
1
  9
$MEASUREMENT
 70
0
  9
$INSUNITS
 70
1
  0
ENDSEC
  0
SECTION
  2
CLASSES
  0
CLASS
  1
ACDBDICTIONARYWDFLT
  2
AcDbDictionaryWithDefault
  3
AutoCAD 2000
 90
0
 91
1
280
0
281
0
  0
CLASS
  1
ACDBPLACEHOLDER
  2
AcDbPlaceHolder
  3
AutoCAD 2000
 90
0
 91
1
280
0
281
0
  0
CLASS
  1
LAYOUT
  2
AcDbLayout
  3
AutoCAD 2000
 90
0
 91
0
280
0
281
0
  0
ENDSEC
  0
SECTION
  2
TABLES
  0
TABLE
  2
VPORT
  5
8
100
AcDbSymbolTable
 70
2
  0
VPORT
  5
1F4
100
AcDbSymbolTableRecord
100
AcDbViewportTableRecord
  2
*ACTIVE
 70
0
 10
0.0
 20
0.0
 11
1.0
 21
1.0
 12
5.5
 22
4.25
 13
0.0
 23
0.0
 14
1.0
 24
1.0
 15
0.0
 25
0.0
 16
0.0
 26
0.0
 36
1.0
 17
0.0
 27
0.0
 37
0.0
 40
8.5
 41
1.2941176471
 42
50.0
 43
0.0
 44
0.0
 50
0.0
 51
0.0
 71
0
 72
100
 73
1
 74
1
 75
0
 76
0
 77
0
 78
0
  0
ENDTAB
  0
TABLE
  2
LTYPE
  5
5
100
AcDbSymbolTable
 70
6
  0
LTYPE
  5
14
100
AcDbSymbolTableRecord
100
AcDbLinetypeTableRecord
  2
BYBLOCK
 70
0
  3

 72
65
 73
0
 40
0.0
  0
LTYPE
  5
15
100
AcDbSymbolTableRecord
100
AcDbLinetypeTableRecord
  2
BYLAYER
 70
0
  3

 72
65
 73
0
 40
0.0
  0
LTYPE
  5
16
100
AcDbSymbolTableRecord
100
AcDbLinetypeTableRecord
  2
CONTINUOUS
 70
64
  3
Solid line
 72
65
 73
0
 40
0.0
  0
LTYPE
  5
1F5
100
AcDbSymbolTableRecord
100
AcDbLinetypeTableRecord
  2
CENTER
 70
64
  3
____ _ ____ _ ____ _ ____ _ ____ _ ____ _ ____
 72
65
 73
4
 40
0.6
 49
0.375
 74
0
 49
-0.075
 74
0
 49
0.075
 74
0
 49
-0.075
 74
0
  0
LTYPE
  5
1F6
100
AcDbSymbolTableRecord
100
AcDbLinetypeTableRecord
  2
HIDDEN
 70
64
  3
- - - - - - - - - - - - - - - - - - - -
 72
65
 73
2
 40
0.2
 49
0.1
 74
0
 49
-0.1
 74
0
  0
LTYPE
  5
1F7
100
AcDbSymbolTableRecord
100
AcDbLinetypeTableRecord
  2
PHANTOM
 70
64
  3
_____ _ _ _____ _ _ _____ _ _ _____
 72
65
 73
6
 40
0.8
 49
0.45
 74
0
 49
-0.05
 74
0
 49
0.1
 74
0
 49
-0.05
 74
0
 49
0.1
 74
0
 49
-0.05
 74
0
  0
LTYPE
  5
1F8
100
AcDbSymbolTableRecord
100
AcDbLinetypeTableRecord
  2
DOT
 70
64
  3
. . . . . . . . . . . . . . . . . . . .
 72
65
 73
2
 40
0.2
 49
0.1
 74
0
 49
-0.1
 74
0
  0
LTYPE
  5
1F9
100
AcDbSymbolTableRecord
100
AcDbLinetypeTableRecord
  2
DASHED
 70
64
  3
- - - - - - - - - - - - - - - - - - - -
 72
65
 73
2
 40
0.2
 49
0.1
 74
0
 49
-0.1
 74
0
  0
ENDTAB
  0
TABLE
  2
LAYER
  5
2
100
AcDbSymbolTable
 70
36
  0
LAYER
  5
10
100
AcDbSymbolTableRecord
100
AcDbLayerTableRecord
  2
0
 70
0
 62
7
  6
CONTINUOUS
370
-3
390
F
  0
LAYER
  5
1FA
100
AcDbSymbolTableRecord
100
AcDbLayerTableRecord
  2
DEFAULT_1
 70
0
 62
7
  6
CENTER
370
-3
390
F
  0
LAYER
  5
1FB
100
AcDbSymbolTableRecord
100
AcDbLayerTableRecord
  2
DEFAULT_2
 70
0
 62
8
  6
HIDDEN
370
-3
390
F
  0
LAYER
  5
1FC
100
AcDbSymbolTableRecord
100
AcDbLayerTableRecord
  2
DEFAULT_3
 70
0
 62
7
  6
PHANTOM
370
-3
390
F
  0
LAYER
  5
1FD
100
AcDbSymbolTableRecord
100
AcDbLayerTableRecord
  2
ALL_ASSEMBLY_MEMBERS
 70
0
 62
7
  6
CONTINUOUS
370
-3
390
F
  0
LAYER
  5
1FE
100
AcDbSymbolTableRecord
100
AcDbLayerTableRecord
  2
ALL_FEATURES
 70
0
 62
7
  6
CONTINUOUS
370
-3
390
F
  0
LAYER
  5
1FF
100
AcDbSymbolTableRecord
100
AcDbLayerTableRecord
  2
AXES_FEATURES
 70
0
 62
7
  6
CONTINUOUS
370
-3
390
F
  0
LAYER
  5
200
100
AcDbSymbolTableRecord
100
AcDbLayerTableRecord
  2
CHAMFER_FEATURES
 70
0
 62
7
  6
CONTINUOUS
370
-3
390
F
  0
LAYER
  5
201
100
AcDbSymbolTableRecord
100
AcDbLayerTableRecord
  2
COSMETIC_SKETCHES
 70
0
 62
7
  6
CONTINUOUS
370
-3
390
F
  0
LAYER
  5
202
100
AcDbSymbolTableRecord
100
AcDbLayerTableRecord
  2
CUT_FEATURES
 70
0
 62
7
  6
CONTINUOUS
370
-3
390
F
  0
LAYER
  5
203
100
AcDbSymbolTableRecord
100
AcDbLayerTableRecord
  2
DATUM_CURVES
 70
0
 62
7
  6
CONTINUOUS
370
-3
390
F
  0
LAYER
  5
204
100
AcDbSymbolTableRecord
100
AcDbLayerTableRecord
  2
DATUM_PLANES
 70
0
 62
7
  6
CONTINUOUS
370
-3
390
F
  0
LAYER
  5
205
100
AcDbSymbolTableRecord
100
AcDbLayerTableRecord
  2
DATUM_POINTS
 70
0
 62
7
  6
CONTINUOUS
370
-3
390
F
  0
LAYER
  5
206
100
AcDbSymbolTableRecord
100
AcDbLayerTableRecord
  2
DEFAULT_COORDINATE_SYSTEM
 70
0
 62
7
  6
CONTINUOUS
370
-3
390
F
  0
LAYER
  5
207
100
AcDbSymbolTableRecord
100
AcDbLayerTableRecord
  2
DEFAULT_DATUM_AXES
 70
0
 62
7
  6
CONTINUOUS
370
-3
390
F
  0
LAYER
  5
208
100
AcDbSymbolTableRecord
100
AcDbLayerTableRecord
  2
DEFAULT_DATUM_CURVES
 70
0
 62
7
  6
CONTINUOUS
370
-3
390
F
  0
LAYER
  5
209
100
AcDbSymbolTableRecord
100
AcDbLayerTableRecord
  2
DEFAULT_DATUM_PLANES
 70
0
 62
7
  6
CONTINUOUS
370
-3
390
F
  0
LAYER
  5
20A
100
AcDbSymbolTableRecord
100
AcDbLayerTableRecord
  2
DEFAULT_SURFACES
 70
0
 62
7
  6
CONTINUOUS
370
-3
390
F
  0
LAYER
  5
20B
100
AcDbSymbolTableRecord
100
AcDbLayerTableRecord
  2
DIMENSIONS
 70
0
 62
7
  6
CONTINUOUS
370
-3
390
F
  0
LAYER
  5
20C
100
AcDbSymbolTableRecord
100
AcDbLayerTableRecord
  2
HOLE_FEATURES
 70
0
 62
7
  6
CONTINUOUS
370
-3
390
F
  0
LAYER
  5
20D
100
AcDbSymbolTableRecord
100
AcDbLayerTableRecord
  2
HOLE_PATTERN
 70
0
 62
7
  6
CONTINUOUS
370
-3
390
F
  0
LAYER
  5
20E
100
AcDbSymbolTableRecord
100
AcDbLayerTableRecord
  2
NONE
 70
0
 62
7
  6
CONTINUOUS
370
-3
390
F
  0
LAYER
  5
20F
100
AcDbSymbolTableRecord
100
AcDbLayerTableRecord
  2
PART_REFERENCE_DIMENSIONS
 70
0
 62
7
  6
CONTINUOUS
370
-3
390
F
  0
LAYER
  5
210
100
AcDbSymbolTableRecord
100
AcDbLayerTableRecord
  2
PLATED_SURFACE_AREA
 70
0
 62
7
  6
CONTINUOUS
370
-3
390
F
  0
LAYER
  5
211
100
AcDbSymbolTableRecord
100
AcDbLayerTableRecord
  2
POINTS
 70
0
 62
7
  6
CONTINUOUS
370
-3
390
F
  0
LAYER
  5
212
100
AcDbSymbolTableRecord
100
AcDbLayerTableRecord
  2
PROTRUSION
 70
0
 62
7
  6
CONTINUOUS
370
-3
390
F
  0
LAYER
  5
213
100
AcDbSymbolTableRecord
100
AcDbLayerTableRecord
  2
PROTRUSION_FEATURES
 70
0
 62
7
  6
CONTINUOUS
370
-3
390
F
  0
LAYER
  5
214
100
AcDbSymbolTableRecord
100
AcDbLayerTableRecord
  2
QUILT
 70
0
 62
7
  6
CONTINUOUS
370
-3
390
F
  0
LAYER
  5
215
100
AcDbSymbolTableRecord
100
AcDbLayerTableRecord
  2
QUILTS
 70
0
 62
7
  6
CONTINUOUS
370
-3
390
F
  0
LAYER
  5
216
100
AcDbSymbolTableRecord
100
AcDbLayerTableRecord
  2
REFERENCE_DIMENSIONS
 70
0
 62
7
  6
CONTINUOUS
370
-3
390
F
  0
LAYER
  5
217
100
AcDbSymbolTableRecord
100
AcDbLayerTableRecord
  2
ROUND_FEATURES
 70
0
 62
7
  6
CONTINUOUS
370
-3
390
F
  0
LAYER
  5
218
100
AcDbSymbolTableRecord
100
AcDbLayerTableRecord
  2
SATIN_DIRECTION
 70
0
 62
7
  6
CONTINUOUS
370
-3
390
F
  0
LAYER
  5
219
100
AcDbSymbolTableRecord
100
AcDbLayerTableRecord
  2
SHELL_FEATURES
 70
0
 62
7
  6
CONTINUOUS
370
-3
390
F
  0
LAYER
  5
21A
100
AcDbSymbolTableRecord
100
AcDbLayerTableRecord
  2
SURFACE_FEATURES
 70
0
 62
7
  6
CONTINUOUS
370
-3
390
F
  0
LAYER
  5
21B
100
AcDbSymbolTableRecord
100
AcDbLayerTableRecord
  2
XSEC_DATUMS
 70
0
 62
7
  6
CONTINUOUS
370
-3
390
F
  0
ENDTAB
  0
TABLE
  2
STYLE
  5
3
100
AcDbSymbolTable
 70
1
  0
STYLE
  5
11
100
AcDbSymbolTableRecord
100
AcDbTextStyleTableRecord
  2
STANDARD
 70
0
 40
0.0
 41
0.8
 50
0.0
 71
0
 42
0.2
  3
txt
  4

  0
STYLE
  5
21C
100
AcDbSymbolTableRecord
100
AcDbTextStyleTableRecord
  2
TEXTSTYLE_1
 70
0
 40
0.0
 41
0.8
 50
0.0
 71
0
 42
0.2
  3
gdt
  4

  0
ENDTAB
  0
TABLE
  2
VIEW
  5
6
100
AcDbSymbolTable
 70
0
  0
ENDTAB
  0
TABLE
  2
UCS
  5
7
100
AcDbSymbolTable
 70
0
  0
ENDTAB
  0
TABLE
  2
APPID
  5
9
100
AcDbSymbolTable
 70
1
  0
APPID
  5
21D
100
AcDbSymbolTableRecord
100
AcDbRegAppTableRecord
  2
ACAD
 70
0
  0
ENDTAB
  0
TABLE
  2
BLOCK_RECORD
  5
1
100
AcDbSymbolTable
 70
0
  0
BLOCK_RECORD
  5
21E
100
AcDbSymbolTableRecord
100
AcDbBlockTableRecord
  2
*Model_Space
  0
BLOCK_RECORD
  5
21F
100
AcDbSymbolTableRecord
100
AcDbBlockTableRecord
  2
*Paper_Space
  0
BLOCK_RECORD
  5
220
100
AcDbSymbolTableRecord
100
AcDbBlockTableRecord
  2
_FILLED
  0
ENDTAB
  0
TABLE
  2
DIMSTYLE
  5
A
100
AcDbSymbolTable
 70
1
100
AcDbDimStyleTable
 71
0
  0
DIMSTYLE
105
221
100
AcDbSymbolTableRecord
100
AcDbDimStyleTableRecord
  2
STANDARD
 70
0
  3

  4

 40
1.0
 41
0.1
 42
0.0625
 43
0.38
 44
0.125
 45
0.0
 46
0.0
 47
0.001
 48
0.001
140
0.08
141
0.09
142
0.0
143
25.4
144
1.0
145
0.0
146
1.0
147
0.09
 71
1.0
 72
0.0
 73
1
 74
1
 75
0
 76
0
 77
0
 78
4
 79
1
170
1
171
2
172
0
173
0
174
0
175
0
176
0
177
0
178
0
270
2
179
3
271
3
272
3
273
2
274
2
275
0
280
0
281
0
282
0
283
1
284
4
285
0
286
0
287
3
288
0
340
11
278
46
341
220
342
220
343
220
344
220
  0
ENDTAB
  0
ENDSEC
  0
SECTION
  2
BLOCKS
  0
BLOCK
  5
20
100
AcDbEntity
  8
0
100
AcDbBlockBegin
  2
*Model_Space
 70
0
 10
0.0
 20
0.0
 30
0.0
  3
*Model_Space
  1

  0
ENDBLK
  5
21
100
AcDbEntity
  8
0
100
AcDbBlockEnd
  0
BLOCK
  5
1C
100
AcDbEntity
  8
0
100
AcDbBlockBegin
  2
*Paper_Space
 70
0
 10
0.0
 20
0.0
 30
0.0
  3
*Paper_Space
  1

  0
ENDBLK
  5
1D
100
AcDbEntity
  8
0
100
AcDbBlockEnd
  0
BLOCK
  5
222
100
AcDbEntity
  8
0
100
AcDbBlockBegin
  2
_FILLED
 70
64
 10
0.0
 20
0.0
  3
_FILLED
  1

  0
SOLID
  5
223
100
AcDbEntity
  8
0
  6
BYBLOCK
 62
0
100
AcDbTrace
 10
0.0
 20
0.0
 11
-1.0
 21
0.2
 12
-1.0
 22
-0.2
 13
-1.0
 23
-0.2
  0
ENDBLK
  5
224
100
AcDbEntity
  8
0
  6
BYBLOCK
 62
0
100
AcDbBlockEnd
  0
ENDSEC
  0
SECTION
  2
ENTITIES
  0
MTEXT
  5
225
100
AcDbEntity
  8
0
100
AcDbMText
 62
2
  6
CONTINUOUS
  7
STANDARD
 71
3
 72
1
 10
4.7736413043
 20
3.1884396424
 30
0.0
 11
1.0
 21
0.0
 31
0.0
 73
2
 44
0.9
  1
SCALE  .500
 40
0.08
 41
0.704
  0
LINE
  5
226
100
AcDbEntity
  8
0
100
AcDbLine
 62
7
  6
CONTINUOUS
 10
0.0
 20
0.0
 11
0.0
 21
8.5
  0
LINE
  5
227
100
AcDbEntity
  8
0
100
AcDbLine
 62
7
  6
CONTINUOUS
 10
0.0
 20
0.0
 11
11.0
 21
0.0
  0
LINE
  5
228
100
AcDbEntity
  8
0
100
AcDbLine
 62
7
  6
CONTINUOUS
 10
0.0
 20
8.5
 11
11.0
 21
8.5
  0
LINE
  5
229
100
AcDbEntity
  8
0
100
AcDbLine
 62
7
  6
CONTINUOUS
 10
11.0
 20
0.0
 11
11.0
 21
8.5
  0
LINE
  5
22A
100
AcDbEntity
  8
ALL_ASSEMBLY_MEMBERS
100
AcDbLine
 62
7
  6
CONTINUOUS
 10
3.0861413043
 20
5.0664045279
 11
3.0861413043
 21
5.1814045279
  0
LINE
  5
22B
100
AcDbEntity
  8
ALL_ASSEMBLY_MEMBERS
100
AcDbLine
 62
7
  6
CONTINUOUS
 10
3.1486413043
 20
5.0664045279
 11
3.1486413043
 21
5.0099045279
  0
LINE
  5
22C
100
AcDbEntity
  8
ALL_ASSEMBLY_MEMBERS
100
AcDbLine
 62
7
  6
CONTINUOUS
 10
3.2936413043
 20
5.0099045279
 11
3.2936413043
 21
5.1814045279
  0
LINE
  5
22D
100
AcDbEntity
  8
ALL_ASSEMBLY_MEMBERS
100
AcDbLine
 62
7
  6
CONTINUOUS
 10
3.3161413043
 20
5.1814045279
 11
3.3161413043
 21
5.0099045279
  0
LINE
  5
22E
100
AcDbEntity
  8
ALL_ASSEMBLY_MEMBERS
100
AcDbLine
 62
7
  6
CONTINUOUS
 10
3.3361413043
 20
5.0664045279
 11
3.3361413043
 21
5.1814045279
  0
LINE
  5
22F
100
AcDbEntity
  8
ALL_ASSEMBLY_MEMBERS
100
AcDbLine
 62
7
  6
CONTINUOUS
 10
3.3986413043
 20
5.0664045279
 11
3.3986413043
 21
5.0099045279
  0
LINE
  5
230
100
AcDbEntity
  8
ALL_ASSEMBLY_MEMBERS
100
AcDbLine
 62
7
  6
CONTINUOUS
 10
3.5436413043
 20
5.0099045279
 11
3.5436413043
 21
5.1814045279
  0
LWPOLYLINE
  5
231
100
AcDbEntity
  8
ALL_ASSEMBLY_MEMBERS
100
AcDbPolyline
 62
7
  6
CONTINUOUS
 90
63
 70
0
 10
4.7813184654
 20
3.2834406186
 10
4.7821515884
 20
3.2834617003
 10
4.7829778152
 20
3.2835101063
 10
4.7837962737
 20
3.2835852141
 10
4.784606131
 20
3.2836863781
 10
4.7854066261
 20
3.2838129381
 10
4.7861970045
 20
3.2839642122
 10
4.786976551
 20
3.284139502
 10
4.787744621
 20
3.2843381027
 10
4.7885005765
 20
3.2845592911
 10
4.789243818
 20
3.2848023323
 10
4.7899738146
 20
3.2850664936
 10
4.7906900403
 20
3.2853510252
 10
4.7913920084
 20
3.2856551719
 10
4.7920793012
 20
3.2859781895
 10
4.7927515047
 20
3.2863193188
 10
4.7934082347
 20
3.2866777958
 10
4.7940491685
 20
3.2870528723
 10
4.7946739927
 20
3.2874437884
 10
4.7952824253
 20
3.2878497856
 10
4.7958742378
 20
3.2882701237
 10
4.7964492111
 20
3.2887040534
 10
4.7970071577
 20
3.2891508317
 10
4.79754794
 20
3.289609739
 10
4.7980714271
 20
3.2900800471
 10
4.7985775166
 20
3.2905610365
 10
4.7990661527
 20
3.2910520166
 10
4.7995372851
 20
3.2915522885
 10
4.7999908879
 20
3.2920611633
 10
4.8004269769
 20
3.2925779838
 10
4.8008455739
 20
3.2931020875
 10
4.8012467212
 20
3.2936328213
 10
4.8016304961
 20
3.294169564
 10
4.8019970488
 20
3.2947117918
 10
4.8023464125
 20
3.2952587975
 10
4.8026785395
 20
3.2958096934
 10
4.802993693
 20
3.2963640659
 10
4.8032919455
 20
3.2969211623
 10
4.8035730759
 20
3.2974795637
 10
4.8038373597
 20
3.298038692
 10
4.8040850915
 20
3.2985979998
 10
4.8043162295
 20
3.2991560875
 10
4.8045311678
 20
3.2997124563
 10
4.8047302855
 20
3.3002665682
 10
4.8049136703
 20
3.3008169592
 10
4.8050822049
 20
3.3013645184
 10
4.8052359146
 20
3.3019074658
 10
4.8053740303
 20
3.3024402838
 10
4.8054977726
 20
3.3029642465
 10
4.8056075125
 20
3.3034772731
 10
4.8057021951
 20
3.3039687302
 10
4.8057833913
 20
3.3044392294
 10
4.8058522763
 20
3.3048876216
 10
4.8059084802
 20
3.3053006599
 10
4.8059534431
 20
3.3056746258
 10
4.8059893736
 20
3.306013347
 10
4.8060175933
 20
3.3063149795
 10
4.8060391128
 20
3.3065749161
 10
4.80605559
 20
3.3067983601
 10
4.8060687817
 20
3.3069980446
 10
4.8060792731
 20
3.3071743952
 10
4.8060875399
 20
3.3073275012
 10
4.806100537
 20
3.3076019208
  0
LINE
  5
232
100
AcDbEntity
  8
ALL_ASSEMBLY_MEMBERS
100
AcDbLine
 62
7
  6
CONTINUOUS
 10
4.7813184654
 20
3.2834406186
 11
4.7661799287
 21
3.2834396424
  0
LINE
  5
233
100
AcDbEntity
  8
ALL_ASSEMBLY_MEMBERS
100
AcDbLine
 62
7
  6
CONTINUOUS
 10
4.7811333593
 20
3.2872493504
 11
4.7661492494
 21
3.2872493504
  0
LINE
  5
234
100
AcDbEntity
  8
ALL_ASSEMBLY_MEMBERS
100
AcDbLine
 62
7
  6
CONTINUOUS
 10
4.9453910991
 20
3.401443898
 11
4.6018915234
 21
3.401443898
  0
LWPOLYLINE
  5
235
100
AcDbEntity
  8
ALL_ASSEMBLY_MEMBERS
100
AcDbPolyline
 62
7
  6
CONTINUOUS
 90
47
 70
0
 10
4.7264920471
 20
3.3338385934
 10
4.726617121
 20
3.3338036794
 10
4.7272284793
 20
3.3336202947
 10
4.727830514
 20
3.3334186096
 10
4.7284227198
 20
3.3331991296
 10
4.7290044352
 20
3.3329624482
 10
4.7295752125
 20
3.3327091084
 10
4.7301346298
 20
3.3324396608
 10
4.7306821183
 20
3.3321547561
 10
4.7312173165
 20
3.3318549731
 10
4.7317398889
 20
3.3315408943
 10
4.7322493625
 20
3.331213214
 10
4.7327454634
 20
3.3308725339
 10
4.7332279435
 20
3.3305194557
 10
4.7336964264
 20
3.3301547035
 10
4.7341507258
 20
3.3297788894
 10
4.7345906792
 20
3.3293926224
 10
4.7350160063
 20
3.3289966436
 10
4.7354266007
 20
3.3285915687
 10
4.7358223886
 20
3.3281779977
 10
4.7362031959
 20
3.3277566619
 10
4.7365690138
 20
3.3273281433
 10
4.7369198274
 20
3.3268930458
 10
4.7372555127
 20
3.3264521421
 10
4.7375761308
 20
3.3260060045
 10
4.7378817522
 20
3.3255552061
 10
4.7381723302
 20
3.325100528
 10
4.7384479939
 20
3.3246425241
 10
4.7387088918
 20
3.3241817293
 10
4.7389550677
 20
3.3237188984
 10
4.7391867189
 20
3.3232545462
 10
4.7394040553
 20
3.3227891748
 10
4.7396071962
 20
3.3223235174
 10
4.739796704
 20
3.3218572662
 10
4.7399724978
 20
3.321391652
 10
4.7401339607
 20
3.3209297813
 10
4.7402819064
 20
3.3204710679
 10
4.7404164326
 20
3.3200170517
 10
4.7405364708
 20
3.3195742088
 10
4.7406429016
 20
3.3191431582
 10
4.7407366308
 20
3.3187243248
 10
4.7408173934
 20
3.3183241007
 10
4.740886408
 20
3.3179428765
 10
4.7409447859
 20
3.3175813164
 10
4.7409927381
 20
3.3172464653
 10
4.7410315886
 20
3.3169391009
 10
4.7410339125
 20
3.3169181657
  0
LINE
  5
236
100
AcDbEntity
  8
ALL_ASSEMBLY_MEMBERS
100
AcDbLine
 62
7
  6
CONTINUOUS
 10
3.9023913043
 20
4.9699045279
 11
3.9023913043
 21
5.0099045279
  0
LINE
  5
237
100
AcDbEntity
  8
ALL_ASSEMBLY_MEMBERS
100
AcDbLine
 62
7
  6
CONTINUOUS
 10
3.9423913043
 20
4.9649045279
 11
3.9423913043
 21
4.9699045279
  0
LINE
  5
238
100
AcDbEntity
  8
ALL_ASSEMBLY_MEMBERS
100
AcDbLine
 62
7
  6
CONTINUOUS
 10
4.0677199018
 20
4.9429168298
 11
4.0679219824
 21
4.9440387616
  0
LINE
  5
239
100
AcDbEntity
  8
ALL_ASSEMBLY_MEMBERS
100
AcDbLine
 62
7
  6
CONTINUOUS
 10
4.0707086294
 20
4.9434870469
 11
4.0705549379
 21
4.942633767
  0
LINE
  5
23A
100
AcDbEntity
  8
ALL_ASSEMBLY_MEMBERS
100
AcDbLine
 62
7
  6
CONTINUOUS
 10
4.0711367255
 20
4.9426551114
 11
4.0712666722
 21
4.9433765627
  0
LINE
  5
23B
100
AcDbEntity
  8
ALL_ASSEMBLY_MEMBERS
100
AcDbLine
 62
7
  6
CONTINUOUS
 10
4.0939286309
 20
4.941454681
 11
4.0942588017
 21
4.9432877568
  0
LINE
  5
23C
100
AcDbEntity
  8
ALL_ASSEMBLY_MEMBERS
100
AcDbLine
 62
7
  6
CONTINUOUS
 10
4.9703913043
 20
3.426443898
 11
4.5768913043
 21
3.426443898
  0
LINE
  5
23D
100
AcDbEntity
  8
ALL_ASSEMBLY_MEMBERS
100
AcDbLine
 62
7
  6
CONTINUOUS
 10
4.9703913043
 20
3.430943898
 11
4.5768913043
 21
3.430943898
  0
LINE
  5
23E
100
AcDbEntity
  8
ALL_ASSEMBLY_MEMBERS
100
AcDbLine
 62
7
  6
CONTINUOUS
 10
4.5526423425
 20
3.450943898
 11
4.9946402643
 21
3.450943898
  0
LINE
  5
23F
100
AcDbEntity
  8
ALL_ASSEMBLY_MEMBERS
100
AcDbLine
 62
7
  6
CONTINUOUS
 10
4.5276413043
 20
3.475943898
 11
5.0196413043
 21
3.475943898
  0
LINE
  5
240
100
AcDbEntity
  8
ALL_ASSEMBLY_MEMBERS
100
AcDbLine
 62
7
  6
CONTINUOUS
 10
5.0196413043
 20
3.523943898
 11
4.5276413043
 21
3.523943898
  0
LINE
  5
241
100
AcDbEntity
  8
ALL_ASSEMBLY_MEMBERS
100
AcDbLine
 62
7
  6
CONTINUOUS
 10
4.9946402643
 20
3.548943898
 11
4.5526423425
 21
3.548943898
  0
LINE
  5
242
100
AcDbEntity
  8
ALL_ASSEMBLY_MEMBERS
100
AcDbLine
 62
7
  6
CONTINUOUS
 10
4.097044899
 20
4.9427329876
 11
4.0967964291
 21
4.9413535069
  0
LINE
  5
243
100
AcDbEntity
  8
ALL_ASSEMBLY_MEMBERS
100
AcDbLine
 62
7
  6
CONTINUOUS
 10
4.097393906
 20
4.941461954
 11
4.0976028322
 21
4.9426218916
  0
LINE
  5
244
100
AcDbEntity
  8
ALL_ASSEMBLY_MEMBERS
100
AcDbLine
 62
7
  6
CONTINUOUS
 10
4.1059078454
 20
4.9400598199
 11
4.1060657955
 21
4.9409367434
  0
LINE
  5
245
100
AcDbEntity
  8
ALL_ASSEMBLY_MEMBERS
100
AcDbLine
 62
7
  6
CONTINUOUS
 10
4.1245673821
 20
4.9420716055
 11
4.1253225776
 21
4.9462643769
  0
LINE
  5
246
100
AcDbEntity
  8
ALL_ASSEMBLY_MEMBERS
100
AcDbLine
 62
7
  6
CONTINUOUS
 10
4.1446239985
 20
4.9363266719
 11
4.1451115469
 21
4.939033493
  0
LINE
  5
247
100
AcDbEntity
  8
ALL_ASSEMBLY_MEMBERS
100
AcDbLine
 62
7
  6
CONTINUOUS
 10
4.160268169
 20
4.9251057467
 11
4.1603999735
 21
4.9258375127
  0
LINE
  5
248
100
AcDbEntity
  8
ALL_ASSEMBLY_MEMBERS
100
AcDbLine
 62
7
  6
CONTINUOUS
 10
4.160554508
 20
4.9249896731
 11
4.1606849933
 21
4.9257141146
  0
LINE
  5
249
100
AcDbEntity
  8
ALL_ASSEMBLY_MEMBERS
100
AcDbLine
 62
7
  6
CONTINUOUS
 10
4.1624582766
 20
4.9243262797
 11
4.1626460735
 21
4.9253689098
  0
LINE
  5
24A
100
AcDbEntity
  8
ALL_ASSEMBLY_MEMBERS
100
AcDbLine
 62
7
  6
CONTINUOUS
 10
4.170478266
 20
4.9345501642
 11
4.1707683273
 21
4.9361605561
  0
LINE
  5
24B
100
AcDbEntity
  8
ALL_ASSEMBLY_MEMBERS
100
AcDbLine
 62
7
  6
CONTINUOUS
 10
4.1769324963
 20
4.9259170411
 11
4.1770759953
 21
4.9267137333
  0
LINE
  5
24C
100
AcDbEntity
  8
ALL_ASSEMBLY_MEMBERS
100
AcDbLine
 62
7
  6
CONTINUOUS
 10
4.1864944635
 20
4.9237411193
 11
4.186717103
 21
4.9249771919
  0
LINE
  5
24D
100
AcDbEntity
  8
ALL_ASSEMBLY_MEMBERS
100
AcDbLine
 62
7
  6
CONTINUOUS
 10
4.1867716824
 20
4.9235744121
 11
4.1870036884
 21
4.9248624868
  0
LINE
  5
24E
100
AcDbEntity
  8
ALL_ASSEMBLY_MEMBERS
100
AcDbLine
 62
7
  6
CONTINUOUS
 10
4.1886276289
 20
4.9226455089
 11
4.188977016
 21
4.9245852714
  0
LINE
  5
24F
100
AcDbEntity
  8
ALL_ASSEMBLY_MEMBERS
100
AcDbLine
 62
7
  6
CONTINUOUS
 10
4.1962146228
 20
4.930419734
 11
4.1964471652
 21
4.9317107865
  0
LINE
  5
250
100
AcDbEntity
  8
ALL_ASSEMBLY_MEMBERS
100
AcDbLine
 62
7
  6
CONTINUOUS
 10
4.1974988608
 20
4.9256313976
 11
4.1976774228
 21
4.9266227565
  0
LINE
  5
251
100
AcDbEntity
  8
ALL_ASSEMBLY_MEMBERS
100
AcDbLine
 62
7
  6
CONTINUOUS
 10
4.2018155711
 20
4.9246209242
 11
4.2019407906
 21
4.9253161307
  0
LINE
  5
252
100
AcDbEntity
  8
ALL_ASSEMBLY_MEMBERS
100
AcDbLine
 62
7
  6
CONTINUOUS
 10
4.2113140563
 20
4.9232009985
 11
4.211569705
 21
4.9246203353
  0
LINE
  5
253
100
AcDbEntity
  8
ALL_ASSEMBLY_MEMBERS
100
AcDbLine
 62
7
  6
CONTINUOUS
 10
4.2125022621
 20
4.9266160238
 11
4.2127129903
 21
4.9277859665
  0
LINE
  5
254
100
AcDbEntity
  8
ALL_ASSEMBLY_MEMBERS
100
AcDbLine
 62
7
  6
CONTINUOUS
 10
4.2161150082
 20
4.9250191251
 11
4.2164098159
 21
4.9266558686
  0
LINE
  5
255
100
AcDbEntity
  8
ALL_ASSEMBLY_MEMBERS
100
AcDbLine
 62
7
  6
CONTINUOUS
 10
4.2191505532
 20
4.9229582972
 11
4.2196713866
 21
4.925849913
  0
LINE
  5
256
100
AcDbEntity
  8
ALL_ASSEMBLY_MEMBERS
100
AcDbLine
 62
7
  6
CONTINUOUS
 10
4.5768913043
 20
3.568943898
 11
4.9703913043
 21
3.568943898
  0
LINE
  5
257
100
AcDbEntity
  8
ALL_ASSEMBLY_MEMBERS
100
AcDbLine
 62
7
  6
CONTINUOUS
 10
4.5768913043
 20
3.573443898
 11
4.9703913043
 21
3.573443898
  0
LINE
  5
258
100
AcDbEntity
  8
ALL_ASSEMBLY_MEMBERS
100
AcDbLine
 62
7
  6
CONTINUOUS
 10
4.6018915234
 20
3.598443898
 11
4.9453903594
 21
3.598443898
  0
LINE
  5
259
100
AcDbEntity
  8
ALL_ASSEMBLY_MEMBERS
100
AcDbLine
 62
7
  6
CONTINUOUS
 10
4.9408903347
 20
3.696443898
 11
4.606392274
 21
3.696443898
  0
LINE
  5
25A
100
AcDbEntity
  8
ALL_ASSEMBLY_MEMBERS
100
AcDbLine
 62
7
  6
CONTINUOUS
 10
4.5961413043
 20
3.736443898
 11
4.9511413043
 21
3.736443898
  0
LINE
  5
25B
100
AcDbEntity
  8
ALL_ASSEMBLY_MEMBERS
100
AcDbLine
 62
7
  6
CONTINUOUS
 10
4.0969799527
 20
4.9408911916
 11
4.0969894155
 21
4.940845514
  0
LINE
  5
25C
100
AcDbEntity
  8
ALL_ASSEMBLY_MEMBERS
100
AcDbLine
 62
7
  6
CONTINUOUS
 10
4.0969808745
 20
4.940891025
 11
4.0969894155
 21
4.940845514
  0
LINE
  5
25D
100
AcDbEntity
  8
ALL_ASSEMBLY_MEMBERS
100
AcDbLine
 62
7
  6
CONTINUOUS
 10
4.2811413043
 20
4.736443898
 11
4.2811413043
 21
4.9069045279
  0
LINE
  5
25E
100
AcDbEntity
  8
ALL_ASSEMBLY_MEMBERS
100
AcDbLine
 62
7
  6
CONTINUOUS
 10
4.2836413043
 20
4.736443898
 11
4.2836413043
 21
4.478943898
  0
LINE
  5
25F
100
AcDbEntity
  8
ALL_ASSEMBLY_MEMBERS
100
AcDbLine
 62
7
  6
CONTINUOUS
 10
4.3136413043
 20
4.448943898
 11
4.3136413043
 21
4.419443898
  0
LINE
  5
260
100
AcDbEntity
  8
ALL_ASSEMBLY_MEMBERS
100
AcDbLine
 62
7
  6
CONTINUOUS
 10
4.3881453136
 20
4.9272244085
 11
4.388490965
 21
4.9302570657
  0
LINE
  5
261
100
AcDbEntity
  8
ALL_ASSEMBLY_MEMBERS
100
AcDbLine
 62
7
  6
CONTINUOUS
 10
5.3771711055
 20
4.9245076319
 11
5.3769445934
 21
4.9244384515
  0
LINE
  5
262
100
AcDbEntity
  8
ALL_ASSEMBLY_MEMBERS
100
AcDbLine
 62
7
  6
CONTINUOUS
 10
5.2322061447
 20
4.9411798205
 11
5.2163643441
 21
4.9365124604
  0
LINE
  5
263
100
AcDbEntity
  8
ALL_ASSEMBLY_MEMBERS
100
AcDbLine
 62
7
  6
CONTINUOUS
 10
4.5276413043
 20
3.523943898
 11
4.5276413043
 21
3.475943898
  0
LINE
  5
264
100
AcDbEntity
  8
ALL_ASSEMBLY_MEMBERS
100
AcDbLine
 62
7
  6
CONTINUOUS
 10
4.5768913043
 20
3.573443898
 11
4.5768913043
 21
3.568943898
  0
LINE
  5
265
100
AcDbEntity
  8
ALL_ASSEMBLY_MEMBERS
100
AcDbLine
 62
7
  6
CONTINUOUS
 10
4.5768913043
 20
3.430943898
 11
4.5768913043
 21
3.426443898
  0
LINE
  5
266
100
AcDbEntity
  8
ALL_ASSEMBLY_MEMBERS
100
AcDbLine
 62
7
  6
CONTINUOUS
 10
4.6161413043
 20
3.598443898
 11
4.6161413043
 21
3.696443898
  0
LWPOLYLINE
  5
267
100
AcDbEntity
  8
ALL_ASSEMBLY_MEMBERS
100
AcDbPolyline
 62
7
  6
CONTINUOUS
 90
65
 70
0
 10
4.7411882048
 20
3.3074665216
 10
4.7411958152
 20
3.3073130812
 10
4.7412054751
 20
3.3071369455
 10
4.7412175535
 20
3.3069394116
 10
4.7412326971
 20
3.3067184922
 10
4.7412529839
 20
3.3064564747
 10
4.7412805411
 20
3.3061444002
 10
4.7413163671
 20
3.3057904766
 10
4.7413613333
 20
3.3054024669
 10
4.741417751
 20
3.3049758133
 10
4.7414870532
 20
3.3045146524
 10
4.7415675641
 20
3.3040397718
 10
4.7416591285
 20
3.3035565848
 10
4.7417635183
 20
3.3030599231
 10
4.741880521
 20
3.3025547867
 10
4.7420105424
 20
3.3020423683
 10
4.7421544199
 20
3.3015221325
 10
4.7423121496
 20
3.3009965452
 10
4.742484142
 20
3.3004662771
 10
4.7426709713
 20
3.2999314892
 10
4.742872645
 20
3.2993938874
 10
4.7430896141
 20
3.2988538001
 10
4.7433222159
 20
3.29831185
 10
4.74357007
 20
3.297770151
 10
4.7438334633
 20
3.2972291086
 10
4.7441125981
 20
3.2966892986
 10
4.744406701
 20
3.2961530027
 10
4.7447155962
 20
3.2956211055
 10
4.745039583
 20
3.295093635
 10
4.745378415
 20
3.2945715139
 10
4.7457319269
 20
3.2940554443
 10
4.7461002663
 20
3.293545644
 10
4.7464836224
 20
3.2930423128
 10
4.7468820033
 20
3.2925459131
 10
4.7472953502
 20
3.2920569791
 10
4.7477237611
 20
3.2915758546
 10
4.7481671809
 20
3.291103064
 10
4.7486255378
 20
3.2906391355
 10
4.7490989049
 20
3.2901844505
 10
4.7495871853
 20
3.2897395607
 10
4.7500902624
 20
3.2893050227
 10
4.7506081744
 20
3.2888812578
 10
4.7511407757
 20
3.2884688444
 10
4.7516878982
 20
3.2880683645
 10
4.7522495368
 20
3.2876802793
 10
4.7528254895
 20
3.2873051909
 10
4.7534155296
 20
3.286943704
 10
4.7540196001
 20
3.2865963169
 10
4.7546374323
 20
3.2862636534
 10
4.7552687359
 20
3.2859463349
 10
4.7559134003
 20
3.2856448897
 10
4.756571087
 20
3.2853599565
 10
4.75724143
 20
3.2850921712
 10
4.7579242517
 20
3.2848420909
 10
4.7586191348
 20
3.2846103631
 10
4.7593256302
 20
3.2843976311
 10
4.7600434793
 20
3.2842044756
 10
4.7607721762
 20
3.2840315458
 10
4.7615111822
 20
3.2838794824
 10
4.7622601505
 20
3.2837488804
 10
4.7630184791
 20
3.2836403802
 10
4.7637855313
 20
3.2835546097
 10
4.7645608628
 20
3.2834921678
 10
4.7653437681
 20
3.283453674
 10
4.7661799217
 20
3.2834396874
  0
LWPOLYLINE
  5
268
100
AcDbEntity
  8
ALL_ASSEMBLY_MEMBERS
100
AcDbPolyline
 62
7
  6
CONTINUOUS
 90
57
 70
0
 10
4.7081309897
 20
3.3571377196
 10
4.7081407538
 20
3.356935385
 10
4.7081524125
 20
3.3567201939
 10
4.7081672857
 20
3.3564775446
 10
4.7081866363
 20
3.356201085
 10
4.7082112502
 20
3.3558947379
 10
4.7082422797
 20
3.3555584434
 10
4.7082816813
 20
3.3551861571
 10
4.7083306371
 20
3.3547817651
 10
4.7083886181
 20
3.3543602241
 10
4.708456269
 20
3.3539235798
 10
4.7085349688
 20
3.3534692732
 10
4.7086240978
 20
3.3530058457
 10
4.7087238019
 20
3.3525355715
 10
4.7088351047
 20
3.3520564606
 10
4.7089580773
 20
3.3515708762
 10
4.7090930902
 20
3.3510795471
 10
4.7092407517
 20
3.3505823301
 10
4.7094012959
 20
3.3500803611
 10
4.7095752059
 20
3.3495738868
 10
4.7097628813
 20
3.349063419
 10
4.7099642929
 20
3.3485505115
 10
4.7101797354
 20
3.3480357029
 10
4.710409597
 20
3.3475193022
 10
4.7106538481
 20
3.3470025071
 10
4.7109126622
 20
3.3464859574
 10
4.7111863855
 20
3.3459699327
 10
4.711475167
 20
3.3454550918
 10
4.7117792463
 20
3.344941905
 10
4.7120988159
 20
3.344430918
 10
4.7124339023
 20
3.3439229113
 10
4.7127846664
 20
3.3434184216
 10
4.7131512534
 20
3.3429180002
 10
4.7135336057
 20
3.3424224479
 10
4.713931814
 20
3.3419323339
 10
4.7143459555
 20
3.3414482344
 10
4.7147758906
 20
3.3409709523
 10
4.7152216382
 20
3.340501077
 10
4.7156831992
 20
3.3400392056
 10
4.716160345
 20
3.3395861387
 10
4.7166530176
 20
3.3391424773
 10
4.7171611381
 20
3.3387088295
 10
4.7176843834
 20
3.3382859848
 10
4.7182226148
 20
3.3378745464
 10
4.7187756712
 20
3.3374751222
 10
4.7193431331
 20
3.3370884787
 10
4.7199247792
 20
3.3367152109
 10
4.7205203645
 20
3.3363559145
 10
4.7211293733
 20
3.3360113213
 10
4.721751501
 20
3.3356820057
 10
4.7223864195
 20
3.3353685404
 10
4.7230335185
 20
3.3350716084
 10
4.723692412
 20
3.3347917524
 10
4.7243626904
 20
3.3345295096
 10
4.7250436536
 20
3.3342855014
 10
4.7257348373
 20
3.3340602269
 10
4.726492055
 20
3.3338385856
  0
LINE
  5
269
100
AcDbEntity
  8
ALL_ASSEMBLY_MEMBERS
100
AcDbLine
 62
7
  6
CONTINUOUS
 10
4.7411761472
 20
3.3077448107
 11
4.7411882048
 21
3.3074665216
  0
LINE
  5
26A
100
AcDbEntity
  8
ALL_ASSEMBLY_MEMBERS
100
AcDbLine
 62
7
  6
CONTINUOUS
 10
4.7081156897
 20
3.3575088632
 11
4.7081309897
 21
3.3571377196
  0
LINE
  5
26B
100
AcDbEntity
  8
ALL_ASSEMBLY_MEMBERS
100
AcDbLine
 62
7
  6
CONTINUOUS
 10
4.7411670627
 20
3.3079925361
 11
4.7411761472
 21
3.3077448107
  0
LWPOLYLINE
  5
26C
100
AcDbEntity
  8
ALL_ASSEMBLY_MEMBERS
100
AcDbPolyline
 62
7
  6
CONTINUOUS
 90
5
 70
0
 10
4.7067834371
 20
3.401443898
 10
4.7069635534
 20
3.3962172213
 10
4.7073484985
 20
3.3841506265
 10
4.7077330846
 20
3.3711905801
 10
4.7080940073
 20
3.3581951881
  0
LINE
  5
26D
100
AcDbEntity
  8
ALL_ASSEMBLY_MEMBERS
100
AcDbLine
 62
7
  6
CONTINUOUS
 10
4.7081034079
 20
3.3578701454
 11
4.7081156897
 21
3.3575088632
  0
LINE
  5
26E
100
AcDbEntity
  8
ALL_ASSEMBLY_MEMBERS
100
AcDbLine
 62
7
  6
CONTINUOUS
 10
4.7411561081
 20
3.3083505464
 11
4.7411670627
 21
3.3079925361
  0
LINE
  5
26F
100
AcDbEntity
  8
ALL_ASSEMBLY_MEMBERS
100
AcDbLine
 62
7
  6
CONTINUOUS
 10
4.7080940221
 20
3.3581948086
 11
4.7081034079
 21
3.3578701454
  0
LWPOLYLINE
  5
270
100
AcDbEntity
  8
ALL_ASSEMBLY_MEMBERS
100
AcDbPolyline
 62
7
  6
CONTINUOUS
 90
9
 70
0
 10
4.739549007
 20
3.401443898
 10
4.7396369374
 20
3.3982558436
 10
4.7398013126
 20
3.3915511789
 10
4.7399662356
 20
3.3840707314
 10
4.7401313044
 20
3.3758238947
 10
4.7402963878
 20
3.3668107995
 10
4.7404614597
 20
3.3570265251
 10
4.7406263887
 20
3.346472717
 10
4.7407910998
 20
3.3351486562
  0
LINE
  5
271
100
AcDbEntity
  8
ALL_ASSEMBLY_MEMBERS
100
AcDbLine
 62
7
  6
CONTINUOUS
 10
4.7411440243
 20
3.3088431826
 11
4.7411561081
 21
3.3083505464
  0
LINE
  5
272
100
AcDbEntity
  8
ALL_ASSEMBLY_MEMBERS
100
AcDbLine
 62
7
  6
CONTINUOUS
 10
4.7411306797
 20
3.3095343103
 11
4.7411440243
 21
3.3088431826
  0
LWPOLYLINE
  5
273
100
AcDbEntity
  8
ALL_ASSEMBLY_MEMBERS
100
AcDbPolyline
 62
7
  6
CONTINUOUS
 90
3
 70
0
 10
4.7661693722
 20
3.2838617494
 10
4.7661746854
 20
3.2835438978
 10
4.7661799319
 20
3.2834396424
  0
LINE
  5
274
100
AcDbEntity
  8
ALL_ASSEMBLY_MEMBERS
100
AcDbLine
 62
7
  6
CONTINUOUS
 10
4.7407910998
 20
3.3351486562
 11
4.7410278943
 21
3.3173892293
  0
LINE
  5
275
100
AcDbEntity
  8
ALL_ASSEMBLY_MEMBERS
100
AcDbLine
 62
7
  6
CONTINUOUS
 10
4.7410278943
 20
3.3173892293
 11
4.7411306797
 21
3.3095343103
  0
LINE
  5
276
100
AcDbEntity
  8
ALL_ASSEMBLY_MEMBERS
100
AcDbLine
 62
7
  6
CONTINUOUS
 10
4.7661492494
 20
3.2872493504
 11
4.7661799321
 21
3.2834396413
  0
LWPOLYLINE
  5
277
100
AcDbEntity
  8
ALL_ASSEMBLY_MEMBERS
100
AcDbPolyline
 62
7
  6
CONTINUOUS
 90
3
 70
0
 10
4.7661542475
 20
3.2860881727
 10
4.7661592146
 20
3.2851352293
 10
4.7661693722
 20
3.2838617494
  0
LINE
  5
278
100
AcDbEntity
  8
ALL_ASSEMBLY_MEMBERS
100
AcDbLine
 62
7
  6
CONTINUOUS
 10
4.664420105
 20
4.9423142715
 11
4.664420105
 21
4.9429168298
  0
LINE
  5
279
100
AcDbEntity
  8
ALL_ASSEMBLY_MEMBERS
100
AcDbLine
 62
7
  6
CONTINUOUS
 10
4.6650919902
 20
4.9243262797
 11
4.6650919902
 21
4.9251113841
  0
LINE
  5
27A
100
AcDbEntity
  8
ALL_ASSEMBLY_MEMBERS
100
AcDbLine
 62
7
  6
CONTINUOUS
 10
4.6718052399
 20
4.9425961928
 11
4.6718052399
 21
4.9434381989
  0
LINE
  5
27B
100
AcDbEntity
  8
ALL_ASSEMBLY_MEMBERS
100
AcDbLine
 62
7
  6
CONTINUOUS
 10
4.6766820265
 20
4.9426551114
 11
4.6766820265
 21
4.9437902626
  0
LINE
  5
27C
100
AcDbEntity
  8
ALL_ASSEMBLY_MEMBERS
100
AcDbLine
 62
7
  6
CONTINUOUS
 10
4.6816371855
 20
4.9271423782
 11
4.6816371855
 21
4.9441548953
  0
LINE
  5
27D
100
AcDbEntity
  8
ALL_ASSEMBLY_MEMBERS
100
AcDbLine
 62
7
  6
CONTINUOUS
 10
4.6963346956
 20
4.9267817021
 11
4.6963346956
 21
4.9452771776
  0
LINE
  5
27E
100
AcDbEntity
  8
ALL_ASSEMBLY_MEMBERS
100
AcDbLine
 62
7
  6
CONTINUOUS
 10
4.7128798909
 20
4.9231208471
 11
4.7128798909
 21
4.9239140854
  0
LINE
  5
27F
100
AcDbEntity
  8
ALL_ASSEMBLY_MEMBERS
100
AcDbLine
 62
7
  6
CONTINUOUS
 10
4.7354067793
 20
4.2398810931
 11
4.7354067793
 21
4.2469993772
  0
LINE
  5
280
100
AcDbEntity
  8
ALL_ASSEMBLY_MEMBERS
100
AcDbLine
 62
7
  6
CONTINUOUS
 10
4.7446070901
 20
4.9254230643
 11
4.7446070901
 21
4.9302119322
  0
LINE
  5
281
100
AcDbEntity
  8
ALL_ASSEMBLY_MEMBERS
100
AcDbLine
 62
7
  6
CONTINUOUS
 10
4.7505894961
 20
4.9339854828
 11
4.7505894961
 21
4.9388254137
  0
LINE
  5
282
100
AcDbEntity
  8
ALL_ASSEMBLY_MEMBERS
100
AcDbLine
 62
7
  6
CONTINUOUS
 10
4.7556286438
 20
4.9410343234
 11
4.7556286438
 21
4.9436619768
  0
LINE
  5
283
100
AcDbEntity
  8
ALL_ASSEMBLY_MEMBERS
100
AcDbLine
 62
7
  6
CONTINUOUS
 10
4.7636418197
 20
4.871443898
 11
4.7636418197
 21
4.791443898
  0
LINE
  5
284
100
AcDbEntity
  8
ALL_ASSEMBLY_MEMBERS
100
AcDbLine
 62
7
  6
CONTINUOUS
 10
4.772341813
 20
4.9222231974
 11
4.772341813
 21
4.9233804908
  0
LINE
  5
285
100
AcDbEntity
  8
ALL_ASSEMBLY_MEMBERS
100
AcDbLine
 62
7
  6
CONTINUOUS
 10
4.7724258053
 20
4.9433679134
 11
4.7724258053
 21
4.9445229499
  0
LINE
  5
286
100
AcDbEntity
  8
ALL_ASSEMBLY_MEMBERS
100
AcDbLine
 62
7
  6
CONTINUOUS
 10
4.783640789
 20
4.871443898
 11
4.783640789
 21
4.791443898
  0
LINE
  5
287
100
AcDbEntity
  8
ALL_ASSEMBLY_MEMBERS
100
AcDbLine
 62
7
  6
CONTINUOUS
 10
4.7893909222
 20
4.9407744306
 11
4.7893909222
 21
4.9437212863
  0
LINE
  5
288
100
AcDbEntity
  8
ALL_ASSEMBLY_MEMBERS
100
AcDbLine
 62
7
  6
CONTINUOUS
 10
4.7811026781
 20
3.2834396413
 11
4.7811333593
 21
3.2872493504
  0
LINE
  5
289
100
AcDbEntity
  8
ALL_ASSEMBLY_MEMBERS
100
AcDbLine
 62
7
  6
CONTINUOUS
 10
4.7946820194
 20
4.9335828335
 11
4.7946820194
 21
4.9384347125
  0
LINE
  5
28A
100
AcDbEntity
  8
ALL_ASSEMBLY_MEMBERS
100
AcDbLine
 62
7
  6
CONTINUOUS
 10
4.8017545619
 20
4.9256969612
 11
4.8017545619
 21
4.930493832
  0
LINE
  5
28B
100
AcDbEntity
  8
ALL_ASSEMBLY_MEMBERS
100
AcDbLine
 62
7
  6
CONTINUOUS
 10
4.8127038043
 20
4.2394028156
 11
4.8127038043
 21
4.2465659546
  0
LINE
  5
28C
100
AcDbEntity
  8
ALL_ASSEMBLY_MEMBERS
100
AcDbLine
 62
7
  6
CONTINUOUS
 10
4.8302725713
 20
4.9257696042
 11
4.8302725713
 21
4.9302119328
  0
LINE
  5
28D
100
AcDbEntity
  8
ALL_ASSEMBLY_MEMBERS
100
AcDbLine
 62
7
  6
CONTINUOUS
 10
4.8412941211
 20
4.9415844734
 11
4.8412941211
 21
4.9442015152
  0
LINE
  5
28E
100
AcDbEntity
  8
ALL_ASSEMBLY_MEMBERS
100
AcDbLine
 62
7
  6
CONTINUOUS
 10
4.8580072894
 20
4.9232920387
 11
4.8580072894
 21
4.9244590283
  0
LINE
  5
28F
100
AcDbEntity
  8
ALL_ASSEMBLY_MEMBERS
100
AcDbLine
 62
7
  6
CONTINUOUS
 10
4.8580912816
 20
4.9442734208
 11
4.8580912816
 21
4.9454330197
  0
LINE
  5
290
100
AcDbEntity
  8
ALL_ASSEMBLY_MEMBERS
100
AcDbLine
 62
7
  6
CONTINUOUS
 10
4.8750564003
 20
4.9420719604
 11
4.8750564003
 21
4.944975003
  0
LINE
  5
291
100
AcDbEntity
  8
ALL_ASSEMBLY_MEMBERS
100
AcDbLine
 62
7
  6
CONTINUOUS
 10
4.8874200382
 20
4.9274643622
 11
4.8874200382
 21
4.930493832
  0
LWPOLYLINE
  5
292
100
AcDbEntity
  8
ALL_ASSEMBLY_MEMBERS
100
AcDbPolyline
 62
7
  6
CONTINUOUS
 90
10
 70
0
 10
4.8063261686
 20
3.3229841538
 10
4.8064906092
 20
3.3350846305
 10
4.8066553139
 20
3.34641257
 10
4.8068202377
 20
3.3569703545
 10
4.8069853057
 20
3.3667586887
 10
4.8071503868
 20
3.375775925
 10
4.8073154549
 20
3.3840269629
 10
4.8074803788
 20
3.3915116622
 10
4.8076447576
 20
3.3982206449
 10
4.8077335973
 20
3.401443898
  0
LINE
  5
293
100
AcDbEntity
  8
ALL_ASSEMBLY_MEMBERS
100
AcDbLine
 62
7
  6
CONTINUOUS
 10
4.8061512914
 20
3.3094974072
 11
4.8063261686
 21
3.3229841538
  0
LINE
  5
294
100
AcDbEntity
  8
ALL_ASSEMBLY_MEMBERS
100
AcDbLine
 62
7
  6
CONTINUOUS
 10
4.806138926
 20
3.3088588402
 11
4.8061512914
 21
3.3094974072
  0
LINE
  5
295
100
AcDbEntity
  8
ALL_ASSEMBLY_MEMBERS
100
AcDbLine
 62
7
  6
CONTINUOUS
 10
4.8061278081
 20
3.3083984728
 11
4.806138926
 21
3.3088588402
  0
LWPOLYLINE
  5
296
100
AcDbEntity
  8
ALL_ASSEMBLY_MEMBERS
100
AcDbPolyline
 62
7
  6
CONTINUOUS
 90
4
 70
0
 10
4.8395514498
 20
3.3712577455
 10
4.8399360487
 20
3.3842136521
 10
4.8403210034
 20
3.3962759998
 10
4.8404991662
 20
3.401443898
  0
LINE
  5
297
100
AcDbEntity
  8
ALL_ASSEMBLY_MEMBERS
100
AcDbLine
 62
7
  6
CONTINUOUS
 10
4.8391771125
 20
3.3578039871
 11
4.8395514498
 21
3.3712577455
  0
LINE
  5
298
100
AcDbEntity
  8
ALL_ASSEMBLY_MEMBERS
100
AcDbLine
 62
7
  6
CONTINUOUS
 10
4.8061180115
 20
3.3080668582
 11
4.8061278081
 21
3.3083984728
  0
LINE
  5
299
100
AcDbEntity
  8
ALL_ASSEMBLY_MEMBERS
100
AcDbLine
 62
7
  6
CONTINUOUS
 10
4.8061101662
 20
3.3078412386
 11
4.8061180115
 21
3.3080668582
  0
LINE
  5
29A
100
AcDbEntity
  8
ALL_ASSEMBLY_MEMBERS
100
AcDbLine
 62
7
  6
CONTINUOUS
 10
4.806100537
 20
3.3076019208
 11
4.8061101662
 21
3.3078412386
  0
LWPOLYLINE
  5
29B
100
AcDbEntity
  8
ALL_ASSEMBLY_MEMBERS
100
AcDbPolyline
 62
7
  6
CONTINUOUS
 90
5
 70
0
 10
4.7811026768
 20
3.2834396424
 10
4.7811079233
 20
3.2835438978
 10
4.7811132365
 20
3.2838617494
 10
4.7811183963
 20
3.2843925571
 10
4.7811333593
 20
3.2872493504
  0
LINE
  5
29C
100
AcDbEntity
  8
ALL_ASSEMBLY_MEMBERS
100
AcDbLine
 62
7
  6
CONTINUOUS
 10
4.2929811753
 20
4.3676916782
 11
5.2543014334
 21
4.3676916782
  0
LINE
  5
29D
100
AcDbEntity
  8
ALL_ASSEMBLY_MEMBERS
100
AcDbLine
 62
7
  6
CONTINUOUS
 10
4.3136413043
 20
4.419443898
 11
5.2336413043
 21
4.419443898
  0
LINE
  5
29E
100
AcDbEntity
  8
ALL_ASSEMBLY_MEMBERS
100
AcDbLine
 62
7
  6
CONTINUOUS
 10
5.2336413043
 20
4.448943898
 11
4.3136413043
 21
4.448943898
  0
LINE
  5
29F
100
AcDbEntity
  8
ALL_ASSEMBLY_MEMBERS
100
AcDbLine
 62
7
  6
CONTINUOUS
 10
4.9311413043
 20
3.598443898
 11
4.9311413043
 21
3.696443898
  0
LINE
  5
2A0
100
AcDbEntity
  8
ALL_ASSEMBLY_MEMBERS
100
AcDbLine
 62
7
  6
CONTINUOUS
 10
4.9703913043
 20
3.573443898
 11
4.9703913043
 21
3.568943898
  0
LINE
  5
2A1
100
AcDbEntity
  8
ALL_ASSEMBLY_MEMBERS
100
AcDbLine
 62
7
  6
CONTINUOUS
 10
4.9703913043
 20
3.430943898
 11
4.9703913043
 21
3.426443898
  0
LINE
  5
2A2
100
AcDbEntity
  8
ALL_ASSEMBLY_MEMBERS
100
AcDbLine
 62
7
  6
CONTINUOUS
 10
5.0196413043
 20
3.523943898
 11
5.0196413043
 21
3.475943898
  0
LWPOLYLINE
  5
2A3
100
AcDbEntity
  8
ALL_ASSEMBLY_MEMBERS
100
AcDbPolyline
 62
7
  6
CONTINUOUS
 90
7
 70
0
 10
4.8062486306
 20
3.3169140412
 10
4.8062677546
 20
3.3170763312
 10
4.8063128026
 20
3.3174117229
 10
4.806369445
 20
3.3177824175
 10
4.806436569
 20
3.3181709672
 10
4.8065143618
 20
3.318572639
 10
4.806604575
 20
3.3189910695
  0
LWPOLYLINE
  5
2A4
100
AcDbEntity
  8
ALL_ASSEMBLY_MEMBERS
100
AcDbPolyline
 62
7
  6
CONTINUOUS
 90
40
 70
0
 10
4.806604575
 20
3.3189910695
 10
4.8067073101
 20
3.3194216737
 10
4.8068234824
 20
3.3198641108
 10
4.8069539432
 20
3.3203176869
 10
4.8070981637
 20
3.3207774607
 10
4.807256843
 20
3.3212432433
 10
4.807430469
 20
3.3217141799
 10
4.8076174919
 20
3.3221845429
 10
4.8078172489
 20
3.3226520108
 10
4.8080306436
 20
3.3231180784
 10
4.8082581119
 20
3.3235828595
 10
4.8084998755
 20
3.3240459446
 10
4.8087560696
 20
3.3245067656
 10
4.8090270518
 20
3.3249651454
 10
4.8093130888
 20
3.3254206995
 10
4.809614238
 20
3.3258727119
 10
4.8099305341
 20
3.3263204785
 10
4.8102620773
 20
3.3267634194
 10
4.8106089509
 20
3.327200945
 10
4.8109711137
 20
3.3276323313
 10
4.8113485879
 20
3.3280569608
 10
4.8117413877
 20
3.3284742212
 10
4.8121494089
 20
3.3288833942
 10
4.8125726041
 20
3.3292838456
 10
4.8130109009
 20
3.3296749312
 10
4.8134641047
 20
3.3300559205
 10
4.813932084
 20
3.3304261625
 10
4.8144146807
 20
3.3307850009
 10
4.8149116067
 20
3.3311317048
 10
4.8154226411
 20
3.3314656179
 10
4.8159475349
 20
3.3317860816
 10
4.8164859016
 20
3.3320923767
 10
4.8170374272
 20
3.3323838534
 10
4.8176017678
 20
3.332659863
 10
4.8181784361
 20
3.3329197112
 10
4.8187670223
 20
3.3331627673
 10
4.8193670858
 20
3.3333884063
 10
4.8199780378
 20
3.3335959727
 10
4.8205993719
 20
3.333784869
 10
4.8207905616
 20
3.3338385934
  0
LINE
  5
2A5
100
AcDbEntity
  8
ALL_ASSEMBLY_MEMBERS
100
AcDbLine
 62
7
  6
CONTINUOUS
 10
5.2636413043
 20
4.478943898
 11
4.2836413043
 21
4.478943898
  0
LINE
  5
2A6
100
AcDbEntity
  8
ALL_ASSEMBLY_MEMBERS
100
AcDbLine
 62
7
  6
CONTINUOUS
 10
4.0939286309
 20
4.941454681
 11
4.0919530148
 21
4.9424492793
  0
LINE
  5
2A7
100
AcDbEntity
  8
ALL_ASSEMBLY_MEMBERS
100
AcDbLine
 62
7
  6
CONTINUOUS
 10
4.0929407001
 20
4.94194809
 11
4.091953029
 21
4.9424493586
  0
LINE
  5
2A8
100
AcDbEntity
  8
ALL_ASSEMBLY_MEMBERS
100
AcDbLine
 62
7
  6
CONTINUOUS
 10
4.2811413043
 20
4.736443898
 11
5.2661413043
 21
4.736443898
  0
LINE
  5
2A9
100
AcDbEntity
  8
ALL_ASSEMBLY_MEMBERS
100
AcDbLine
 62
7
  6
CONTINUOUS
 10
4.0677199018
 20
4.9429168298
 11
4.065696557
 21
4.9436712554
  0
LINE
  5
2AA
100
AcDbEntity
  8
ALL_ASSEMBLY_MEMBERS
100
AcDbLine
 62
7
  6
CONTINUOUS
 10
4.0667075304
 20
4.9432900559
 11
4.0656965733
 21
4.943671348
  0
LINE
  5
2AB
100
AcDbEntity
  8
ALL_ASSEMBLY_MEMBERS
100
AcDbLine
 62
7
  6
CONTINUOUS
 10
5.2336413043
 20
4.448943898
 11
5.2336413043
 21
4.419443898
  0
LINE
  5
2AC
100
AcDbEntity
  8
ALL_ASSEMBLY_MEMBERS
100
AcDbLine
 62
7
  6
CONTINUOUS
 10
5.2636413043
 20
4.736443898
 11
5.2636413043
 21
4.478943898
  0
LINE
  5
2AD
100
AcDbEntity
  8
ALL_ASSEMBLY_MEMBERS
100
AcDbLine
 62
7
  6
CONTINUOUS
 10
5.2661413043
 20
4.736443898
 11
5.2661413043
 21
4.9069045279
  0
LINE
  5
2AE
100
AcDbEntity
  8
ALL_ASSEMBLY_MEMBERS
100
AcDbLine
 62
7
  6
CONTINUOUS
 10
5.2986413043
 20
4.9069045279
 11
5.6048913043
 21
4.9649045279
  0
LINE
  5
2AF
100
AcDbEntity
  8
ALL_ASSEMBLY_MEMBERS
100
AcDbLine
 62
7
  6
CONTINUOUS
 10
5.4742547734
 20
4.9419707001
 11
5.4906149813
 21
4.9449258049
  0
LINE
  5
2B0
100
AcDbEntity
  8
ALL_ASSEMBLY_MEMBERS
100
AcDbLine
 62
7
  6
CONTINUOUS
 10
5.4639573778
 20
4.9413543766
 11
5.4646925606
 21
4.9414838346
  0
LINE
  5
2B1
100
AcDbEntity
  8
ALL_ASSEMBLY_MEMBERS
100
AcDbLine
 62
7
  6
CONTINUOUS
 10
5.4622902198
 20
4.9410609083
 11
5.4646925606
 21
4.9414838346
  0
LINE
  5
2B2
100
AcDbEntity
  8
ALL_ASSEMBLY_MEMBERS
100
AcDbLine
 62
7
  6
CONTINUOUS
 10
5.4500065577
 20
4.9389028769
 11
5.4622902198
 21
4.9410609083
  0
LINE
  5
2B3
100
AcDbEntity
  8
ALL_ASSEMBLY_MEMBERS
100
AcDbLine
 62
7
  6
CONTINUOUS
 10
5.4313900105
 20
4.9359720874
 11
5.4787958249
 21
4.9442997917
  0
LINE
  5
2B4
100
AcDbEntity
  8
ALL_ASSEMBLY_MEMBERS
100
AcDbLine
 62
7
  6
CONTINUOUS
 10
4.783640789
 20
4.791443898
 11
4.7636418197
 21
4.791443898
  0
LINE
  5
2B5
100
AcDbEntity
  8
ALL_ASSEMBLY_MEMBERS
100
AcDbLine
 62
7
  6
CONTINUOUS
 10
4.7636418197
 20
4.871443898
 11
4.783640789
 21
4.871443898
  0
LINE
  5
2B6
100
AcDbEntity
  8
ALL_ASSEMBLY_MEMBERS
100
AcDbLine
 62
7
  6
CONTINUOUS
 10
4.1624582766
 20
4.9243262797
 11
4.1648714136
 21
4.9240794534
  0
LINE
  5
2B7
100
AcDbEntity
  8
ALL_ASSEMBLY_MEMBERS
100
AcDbLine
 62
7
  6
CONTINUOUS
 10
4.2486413043
 20
4.9069045279
 11
3.9423913043
 21
4.9649045279
  0
LINE
  5
2B8
100
AcDbEntity
  8
ALL_ASSEMBLY_MEMBERS
100
AcDbLine
 62
7
  6
CONTINUOUS
 10
4.1624582766
 20
4.9243262797
 11
4.1617916108
 21
4.9244569672
  0
LINE
  5
2B9
100
AcDbEntity
  8
ALL_ASSEMBLY_MEMBERS
100
AcDbLine
 62
7
  6
CONTINUOUS
 10
4.0916816275
 20
4.9387770686
 11
4.0796331141
 21
4.9411555432
  0
LINE
  5
2BA
100
AcDbEntity
  8
ALL_ASSEMBLY_MEMBERS
100
AcDbLine
 62
7
  6
CONTINUOUS
 10
4.0707240895
 20
4.9434839233
 11
4.0616668869
 21
4.9452771776
  0
LINE
  5
2BB
100
AcDbEntity
  8
ALL_ASSEMBLY_MEMBERS
100
AcDbLine
 62
7
  6
CONTINUOUS
 10
4.0962202745
 20
4.9384374291
 11
4.0707241003
 21
4.9434839838
  0
LINE
  5
2BC
100
AcDbEntity
  8
ALL_ASSEMBLY_MEMBERS
100
AcDbLine
 62
7
  6
CONTINUOUS
 10
4.0962202707
 20
4.938437408
 11
4.0933462638
 21
4.9390061484
  0
LINE
  5
2BD
100
AcDbEntity
  8
ALL_ASSEMBLY_MEMBERS
100
AcDbLine
 62
7
  6
CONTINUOUS
 10
4.1736729958
 20
4.9237817678
 11
4.1730052583
 21
4.9239140854
  0
LINE
  5
2BE
100
AcDbEntity
  8
ALL_ASSEMBLY_MEMBERS
100
AcDbLine
 62
7
  6
CONTINUOUS
 10
4.1770084294
 20
4.9231208471
 11
4.1763417765
 21
4.9232529423
  0
LINE
  5
2BF
100
AcDbEntity
  8
ALL_ASSEMBLY_MEMBERS
100
AcDbLine
 62
7
  6
CONTINUOUS
 10
4.1852924716
 20
4.9233091847
 11
4.1846250437
 21
4.9234419993
  0
LINE
  5
2C0
100
AcDbEntity
  8
ALL_ASSEMBLY_MEMBERS
100
AcDbLine
 62
7
  6
CONTINUOUS
 10
4.1886276289
 20
4.9226455089
 11
4.1879608618
 21
4.922778191
  0
LINE
  5
2C1
100
AcDbEntity
  8
ALL_ASSEMBLY_MEMBERS
100
AcDbLine
 62
7
  6
CONTINUOUS
 10
4.1769324963
 20
4.9259170411
 11
4.1059078454
 21
4.9400598199
  0
LINE
  5
2C2
100
AcDbEntity
  8
ALL_ASSEMBLY_MEMBERS
100
AcDbLine
 62
7
  6
CONTINUOUS
 10
4.0880049411
 20
4.944533029
 11
4.1814750563
 21
4.9259213813
  0
LINE
  5
2C3
100
AcDbEntity
  8
ALL_ASSEMBLY_MEMBERS
100
AcDbLine
 62
7
  6
CONTINUOUS
 10
4.2020638419
 20
4.9229253785
 11
4.2033975141
 21
4.9226600212
  0
LINE
  5
2C4
100
AcDbEntity
  8
ALL_ASSEMBLY_MEMBERS
100
AcDbLine
 62
7
  6
CONTINUOUS
 10
4.1243871856
 20
4.9458586575
 11
4.1254069709
 21
4.9456171728
  0
LINE
  5
2C5
100
AcDbEntity
  8
ALL_ASSEMBLY_MEMBERS
100
AcDbLine
 62
7
  6
CONTINUOUS
 10
4.1446239985
 20
4.9363266719
 11
4.1332480434
 21
4.939119203
  0
LINE
  5
2C6
100
AcDbEntity
  8
ALL_ASSEMBLY_MEMBERS
100
AcDbLine
 62
7
  6
CONTINUOUS
 10
4.1332480434
 20
4.939119203
 11
4.1216954781
 21
4.9419643444
  0
LINE
  5
2C7
100
AcDbEntity
  8
ALL_ASSEMBLY_MEMBERS
100
AcDbLine
 62
7
  6
CONTINUOUS
 10
4.1216954735
 20
4.9419643192
 11
4.1099662743
 21
4.9448619421
  0
LINE
  5
2C8
100
AcDbEntity
  8
ALL_ASSEMBLY_MEMBERS
100
AcDbLine
 62
7
  6
CONTINUOUS
 10
4.358631935
 20
4.9365116793
 11
4.3437974406
 21
4.9411798205
  0
LINE
  5
2C9
100
AcDbEntity
  8
ALL_ASSEMBLY_MEMBERS
100
AcDbLine
 62
7
  6
CONTINUOUS
 10
5.1848389933
 20
4.9272244085
 11
5.1845074475
 21
4.9299478882
  0
LINE
  5
2CA
100
AcDbEntity
  8
ALL_ASSEMBLY_MEMBERS
100
AcDbLine
 62
7
  6
CONTINUOUS
 10
4.1242087299
 20
4.9459600963
 11
4.1244157273
 21
4.9459791886
  0
LINE
  5
2CB
100
AcDbEntity
  8
ALL_ASSEMBLY_MEMBERS
100
AcDbLine
 62
7
  6
CONTINUOUS
 10
4.1348292356
 20
4.9428373647
 11
4.1362513435
 21
4.942964457
  0
LINE
  5
2CC
100
AcDbEntity
  8
ALL_ASSEMBLY_MEMBERS
100
AcDbLine
 62
7
  6
CONTINUOUS
 10
4.6856957437
 20
4.9444582241
 11
4.6963346956
 21
4.9452771776
  0
LINE
  5
2CD
100
AcDbEntity
  8
ALL_ASSEMBLY_MEMBERS
100
AcDbLine
 62
7
  6
CONTINUOUS
 10
5.4662918591
 20
4.9415401988
 11
5.4678889133
 21
4.9416065064
  0
LINE
  5
2CE
100
AcDbEntity
  8
ALL_ASSEMBLY_MEMBERS
100
AcDbLine
 62
7
  6
CONTINUOUS
 10
5.4646925606
 20
4.9414838346
 11
5.4662918517
 21
4.9415402387
  0
LINE
  5
2CF
100
AcDbEntity
  8
ALL_ASSEMBLY_MEMBERS
100
AcDbLine
 62
7
  6
CONTINUOUS
 10
4.2009273156
 20
4.9226099073
 11
4.2033975141
 21
4.9226600212
  0
LINE
  5
2D0
100
AcDbEntity
  8
ALL_ASSEMBLY_MEMBERS
100
AcDbLine
 62
7
  6
CONTINUOUS
 10
4.2486556143
 20
4.9069045279
 11
5.2986269944
 21
4.9069045279
  0
LINE
  5
2D1
100
AcDbEntity
  8
ALL_ASSEMBLY_MEMBERS
100
AcDbLine
 62
7
  6
CONTINUOUS
 10
4.6816371855
 20
4.9274794332
 11
4.6963346956
 21
4.9274794332
  0
LINE
  5
2D2
100
AcDbEntity
  8
ALL_ASSEMBLY_MEMBERS
100
AcDbLine
 62
7
  6
CONTINUOUS
 10
3.9423913043
 20
4.9649045279
 11
5.6048913043
 21
4.9649045279
  0
LINE
  5
2D3
100
AcDbEntity
  8
ALL_ASSEMBLY_MEMBERS
100
AcDbLine
 62
7
  6
CONTINUOUS
 10
3.9024065326
 20
4.9699045279
 11
5.6448760761
 21
4.9699045279
  0
LINE
  5
2D4
100
AcDbEntity
  8
ALL_ASSEMBLY_MEMBERS
100
AcDbLine
 62
7
  6
CONTINUOUS
 10
4.1886276289
 20
4.9226455089
 11
4.1910807254
 21
4.9226002325
  0
LINE
  5
2D5
100
AcDbEntity
  8
ALL_ASSEMBLY_MEMBERS
100
AcDbLine
 62
7
  6
CONTINUOUS
 10
4.7049035919
 20
4.9232756132
 11
4.7128798909
 21
4.9231208471
  0
LINE
  5
2D6
100
AcDbEntity
  8
ALL_ASSEMBLY_MEMBERS
100
AcDbLine
 62
7
  6
CONTINUOUS
 10
4.6969319486
 20
4.9234486717
 11
4.7049035876
 21
4.9232754119
  0
LINE
  5
2D7
100
AcDbEntity
  8
ALL_ASSEMBLY_MEMBERS
100
AcDbLine
 62
7
  6
CONTINUOUS
 10
4.6730449981
 20
4.9240794515
 11
4.68154992
 21
4.92383577
  0
LINE
  5
2D8
100
AcDbEntity
  8
ALL_ASSEMBLY_MEMBERS
100
AcDbLine
 62
7
  6
CONTINUOUS
 10
4.6650919902
 20
4.9243262797
 11
4.6730449914
 21
4.9240792349
  0
LINE
  5
2D9
100
AcDbEntity
  8
ALL_ASSEMBLY_MEMBERS
100
AcDbLine
 62
7
  6
CONTINUOUS
 10
4.1745714366
 20
4.9232754132
 11
4.1770084294
 21
4.9231208471
  0
LINE
  5
2DA
100
AcDbEntity
  8
ALL_ASSEMBLY_MEMBERS
100
AcDbLine
 62
7
  6
CONTINUOUS
 10
4.1721392604
 20
4.9234486741
 11
4.1745714366
 21
4.9232754132
  0
LINE
  5
2DB
100
AcDbEntity
  8
ALL_ASSEMBLY_MEMBERS
100
AcDbLine
 62
7
  6
CONTINUOUS
 10
4.1697118796
 20
4.9236405154
 11
4.1721392604
 21
4.9234486741
  0
LINE
  5
2DC
100
AcDbEntity
  8
ALL_ASSEMBLY_MEMBERS
100
AcDbLine
 62
7
  6
CONTINUOUS
 10
4.1697118796
 20
4.9236405154
 11
4.172139291
 21
4.9234488375
  0
LINE
  5
2DD
100
AcDbEntity
  8
ALL_ASSEMBLY_MEMBERS
100
AcDbLine
 62
7
  6
CONTINUOUS
 10
5.3477806326
 20
4.9224976004
 11
5.3474841123
 21
4.9241185099
  0
LINE
  5
2DE
100
AcDbEntity
  8
ALL_ASSEMBLY_MEMBERS
100
AcDbLine
 62
7
  6
CONTINUOUS
 10
5.3533269181
 20
4.9251873608
 11
5.3535728705
 21
4.9238428778
  0
LINE
  5
2DF
100
AcDbEntity
  8
ALL_ASSEMBLY_MEMBERS
100
AcDbLine
 62
7
  6
CONTINUOUS
 10
4.1242086357
 20
4.9459595441
 11
4.1244157273
 21
4.9459791886
  0
LINE
  5
2E0
100
AcDbEntity
  8
ALL_ASSEMBLY_MEMBERS
100
AcDbLine
 62
7
  6
CONTINUOUS
 10
6.3986413043
 20
5.0099045279
 11
3.1486413043
 21
5.0099045279
  0
LINE
  5
2E1
100
AcDbEntity
  8
ALL_ASSEMBLY_MEMBERS
100
AcDbLine
 62
7
  6
CONTINUOUS
 10
6.4611413043
 20
5.0664045279
 11
3.0861413043
 21
5.0664045279
  0
LINE
  5
2E2
100
AcDbEntity
  8
ALL_ASSEMBLY_MEMBERS
100
AcDbLine
 62
7
  6
CONTINUOUS
 10
5.3567297558
 20
4.9251649759
 11
5.3564997793
 21
4.9264221277
  0
LINE
  5
2E3
100
AcDbEntity
  8
ALL_ASSEMBLY_MEMBERS
100
AcDbLine
 62
7
  6
CONTINUOUS
 10
5.3658957686
 20
4.9223343928
 11
5.3657698595
 21
4.9230226665
  0
LINE
  5
2E4
100
AcDbEntity
  8
ALL_ASSEMBLY_MEMBERS
100
AcDbLine
 62
7
  6
CONTINUOUS
 10
5.3709269978
 20
4.9284139878
 11
5.3707630671
 21
4.9293101046
  0
LINE
  5
2E5
100
AcDbEntity
  8
ALL_ASSEMBLY_MEMBERS
100
AcDbLine
 62
7
  6
CONTINUOUS
 10
5.3757932354
 20
4.9249571776
 11
5.3759644659
 21
4.924021157
  0
LINE
  5
2E6
100
AcDbEntity
  8
ALL_ASSEMBLY_MEMBERS
100
AcDbLine
 62
7
  6
CONTINUOUS
 10
5.3769442676
 20
4.9244383517
 11
5.3768151577
 21
4.9251441225
  0
LINE
  5
2E7
100
AcDbEntity
  8
ALL_ASSEMBLY_MEMBERS
100
AcDbLine
 62
7
  6
CONTINUOUS
 10
5.3796675342
 20
4.9253017643
 11
5.3795594907
 21
4.925892377
  0
LINE
  5
2E8
100
AcDbEntity
  8
ALL_ASSEMBLY_MEMBERS
100
AcDbLine
 62
7
  6
CONTINUOUS
 10
5.3855738865
 20
4.9278413341
 11
5.3853512909
 21
4.9290581387
  0
LINE
  5
2E9
100
AcDbEntity
  8
ALL_ASSEMBLY_MEMBERS
100
AcDbLine
 62
7
  6
CONTINUOUS
 10
5.3994245848
 20
4.932893726
 11
5.3993124438
 21
4.9335067377
  0
LINE
  5
2EA
100
AcDbEntity
  8
ALL_ASSEMBLY_MEMBERS
100
AcDbLine
 62
7
  6
CONTINUOUS
 10
5.4007191536
 20
4.9310871424
 11
5.4002815221
 21
4.9334794278
  0
LINE
  5
2EB
100
AcDbEntity
  8
ALL_ASSEMBLY_MEMBERS
100
AcDbLine
 62
7
  6
CONTINUOUS
 10
5.4133002862
 20
4.9347534612
 11
5.4128656506
 21
4.9371293695
  0
LINE
  5
2EC
100
AcDbEntity
  8
ALL_ASSEMBLY_MEMBERS
100
AcDbLine
 62
7
  6
CONTINUOUS
 10
5.4159112404
 20
4.9356798673
 11
5.4155560423
 21
4.937621535
  0
LINE
  5
2ED
100
AcDbEntity
  8
ALL_ASSEMBLY_MEMBERS
100
AcDbLine
 62
7
  6
CONTINUOUS
 10
5.4328851178
 20
4.9353974694
 11
5.4327349906
 21
4.9362181306
  0
LINE
  5
2EE
100
AcDbEntity
  8
ALL_ASSEMBLY_MEMBERS
100
AcDbLine
 62
7
  6
CONTINUOUS
 10
5.4351093264
 20
4.9407549697
 11
5.4349597361
 21
4.9415726959
  0
LINE
  5
2EF
100
AcDbEntity
  8
ALL_ASSEMBLY_MEMBERS
100
AcDbLine
 62
7
  6
CONTINUOUS
 10
5.4447550093
 20
4.9363956156
 11
5.4444158194
 21
4.9382497753
  0
LINE
  5
2F0
100
AcDbEntity
  8
ALL_ASSEMBLY_MEMBERS
100
AcDbLine
 62
7
  6
CONTINUOUS
 10
5.4464038251
 20
4.939928171
 11
5.4462751413
 21
4.9406316126
  0
LINE
  5
2F1
100
AcDbEntity
  8
ALL_ASSEMBLY_MEMBERS
100
AcDbLine
 62
7
  6
CONTINUOUS
 10
5.4476535912
 20
4.9428563914
 11
5.4475285663
 21
4.9435398319
  0
LINE
  5
2F2
100
AcDbEntity
  8
ALL_ASSEMBLY_MEMBERS
100
AcDbLine
 62
7
  6
CONTINUOUS
 10
5.4556322164
 20
4.9435997263
 11
5.4554721053
 21
4.9444749637
  0
LINE
  5
2F3
100
AcDbEntity
  8
ALL_ASSEMBLY_MEMBERS
100
AcDbLine
 62
7
  6
CONTINUOUS
 10
5.4564691678
 20
4.943411276
 11
5.4562623422
 21
4.944541875
  0
LINE
  5
2F4
100
AcDbEntity
  8
ALL_ASSEMBLY_MEMBERS
100
AcDbLine
 62
7
  6
CONTINUOUS
 10
5.4611269201
 20
4.9432799604
 11
5.4609528513
 21
4.9442314965
  0
LINE
  5
2F5
100
AcDbEntity
  8
ALL_ASSEMBLY_MEMBERS
100
AcDbLine
 62
7
  6
CONTINUOUS
 10
5.4742547734
 20
4.9419707001
 11
5.4739895445
 21
4.943420557
  0
LINE
  5
2F6
100
AcDbEntity
  8
ALL_ASSEMBLY_MEMBERS
100
AcDbLine
 62
7
  6
CONTINUOUS
 10
5.6048913043
 20
4.9649045279
 11
5.6048913043
 21
4.9699045279
  0
LINE
  5
2F7
100
AcDbEntity
  8
ALL_ASSEMBLY_MEMBERS
100
AcDbLine
 62
7
  6
CONTINUOUS
 10
5.6448913043
 20
4.9699045279
 11
5.6448913043
 21
5.0099045279
  0
LINE
  5
2F8
100
AcDbEntity
  8
ALL_ASSEMBLY_MEMBERS
100
AcDbLine
 62
7
  6
CONTINUOUS
 10
3.0861413043
 20
5.1814045279
 11
6.4611413043
 21
5.1814045279
  0
LWPOLYLINE
  5
2F9
100
AcDbEntity
  8
ALL_ASSEMBLY_MEMBERS
100
AcDbPolyline
 62
7
  6
CONTINUOUS
 90
60
 70
0
 10
4.8207905537
 20
3.3338385856
 10
4.8214558319
 20
3.334031927
 10
4.8221317876
 20
3.3342491116
 10
4.8227986276
 20
3.3344844149
 10
4.8234558991
 20
3.3347374207
 10
4.8241029119
 20
3.3350075923
 10
4.8247392587
 20
3.3352944742
 10
4.8253645512
 20
3.3355976039
 10
4.8259781756
 20
3.3359163809
 10
4.8265797928
 20
3.3362503103
 10
4.8271690838
 20
3.3365988932
 10
4.8277455165
 20
3.3369614764
 10
4.8283088235
 20
3.3373375359
 10
4.8288587579
 20
3.3377265466
 10
4.8293948728
 20
3.338127814
 10
4.8299169747
 20
3.3385407953
 10
4.8304248898
 20
3.3389649496
 10
4.8309182582
 20
3.3393995519
 10
4.8313969599
 20
3.3398440508
 10
4.8318608947
 20
3.3402978994
 10
4.8323097903
 20
3.3407603546
 10
4.8327435981
 20
3.3412308644
 10
4.8331622907
 20
3.3417088871
 10
4.8335656863
 20
3.3421936769
 10
4.8339538164
 20
3.3426847057
 10
4.8343267106
 20
3.343181432
 10
4.834684245
 20
3.3436830768
 10
4.8350265093
 20
3.3441891159
 10
4.8353536108
 20
3.3446990401
 10
4.8356655129
 20
3.3452120846
 10
4.8359623685
 20
3.34572775
 10
4.8362443468
 20
3.3462455558
 10
4.836511495
 20
3.3467647662
 10
4.8367640297
 20
3.3472849286
 10
4.8370021683
 20
3.3478055852
 10
4.8372260172
 20
3.3483259987
 10
4.837435955
 20
3.3488460373
 10
4.837632129
 20
3.3493650098
 10
4.8378144152
 20
3.3498813344
 10
4.8379833671
 20
3.3503951998
 10
4.8381391518
 20
3.3509056649
 10
4.8382813486
 20
3.3514094226
 10
4.8384105611
 20
3.3519062373
 10
4.8385273264
 20
3.3523956674
 10
4.8386315272
 20
3.3528741106
 10
4.838724136
 20
3.3533424198
 10
4.8388056635
 20
3.353799335
 10
4.838875878
 20
3.3542382702
 10
4.838936192
 20
3.3546617558
 10
4.8389872445
 20
3.3550675983
 10
4.8390286417
 20
3.3554425814
 10
4.8390616188
 20
3.3557840833
 10
4.8390879591
 20
3.3560965872
 10
4.8391086348
 20
3.356377647
 10
4.8391243616
 20
3.356621267
 10
4.8391366099
 20
3.3568354179
 10
4.8391469589
 20
3.3570383008
 10
4.8391558705
 20
3.3572334941
 10
4.8391635289
 20
3.357419921
 10
4.8391771125
 20
3.3578039871
  0
LINE
  5
2FA
100
AcDbEntity
  8
ALL_ASSEMBLY_MEMBERS
100
AcDbLine
 62
7
  6
CONTINUOUS
 10
6.0036413043
 20
5.0099045279
 11
6.0036413043
 21
5.1814045279
  0
LINE
  5
2FB
100
AcDbEntity
  8
ALL_ASSEMBLY_MEMBERS
100
AcDbLine
 62
7
  6
CONTINUOUS
 10
6.1486413043
 20
5.0664045279
 11
6.1486413043
 21
5.0099045279
  0
LINE
  5
2FC
100
AcDbEntity
  8
ALL_ASSEMBLY_MEMBERS
100
AcDbLine
 62
7
  6
CONTINUOUS
 10
6.2111413043
 20
5.0664045279
 11
6.2111413043
 21
5.1814045279
  0
LINE
  5
2FD
100
AcDbEntity
  8
ALL_ASSEMBLY_MEMBERS
100
AcDbLine
 62
7
  6
CONTINUOUS
 10
6.2311413043
 20
5.1814045279
 11
6.2311413043
 21
5.0099045279
  0
LINE
  5
2FE
100
AcDbEntity
  8
ALL_ASSEMBLY_MEMBERS
100
AcDbLine
 62
7
  6
CONTINUOUS
 10
6.2536413043
 20
5.0099045279
 11
6.2536413043
 21
5.1814045279
  0
LINE
  5
2FF
100
AcDbEntity
  8
ALL_ASSEMBLY_MEMBERS
100
AcDbLine
 62
7
  6
CONTINUOUS
 10
6.3986413043
 20
5.0664045279
 11
6.3986413043
 21
5.0099045279
  0
LINE
  5
300
100
AcDbEntity
  8
ALL_ASSEMBLY_MEMBERS
100
AcDbLine
 62
7
  6
CONTINUOUS
 10
6.4611413043
 20
5.0664045279
 11
6.4611413043
 21
5.1814045279
  0
ARC
  5
301
100
AcDbEntity
  8
ALL_ASSEMBLY_MEMBERS
100
AcDbCircle
 62
7
  6
CONTINUOUS
 10
3.61464027
 20
3.6534937951
 40
0.985
100
AcDbArc
 50
4.8307882199
 51
46.4750035269
  0
ARC
  5
302
100
AcDbEntity
  8
ALL_ASSEMBLY_MEMBERS
100
AcDbCircle
 62
7
  6
CONTINUOUS
 10
3.9885822461
 20
4.1084833799
 40
0.8345527075
100
AcDbArc
 50
78.579893571
 51
78.7424945592
  0
ARC
  5
303
100
AcDbEntity
  8
ALL_ASSEMBLY_MEMBERS
100
AcDbCircle
 62
7
  6
CONTINUOUS
 10
4.0550147301
 20
4.436849688
 40
0.4995337672
100
AcDbArc
 50
78.3473326116
 51
78.5913946142
  0
ARC
  5
304
100
AcDbEntity
  8
ALL_ASSEMBLY_MEMBERS
100
AcDbCircle
 62
7
  6
CONTINUOUS
 10
4.0998682633
 20
4.4589450912
 40
0.4824558995
100
AcDbArc
 50
78.9067718409
 51
82.5863647148
  0
ARC
  5
305
100
AcDbEntity
  8
ALL_ASSEMBLY_MEMBERS
100
AcDbCircle
 62
7
  6
CONTINUOUS
 10
4.0867701639
 20
4.4770772708
 40
0.4578056412
100
AcDbArc
 50
78.2404653154
 51
78.5368571116
  0
ARC
  5
306
100
AcDbEntity
  8
ALL_ASSEMBLY_MEMBERS
100
AcDbCircle
 62
7
  6
CONTINUOUS
 10
4.0859749782
 20
5.3491227873
 40
0.4049721142
100
AcDbArc
 50
273.3962964007
 51
275.4173968146
  0
ARC
  5
307
100
AcDbEntity
  8
ALL_ASSEMBLY_MEMBERS
100
AcDbCircle
 62
7
  6
CONTINUOUS
 10
4.1000121932
 20
5.3401052363
 40
0.3987906571
100
AcDbArc
 50
274.0904542583
 51
275.0086745336
  0
ARC
  5
308
100
AcDbEntity
  8
ALL_ASSEMBLY_MEMBERS
100
AcDbCircle
 62
7
  6
CONTINUOUS
 10
4.1004668223
 20
5.3337720215
 40
0.3924411458
100
AcDbArc
 50
273.5208586518
 51
274.0902039066
  0
ARC
  5
309
100
AcDbEntity
  8
ALL_ASSEMBLY_MEMBERS
100
AcDbCircle
 62
7
  6
CONTINUOUS
 10
4.1227861538
 20
4.5568484936
 40
0.3807193346
100
AcDbArc
 50
78.8798115867
 51
80.2064914575
  0
ARC
  5
30A
100
AcDbEntity
  8
ALL_ASSEMBLY_MEMBERS
100
AcDbCircle
 62
7
  6
CONTINUOUS
 10
4.1244372359
 20
4.5660025398
 40
0.3714178497
100
AcDbArc
 50
80.2172801824
 51
81.1376415896
  0
ARC
  5
30B
100
AcDbEntity
  8
ALL_ASSEMBLY_MEMBERS
100
AcDbCircle
 62
7
  6
CONTINUOUS
 10
4.126588049
 20
4.5800692563
 40
0.3571877171
100
AcDbArc
 50
81.1309042386
 51
82.9418183184
  0
ARC
  5
30C
100
AcDbEntity
  8
ALL_ASSEMBLY_MEMBERS
100
AcDbCircle
 62
7
  6
CONTINUOUS
 10
4.1367152058
 20
4.6011193261
 40
0.3353006318
100
AcDbArc
 50
87.514143291
 51
88.6484294168
  0
ARC
  5
30D
100
AcDbEntity
  8
ALL_ASSEMBLY_MEMBERS
100
AcDbCircle
 62
7
  6
CONTINUOUS
 10
4.0430784308
 20
4.6245802566
 40
0.3216751315
100
AcDbArc
 50
78.7366142391
 51
78.8631044118
  0
ARC
  5
30E
100
AcDbEntity
  8
ALL_ASSEMBLY_MEMBERS
100
AcDbCircle
 62
7
  6
CONTINUOUS
 10
4.1376320838
 20
4.6305176235
 40
0.3055702698
100
AcDbArc
 50
77.7326399788
 51
78.9470876847
  0
ARC
  5
30F
100
AcDbEntity
  8
ALL_ASSEMBLY_MEMBERS
100
AcDbCircle
 62
7
  6
CONTINUOUS
 10
4.1391596509
 20
4.6563242115
 40
0.2800416782
100
AcDbArc
 50
86.3613925514
 51
87.5239139926
  0
ARC
  5
310
100
AcDbEntity
  8
ALL_ASSEMBLY_MEMBERS
100
AcDbCircle
 62
7
  6
CONTINUOUS
 10
4.1246462757
 20
4.6585255615
 40
0.2724463553
100
AcDbArc
 50
77.8142002482
 51
78.2617356409
  0
ARC
  5
311
100
AcDbEntity
  8
ALL_ASSEMBLY_MEMBERS
100
AcDbCircle
 62
7
  6
CONTINUOUS
 10
4.1324065217
 20
4.744738307
 40
0.194705683
100
AcDbArc
 50
87.3885052407
 51
89.1978576533
  0
ARC
  5
312
100
AcDbEntity
  8
ALL_ASSEMBLY_MEMBERS
100
AcDbCircle
 62
7
  6
CONTINUOUS
 10
4.1723821422
 20
5.0996201541
 40
0.1765546047
100
AcDbArc
 50
241.4510141267
 51
242.899789857
  0
ARC
  5
313
100
AcDbEntity
  8
ALL_ASSEMBLY_MEMBERS
100
AcDbCircle
 62
7
  6
CONTINUOUS
 10
4.1182209422
 20
5.0813270893
 40
0.147336145
100
AcDbArc
 50
247.4280236971
 51
249.1149916631
  0
ARC
  5
314
100
AcDbEntity
  8
ALL_ASSEMBLY_MEMBERS
100
AcDbCircle
 62
7
  6
CONTINUOUS
 10
4.7641122064
 20
3.4145658029
 40
0.0250130188
100
AcDbArc
 50
211.6658466378
 51
270.135674512
  0
ARC
  5
315
100
AcDbEntity
  8
ALL_ASSEMBLY_MEMBERS
100
AcDbCircle
 62
7
  6
CONTINUOUS
 10
4.6018913043
 20
3.426443898
 40
0.025
100
AcDbArc
 50
180.0
 51
270.0
  0
ARC
  5
316
100
AcDbEntity
  8
ALL_ASSEMBLY_MEMBERS
100
AcDbCircle
 62
7
  6
CONTINUOUS
 10
4.6018913043
 20
3.573443898
 40
0.025
100
AcDbArc
 50
90.0
 51
180.0
  0
ARC
  5
317
100
AcDbEntity
  8
ALL_ASSEMBLY_MEMBERS
100
AcDbCircle
 62
7
  6
CONTINUOUS
 10
4.5526413043
 20
3.523943898
 40
0.025
100
AcDbArc
 50
90.0
 51
180.0
  0
ARC
  5
318
100
AcDbEntity
  8
ALL_ASSEMBLY_MEMBERS
100
AcDbCircle
 62
7
  6
CONTINUOUS
 10
4.5526413043
 20
3.475943898
 40
0.025
100
AcDbArc
 50
180.0
 51
270.0
  0
ARC
  5
319
100
AcDbEntity
  8
ALL_ASSEMBLY_MEMBERS
100
AcDbCircle
 62
7
  6
CONTINUOUS
 10
4.6063913043
 20
3.716443898
 40
0.02
100
AcDbArc
 50
90.0
 51
270.0
  0
ARC
  5
31A
100
AcDbEntity
  8
ALL_ASSEMBLY_MEMBERS
100
AcDbCircle
 62
7
  6
CONTINUOUS
 10
4.5568913043
 20
3.430943898
 40
0.02
100
AcDbArc
 50
0.0
 51
90.0
  0
ARC
  5
31B
100
AcDbEntity
  8
ALL_ASSEMBLY_MEMBERS
100
AcDbCircle
 62
7
  6
CONTINUOUS
 10
4.5568913043
 20
3.568943898
 40
0.02
100
AcDbArc
 50
270.0
 51
360.0
  0
ARC
  5
31C
100
AcDbEntity
  8
ALL_ASSEMBLY_MEMBERS
100
AcDbCircle
 62
7
  6
CONTINUOUS
 10
4.1956815343
 20
5.2413702323
 40
0.3188034748
100
AcDbArc
 50
270.0567282083
 51
270.942821625
  0
ARC
  5
31D
100
AcDbEntity
  8
ALL_ASSEMBLY_MEMBERS
100
AcDbCircle
 62
7
  6
CONTINUOUS
 10
4.1956820582
 20
5.238753498
 40
0.3161867412
100
AcDbArc
 50
269.166169396
 51
270.0571027653
  0
ARC
  5
31E
100
AcDbEntity
  8
ALL_ASSEMBLY_MEMBERS
100
AcDbCircle
 62
7
  6
CONTINUOUS
 10
4.1958386208
 20
5.2386667577
 40
0.3161077979
100
AcDbArc
 50
264.3780552636
 51
265.2590172907
  0
ARC
  5
31F
100
AcDbEntity
  8
ALL_ASSEMBLY_MEMBERS
100
AcDbCircle
 62
7
  6
CONTINUOUS
 10
4.7723498663
 20
5.1418881452
 40
0.2196651395
100
AcDbArc
 50
269.9979020131
 51
270.3368507905
  0
ARC
  5
320
100
AcDbEntity
  8
ALL_ASSEMBLY_MEMBERS
100
AcDbCircle
 62
7
  6
CONTINUOUS
 10
4.772931177
 20
4.7432662738
 40
0.2012579448
100
AcDbArc
 50
89.7978346563
 51
90.0004160042
  0
ARC
  5
321
100
AcDbEntity
  8
ALL_ASSEMBLY_MEMBERS
100
AcDbCircle
 62
7
  6
CONTINUOUS
 10
4.7729622723
 20
4.7467127919
 40
0.1978113234
100
AcDbArc
 50
88.977450001
 51
89.8033189221
  0
ARC
  5
322
100
AcDbEntity
  8
ALL_ASSEMBLY_MEMBERS
100
AcDbCircle
 62
7
  6
CONTINUOUS
 10
4.7728492647
 20
5.0948103609
 40
0.1725854396
100
AcDbArc
 50
270.2629462111
 51
272.5312775387
  0
ARC
  5
323
100
AcDbEntity
  8
ALL_ASSEMBLY_MEMBERS
100
AcDbCircle
 62
7
  6
CONTINUOUS
 10
4.7723971461
 20
5.0876732841
 40
0.1654500959
100
AcDbArc
 50
269.1539431454
 51
269.9808414229
  0
ARC
  5
324
100
AcDbEntity
  8
ALL_ASSEMBLY_MEMBERS
100
AcDbCircle
 62
7
  6
CONTINUOUS
 10
4.772270524
 20
5.0789295868
 40
0.1567054822
100
AcDbArc
 50
268.3047282626
 51
269.1530288402
  0
ARC
  5
325
100
AcDbEntity
  8
ALL_ASSEMBLY_MEMBERS
100
AcDbCircle
 62
7
  6
CONTINUOUS
 10
4.7717403982
 20
5.0614434576
 40
0.1392113241
100
AcDbArc
 50
266.4760119617
 51
268.3099093356
  0
ARC
  5
326
100
AcDbEntity
  8
ALL_ASSEMBLY_MEMBERS
100
AcDbCircle
 62
7
  6
CONTINUOUS
 10
4.2235299373
 20
5.0339886868
 40
0.1115025618
100
AcDbArc
 50
258.7701828909
 51
259.0868501736
  0
ARC
  5
327
100
AcDbEntity
  8
ALL_ASSEMBLY_MEMBERS
100
AcDbCircle
 62
7
  6
CONTINUOUS
 10
4.7723639052
 20
4.8338597162
 40
0.1095082138
100
AcDbArc
 50
89.9676169714
 51
91.5370651483
  0
ARC
  5
328
100
AcDbEntity
  8
ALL_ASSEMBLY_MEMBERS
100
AcDbCircle
 62
7
  6
CONTINUOUS
 10
4.2224294808
 20
5.0281694185
 40
0.105580196
100
AcDbArc
 50
259.0753707114
 51
260.1210746362
  0
ARC
  5
329
100
AcDbEntity
  8
ALL_ASSEMBLY_MEMBERS
100
AcDbCircle
 62
7
  6
CONTINUOUS
 10
4.771875799
 20
4.8546608327
 40
0.0887015169
100
AcDbArc
 50
91.5823008133
 51
92.5161946786
  0
ARC
  5
32A
100
AcDbEntity
  8
ALL_ASSEMBLY_MEMBERS
100
AcDbCircle
 62
7
  6
CONTINUOUS
 10
4.2194811219
 20
5.0083838611
 40
0.0855735097
100
AcDbArc
 50
264.5220011877
 51
265.0216687071
  0
ARC
  5
32B
100
AcDbEntity
  8
ALL_ASSEMBLY_MEMBERS
100
AcDbCircle
 62
7
  6
CONTINUOUS
 10
4.219249508
 20
5.0060453222
 40
0.0832235406
100
AcDbArc
 50
263.6976699191
 51
264.5270344473
  0
ARC
  5
32C
100
AcDbEntity
  8
ALL_ASSEMBLY_MEMBERS
100
AcDbCircle
 62
7
  6
CONTINUOUS
 10
4.7653799994
 20
5.0092658148
 40
0.0817676904
100
AcDbArc
 50
259.3501496085
 51
260.8409091003
  0
ARC
  5
32D
100
AcDbEntity
  8
ALL_ASSEMBLY_MEMBERS
100
AcDbCircle
 62
7
  6
CONTINUOUS
 10
4.2188572394
 20
5.0011629673
 40
0.0783257164
100
AcDbArc
 50
265.0179431931
 51
265.5315717641
  0
ARC
  5
32E
100
AcDbEntity
  8
ALL_ASSEMBLY_MEMBERS
100
AcDbCircle
 62
7
  6
CONTINUOUS
 10
4.763615503
 20
5.0001136556
 40
0.0724470999
100
AcDbArc
 50
257.054192344
 51
259.383938771
  0
ARC
  5
32F
100
AcDbEntity
  8
ALL_ASSEMBLY_MEMBERS
100
AcDbCircle
 62
7
  6
CONTINUOUS
 10
4.7614474561
 20
4.9908388855
 40
0.0629223758
100
AcDbArc
 50
254.476287662
 51
257.0861714697
  0
ARC
  5
330
100
AcDbEntity
  8
ALL_ASSEMBLY_MEMBERS
100
AcDbCircle
 62
7
  6
CONTINUOUS
 10
4.7614405459
 20
4.9842536073
 40
0.0611914864
100
AcDbArc
 50
254.0326570774
 51
255.2604616504
  0
ARC
  5
331
100
AcDbEntity
  8
ALL_ASSEMBLY_MEMBERS
100
AcDbCircle
 62
7
  6
CONTINUOUS
 10
4.1992605285
 20
4.9812670763
 40
0.0578108205
100
AcDbArc
 50
269.8544284004
 51
270.1331852579
  0
ARC
  5
332
100
AcDbEntity
  8
ALL_ASSEMBLY_MEMBERS
100
AcDbCircle
 62
7
  6
CONTINUOUS
 10
4.1988106415
 20
4.8814176373
 40
0.0472266304
100
AcDbArc
 50
71.8127852125
 51
73.147244291
  0
ARC
  5
333
100
AcDbEntity
  8
ALL_ASSEMBLY_MEMBERS
100
AcDbCircle
 62
7
  6
CONTINUOUS
 10
4.3136413043
 20
4.389443898
 40
0.03
100
AcDbArc
 50
90.0
 51
226.4750035269
  0
ARC
  5
334
100
AcDbEntity
  8
ALL_ASSEMBLY_MEMBERS
100
AcDbCircle
 62
7
  6
CONTINUOUS
 10
4.3136413043
 20
4.478943898
 40
0.03
100
AcDbArc
 50
180.0
 51
270.0
  0
ARC
  5
335
100
AcDbEntity
  8
ALL_ASSEMBLY_MEMBERS
100
AcDbCircle
 62
7
  6
CONTINUOUS
 10
4.421366742
 20
8.445349711
 40
3.5108561668
100
AcDbArc
 50
273.9697096715
 51
274.3178302188
  0
ARC
  5
336
100
AcDbEntity
  8
ALL_ASSEMBLY_MEMBERS
100
AcDbCircle
 62
7
  6
CONTINUOUS
 10
4.3487889125
 20
7.4040500721
 40
2.4628753096
100
AcDbArc
 50
269.8838794354
 51
270.1161205646
  0
ARC
  5
337
100
AcDbEntity
  8
ALL_ASSEMBLY_MEMBERS
100
AcDbCircle
 62
7
  6
CONTINUOUS
 10
4.3931367856
 20
7.1330310561
 40
2.2058122952
100
AcDbArc
 50
269.8703468467
 51
270.1296531533
  0
CIRCLE
  5
338
100
AcDbEntity
  8
ALL_ASSEMBLY_MEMBERS
100
AcDbCircle
 62
7
  6
CONTINUOUS
 10
4.7736413043
 20
4.173943898
 40
0.0825
  0
CIRCLE
  5
339
100
AcDbEntity
  8
ALL_ASSEMBLY_MEMBERS
100
AcDbCircle
 62
7
  6
CONTINUOUS
 10
4.7736413043
 20
4.173943898
 40
0.07625
  0
CIRCLE
  5
33A
100
AcDbEntity
  8
ALL_ASSEMBLY_MEMBERS
100
AcDbCircle
 62
7
  6
CONTINUOUS
 10
4.7736413043
 20
4.173943898
 40
0.0625
  0
CIRCLE
  5
33B
100
AcDbEntity
  8
ALL_ASSEMBLY_MEMBERS
100
AcDbCircle
 62
7
  6
CONTINUOUS
 10
4.7736413043
 20
4.173943898
 40
0.0424999995
  0
ARC
  5
33C
100
AcDbEntity
  8
ALL_ASSEMBLY_MEMBERS
100
AcDbCircle
 62
7
  6
CONTINUOUS
 10
5.2336413043
 20
4.389443898
 40
0.03
100
AcDbArc
 50
313.5249964731
 51
90.0
  0
ARC
  5
33D
100
AcDbEntity
  8
ALL_ASSEMBLY_MEMBERS
100
AcDbCircle
 62
7
  6
CONTINUOUS
 10
5.2336413043
 20
4.478943898
 40
0.03
100
AcDbArc
 50
270.0
 51
360.0
  0
ARC
  5
33E
100
AcDbEntity
  8
ALL_ASSEMBLY_MEMBERS
100
AcDbCircle
 62
7
  6
CONTINUOUS
 10
4.7831704041
 20
3.4145658037
 40
0.0250130187
100
AcDbArc
 50
269.8643213495
 51
328.3341513091
  0
ARC
  5
33F
100
AcDbEntity
  8
ALL_ASSEMBLY_MEMBERS
100
AcDbCircle
 62
7
  6
CONTINUOUS
 10
4.9453913043
 20
3.426443898
 40
0.025
100
AcDbArc
 50
270.0
 51
360.0
  0
ARC
  5
340
100
AcDbEntity
  8
ALL_ASSEMBLY_MEMBERS
100
AcDbCircle
 62
7
  6
CONTINUOUS
 10
4.9453913043
 20
3.573443898
 40
0.025
100
AcDbArc
 50
0.0
 51
90.0
  0
ARC
  5
341
100
AcDbEntity
  8
ALL_ASSEMBLY_MEMBERS
100
AcDbCircle
 62
7
  6
CONTINUOUS
 10
4.9946413043
 20
3.523943898
 40
0.025
100
AcDbArc
 50
0.0
 51
90.0
  0
ARC
  5
342
100
AcDbEntity
  8
ALL_ASSEMBLY_MEMBERS
100
AcDbCircle
 62
7
  6
CONTINUOUS
 10
4.9946413043
 20
3.475943898
 40
0.025
100
AcDbArc
 50
270.0
 51
360.0
  0
ARC
  5
343
100
AcDbEntity
  8
ALL_ASSEMBLY_MEMBERS
100
AcDbCircle
 62
7
  6
CONTINUOUS
 10
4.9408913043
 20
3.716443898
 40
0.02
100
AcDbArc
 50
270.0
 51
90.0
  0
ARC
  5
344
100
AcDbEntity
  8
ALL_ASSEMBLY_MEMBERS
100
AcDbCircle
 62
7
  6
CONTINUOUS
 10
4.9903913043
 20
3.430943898
 40
0.02
100
AcDbArc
 50
90.0
 51
180.0
  0
ARC
  5
345
100
AcDbEntity
  8
ALL_ASSEMBLY_MEMBERS
100
AcDbCircle
 62
7
  6
CONTINUOUS
 10
4.9903913043
 20
3.568943898
 40
0.02
100
AcDbArc
 50
180.0
 51
270.0
  0
ARC
  5
346
100
AcDbEntity
  8
ALL_ASSEMBLY_MEMBERS
100
AcDbCircle
 62
7
  6
CONTINUOUS
 10
4.8527021388
 20
5.1336301012
 40
0.2104049551
100
AcDbArc
 50
271.4448089049
 51
271.6828669815
  0
ARC
  5
347
100
AcDbEntity
  8
ALL_ASSEMBLY_MEMBERS
100
AcDbCircle
 62
7
  6
CONTINUOUS
 10
4.853759359
 20
5.1039418508
 40
0.1806985565
100
AcDbArc
 50
271.6242393062
 51
273.613703183
  0
ARC
  5
348
100
AcDbEntity
  8
ALL_ASSEMBLY_MEMBERS
100
AcDbCircle
 62
7
  6
CONTINUOUS
 10
4.8537741481
 20
5.0906873033
 40
0.1674487804
100
AcDbArc
 50
270.6692457055
 51
271.4486039776
  0
ARC
  5
349
100
AcDbEntity
  8
ALL_ASSEMBLY_MEMBERS
100
AcDbCircle
 62
7
  6
CONTINUOUS
 10
4.853881967
 20
5.0816864006
 40
0.1584472325
100
AcDbArc
 50
269.8612382439
 51
270.6682771227
  0
ARC
  5
34A
100
AcDbEntity
  8
ALL_ASSEMBLY_MEMBERS
100
AcDbCircle
 62
7
  6
CONTINUOUS
 10
4.8560247536
 20
5.0688411621
 40
0.1455248812
100
AcDbArc
 50
273.5945993521
 51
275.4303427359
  0
ARC
  5
34B
100
AcDbEntity
  8
ALL_ASSEMBLY_MEMBERS
100
AcDbCircle
 62
7
  6
CONTINUOUS
 10
4.8538271308
 20
5.0641394194
 40
0.1409001704
100
AcDbArc
 50
268.097239986
 51
269.8662561881
  0
ARC
  5
34C
100
AcDbEntity
  8
ALL_ASSEMBLY_MEMBERS
100
AcDbCircle
 62
7
  6
CONTINUOUS
 10
4.7744574114
 20
5.0591004804
 40
0.1368393823
100
AcDbArc
 50
272.5189426657
 51
274.3747659566
  0
ARC
  5
34D
100
AcDbEntity
  8
ALL_ASSEMBLY_MEMBERS
100
AcDbCircle
 62
7
  6
CONTINUOUS
 10
4.8581842516
 20
5.0461448903
 40
0.1227261053
100
AcDbArc
 50
275.4294405982
 51
276.4739714342
  0
ARC
  5
34E
100
AcDbEntity
  8
ALL_ASSEMBLY_MEMBERS
100
AcDbCircle
 62
7
  6
CONTINUOUS
 10
4.850888377
 20
5.0082824189
 40
0.080772203
100
AcDbArc
 50
258.6965709434
 51
261.2963775331
  0
ARC
  5
34F
100
AcDbEntity
  8
ALL_ASSEMBLY_MEMBERS
100
AcDbCircle
 62
7
  6
CONTINUOUS
 10
4.8490107762
 20
4.9989001993
 40
0.0712039522
100
AcDbArc
 50
257.0473455178
 51
258.6983577255
  0
ARC
  5
350
100
AcDbEntity
  8
ALL_ASSEMBLY_MEMBERS
100
AcDbCircle
 62
7
  6
CONTINUOUS
 10
4.8471129465
 20
4.9908389192
 40
0.0629224103
100
AcDbArc
 50
254.4762876496
 51
257.0861710749
  0
ARC
  5
351
100
AcDbEntity
  8
ALL_ASSEMBLY_MEMBERS
100
AcDbCircle
 62
7
  6
CONTINUOUS
 10
4.8453805822
 20
4.9838407001
 40
0.060004256
100
AcDbArc
 50
255.4155497966
 51
256.7241893748
  0
ARC
  5
352
100
AcDbEntity
  8
ALL_ASSEMBLY_MEMBERS
100
AcDbCircle
 62
7
  6
CONTINUOUS
 10
5.2862007636
 20
5.4289617752
 40
0.5108700761
100
AcDbArc
 50
279.7309912643
 51
280.0272334932
  0
ARC
  5
353
100
AcDbEntity
  8
ALL_ASSEMBLY_MEMBERS
100
AcDbCircle
 62
7
  6
CONTINUOUS
 10
5.2911315677
 20
5.4096064942
 40
0.490934843
100
AcDbArc
 50
281.0912881803
 51
281.4159893942
  0
ARC
  5
354
100
AcDbEntity
  8
ALL_ASSEMBLY_MEMBERS
100
AcDbCircle
 62
7
  6
CONTINUOUS
 10
5.2960556207
 20
5.3853106723
 40
0.4661450683
100
AcDbArc
 50
281.4138086909
 51
281.745766688
  0
ARC
  5
355
100
AcDbEntity
  8
ALL_ASSEMBLY_MEMBERS
100
AcDbCircle
 62
7
  6
CONTINUOUS
 10
5.2952984764
 20
5.3758054088
 40
0.4569407955
100
AcDbArc
 50
279.1000236678
 51
279.7332240192
  0
ARC
  5
356
100
AcDbEntity
  8
ALL_ASSEMBLY_MEMBERS
100
AcDbCircle
 62
7
  6
CONTINUOUS
 10
5.2890913912
 20
5.3740402714
 40
0.4556816273
100
AcDbArc
 50
280.8792984582
 51
281.0894641296
  0
ARC
  5
357
100
AcDbEntity
  8
ALL_ASSEMBLY_MEMBERS
100
AcDbCircle
 62
7
  6
CONTINUOUS
 10
5.3267636373
 20
5.371078798
 40
0.4491293154
100
AcDbArc
 50
281.8776002976
 51
282.1772516685
  0
ARC
  5
358
100
AcDbEntity
  8
ALL_ASSEMBLY_MEMBERS
100
AcDbCircle
 62
7
  6
CONTINUOUS
 10
5.3456829706
 20
5.3641829511
 40
0.4391163573
100
AcDbArc
 50
282.1520860217
 51
282.4724843692
  0
ARC
  5
359
100
AcDbEntity
  8
ALL_ASSEMBLY_MEMBERS
100
AcDbCircle
 62
7
  6
CONTINUOUS
 10
5.3141143204
 20
5.3549321436
 40
0.4356122728
100
AcDbArc
 50
279.3196993566
 51
279.5503083312
  0
ARC
  5
35A
100
AcDbEntity
  8
ALL_ASSEMBLY_MEMBERS
100
AcDbCircle
 62
7
  6
CONTINUOUS
 10
5.3137367049
 20
5.3474498732
 40
0.4285404838
100
AcDbArc
 50
278.5324445766
 51
278.9215577685
  0
ARC
  5
35B
100
AcDbEntity
  8
ALL_ASSEMBLY_MEMBERS
100
AcDbCircle
 62
7
  6
CONTINUOUS
 10
5.3044548878
 20
5.3450488773
 40
0.4250165015
100
AcDbArc
 50
281.7420836187
 51
282.095232195
  0
ARC
  5
35C
100
AcDbEntity
  8
ALL_ASSEMBLY_MEMBERS
100
AcDbCircle
 62
7
  6
CONTINUOUS
 10
5.3016318424
 20
5.3367021447
 40
0.4173280254
100
AcDbArc
 50
278.7589300429
 51
279.0905312986
  0
ARC
  5
35D
100
AcDbEntity
  8
ALL_ASSEMBLY_MEMBERS
100
AcDbCircle
 62
7
  6
CONTINUOUS
 10
5.306417902
 20
5.3057045213
 40
0.3859630941
100
AcDbArc
 50
278.4075312485
 51
278.7574447969
  0
ARC
  5
35E
100
AcDbEntity
  8
ALL_ASSEMBLY_MEMBERS
100
AcDbCircle
 62
7
  6
CONTINUOUS
 10
5.3046971734
 20
5.291988509
 40
0.3721591733
100
AcDbArc
 50
280.1406701576
 51
280.9041164855
  0
ARC
  5
35F
100
AcDbEntity
  8
ALL_ASSEMBLY_MEMBERS
100
AcDbCircle
 62
7
  6
CONTINUOUS
 10
5.316598719
 20
5.2888077223
 40
0.3674792887
100
AcDbArc
 50
282.0812570978
 51
282.8606053988
  0
ARC
  5
360
100
AcDbEntity
  8
ALL_ASSEMBLY_MEMBERS
100
AcDbCircle
 62
7
  6
CONTINUOUS
 10
5.3260567209
 20
5.2473647463
 40
0.3249707714
100
AcDbArc
 50
282.8612451525
 51
283.2824428282
  0
ARC
  5
361
100
AcDbEntity
  8
ALL_ASSEMBLY_MEMBERS
100
AcDbCircle
 62
7
  6
CONTINUOUS
 10
5.331783635
 20
5.2275773649
 40
0.3073171172
100
AcDbArc
 50
278.0265263042
 51
278.5209281287
  0
ARC
  5
362
100
AcDbEntity
  8
ALL_ASSEMBLY_MEMBERS
100
AcDbCircle
 62
7
  6
CONTINUOUS
 10
5.3234646488
 20
5.190376288
 40
0.2693818221
100
AcDbArc
 50
277.8641160902
 51
278.40730721
  0
ARC
  5
363
100
AcDbEntity
  8
ALL_ASSEMBLY_MEMBERS
100
AcDbCircle
 62
7
  6
CONTINUOUS
 10
5.3414941987
 20
5.1867409929
 40
0.2652073369
100
AcDbArc
 50
278.689251268
 51
279.3669976792
  0
ARC
  5
364
100
AcDbEntity
  8
ALL_ASSEMBLY_MEMBERS
100
AcDbCircle
 62
7
  6
CONTINUOUS
 10
5.3440877708
 20
5.1406293497
 40
0.2195028442
100
AcDbArc
 50
277.3947907479
 51
278.0153250726
  0
ARC
  5
365
100
AcDbEntity
  8
ALL_ASSEMBLY_MEMBERS
100
AcDbCircle
 62
7
  6
CONTINUOUS
 10
5.3307259336
 20
5.1380208025
 40
0.2165252044
100
AcDbArc
 50
277.2479770984
 51
277.8563101856
  0
ARC
  5
366
100
AcDbEntity
  8
ALL_ASSEMBLY_MEMBERS
100
AcDbCircle
 62
7
  6
CONTINUOUS
 10
5.3374107324
 20
5.1139829176
 40
0.1914600365
100
AcDbArc
 50
286.0076099091
 51
286.5437937172
  0
ARC
  5
367
100
AcDbEntity
  8
ALL_ASSEMBLY_MEMBERS
100
AcDbCircle
 62
7
  6
CONTINUOUS
 10
5.337442303
 20
5.0854604416
 40
0.1635374714
100
AcDbArc
 50
276.5159352591
 51
277.2369483105
  0
ARC
  5
368
100
AcDbEntity
  8
ALL_ASSEMBLY_MEMBERS
100
AcDbCircle
 62
7
  6
CONTINUOUS
 10
5.3483903257
 20
4.970214641
 40
0.047749631
100
AcDbArc
 50
271.7581596111
 51
273.2801044552
  0
ARC
  5
369
100
AcDbEntity
  8
ALL_ASSEMBLY_MEMBERS
100
AcDbCircle
 62
7
  6
CONTINUOUS
 10
5.2159838364
 20
5.9135748321
 40
1.0028197112
100
AcDbArc
 50
280.5426587205
 51
280.8084806784
  0
ARC
  5
36A
100
AcDbEntity
  8
ALL_ASSEMBLY_MEMBERS
100
AcDbCircle
 62
7
  6
CONTINUOUS
 10
5.2262955388
 20
5.8829299701
 40
0.9711176469
100
AcDbArc
 50
279.6011961896
 51
279.7155960397
  0
ARC
  5
36B
100
AcDbEntity
  8
ALL_ASSEMBLY_MEMBERS
100
AcDbCircle
 62
7
  6
CONTINUOUS
 10
5.2368174799
 20
5.80125705
 40
0.8885860928
100
AcDbArc
 50
280.2475739142
 51
280.5470793724
  0
ARC
  5
36C
100
AcDbEntity
  8
ALL_ASSEMBLY_MEMBERS
100
AcDbCircle
 62
7
  6
CONTINUOUS
 10
5.2572529832
 20
5.7838533289
 40
0.8680047365
100
AcDbArc
 50
281.4613266862
 51
281.6607590495
  0
ARC
  5
36D
100
AcDbEntity
  8
ALL_ASSEMBLY_MEMBERS
100
AcDbCircle
 62
7
  6
CONTINUOUS
 10
5.2517624394
 20
5.7186825526
 40
0.8046700684
100
AcDbArc
 50
280.0841299944
 51
280.2464059702
  0
ARC
  5
36E
100
AcDbEntity
  8
ALL_ASSEMBLY_MEMBERS
100
AcDbCircle
 62
7
  6
CONTINUOUS
 10
5.2613417964
 20
5.6741064107
 40
0.7593735722
100
AcDbArc
 50
279.2453425774
 51
279.5073705258
  0
ARC
  5
36F
100
AcDbEntity
  8
ALL_ASSEMBLY_MEMBERS
100
AcDbCircle
 62
7
  6
CONTINUOUS
 10
5.2895039763
 20
5.627858087
 40
0.7087105489
100
AcDbArc
 50
281.6562193532
 51
281.8886744047
  0
ARC
  5
370
100
AcDbEntity
  8
ALL_ASSEMBLY_MEMBERS
100
AcDbCircle
 62
7
  6
CONTINUOUS
 10
5.268614536
 20
5.6233490194
 40
0.7078585804
100
AcDbArc
 50
279.7294319097
 51
280.0922705045
  0
ARC
  5
371
100
AcDbEntity
  8
ALL_ASSEMBLY_MEMBERS
100
AcDbCircle
 62
7
  6
CONTINUOUS
 10
5.2690411331
 20
5.5221748915
 40
0.6056502777
100
AcDbArc
 50
280.5909037313
 51
281.0934389261
  0
ARC
  5
372
100
AcDbEntity
  8
ALL_ASSEMBLY_MEMBERS
100
AcDbCircle
 62
7
  6
CONTINUOUS
 10
5.2894504731
 20
5.5017261104
 40
0.5847165868
100
AcDbArc
 50
278.9281156
 51
279.2405893784
  0
ARC
  5
373
100
AcDbEntity
  8
ALL_ASSEMBLY_MEMBERS
100
AcDbCircle
 62
7
  6
CONTINUOUS
 10
5.2911563446
 20
5.4917351431
 40
0.5743282662
100
AcDbArc
 50
279.5445535363
 51
279.7318854204
  0
ARC
  5
374
100
AcDbEntity
  8
ALL_ASSEMBLY_MEMBERS
100
AcDbCircle
 62
7
  6
CONTINUOUS
 10
5.3208910462
 20
5.4790669914
 40
0.5566449923
100
AcDbArc
 50
281.8823707461
 51
282.1574856141
  0
ARC
  5
375
100
AcDbEntity
  8
ALL_ASSEMBLY_MEMBERS
100
AcDbCircle
 62
7
  6
CONTINUOUS
 10
5.2817568237
 20
5.4540489866
 40
0.5363478452
100
AcDbArc
 50
280.0280846805
 51
280.5932697036
  0
ARC
  5
376
100
AcDbEntity
  8
ALL_ASSEMBLY_MEMBERS
100
AcDbCircle
 62
7
  6
CONTINUOUS
 10
5.3495858921
 20
5.45355764
 40
0.5221056488
100
AcDbArc
 50
277.6632554267
 51
278.3582329035
  0
ARC
  5
377
100
AcDbEntity
  8
ALL_ASSEMBLY_MEMBERS
100
AcDbCircle
 62
7
  6
CONTINUOUS
 10
5.9326423387
 20
3.6534937951
 40
0.985
100
AcDbArc
 50
133.5249964731
 51
175.1692117801
  0
ARC
  5
378
100
AcDbEntity
  8
ALL_ASSEMBLY_MEMBERS
100
AcDbCircle
 62
7
  6
CONTINUOUS
 10
5.499092935
 20
4.0761542599
 40
0.86313929
100
AcDbArc
 50
96.50594164
 51
96.6383328323
  0
ARC
  5
379
100
AcDbEntity
  8
ALL_ASSEMBLY_MEMBERS
100
AcDbCircle
 62
7
  6
CONTINUOUS
 10
5.4656093828
 20
4.3576308572
 40
0.579679502
100
AcDbArc
 50
96.5671789196
 51
97.6603208905
  0
ARC
  5
37A
100
AcDbEntity
  8
ALL_ASSEMBLY_MEMBERS
100
AcDbCircle
 62
7
  6
CONTINUOUS
 10
5.4610990785
 20
4.4351390397
 40
0.5015610341
100
AcDbArc
 50
97.0632569758
 51
97.7211493846
  0
ARC
  5
37B
100
AcDbEntity
  8
ALL_ASSEMBLY_MEMBERS
100
AcDbCircle
 62
7
  6
CONTINUOUS
 10
5.4476389317
 20
4.5318378682
 40
0.4039306599
100
AcDbArc
 50
97.6720092237
 51
100.4429588505
  0
ARC
  5
37C
100
AcDbEntity
  8
ALL_ASSEMBLY_MEMBERS
100
AcDbCircle
 62
7
  6
CONTINUOUS
 10
5.4420040272
 20
4.5337430614
 40
0.4019923842
100
AcDbArc
 50
97.6718711596
 51
98.3167707561
  0
ARC
  5
37D
100
AcDbEntity
  8
ALL_ASSEMBLY_MEMBERS
100
AcDbCircle
 62
7
  6
CONTINUOUS
 10
5.4404411391
 20
4.5717446325
 40
0.3633803033
100
AcDbArc
 50
100.4673660883
 51
101.0285783954
  0
ARC
  5
37E
100
AcDbEntity
  8
ALL_ASSEMBLY_MEMBERS
100
AcDbCircle
 62
7
  6
CONTINUOUS
 10
5.4023240674
 20
4.7627141259
 40
0.1646495935
100
AcDbArc
 50
101.0895717639
 51
101.3029281043
  0
ARC
  5
37F
100
AcDbEntity
  8
ALL_ASSEMBLY_MEMBERS
100
AcDbCircle
 62
7
  6
CONTINUOUS
 10
5.4021986753
 20
4.7635113375
 40
0.1638431521
100
AcDbArc
 50
99.4524331952
 51
101.100163306
  0
ARC
  5
380
100
AcDbEntity
  8
ALL_ASSEMBLY_MEMBERS
100
AcDbCircle
 62
7
  6
CONTINUOUS
 10
5.3992242595
 20
4.7808635323
 40
0.1462381002
100
AcDbArc
 50
99.059611529
 51
99.4194042791
  0
ARC
  5
381
100
AcDbEntity
  8
ALL_ASSEMBLY_MEMBERS
100
AcDbCircle
 62
7
  6
CONTINUOUS
 10
5.366251794
 20
5.020847845
 40
0.0974753142
100
AcDbArc
 50
277.5341430975
 51
278.2315381298
  0
ARC
  5
382
100
AcDbEntity
  8
ALL_ASSEMBLY_MEMBERS
100
AcDbCircle
 62
7
  6
CONTINUOUS
 10
5.3806081976
 20
5.0255802523
 40
0.0965352711
100
AcDbArc
 50
287.0065173215
 51
288.1730327444
  0
ARC
  5
383
100
AcDbEntity
  8
ALL_ASSEMBLY_MEMBERS
100
AcDbCircle
 62
7
  6
CONTINUOUS
 10
5.3661093057
 20
5.0145566375
 40
0.0879758678
100
AcDbArc
 50
284.7843793921
 51
285.3575019898
  0
ARC
  5
384
100
AcDbEntity
  8
ALL_ASSEMBLY_MEMBERS
100
AcDbCircle
 62
7
  6
CONTINUOUS
 10
5.3845682779
 20
5.0136876273
 40
0.0840007791
100
AcDbArc
 50
288.1366207819
 51
290.0014878925
  0
ARC
  5
385
100
AcDbEntity
  8
ALL_ASSEMBLY_MEMBERS
100
AcDbCircle
 62
7
  6
CONTINUOUS
 10
5.3694796519
 20
5.0022498555
 40
0.0752159299
100
AcDbArc
 50
285.3646179404
 51
285.9974185758
  0
ARC
  5
386
100
AcDbEntity
  8
ALL_ASSEMBLY_MEMBERS
100
AcDbCircle
 62
7
  6
CONTINUOUS
 10
5.375956688
 20
4.8595711304
 40
0.0683537311
100
AcDbArc
 50
105.3507678237
 51
106.3381571554
  0
ARC
  5
387
100
AcDbEntity
  8
ALL_ASSEMBLY_MEMBERS
100
AcDbCircle
 62
7
  6
CONTINUOUS
 10
5.3644025177
 20
4.9613251583
 40
0.0390210692
100
AcDbArc
 50
273.0440683624
 51
273.9702595985
  0
ARC
  5
388
100
AcDbEntity
  8
ALL_ASSEMBLY_MEMBERS
100
AcDbCircle
 62
7
  6
CONTINUOUS
 10
5.3649530281
 20
4.9511587759
 40
0.0288397991
100
AcDbArc
 50
271.8731313639
 51
273.0244840748
  0
ARC
  5
389
100
AcDbEntity
  8
ALL_ASSEMBLY_MEMBERS
100
AcDbCircle
 62
7
  6
CONTINUOUS
 10
5.3651338802
 20
4.9461575426
 40
0.023835333
100
AcDbArc
 50
271.1370686701
 51
271.8315867819
  0
ARC
  5
38A
100
AcDbEntity
  8
ALL_ASSEMBLY_MEMBERS
100
AcDbCircle
 62
7
  6
CONTINUOUS
 10
5.3534207872
 20
5.4001384354
 40
0.4687526972
100
AcDbArc
 50
280.3370326808
 51
281.0948528978
  0
ARC
  5
38B
100
AcDbEntity
  8
ALL_ASSEMBLY_MEMBERS
100
AcDbCircle
 62
7
  6
CONTINUOUS
 10
5.356526883
 20
5.3989436352
 40
0.4677320532
100
AcDbArc
 50
280.370362768
 51
280.7244664251
  0
ARC
  5
38C
100
AcDbEntity
  8
ALL_ASSEMBLY_MEMBERS
100
AcDbCircle
 62
7
  6
CONTINUOUS
 10
5.3583645181
 20
5.3891301804
 40
0.4577481449
100
AcDbArc
 50
281.0888628554
 51
281.2997525107
  0
ARC
  5
38D
100
AcDbEntity
  8
ALL_ASSEMBLY_MEMBERS
100
AcDbCircle
 62
7
  6
CONTINUOUS
 10
5.3591831144
 20
5.3844020404
 40
0.4529498504
100
AcDbArc
 50
280.0047458843
 51
280.3709694968
  0
ARC
  5
38E
100
AcDbEntity
  8
ALL_ASSEMBLY_MEMBERS
100
AcDbCircle
 62
7
  6
CONTINUOUS
 10
5.3600968356
 20
5.3802207307
 40
0.4486718555
100
AcDbArc
 50
280.7214624325
 51
281.0905983229
  0
ARC
  5
38F
100
AcDbEntity
  8
ALL_ASSEMBLY_MEMBERS
100
AcDbCircle
 62
7
  6
CONTINUOUS
 10
5.3619823631
 20
5.368714385
 40
0.4370144397
100
AcDbArc
 50
279.6177837154
 51
280.0006462851
  0
ARC
  5
390
100
AcDbEntity
  8
ALL_ASSEMBLY_MEMBERS
100
AcDbCircle
 62
7
  6
CONTINUOUS
 10
5.3624705738
 20
5.3656428069
 40
0.4339044686
100
AcDbArc
 50
278.4865540549
 51
279.621987388
  0
ARC
  5
391
100
AcDbEntity
  8
ALL_ASSEMBLY_MEMBERS
100
AcDbCircle
 62
7
  6
CONTINUOUS
 10
5.3635251936
 20
5.3442583984
 40
0.4119665278
100
AcDbArc
 50
279.4913121704
 51
280.3490773755
  0
ARC
  5
392
100
AcDbEntity
  8
ALL_ASSEMBLY_MEMBERS
100
AcDbCircle
 62
7
  6
CONTINUOUS
 10
5.3674240123
 20
5.3332077339
 40
0.4010935433
100
AcDbArc
 50
278.0753797629
 51
278.4704806652
  0
ARC
  5
393
100
AcDbEntity
  8
ALL_ASSEMBLY_MEMBERS
100
AcDbCircle
 62
7
  6
CONTINUOUS
 10
5.3684074581
 20
5.3263240302
 40
0.3941399473
100
AcDbArc
 50
277.6808942293
 51
278.0744057589
  0
ARC
  5
394
100
AcDbEntity
  8
ALL_ASSEMBLY_MEMBERS
100
AcDbCircle
 62
7
  6
CONTINUOUS
 10
5.3708973295
 20
5.3076921806
 40
0.3753424811
100
AcDbArc
 50
276.8808906713
 51
277.6843626508
  0
ARC
  5
395
100
AcDbEntity
  8
ALL_ASSEMBLY_MEMBERS
100
AcDbCircle
 62
7
  6
CONTINUOUS
 10
5.3772108343
 20
5.2955410681
 40
0.3622802736
100
AcDbArc
 50
281.3797740901
 51
281.7230182087
  0
ARC
  5
396
100
AcDbEntity
  8
ALL_ASSEMBLY_MEMBERS
100
AcDbCircle
 62
7
  6
CONTINUOUS
 10
5.3732821934
 20
5.2883963868
 40
0.355899952
100
AcDbArc
 50
276.6157084862
 51
276.8718849857
  0
ARC
  5
397
100
AcDbEntity
  8
ALL_ASSEMBLY_MEMBERS
100
AcDbCircle
 62
7
  6
CONTINUOUS
 10
5.3735141173
 20
5.2864131804
 40
0.3539032316
100
AcDbArc
 50
276.4548967456
 51
276.6154016278
  0
ARC
  5
398
100
AcDbEntity
  8
ALL_ASSEMBLY_MEMBERS
100
AcDbCircle
 62
7
  6
CONTINUOUS
 10
5.3739883333
 20
5.2867570225
 40
0.3535295254
100
AcDbArc
 50
278.3749570013
 51
279.1933124747
  0
ARC
  5
399
100
AcDbEntity
  8
ALL_ASSEMBLY_MEMBERS
100
AcDbCircle
 62
7
  6
CONTINUOUS
 10
5.3658621686
 20
5.2731873893
 40
0.345910193
100
AcDbArc
 50
282.4641051824
 51
282.8391267317
  0
ARC
  5
39A
100
AcDbEntity
  8
ALL_ASSEMBLY_MEMBERS
100
AcDbCircle
 62
7
  6
CONTINUOUS
 10
5.3577751818
 20
5.2275884252
 40
0.3023260464
100
AcDbArc
 50
282.168460287
 51
282.9402274661
  0
ARC
  5
39B
100
AcDbEntity
  8
ALL_ASSEMBLY_MEMBERS
100
AcDbCircle
 62
7
  6
CONTINUOUS
 10
5.3845444739
 20
5.1914634809
 40
0.2620780886
100
AcDbArc
 50
282.8271067946
 51
283.2819256173
  0
ARC
  5
39C
100
AcDbEntity
  8
ALL_ASSEMBLY_MEMBERS
100
AcDbCircle
 62
7
  6
CONTINUOUS
 10
5.390592178
 20
5.1826583045
 40
0.2481153514
100
AcDbArc
 50
279.2489340979
 51
279.4800168966
  0
ARC
  5
39D
100
AcDbEntity
  8
ALL_ASSEMBLY_MEMBERS
100
AcDbCircle
 62
7
  6
CONTINUOUS
 10
5.4013501769
 20
5.180243157
 40
0.2444827732
100
AcDbArc
 50
281.6739163794
 51
282.5764396955
  0
ARC
  5
39E
100
AcDbEntity
  8
ALL_ASSEMBLY_MEMBERS
100
AcDbCircle
 62
7
  6
CONTINUOUS
 10
5.3822342151
 20
5.1203518415
 40
0.1923356811
100
AcDbArc
 50
282.9926830787
 51
283.510459645
  0
ARC
  5
39F
100
AcDbEntity
  8
ALL_ASSEMBLY_MEMBERS
100
AcDbCircle
 62
7
  6
CONTINUOUS
 10
5.3576748915
 20
5.0807784349
 40
0.1580164874
100
AcDbArc
 50
278.1981989393
 51
278.6940949633
  0
ARC
  5
3A0
100
AcDbEntity
  8
ALL_ASSEMBLY_MEMBERS
100
AcDbCircle
 62
7
  6
CONTINUOUS
 10
5.3650572657
 20
5.0822123515
 40
0.1552758816
100
AcDbArc
 50
283.2775570543
 51
283.7941968178
  0
ARC
  5
3A1
100
AcDbEntity
  8
ALL_ASSEMBLY_MEMBERS
100
AcDbCircle
 62
7
  6
CONTINUOUS
 10
5.3534025921
 20
5.0691906401
 40
0.1474594379
100
AcDbArc
 50
276.5787295139
 51
277.378161239
  0
ARC
  5
3A2
100
AcDbEntity
  8
ALL_ASSEMBLY_MEMBERS
100
AcDbCircle
 62
7
  6
CONTINUOUS
 10
5.3680212707
 20
5.0701681537
 40
0.1428723347
100
AcDbArc
 50
283.7914862534
 51
284.3198230472
  0
ARC
  5
3A3
100
AcDbEntity
  8
ALL_ASSEMBLY_MEMBERS
100
AcDbCircle
 62
7
  6
CONTINUOUS
 10
5.3949234954
 20
5.0674212877
 40
0.137905356
100
AcDbArc
 50
283.5219493044
 51
284.1691315481
  0
ARC
  5
3A4
100
AcDbEntity
  8
ALL_ASSEMBLY_MEMBERS
100
AcDbCircle
 62
7
  6
CONTINUOUS
 10
5.4149236146
 20
5.0628526485
 40
0.1299280311
100
AcDbArc
 50
283.2734863974
 51
283.7328630375
  0
ARC
  5
3A5
100
AcDbEntity
  8
ALL_ASSEMBLY_MEMBERS
100
AcDbCircle
 62
7
  6
CONTINUOUS
 10
5.483757944
 20
4.6916964838
 40
0.2537652796
100
AcDbArc
 50
100.7115929789
 51
101.0523566308
  0
ARC
  5
3A6
100
AcDbEntity
  8
ALL_ASSEMBLY_MEMBERS
100
AcDbCircle
 62
7
  6
CONTINUOUS
 10
5.4792221907
 20
4.705070461
 40
0.2413626265
100
AcDbArc
 50
108.0044858079
 51
108.582240597
  0
ARC
  5
3A7
100
AcDbEntity
  8
ALL_ASSEMBLY_MEMBERS
100
AcDbCircle
 62
7
  6
CONTINUOUS
 10
5.4801327869
 20
4.7113626413
 40
0.233768028
100
AcDbArc
 50
99.3005260627
 51
100.7344529679
  0
ARC
  5
3A8
100
AcDbEntity
  8
ALL_ASSEMBLY_MEMBERS
100
AcDbCircle
 62
7
  6
CONTINUOUS
 10
5.4755572384
 20
4.7396997535
 40
0.2050639714
100
AcDbArc
 50
97.8196228305
 51
99.3184758243
  0
ARC
  5
3A9
100
AcDbEntity
  8
ALL_ASSEMBLY_MEMBERS
100
AcDbCircle
 62
7
  6
CONTINUOUS
 10
5.4692118099
 20
4.786737343
 40
0.1576004844
100
AcDbArc
 50
96.9202544516
 51
97.860801994
  0
ARC
  5
3AA
100
AcDbEntity
  8
ALL_ASSEMBLY_MEMBERS
100
AcDbCircle
 62
7
  6
CONTINUOUS
 10
5.4600424936
 20
4.80439813
 40
0.1385799257
100
AcDbArc
 50
103.8401044254
 51
104.9804370843
  0
ARC
  5
3AB
100
AcDbEntity
  8
ALL_ASSEMBLY_MEMBERS
100
AcDbCircle
 62
7
  6
CONTINUOUS
 10
5.4551699371
 20
4.8227032862
 40
0.1196373852
100
AcDbArc
 50
104.9922792387
 51
106.1802988093
  0
ARC
  5
3AC
100
AcDbEntity
  8
ALL_ASSEMBLY_MEMBERS
100
AcDbCircle
 62
7
  6
CONTINUOUS
 10
5.4630706169
 20
4.8373619597
 40
0.106604739
100
AcDbArc
 50
96.3238934845
 51
96.9219712307
  0
ARC
  5
3AD
100
AcDbEntity
  8
ALL_ASSEMBLY_MEMBERS
100
AcDbCircle
 62
7
  6
CONTINUOUS
 10
5.4435795496
 20
4.8596622438
 40
0.0808963189
100
AcDbArc
 50
109.3438455535
 51
110.0001044459
  0
ARC
  5
3AE
100
AcDbEntity
  8
ALL_ASSEMBLY_MEMBERS
100
AcDbCircle
 62
7
  6
CONTINUOUS
 10
5.4353219852
 20
5.0116988932
 40
0.0717316214
100
AcDbArc
 50
283.9171752955
 51
284.7141715537
  0
ARC
  5
3AF
100
AcDbEntity
  8
ALL_ASSEMBLY_MEMBERS
100
AcDbCircle
 62
7
  6
CONTINUOUS
 10
5.441098999
 20
4.9896408567
 40
0.0489296363
100
AcDbArc
 50
284.7318800139
 51
285.7830806906
  0
ARC
  5
3B0
100
AcDbEntity
  8
ALL_ASSEMBLY_MEMBERS
100
AcDbCircle
 62
7
  6
CONTINUOUS
 10
5.4709450091
 20
5.2044096037
 40
0.2602282645
100
AcDbArc
 50
271.728816339
 51
274.3349723759
  0
ARC
  5
3B1
100
AcDbEntity
  8
ALL_ASSEMBLY_MEMBERS
100
AcDbCircle
 62
7
  6
CONTINUOUS
 10
5.4565305349
 20
5.1959608341
 40
0.2546078098
100
AcDbArc
 50
272.5568862287
 51
273.9918102968
  0
ARC
  5
3B2
100
AcDbEntity
  8
ALL_ASSEMBLY_MEMBERS
100
AcDbCircle
 62
7
  6
CONTINUOUS
 10
4.7752035749
 20
8.3395181584
 40
3.416966079
100
AcDbArc
 50
268.4294163006
 51
268.6874244496
  0
ARC
  5
3B3
100
AcDbEntity
  8
ALL_ASSEMBLY_MEMBERS
100
AcDbCircle
 62
7
  6
CONTINUOUS
 10
5.2274183669
 20
7.2071399621
 40
2.2659651997
100
AcDbArc
 50
269.8789391542
 51
270.1210608458
  0
ARC
  5
3B4
100
AcDbEntity
  8
ALL_ASSEMBLY_MEMBERS
100
AcDbCircle
 62
7
  6
CONTINUOUS
 10
5.1800512155
 20
6.956673599
 40
2.029454838
100
AcDbArc
 50
269.864830836
 51
270.135169164
  0
ARC
  5
3B5
100
AcDbEntity
  8
ALL_ASSEMBLY_MEMBERS
100
AcDbCircle
 62
7
  6
CONTINUOUS
 10
5.108615973
 20
6.5302788762
 40
1.6290881542
100
AcDbArc
 50
280.8848518327
 51
281.0222522573
  0
ARC
  5
3B6
100
AcDbEntity
  8
ALL_ASSEMBLY_MEMBERS
100
AcDbCircle
 62
7
  6
CONTINUOUS
 10
5.1163502905
 20
6.4900619154
 40
1.5881342337
100
AcDbArc
 50
280.7446027113
 51
280.8848242681
  0
ARC
  5
3B7
100
AcDbEntity
  8
ALL_ASSEMBLY_MEMBERS
100
AcDbCircle
 62
7
  6
CONTINUOUS
 10
5.1336356747
 20
6.4021528263
 40
1.498542124
100
AcDbArc
 50
281.0198925992
 51
281.1504298229
  0
ARC
  5
3B8
100
AcDbEntity
  8
ALL_ASSEMBLY_MEMBERS
100
AcDbCircle
 62
7
  6
CONTINUOUS
 10
5.1450109562
 20
6.3386872154
 40
1.4340701912
100
AcDbArc
 50
280.2814582006
 51
280.7471127593
  0
ARC
  5
3B9
100
AcDbEntity
  8
ALL_ASSEMBLY_MEMBERS
100
AcDbCircle
 62
7
  6
CONTINUOUS
 10
5.1773371978
 20
6.1806988077
 40
1.272817286
100
AcDbArc
 50
281.1481545213
 51
281.2957876837
  0
ARC
  5
3BA
100
AcDbEntity
  8
ALL_ASSEMBLY_MEMBERS
100
AcDbCircle
 62
7
  6
CONTINUOUS
 10
5.1822138559
 20
6.1344983323
 40
1.2265198833
100
AcDbArc
 50
280.0975841922
 51
280.2459204158
  0
ARC
  5
3BB
100
AcDbEntity
  8
ALL_ASSEMBLY_MEMBERS
100
AcDbCircle
 62
7
  6
CONTINUOUS
 10
5.1992462141
 20
6.0390104758
 40
1.1295248774
100
AcDbArc
 50
279.9116000717
 51
280.0962091363
  0
ARC
  5
3BC
100
AcDbEntity
  8
ALL_ASSEMBLY_MEMBERS
100
AcDbCircle
 62
7
  6
CONTINUOUS
 10
5.1924310756
 20
6.0368317011
 40
1.1283067873
100
AcDbArc
 50
280.9272426605
 51
281.045039477
  0
ARC
  5
3BD
100
AcDbEntity
  8
ALL_ASSEMBLY_MEMBERS
100
AcDbCircle
 62
7
  6
CONTINUOUS
 10
5.2004488133
 20
5.9952539641
 40
1.0859630481
100
AcDbArc
 50
280.8054419709
 51
280.9277283991
  0
ARC
  5
3BE
100
AcDbEntity
  8
ALL_ASSEMBLY_MEMBERS
100
AcDbCircle
 62
7
  6
CONTINUOUS
 10
5.2209564162
 20
5.9626130582
 40
1.0504121907
100
AcDbArc
 50
281.292682152
 51
281.4641666448
  0
ARC
  5
3BF
100
AcDbEntity
  8
ALL_ASSEMBLY_MEMBERS
100
AcDbCircle
 62
7
  6
CONTINUOUS
 10
5.2129326662
 20
5.9607727173
 40
1.0500990279
100
AcDbArc
 50
279.7174868861
 51
279.9107694372
  0
LINE
  5
3C0
100
AcDbEntity
  8
ALL_ASSEMBLY_MEMBERS
100
AcDbLine
 62
7
  6
CONTINUOUS
 10
4.7264331994
 20
3.3356865528
 11
4.7264920439
 21
3.333838626
  0
SPLINE
  5
3C1
100
AcDbEntity
  8
ALL_ASSEMBLY_MEMBERS
100
AcDbSpline
 62
7
  6
CONTINUOUS
 70
0
 71
3
 72
15
 73
11
 74
0
 42
0.0000001
 43
0.0000001
 44
0.0000000001
 40
0.0
 40
0.0
 40
0.0
 40
0.0
 40
0.1271755795
 40
0.2538881444
 40
0.3798617279
 40
0.5051227812
 40
0.629666047
 40
0.7535433581
 40
0.8769058564
 40
1.0
 40
1.0
 40
1.0
 40
1.0
 10
4.820849447
 20
3.3356862776
 30
0.0
 10
4.8198842308
 20
3.3354309701
 30
0.0
 10
4.8179915865
 20
3.3347797037
 30
0.0
 10
4.8153343342
 20
3.333403507
 30
0.0
 10
4.8129212424
 20
3.331657906
 30
0.0
 10
4.8108079088
 20
3.3295835472
 30
0.0
 10
4.8090421932
 20
3.3272265591
 30
0.0
 10
4.8076640098
 20
3.3246404176
 30
0.0
 10
4.8067051811
 20
3.3218838195
 30
0.0
 10
4.8063605221
 20
3.3199704303
 30
0.0
 10
4.8062638617
 20
3.3190089078
 30
0.0
  0
LINE
  5
3C2
100
AcDbEntity
  8
ALL_ASSEMBLY_MEMBERS
100
AcDbLine
 62
7
  6
CONTINUOUS
 10
4.7249115871
 20
3.4015244075
 11
4.7264331618
 21
3.3356862887
  0
SPLINE
  5
3C3
100
AcDbEntity
  8
ALL_ASSEMBLY_MEMBERS
100
AcDbSpline
 62
7
  6
CONTINUOUS
 70
0
 71
3
 72
13
 73
9
 74
0
 42
0.0000001
 43
0.0000001
 44
0.0000000001
 40
0.0
 40
0.0
 40
0.0
 40
0.0
 40
0.3448607498
 40
0.6268723686
 40
0.7441076915
 40
0.8454104304
 40
0.9307236213
 40
1.0
 40
1.0
 40
1.0
 40
1.0
 10
4.7811333593
 20
3.2872493504
 30
0.0
 10
4.7812804851
 20
3.299010852
 30
0.0
 10
4.781569419
 20
3.3203901195
 30
0.0
 10
4.7819900423
 20
3.345766549
 30
0.0
 10
4.782339506
 20
3.3628356125
 30
0.0
 10
4.7825859086
 20
3.3731963928
 30
0.0
 10
4.78283267
 20
3.3819208395
 30
0.0
 10
4.7830155585
 20
3.3871904467
 30
0.0
 10
4.7831111688
 20
3.3895513725
 30
0.0
  0
SPLINE
  5
3C4
100
AcDbEntity
  8
ALL_ASSEMBLY_MEMBERS
100
AcDbSpline
 62
7
  6
CONTINUOUS
 70
0
 71
3
 72
15
 73
11
 74
0
 42
0.0000001
 43
0.0000001
 44
0.0000000001
 40
0.0
 40
0.0
 40
0.0
 40
0.0
 40
0.1271753931
 40
0.253887811
 40
0.3798613105
 40
0.5051223551
 40
0.629665681
 40
0.7535431021
 40
0.8769057337
 40
1.0
 40
1.0
 40
1.0
 40
1.0
 10
4.7264332185
 20
3.3356866344
 30
0.0
 10
4.7273984458
 20
3.3354313235
 30
0.0
 10
4.7292911111
 20
3.3347800444
 30
0.0
 10
4.7319483867
 20
3.3334038137
 30
0.0
 10
4.7343614913
 20
3.331658166
 30
0.0
 10
4.736474825
 20
3.3295837519
 30
0.0
 10
4.738240527
 20
3.3272267034
 30
0.0
 10
4.7396186824
 20
3.3246405004
 30
0.0
 10
4.7405774686
 20
3.3218838438
 30
0.0
 10
4.74092209
 20
3.3199704197
 30
0.0
 10
4.7410187296
 20
3.3190088814
 30
0.0
  0
SPLINE
  5
3C5
100
AcDbEntity
  8
ALL_ASSEMBLY_MEMBERS
100
AcDbSpline
 62
7
  6
CONTINUOUS
 70
0
 71
3
 72
15
 73
11
 74
0
 42
0.0000001
 43
0.0000001
 44
0.0000000001
 40
0.0
 40
0.0
 40
0.0
 40
0.0
 40
0.123101645
 40
0.2464598475
 40
0.3702521612
 40
0.494713821
 40
0.6199297365
 40
0.7459095509
 40
0.872685682
 40
1.0
 40
1.0
 40
1.0
 40
1.0
 10
4.7080940772
 20
3.3581948103
 30
0.0
 10
4.708128641
 20
3.3569187599
 30
0.0
 10
4.708410249
 20
3.3543647023
 30
0.0
 10
4.7094596666
 20
3.3506541448
 30
0.0
 10
4.7111096156
 20
3.3471524327
 30
0.0
 10
4.7133163568
 20
3.3439492771
 30
0.0
 10
4.7160245401
 20
3.3411261291
 30
0.0
 10
4.7191646389
 20
3.3387529858
 30
0.0
 10
4.7226559928
 20
3.3368916525
 30
0.0
 10
4.7251564838
 20
3.3360224839
 30
0.0
 10
4.7264331618
 20
3.3356862887
 30
0.0
  0
LINE
  5
3C6
100
AcDbEntity
  8
ALL_ASSEMBLY_MEMBERS
100
AcDbLine
 62
7
  6
CONTINUOUS
 10
4.8207905648
 20
3.3338386259
 11
4.8208494093
 21
3.3356865528
  0
LINE
  5
3C7
100
AcDbEntity
  8
ALL_ASSEMBLY_MEMBERS
100
AcDbLine
 62
7
  6
CONTINUOUS
 10
4.8208494469
 20
3.3356862887
 11
4.8223710216
 21
3.4015244076
  0
SPLINE
  5
3C8
100
AcDbEntity
  8
ALL_ASSEMBLY_MEMBERS
100
AcDbSpline
 62
7
  6
CONTINUOUS
 70
0
 71
3
 72
13
 73
9
 74
0
 42
0.0000001
 43
0.0000001
 44
0.0000000001
 40
0.0
 40
0.0
 40
0.0
 40
0.0
 40
0.0692763683
 40
0.1545895696
 40
0.2558923111
 40
0.3731276312
 40
0.6551392501
 40
1.0
 40
1.0
 40
1.0
 40
1.0
 10
4.7641714399
 20
3.3895513725
 30
0.0
 10
4.7642670502
 20
3.3871904471
 30
0.0
 10
4.7644499388
 20
3.3819208398
 30
0.0
 10
4.7646967001
 20
3.373196393
 30
0.0
 10
4.7649431026
 20
3.3628356124
 30
0.0
 10
4.7652925664
 20
3.3457665489
 30
0.0
 10
4.7657131897
 20
3.3203901195
 30
0.0
 10
4.7660021236
 20
3.299010852
 30
0.0
 10
4.7661492494
 20
3.2872493504
 30
0.0
  0
SPLINE
  5
3C9
100
AcDbEntity
  8
ALL_ASSEMBLY_MEMBERS
100
AcDbSpline
 62
7
  6
CONTINUOUS
 70
0
 71
3
 72
15
 73
11
 74
0
 42
0.0000001
 43
0.0000001
 44
0.0000000001
 40
0.0
 40
0.0
 40
0.0
 40
0.0
 40
0.1261708314
 40
0.2404505004
 40
0.3483061137
 40
0.4561905806
 40
0.5705402027
 40
0.6967971184
 40
0.8390098734
 40
1.0
 40
1.0
 40
1.0
 40
1.0
 10
4.7544097973
 20
3.401443898
 30
0.0
 10
4.7551419826
 20
3.4014438947
 30
0.0
 10
4.7565419647
 20
3.401340297
 30
0.0
 10
4.758503486
 20
3.4007903743
 30
0.0
 10
4.7601905159
 20
3.3998419474
 30
0.0
 10
4.761582833
 20
3.3984973052
 30
0.0
 10
4.7626729657
 20
3.3967746171
 30
0.0
 10
4.763469395
 20
3.3946882904
 30
0.0
 10
4.7639838193
 20
3.3922419091
 30
0.0
 10
4.7641336309
 20
3.3904848532
 30
0.0
 10
4.7641714399
 20
3.3895513725
 30
0.0
  0
SPLINE
  5
3CA
100
AcDbEntity
  8
ALL_ASSEMBLY_MEMBERS
100
AcDbSpline
 62
7
  6
CONTINUOUS
 70
0
 71
3
 72
15
 73
11
 74
0
 42
0.0000001
 43
0.0000001
 44
0.0000000001
 40
0.0
 40
0.0
 40
0.0
 40
0.0
 40
0.160990062
 40
0.3032028325
 40
0.4294597587
 40
0.543809383
 40
0.6516938689
 40
0.7595495031
 40
0.8738291726
 40
1.0
 40
1.0
 40
1.0
 40
1.0
 10
4.7831111688
 20
3.3895513725
 30
0.0
 10
4.7831489795
 20
3.3904848528
 30
0.0
 10
4.7832987925
 20
3.3922419081
 30
0.0
 10
4.7838132152
 20
3.3946882894
 30
0.0
 10
4.784609642
 20
3.3967746171
 30
0.0
 10
4.7856997747
 20
3.3984973056
 30
0.0
 10
4.7870920925
 20
3.3998419475
 30
0.0
 10
4.7887791228
 20
3.4007903741
 30
0.0
 10
4.790740644
 20
3.4013402971
 30
0.0
 10
4.7921406261
 20
3.4014438948
 30
0.0
 10
4.7928728114
 20
3.401443898
 30
0.0
  0
SPLINE
  5
3CB
100
AcDbEntity
  8
ALL_ASSEMBLY_MEMBERS
100
AcDbSpline
 62
7
  6
CONTINUOUS
 70
0
 71
3
 72
15
 73
11
 74
0
 42
0.0000001
 43
0.0000001
 44
0.0000000001
 40
0.0
 40
0.0
 40
0.0
 40
0.0
 40
0.1231016266
 40
0.2464598241
 40
0.37025214
 40
0.4947138089
 40
0.6199297357
 40
0.7459095597
 40
0.8726856903
 40
1.0
 40
1.0
 40
1.0
 40
1.0
 10
4.8391885288
 20
3.3581948817
 30
0.0
 10
4.8391539601
 20
3.3569188374
 30
0.0
 10
4.838872342
 20
3.3543647927
 30
0.0
 10
4.8378229098
 20
3.3506542575
 30
0.0
 10
4.8361729478
 20
3.3471525706
 30
0.0
 10
4.833966197
 20
3.3439494427
 30
0.0
 10
4.8312580089
 20
3.3411263234
 30
0.0
 10
4.8281179113
 20
3.3387532079
 30
0.0
 10
4.8246265648
 20
3.336891899
 30
0.0
 10
4.8221260824
 20
3.3360227431
 30
0.0
 10
4.8208494093
 20
3.3356865528
 30
0.0
  0
SPLINE
  5
3CC
100
AcDbEntity
  8
ALL_ASSEMBLY_MEMBERS
100
AcDbSpline
 62
7
  6
CONTINUOUS
 70
0
 71
3
 72
17
 73
13
 74
0
 42
0.0000001
 43
0.0000001
 44
0.0000000001
 40
0.0
 40
0.0
 40
0.0
 40
0.0
 40
0.1273618811
 40
0.1910247653
 40
0.2545226603
 40
0.3808358663
 40
0.5062794887
 40
0.5687160896
 40
0.630917955
 40
0.7545113262
 40
0.8774418896
 40
1.0
 40
1.0
 40
1.0
 40
1.0
 10
4.7811333593
 20
3.2872493474
 30
0.0
 10
4.7827554187
 20
3.2872452445
 30
0.0
 10
4.785196891
 20
3.2874685796
 30
0.0
 10
4.7883548297
 20
3.2882152902
 30
0.0
 10
4.791416638
 20
3.2892520657
 30
0.0
 10
4.7950220862
 20
3.2910765689
 30
0.0
 10
4.798202686
 20
3.2935484707
 30
0.0
 10
4.8004087103
 20
3.2958521236
 30
0.0
 10
4.8023633198
 20
3.2983424034
 30
0.0
 10
4.8043225044
 20
3.3017843652
 30
0.0
 10
4.805795004
 20
3.3062798272
 30
0.0
 10
4.806153196
 20
3.3094114219
 30
0.0
 10
4.8061727152
 20
3.3109721842
 30
0.0
  0
SPLINE
  5
3CD
100
AcDbEntity
  8
ALL_ASSEMBLY_MEMBERS
100
AcDbSpline
 62
7
  6
CONTINUOUS
 70
0
 71
3
 72
17
 73
13
 74
0
 42
0.0000001
 43
0.0000001
 44
0.0000000001
 40
0.0
 40
0.0
 40
0.0
 40
0.0
 40
0.1273618739
 40
0.1910247547
 40
0.2545226473
 40
0.3808358527
 40
0.5062794785
 40
0.5687160818
 40
0.63091795
 40
0.754511327
 40
0.8774418928
 40
1.0
 40
1.0
 40
1.0
 40
1.0
 10
4.7661492492
 20
3.2872494563
 30
0.0
 10
4.7645271945
 20
3.2872453535
 30
0.0
 10
4.7620857294
 20
3.2874686871
 30
0.0
 10
4.7589277992
 20
3.2882153929
 30
0.0
 10
4.7558659984
 20
3.2892521619
 30
0.0
 10
4.7522605576
 20
3.2910766539
 30
0.0
 10
4.7490799614
 20
3.2935485415
 30
0.0
 10
4.7468739371
 20
3.295852182
 30
0.0
 10
4.7449193259
 20
3.2983424492
 30
0.0
 10
4.7429601356
 20
3.3017843948
 30
0.0
 10
4.7414876239
 20
3.3062798387
 30
0.0
 10
4.7411294204
 20
3.3094114229
 30
0.0
 10
4.7411098948
 20
3.3109721807
 30
0.0
  0
SPLINE
  5
3CE
100
AcDbEntity
  8
ALL_ASSEMBLY_MEMBERS
100
AcDbSpline
 62
7
  6
CONTINUOUS
 70
0
 71
3
 72
19
 73
15
 74
0
 42
0.0000001
 43
0.0000001
 44
0.0000000001
 40
0.0
 40
0.0
 40
0.0
 40
0.0
 40
0.1249158798
 40
0.1874766357
 40
0.2500078059
 40
0.3749226349
 40
0.4998388355
 40
0.5623760549
 40
0.624922107
 40
0.6874570601
 40
0.7499641082
 40
0.8124888753
 40
0.8750775682
 40
1.0
 40
1.0
 40
1.0
 40
1.0
 10
4.783640789
 20
4.871443898
 30
0.0
 10
4.783640789
 20
4.8720975869
 30
0.0
 10
4.7835436746
 20
4.8730821794
 30
0.0
 10
4.7832252544
 20
4.8743526886
 30
0.0
 10
4.782783797
 20
4.8755862962
 30
0.0
 10
4.7820079348
 20
4.8770377022
 30
0.0
 10
4.780963159
 20
4.8783094548
 30
0.0
 10
4.7799922455
 20
4.8791889168
 30
0.0
 10
4.7792021887
 20
4.8797745652
 30
0.0
 10
4.7783587326
 20
4.8802798932
 30
0.0
 10
4.777469375
 20
4.8806989149
 30
0.0
 10
4.7765428346
 20
4.8810287698
 30
0.0
 10
4.7752731273
 20
4.8813493946
 30
0.0
 10
4.7742887942
 20
4.8814536188
 30
0.0
 10
4.7736350711
 20
4.8814536188
 30
0.0
  0
SPLINE
  5
3CF
100
AcDbEntity
  8
ALL_ASSEMBLY_MEMBERS
100
AcDbSpline
 62
7
  6
CONTINUOUS
 70
0
 71
3
 72
19
 73
15
 74
0
 42
0.0000001
 43
0.0000001
 44
0.0000000001
 40
0.0
 40
0.0
 40
0.0
 40
0.0
 40
0.1249852322
 40
0.1876498082
 40
0.2502234468
 40
0.3127340834
 40
0.3752485557
 40
0.4377807889
 40
0.5003042382
 40
0.6251763742
 40
0.750059398
 40
0.8125725634
 40
0.8751106733
 40
1.0
 40
1.0
 40
1.0
 40
1.0
 10
4.7736350711
 20
4.8814536188
 30
0.0
 10
4.7729815269
 20
4.8814536188
 30
0.0
 10
4.7719970804
 20
4.8813494469
 30
0.0
 10
4.7707281032
 20
4.8810258692
 30
0.0
 10
4.7698024795
 20
4.8806938217
 30
0.0
 10
4.7689140793
 20
4.8802742512
 30
0.0
 10
4.768071744
 20
4.8797688304
 30
0.0
 10
4.7672831041
 20
4.8791829697
 30
0.0
 10
4.7663139949
 20
4.8783036003
 30
0.0
 10
4.7652712876
 20
4.8770324415
 30
0.0
 10
4.7644970347
 20
4.8755822096
 30
0.0
 10
4.7640565196
 20
4.8743497546
 30
0.0
 10
4.7637386835
 20
4.8730805128
 30
0.0
 10
4.7636418197
 20
4.8720969407
 30
0.0
 10
4.7636418197
 20
4.871443898
 30
0.0
  0
SPLINE
  5
3D0
100
AcDbEntity
  8
ALL_ASSEMBLY_MEMBERS
100
AcDbSpline
 62
7
  6
CONTINUOUS
 70
0
 71
3
 72
19
 73
15
 74
0
 42
0.0000001
 43
0.0000001
 44
0.0000000001
 40
0.0
 40
0.0
 40
0.0
 40
0.0
 40
0.1248897374
 40
0.1874284864
 40
0.2499423405
 40
0.3748263175
 40
0.4996987803
 40
0.5622219563
 40
0.6247539668
 40
0.6872683074
 40
0.7497784126
 40
0.8123512284
 40
0.8750150897
 40
1.0
 40
1.0
 40
1.0
 40
1.0
 10
4.7636418197
 20
4.791443898
 30
0.0
 10
4.7636418197
 20
4.7907908509
 30
0.0
 10
4.7637386851
 20
4.7898072698
 30
0.0
 10
4.7640565276
 20
4.7885380155
 30
0.0
 10
4.7644970518
 20
4.7873055462
 30
0.0
 10
4.7652713215
 20
4.7858553046
 30
0.0
 10
4.7663140441
 20
4.7845841443
 30
0.0
 10
4.7672831621
 20
4.7837047788
 30
0.0
 10
4.7680718075
 20
4.7831189256
 30
0.0
 10
4.7689141408
 20
4.782613504
 30
0.0
 10
4.769802541
 20
4.7821939426
 30
0.0
 10
4.770728164
 20
4.7818619149
 30
0.0
 10
4.7719971398
 20
4.7815383551
 30
0.0
 10
4.7729815833
 20
4.7814341801
 30
0.0
 10
4.7736351281
 20
4.7814341801
 30
0.0
  0
SPLINE
  5
3D1
100
AcDbEntity
  8
ALL_ASSEMBLY_MEMBERS
100
AcDbSpline
 62
7
  6
CONTINUOUS
 70
0
 71
3
 72
19
 73
15
 74
0
 42
0.0000001
 43
0.0000001
 44
0.0000000001
 40
0.0
 40
0.0
 40
0.0
 40
0.0
 40
0.1249225465
 40
0.1875115499
 40
0.2500366903
 40
0.3125439719
 40
0.3750791332
 40
0.4376254688
 40
0.5001629066
 40
0.625079081
 40
0.7499938268
 40
0.8125248195
 40
0.8750850005
 40
1.0
 40
1.0
 40
1.0
 40
1.0
 10
4.7736351281
 20
4.7814341801
 30
0.0
 10
4.7742888495
 20
4.7814341801
 30
0.0
 10
4.7752731819
 20
4.7815384039
 30
0.0
 10
4.7765428855
 20
4.7818590421
 30
0.0
 10
4.7774694234
 20
4.782188907
 30
0.0
 10
4.7783587816
 20
4.782607929
 30
0.0
 10
4.7792022354
 20
4.7831132614
 30
0.0
 10
4.7799922898
 20
4.7836989136
 30
0.0
 10
4.7809631946
 20
4.7845783818
 30
0.0
 10
4.7820079628
 20
4.7858501332
 30
0.0
 10
4.7827838139
 20
4.7873015372
 30
0.0
 10
4.7832252617
 20
4.7885351383
 30
0.0
 10
4.7835436802
 20
4.7898056343
 30
0.0
 10
4.783640789
 20
4.7907902161
 30
0.0
 10
4.783640789
 20
4.791443898
 30
0.0
  0
LINE
  5
3D2
100
AcDbEntity
  8
ALL_ASSEMBLY_MEMBERS
100
AcDbLine
 62
7
  6
CONTINUOUS
 10
4.1966635929
 20
4.9260280009
 11
4.197237229
 21
4.926163329
  0
SPLINE
  5
3D3
100
AcDbEntity
  8
ALL_ASSEMBLY_MEMBERS
100
AcDbSpline
 62
7
  6
CONTINUOUS
 70
0
 71
3
 72
9
 73
5
 74
0
 42
0.0000001
 43
0.0000001
 44
0.0000000001
 40
0.0
 40
0.0
 40
0.0
 40
0.0
 40
0.2133923638
 40
1.0
 40
1.0
 40
1.0
 40
1.0
 10
4.0967963069
 20
4.9413535292
 30
0.0
 10
4.0967955025
 20
4.9413490185
 30
0.0
 10
4.0967951443
 20
4.9413271627
 30
0.0
 10
4.0968077627
 20
4.9413074543
 30
0.0
 10
4.0968185063
 20
4.9412944223
 30
0.0
  0
SPLINE
  5
3D4
100
AcDbEntity
  8
ALL_ASSEMBLY_MEMBERS
100
AcDbSpline
 62
7
  6
CONTINUOUS
 70
0
 71
3
 72
9
 73
5
 74
0
 42
0.0000001
 43
0.0000001
 44
0.0000000001
 40
0.0
 40
0.0
 40
0.0
 40
0.0
 40
0.1771147896
 40
1.0
 40
1.0
 40
1.0
 40
1.0
 10
4.0705548188
 20
4.9426337895
 30
0.0
 10
4.0705543333
 20
4.9426310485
 30
0.0
 10
4.0705563378
 20
4.9426147896
 30
0.0
 10
4.0705705878
 20
4.9426040001
 30
0.0
 10
4.0705808984
 20
4.9425961928
 30
0.0
  0
LINE
  5
3D5
100
AcDbEntity
  8
ALL_ASSEMBLY_MEMBERS
100
AcDbLine
 62
7
  6
CONTINUOUS
 10
5.3641053473
 20
4.9225028477
 11
5.3643159482
 21
4.9227065493
  0
LINE
  5
3D6
100
AcDbEntity
  8
ALL_ASSEMBLY_MEMBERS
100
AcDbLine
 62
7
  6
CONTINUOUS
 10
5.3643159482
 20
4.9227065493
 11
5.3644856589
 21
4.9227877419
  0
LINE
  5
3D7
100
AcDbEntity
  8
ALL_ASSEMBLY_MEMBERS
100
AcDbLine
 62
7
  6
CONTINUOUS
 10
5.3759648531
 20
4.924021233
 11
5.3762150695
 21
4.9239582229
  0
LINE
  5
3D8
100
AcDbEntity
  8
ALL_ASSEMBLY_MEMBERS
100
AcDbLine
 62
7
  6
CONTINUOUS
 10
5.3762150695
 20
4.9239582229
 11
5.3766059263
 21
4.923962516
  0
LINE
  5
3D9
100
AcDbEntity
  8
ALL_ASSEMBLY_MEMBERS
100
AcDbLine
 62
7
  6
CONTINUOUS
 10
5.3535732791
 20
4.9238429532
 11
5.3540982501
 21
4.9236431275
  0
LINE
  5
3DA
100
AcDbEntity
  8
ALL_ASSEMBLY_MEMBERS
100
AcDbLine
 62
7
  6
CONTINUOUS
 10
5.3540982501
 20
4.9236431275
 11
5.3544914548
 21
4.9236132078
  0
SPLINE
  5
3DB
100
AcDbEntity
  8
ALL_ASSEMBLY_MEMBERS
100
AcDbSpline
 62
7
  6
CONTINUOUS
 70
0
 71
3
 72
14
 73
10
 74
0
 42
0.0000001
 43
0.0000001
 44
0.0000000001
 40
0.0
 40
0.0
 40
0.0
 40
0.0
 40
0.0919719212
 40
0.1729260528
 40
0.2818078556
 40
0.4194192113
 40
0.5854024378
 40
0.7791626113
 40
1.0
 40
1.0
 40
1.0
 40
1.0
 10
5.3461760455
 20
4.9229116017
 30
0.0
 10
5.346157829
 20
4.9230135853
 30
0.0
 10
5.3463133336
 20
4.9231956606
 30
0.0
 10
5.3465625301
 20
4.9233682795
 30
0.0
 10
5.3468897871
 20
4.9235506616
 30
0.0
 10
5.3473098728
 20
4.9237449972
 30
0.0
 10
5.347828783
 20
4.923958322
 30
0.0
 10
5.3484414897
 20
4.9241865121
 30
0.0
 10
5.3488831019
 20
4.9243387271
 30
0.0
 10
5.3491190222
 20
4.9244175913
 30
0.0
  0
SPLINE
  5
3DC
100
AcDbEntity
  8
ALL_ASSEMBLY_MEMBERS
100
AcDbSpline
 62
7
  6
CONTINUOUS
 70
0
 71
3
 72
15
 73
11
 74
0
 42
0.0000001
 43
0.0000001
 44
0.0000000001
 40
0.0
 40
0.0
 40
0.0
 40
0.0
 40
0.2030676504
 40
0.3783997832
 40
0.52723084
 40
0.6521482438
 40
0.757043909
 40
0.8464644111
 40
0.9256294535
 40
1.0
 40
1.0
 40
1.0
 40
1.0
 10
4.8012863094
 20
4.941478297
 30
0.0
 10
4.8021811926
 20
4.9412144204
 30
0.0
 10
4.8038365179
 20
4.9406788171
 30
0.0
 10
4.8060861408
 20
4.9397741914
 30
0.0
 10
4.8079270844
 20
4.9388346181
 30
0.0
 10
4.8093771956
 20
4.9378643043
 30
0.0
 10
4.8104631909
 20
4.9368678398
 30
0.0
 10
4.8112117111
 20
4.9358460156
 30
0.0
 10
4.8116417359
 20
4.9348031197
 30
0.0
 10
4.8117311382
 20
4.9340940688
 30
0.0
 10
4.8117311382
 20
4.9337523795
 30
0.0
  0
SPLINE
  5
3DD
100
AcDbEntity
  8
ALL_ASSEMBLY_MEMBERS
100
AcDbSpline
 62
7
  6
CONTINUOUS
 70
0
 71
3
 72
11
 73
7
 74
0
 42
0.0000001
 43
0.0000001
 44
0.0000000001
 40
0.0
 40
0.0
 40
0.0
 40
0.0
 40
0.3022403325
 40
0.5775276522
 40
0.8107886133
 40
1.0
 40
1.0
 40
1.0
 40
1.0
 10
4.7764923968
 20
4.9444926137
 30
0.0
 10
4.7790149061
 20
4.9444473297
 30
0.0
 10
4.7838342278
 20
4.9442647714
 30
0.0
 10
4.7905787367
 20
4.9436552779
 30
0.0
 10
4.7963370576
 20
4.9427491119
 30
0.0
 10
4.7997713784
 20
4.9419250087
 30
0.0
 10
4.8012863094
 20
4.941478297
 30
0.0
  0
SPLINE
  5
3DE
100
AcDbEntity
  8
ALL_ASSEMBLY_MEMBERS
100
AcDbSpline
 62
7
  6
CONTINUOUS
 70
0
 71
3
 72
15
 73
11
 74
0
 42
0.0000001
 43
0.0000001
 44
0.0000000001
 40
0.0
 40
0.0
 40
0.0
 40
0.0
 40
0.2042422148
 40
0.3802645833
 40
0.5293329582
 40
0.6540908311
 40
0.7585278888
 40
0.8473369137
 40
0.9259364583
 40
1.0
 40
1.0
 40
1.0
 40
1.0
 10
4.8869519646
 20
4.9430297015
 30
0.0
 10
4.8878460748
 20
4.9427886483
 30
0.0
 10
4.8894997193
 20
4.9422962521
 30
0.0
 10
4.8917491087
 20
4.9414527043
 30
0.0
 10
4.8935900607
 20
4.9405663795
 30
0.0
 10
4.8950405727
 20
4.9396415687
 30
0.0
 10
4.8961274256
 20
4.9386830051
 30
0.0
 10
4.8968771032
 20
4.9376914674
 30
0.0
 10
4.8973077193
 20
4.9366715415
 30
0.0
 10
4.8973966128
 20
4.9359755562
 30
0.0
 10
4.8973966128
 20
4.935639752
 30
0.0
  0
SPLINE
  5
3DF
100
AcDbEntity
  8
ALL_ASSEMBLY_MEMBERS
100
AcDbSpline
 62
7
  6
CONTINUOUS
 70
0
 71
3
 72
11
 73
7
 74
0
 42
0.0000001
 43
0.0000001
 44
0.0000000001
 40
0.0
 40
0.0
 40
0.0
 40
0.0
 40
0.3003623707
 40
0.5784224241
 40
0.8137223156
 40
1.0
 40
1.0
 40
1.0
 40
1.0
 10
4.8585951929
 20
4.9454330197
 30
0.0
 10
4.8614520685
 20
4.9454939499
 30
0.0
 10
4.8669571799
 20
4.9455045477
 30
0.0
 10
4.8746930056
 20
4.9451050071
 30
0.0
 10
4.8813081217
 20
4.9443144672
 30
0.0
 10
4.8852408885
 20
4.9434910099
 30
0.0
 10
4.8869519646
 20
4.9430297015
 30
0.0
  0
SPLINE
  5
3E0
100
AcDbEntity
  8
ALL_ASSEMBLY_MEMBERS
100
AcDbSpline
 62
7
  6
CONTINUOUS
 70
0
 71
3
 72
11
 73
7
 74
0
 42
0.0000001
 43
0.0000001
 44
0.0000000001
 40
0.0
 40
0.0
 40
0.0
 40
0.0
 40
0.1802871637
 40
0.4139162409
 40
0.6953638131
 40
1.0
 40
1.0
 40
1.0
 40
1.0
 10
4.8292834161
 20
4.9415019934
 30
0.0
 10
4.8309652748
 20
4.9420956186
 30
0.0
 10
4.8349217919
 20
4.9431900809
 30
0.0
 10
4.8417083409
 20
4.9443612073
 30
0.0
 10
4.8497866779
 20
4.9451337804
 30
0.0
 10
4.8555821697
 20
4.9453687592
 30
0.0
 10
4.8585951929
 20
4.9454330197
 30
0.0
  0
SPLINE
  5
3E1
100
AcDbEntity
  8
ALL_ASSEMBLY_MEMBERS
100
AcDbSpline
 62
7
  6
CONTINUOUS
 70
0
 71
3
 72
15
 73
11
 74
0
 42
0.0000001
 43
0.0000001
 44
0.0000000001
 40
0.0
 40
0.0
 40
0.0
 40
0.0
 40
0.0761090114
 40
0.1577363418
 40
0.2501863951
 40
0.3580904963
 40
0.484949244
 40
0.6334453134
 40
0.8050185096
 40
1.0
 40
1.0
 40
1.0
 40
1.0
 10
4.8192058692
 20
4.9334794691
 30
0.0
 10
4.8192058692
 20
4.9338241282
 30
0.0
 10
4.8193011514
 20
4.9345419794
 30
0.0
 10
4.8197442139
 20
4.9355971511
 30
0.0
 10
4.8205015755
 20
4.9366368406
 30
0.0
 10
4.8215835729
 20
4.9376583697
 30
0.0
 10
4.8230030317
 20
4.9386644854
 30
0.0
 10
4.8247732832
 20
4.9396516223
 30
0.0
 10
4.8268982767
 20
4.9406177545
 30
0.0
 10
4.8284507862
 20
4.9412081101
 30
0.0
 10
4.8292834161
 20
4.9415019934
 30
0.0
  0
LINE
  5
3E2
100
AcDbEntity
  8
ALL_ASSEMBLY_MEMBERS
100
AcDbLine
 62
7
  6
CONTINUOUS
 10
5.1752634377
 20
4.9272244085
 11
5.2226305892
 21
4.9411798205
  0
LINE
  5
3E3
100
AcDbEntity
  8
ALL_ASSEMBLY_MEMBERS
100
AcDbLine
 62
7
  6
CONTINUOUS
 10
5.4012938608
 20
4.9337350288
 11
5.402308243
 21
4.933850185
  0
SPLINE
  5
3E4
100
AcDbEntity
  8
ALL_ASSEMBLY_MEMBERS
100
AcDbSpline
 62
7
  6
CONTINUOUS
 70
0
 71
3
 72
9
 73
5
 74
0
 42
0.0000001
 43
0.0000001
 44
0.0000000001
 40
0.0
 40
0.0
 40
0.0
 40
0.0
 40
0.2502637747
 40
1.0
 40
1.0
 40
1.0
 40
1.0
 10
5.3661951223
 20
4.9284744698
 30
0.0
 10
5.3676626491
 20
4.9287600877
 30
0.0
 10
5.3735321567
 20
4.9298721175
 30
0.0
 10
5.3794257887
 20
4.9308595721
 30
0.0
 10
5.3838575036
 20
4.9315078899
 30
0.0
  0
SPLINE
  5
3E5
100
AcDbEntity
  8
ALL_ASSEMBLY_MEMBERS
100
AcDbSpline
 62
7
  6
CONTINUOUS
 70
0
 71
3
 72
11
 73
7
 74
0
 42
0.0000001
 43
0.0000001
 44
0.0000000001
 40
0.0
 40
0.0
 40
0.0
 40
0.0
 40
0.169669996
 40
0.3986509609
 40
0.6812491954
 40
1.0
 40
1.0
 40
1.0
 40
1.0
 10
5.3491190222
 20
4.9244175913
 30
0.0
 10
5.3500609671
 20
4.9247324678
 30
0.0
 10
5.3523000538
 20
4.9253942009
 30
0.0
 10
5.3561677038
 20
4.926367781
 30
0.0
 10
5.3609127735
 20
4.9274227087
 30
0.0
 10
5.364363647
 20
4.9281180183
 30
0.0
 10
5.3661951223
 20
4.9284744698
 30
0.0
  0
SPLINE
  5
3E6
100
AcDbEntity
  8
ALL_ASSEMBLY_MEMBERS
100
AcDbSpline
 62
7
  6
CONTINUOUS
 70
0
 71
3
 72
13
 73
9
 74
0
 42
0.0000001
 43
0.0000001
 44
0.0000000001
 40
0.0
 40
0.0
 40
0.0
 40
0.0
 40
0.3845096797
 40
0.5455663852
 40
0.6838890882
 40
0.798320162
 40
0.8882764494
 40
1.0
 40
1.0
 40
1.0
 40
1.0
 10
5.4616408066
 20
4.9447497589
 30
0.0
 10
5.4618815825
 20
4.9447399136
 30
0.0
 10
5.4622230096
 20
4.9447207347
 30
0.0
 10
5.4626495939
 20
4.9446744898
 30
0.0
 10
5.4629051596
 20
4.9446350342
 30
0.0
 10
5.4631171688
 20
4.9445861457
 30
0.0
 10
5.4632979073
 20
4.9445250891
 30
0.0
 10
5.4634256418
 20
4.944443165
 30
0.0
 10
5.4634385725
 20
4.9443743508
 30
0.0
  0
SPLINE
  5
3E7
100
AcDbEntity
  8
ALL_ASSEMBLY_MEMBERS
100
AcDbSpline
 62
7
  6
CONTINUOUS
 70
0
 71
3
 72
11
 73
7
 74
0
 42
0.0000001
 43
0.0000001
 44
0.0000000001
 40
0.0
 40
0.0
 40
0.0
 40
0.0
 40
0.3421458439
 40
0.623339807
 40
0.8400382602
 40
1.0
 40
1.0
 40
1.0
 40
1.0
 10
5.4473990837
 20
4.9435161451
 30
0.0
 10
5.4489156018
 20
4.9437265964
 30
0.0
 10
5.4516818067
 20
4.9440866617
 30
0.0
 10
5.4554198484
 20
4.9444881796
 30
0.0
 10
5.4583556634
 20
4.9447108539
 30
0.0
 10
5.4600411244
 20
4.9447687392
 30
0.0
 10
5.4607569278
 20
4.9447674311
 30
0.0
  0
LINE
  5
3E8
100
AcDbEntity
  8
ALL_ASSEMBLY_MEMBERS
100
AcDbLine
 62
7
  6
CONTINUOUS
 10
5.4607569278
 20
4.9447674311
 11
5.4616408066
 21
4.9447497589
  0
SPLINE
  5
3E9
100
AcDbEntity
  8
ALL_ASSEMBLY_MEMBERS
100
AcDbSpline
 62
7
  6
CONTINUOUS
 70
0
 71
3
 72
9
 73
5
 74
0
 42
0.0000001
 43
0.0000001
 44
0.0000000001
 40
0.0
 40
0.0
 40
0.0
 40
0.0
 40
0.2554495031
 40
1.0
 40
1.0
 40
1.0
 40
1.0
 10
5.4260789901
 20
4.9399402109
 30
0.0
 10
5.427885862
 20
4.9402924606
 30
0.0
 10
5.4349675827
 20
4.9416275829
 30
0.0
 10
5.4420844388
 20
4.9427786173
 30
0.0
 10
5.4473990837
 20
4.9435161451
 30
0.0
  0
LINE
  5
3EA
100
AcDbEntity
  8
ALL_ASSEMBLY_MEMBERS
100
AcDbLine
 62
7
  6
CONTINUOUS
 10
5.414009596
 20
4.9373386366
 11
5.4260789901
 21
4.9399402109
  0
LINE
  5
3EB
100
AcDbEntity
  8
ALL_ASSEMBLY_MEMBERS
100
AcDbLine
 62
7
  6
CONTINUOUS
 10
5.4046190656
 20
4.9346141196
 11
5.414009596
 21
4.9373386366
  0
LINE
  5
3EC
100
AcDbEntity
  8
ALL_ASSEMBLY_MEMBERS
100
AcDbLine
 62
7
  6
CONTINUOUS
 10
5.4286806656
 20
4.9337113753
 11
5.4311358034
 21
4.9344037258
  0
SPLINE
  5
3ED
100
AcDbEntity
  8
ALL_ASSEMBLY_MEMBERS
100
AcDbSpline
 62
7
  6
CONTINUOUS
 70
0
 71
3
 72
14
 73
10
 74
0
 42
0.0000001
 43
0.0000001
 44
0.0000000001
 40
0.0
 40
0.0
 40
0.0
 40
0.0
 40
0.4480549256
 40
0.6089975636
 40
0.7351824553
 40
0.8317555282
 40
0.9036149401
 40
0.9568736767
 40
1.0
 40
1.0
 40
1.0
 40
1.0
 10
5.4311358034
 20
4.9344037258
 30
0.0
 10
5.4314322903
 20
4.9345008359
 30
0.0
 10
5.4318331105
 20
4.9346412499
 30
0.0
 10
5.4323012219
 20
4.9348491731
 30
0.0
 10
5.432537214
 20
4.9349750395
 30
0.0
 10
5.432707897
 20
4.9350898965
 30
0.0
 10
5.4328210531
 20
4.935196182
 30
0.0
 10
5.4328839541
 20
4.9352978953
 30
0.0
 10
5.4328905782
 20
4.9353679411
 30
0.0
 10
5.432885157
 20
4.935397477
 30
0.0
  0
LINE
  5
3EE
100
AcDbEntity
  8
ALL_ASSEMBLY_MEMBERS
100
AcDbLine
 62
7
  6
CONTINUOUS
 10
5.4085927453
 20
4.9294246672
 11
5.4192041619
 21
4.9315655544
  0
LINE
  5
3EF
100
AcDbEntity
  8
ALL_ASSEMBLY_MEMBERS
100
AcDbLine
 62
7
  6
CONTINUOUS
 10
5.3766059263
 20
4.923962516
 11
5.3790324629
 21
4.9242140445
  0
LINE
  5
3F0
100
AcDbEntity
  8
ALL_ASSEMBLY_MEMBERS
100
AcDbLine
 62
7
  6
CONTINUOUS
 10
5.3800344068
 20
4.9257330343
 11
5.3804107826
 21
4.9256698442
  0
LINE
  5
3F1
100
AcDbEntity
  8
ALL_ASSEMBLY_MEMBERS
100
AcDbLine
 62
7
  6
CONTINUOUS
 10
5.3761973175
 20
4.9252773194
 11
5.3796687073
 21
4.9257183432
  0
LINE
  5
3F2
100
AcDbEntity
  8
ALL_ASSEMBLY_MEMBERS
100
AcDbLine
 62
7
  6
CONTINUOUS
 10
5.3796687073
 20
4.9257183432
 11
5.3800344068
 21
4.9257330343
  0
LINE
  5
3F3
100
AcDbEntity
  8
ALL_ASSEMBLY_MEMBERS
100
AcDbLine
 62
7
  6
CONTINUOUS
 10
5.3644856589
 20
4.9227877419
 11
5.3673063414
 21
4.9235867117
  0
LINE
  5
3F4
100
AcDbEntity
  8
ALL_ASSEMBLY_MEMBERS
100
AcDbLine
 62
7
  6
CONTINUOUS
 10
5.3673063414
 20
4.9235867117
 11
5.3700533631
 21
4.9241702818
  0
SPLINE
  5
3F5
100
AcDbEntity
  8
ALL_ASSEMBLY_MEMBERS
100
AcDbSpline
 62
7
  6
CONTINUOUS
 70
0
 71
3
 72
8
 73
4
 74
0
 42
0.0000001
 43
0.0000001
 44
0.0000000001
 40
0.0
 40
0.0
 40
0.0
 40
0.0
 40
1.0
 40
1.0
 40
1.0
 40
1.0
 10
5.4510668456
 20
4.938575636
 30
0.0
 10
5.4510760434
 20
4.9385608087
 30
0.0
 10
5.4510829957
 20
4.9385441411
 30
0.0
 10
5.4510861498
 20
4.9385269801
 30
0.0
  0
SPLINE
  5
3F6
100
AcDbEntity
  8
ALL_ASSEMBLY_MEMBERS
100
AcDbSpline
 62
7
  6
CONTINUOUS
 70
0
 71
3
 72
14
 73
10
 74
0
 42
0.0000001
 43
0.0000001
 44
0.0000000001
 40
0.0
 40
0.0
 40
0.0
 40
0.0
 40
0.4233340231
 40
0.5922422806
 40
0.7312001908
 40
0.839389823
 40
0.9176645776
 40
0.968863787
 40
1.0
 40
1.0
 40
1.0
 40
1.0
 10
5.4544076689
 20
4.9425559482
 30
0.0
 10
5.4547160734
 20
4.942643486
 30
0.0
 10
5.4551462082
 20
4.9427710858
 30
0.0
 10
5.4556706373
 20
4.942949075
 30
0.0
 10
5.4559651414
 20
4.9430613216
 30
0.0
 10
5.4561908283
 20
4.9431606833
 30
0.0
 10
5.4563475014
 20
4.943250675
 30
0.0
 10
5.4564441198
 20
4.9433243486
 30
0.0
 10
5.4564728516
 20
4.9433879836
 30
0.0
 10
5.4564687942
 20
4.9434112111
 30
0.0
  0
LINE
  5
3F7
100
AcDbEntity
  8
ALL_ASSEMBLY_MEMBERS
100
AcDbLine
 62
7
  6
CONTINUOUS
 10
5.4436246558
 20
4.9401467472
 11
5.4525748044
 21
4.9420729947
  0
LINE
  5
3F8
100
AcDbEntity
  8
ALL_ASSEMBLY_MEMBERS
100
AcDbLine
 62
7
  6
CONTINUOUS
 10
5.3919286198
 20
4.930448873
 11
5.3994245848
 21
4.932893726
  0
LINE
  5
3F9
100
AcDbEntity
  8
ALL_ASSEMBLY_MEMBERS
100
AcDbLine
 62
7
  6
CONTINUOUS
 10
5.376737887
 20
4.9268671089
 11
5.3885591779
 21
4.9294933872
  0
LINE
  5
3FA
100
AcDbEntity
  8
ALL_ASSEMBLY_MEMBERS
100
AcDbLine
 62
7
  6
CONTINUOUS
 10
5.3625496949
 20
4.9243888469
 11
5.370221568
 21
4.9256430382
  0
LINE
  5
3FB
100
AcDbEntity
  8
ALL_ASSEMBLY_MEMBERS
100
AcDbLine
 62
7
  6
CONTINUOUS
 10
5.3544914548
 20
4.9236132078
 11
5.3549462306
 21
4.9236040889
  0
LINE
  5
3FC
100
AcDbEntity
  8
ALL_ASSEMBLY_MEMBERS
100
AcDbLine
 62
7
  6
CONTINUOUS
 10
5.3549462306
 20
4.9236040889
 11
5.358794787
 21
4.9238944131
  0
LINE
  5
3FD
100
AcDbEntity
  8
ALL_ASSEMBLY_MEMBERS
100
AcDbLine
 62
7
  6
CONTINUOUS
 10
5.358794787
 20
4.9238944131
 11
5.3625496949
 21
4.9243888469
  0
SPLINE
  5
3FE
100
AcDbEntity
  8
ALL_ASSEMBLY_MEMBERS
100
AcDbSpline
 62
7
  6
CONTINUOUS
 70
0
 71
3
 72
11
 73
7
 74
0
 42
0.0000001
 43
0.0000001
 44
0.0000000001
 40
0.0
 40
0.0
 40
0.0
 40
0.0
 40
0.3363609257
 40
0.587330022
 40
0.8004622199
 40
1.0
 40
1.0
 40
1.0
 40
1.0
 10
4.8754054374
 20
4.9274921076
 30
0.0
 10
4.8763383451
 20
4.9280095942
 30
0.0
 10
4.8778877938
 20
4.9290953889
 30
0.0
 10
4.8794644731
 20
4.9311329251
 30
0.0
 10
4.8802137309
 20
4.9331288678
 30
0.0
 10
4.8803475098
 20
4.9344438675
 30
0.0
 10
4.8803475098
 20
4.9350767333
 30
0.0
  0
SPLINE
  5
3FF
100
AcDbEntity
  8
ALL_ASSEMBLY_MEMBERS
100
AcDbSpline
 62
7
  6
CONTINUOUS
 70
0
 71
3
 72
13
 73
9
 74
0
 42
0.0000001
 43
0.0000001
 44
0.0000000001
 40
0.0
 40
0.0
 40
0.0
 40
0.0
 40
0.1715468321
 40
0.3382705609
 40
0.4930076502
 40
0.6306393402
 40
0.8468961466
 40
1.0
 40
1.0
 40
1.0
 40
1.0
 10
4.8588471555
 20
4.9244590283
 30
0.0
 10
4.8598169571
 20
4.9244834948
 30
0.0
 10
4.8617287322
 20
4.9245597632
 30
0.0
 10
4.8645098478
 20
4.92476474
 30
0.0
 10
4.8670891186
 20
4.9250702107
 30
0.0
 10
4.8699263098
 20
4.9255479318
 30
0.0
 10
4.8727125442
 20
4.9262565109
 30
0.0
 10
4.8746483061
 20
4.9270721247
 30
0.0
 10
4.8754054374
 20
4.9274921076
 30
0.0
  0
SPLINE
  5
400
100
AcDbEntity
  8
ALL_ASSEMBLY_MEMBERS
100
AcDbSpline
 62
7
  6
CONTINUOUS
 70
0
 71
3
 72
11
 73
7
 74
0
 42
0.0000001
 43
0.0000001
 44
0.0000000001
 40
0.0
 40
0.0
 40
0.0
 40
0.0
 40
0.173698802
 40
0.3979298629
 40
0.6801333804
 40
1.0
 40
1.0
 40
1.0
 40
1.0
 10
4.8423356078
 20
4.9263457831
 30
0.0
 10
4.8432476609
 20
4.9260248372
 30
0.0
 10
4.8453848525
 20
4.9254230864
 30
0.0
 10
4.8491219454
 20
4.9247822102
 30
0.0
 10
4.8537130942
 20
4.9244241872
 30
0.0
 10
4.8570672201
 20
4.9244141233
 30
0.0
 10
4.8588471555
 20
4.9244590283
 30
0.0
  0
SPLINE
  5
401
100
AcDbEntity
  8
ALL_ASSEMBLY_MEMBERS
100
AcDbSpline
 62
7
  6
CONTINUOUS
 70
0
 71
3
 72
12
 73
8
 74
0
 42
0.0000001
 43
0.0000001
 44
0.0000000001
 40
0.0
 40
0.0
 40
0.0
 40
0.0
 40
0.1925094228
 40
0.3951040776
 40
0.5081339248
 40
0.637157631
 40
1.0
 40
1.0
 40
1.0
 40
1.0
 10
4.8362549865
 20
4.9344484737
 30
0.0
 10
4.8362549865
 20
4.9337501186
 30
0.0
 10
4.8363818181
 20
4.9323109618
 30
0.0
 10
4.8370116208
 20
4.9305480559
 30
0.0
 10
4.8379114248
 20
4.9291998656
 30
0.0
 10
4.8394496106
 20
4.9276181114
 30
0.0
 10
4.841093978
 20
4.9267827051
 30
0.0
 10
4.8423356078
 20
4.9263457831
 30
0.0
  0
SPLINE
  5
402
100
AcDbEntity
  8
ALL_ASSEMBLY_MEMBERS
100
AcDbSpline
 62
7
  6
CONTINUOUS
 70
0
 71
3
 72
12
 73
8
 74
0
 42
0.0000001
 43
0.0000001
 44
0.0000000001
 40
0.0
 40
0.0
 40
0.0
 40
0.0
 40
0.340107792
 40
0.4945444497
 40
0.6314831948
 40
0.8468052916
 40
1.0
 40
1.0
 40
1.0
 40
1.0
 10
4.7736425216
 20
4.9233804908
 30
0.0
 10
4.7755067538
 20
4.9233804915
 30
0.0
 10
4.7782195489
 20
4.9234751685
 30
0.0
 10
4.7816650312
 20
4.9238173727
 30
0.0
 10
4.7844128572
 20
4.92422754
 30
0.0
 10
4.7871162976
 20
4.9248684548
 30
0.0
 10
4.7890000162
 20
4.9256293105
 30
0.0
 10
4.7897399486
 20
4.9260263067
 30
0.0
  0
SPLINE
  5
403
100
AcDbEntity
  8
ALL_ASSEMBLY_MEMBERS
100
AcDbSpline
 62
7
  6
CONTINUOUS
 70
0
 71
3
 72
11
 73
7
 74
0
 42
0.0000001
 43
0.0000001
 44
0.0000000001
 40
0.0
 40
0.0
 40
0.0
 40
0.0
 40
0.1737795664
 40
0.3987452569
 40
0.6816557299
 40
1.0
 40
1.0
 40
1.0
 40
1.0
 10
4.7566699804
 20
4.9256986535
 30
0.0
 10
4.7576024497
 20
4.9253453264
 30
0.0
 10
4.7597950042
 20
4.924672038
 30
0.0
 10
4.7636404215
 20
4.9239248638
 30
0.0
 10
4.7683638456
 20
4.9234498669
 30
0.0
 10
4.7718158286
 20
4.9233804902
 30
0.0
 10
4.7736425216
 20
4.9233804908
 30
0.0
  0
SPLINE
  5
404
100
AcDbEntity
  8
ALL_ASSEMBLY_MEMBERS
100
AcDbSpline
 62
7
  6
CONTINUOUS
 70
0
 71
3
 72
12
 73
8
 74
0
 42
0.0000001
 43
0.0000001
 44
0.0000000001
 40
0.0
 40
0.0
 40
0.0
 40
0.0
 40
0.1915139522
 40
0.3941071971
 40
0.5074620665
 40
0.6369176901
 40
1.0
 40
1.0
 40
1.0
 40
1.0
 10
4.7505894961
 20
4.9339854843
 30
0.0
 10
4.7505894961
 20
4.9332829068
 30
0.0
 10
4.7507175432
 20
4.9318313274
 30
0.0
 10
4.7513474795
 20
4.9300499083
 30
0.0
 10
4.7522461177
 20
4.9286762116
 30
0.0
 10
4.7537811223
 20
4.9270528127
 30
0.0
 10
4.7554244159
 20
4.9261706173
 30
0.0
 10
4.7566699804
 20
4.9256986535
 30
0.0
  0
SPLINE
  5
405
100
AcDbEntity
  8
ALL_ASSEMBLY_MEMBERS
100
AcDbSpline
 62
7
  6
CONTINUOUS
 70
0
 71
3
 72
11
 73
7
 74
0
 42
0.0000001
 43
0.0000001
 44
0.0000000001
 40
0.0
 40
0.0
 40
0.0
 40
0.0
 40
0.3341991529
 40
0.5844570552
 40
0.7984037571
 40
1.0
 40
1.0
 40
1.0
 40
1.0
 10
4.7897399486
 20
4.9260263067
 30
0.0
 10
4.7906730288
 20
4.9265269325
 30
0.0
 10
4.7922262864
 20
4.9275908625
 30
0.0
 10
4.7938028039
 20
4.9296189179
 30
0.0
 10
4.7945495929
 20
4.9316212858
 30
0.0
 10
4.7946820194
 20
4.9329440841
 30
0.0
 10
4.7946820194
 20
4.9335828345
 30
0.0
  0
SPLINE
  5
406
100
AcDbEntity
  8
ALL_ASSEMBLY_MEMBERS
100
AcDbSpline
 62
7
  6
CONTINUOUS
 70
0
 71
3
 72
13
 73
9
 74
0
 42
0.0000001
 43
0.0000001
 44
0.0000000001
 40
0.0
 40
0.0
 40
0.0
 40
0.0
 40
0.2526161074
 40
0.4510621328
 40
0.6009742081
 40
0.7150859311
 40
0.8776350874
 40
1.0
 40
1.0
 40
1.0
 40
1.0
 10
4.6770179708
 20
4.9251057467
 30
0.0
 10
4.6774679266
 20
4.9251343152
 30
0.0
 10
4.6782704181
 20
4.9252107952
 30
0.0
 10
4.679326042
 20
4.9254095589
 30
0.0
 10
4.6801166694
 20
4.9256571464
 30
0.0
 10
4.680803613
 20
4.9259872892
 30
0.0
 10
4.681372193
 20
4.9264497324
 30
0.0
 10
4.681591164
 20
4.926928889
 30
0.0
 10
4.6816371855
 20
4.9271423782
 30
0.0
  0
SPLINE
  5
407
100
AcDbEntity
  8
ALL_ASSEMBLY_MEMBERS
100
AcDbSpline
 62
7
  6
CONTINUOUS
 70
0
 71
3
 72
13
 73
9
 74
0
 42
0.0000001
 43
0.0000001
 44
0.0000000001
 40
0.0
 40
0.0
 40
0.0
 40
0.0
 40
0.2561849271
 40
0.5117348947
 40
0.6387868649
 40
0.7644274483
 40
0.8870043665
 40
1.0
 40
1.0
 40
1.0
 40
1.0
 10
4.6650919902
 20
4.9251113841
 30
0.0
 10
4.6661103745
 20
4.9250788281
 30
0.0
 10
4.6681448305
 20
4.9250203917
 30
0.0
 10
4.6706850494
 20
4.9249713332
 30
0.0
 10
4.6727063999
 20
4.9249576158
 30
0.0
 10
4.6741990446
 20
4.9249651875
 30
0.0
 10
4.6756350858
 20
4.9250013882
 30
0.0
 10
4.6765713374
 20
4.9250558784
 30
0.0
 10
4.6770179708
 20
4.9251057467
 30
0.0
  0
LINE
  5
408
100
AcDbEntity
  8
ALL_ASSEMBLY_MEMBERS
100
AcDbLine
 62
7
  6
CONTINUOUS
 10
4.6999630029
 20
4.9246390534
 11
4.701220036
 21
4.9244671985
  0
LINE
  5
409
100
AcDbEntity
  8
ALL_ASSEMBLY_MEMBERS
100
AcDbLine
 62
7
  6
CONTINUOUS
 10
4.701220036
 20
4.9244671985
 11
4.7128798909
 21
4.9239140854
  0
SPLINE
  5
40A
100
AcDbEntity
  8
ALL_ASSEMBLY_MEMBERS
100
AcDbSpline
 62
7
  6
CONTINUOUS
 70
0
 71
3
 72
14
 73
10
 74
0
 42
0.0000001
 43
0.0000001
 44
0.0000000001
 40
0.0
 40
0.0
 40
0.0
 40
0.0
 40
0.0627203477
 40
0.1309356625
 40
0.2103849275
 40
0.3070564878
 40
0.4280348823
 40
0.5804505213
 40
1.0
 40
1.0
 40
1.0
 40
1.0
 10
4.6963346956
 20
4.9267817021
 30
0.0
 10
4.6963346956
 20
4.9266879743
 30
0.0
 10
4.696361795
 20
4.9264911075
 30
0.0
 10
4.6964936992
 20
4.9262014571
 30
0.0
 10
4.6967258738
 20
4.9259155562
 30
0.0
 10
4.6970714182
 20
4.92563293
 30
0.0
 10
4.6975533757
 20
4.9253577268
 30
0.0
 10
4.6985111296
 20
4.9249593984
 30
0.0
 10
4.6993470331
 20
4.9247559527
 30
0.0
 10
4.6999630029
 20
4.9246390534
 30
0.0
  0
SPLINE
  5
40B
100
AcDbEntity
  8
ALL_ASSEMBLY_MEMBERS
100
AcDbSpline
 62
7
  6
CONTINUOUS
 70
0
 71
3
 72
11
 73
7
 74
0
 42
0.0000001
 43
0.0000001
 44
0.0000000001
 40
0.0
 40
0.0
 40
0.0
 40
0.0
 40
0.1797498143
 40
0.413145622
 40
0.6947767521
 40
1.0
 40
1.0
 40
1.0
 40
1.0
 10
4.7436189271
 20
4.9412184683
 30
0.0
 10
4.7453024602
 20
4.9417766045
 30
0.0
 10
4.7492626715
 20
4.9427870561
 30
0.0
 10
4.756048826
 20
4.9438135018
 30
0.0
 10
4.7641261466
 20
4.9444139971
 30
0.0
 10
4.7699179952
 20
4.9445248081
 30
0.0
 10
4.7729297158
 20
4.9445242667
 30
0.0
  0
SPLINE
  5
40C
100
AcDbEntity
  8
ALL_ASSEMBLY_MEMBERS
100
AcDbSpline
 62
7
  6
CONTINUOUS
 70
0
 71
3
 72
15
 73
11
 74
0
 42
0.0000001
 43
0.0000001
 44
0.0000000001
 40
0.0
 40
0.0
 40
0.0
 40
0.0
 40
0.0765577763
 40
0.1582438064
 40
0.2505026125
 40
0.358122125
 40
0.4847325378
 40
0.633109015
 40
0.804745573
 40
1.0
 40
1.0
 40
1.0
 40
1.0
 10
4.733540386
 20
4.9334151285
 30
0.0
 10
4.733540386
 20
4.9337589321
 30
0.0
 10
4.7336348737
 20
4.9344732486
 30
0.0
 10
4.7340778948
 20
4.9355200984
 30
0.0
 10
4.734835945
 20
4.9365441732
 30
0.0
 10
4.7359186947
 20
4.9375423524
 30
0.0
 10
4.7373387573
 20
4.9385174417
 30
0.0
 10
4.7391094645
 20
4.9394658993
 30
0.0
 10
4.7412347815
 20
4.9403858942
 30
0.0
 10
4.7427866306
 20
4.9409425398
 30
0.0
 10
4.7436189271
 20
4.9412184683
 30
0.0
  0
LINE
  5
40D
100
AcDbEntity
  8
ALL_ASSEMBLY_MEMBERS
100
AcDbLine
 62
7
  6
CONTINUOUS
 10
4.3537803844
 20
4.9411798205
 11
4.3981282575
 21
4.9272244085
  0
LINE
  5
40E
100
AcDbEntity
  8
ALL_ASSEMBLY_MEMBERS
100
AcDbLine
 62
7
  6
CONTINUOUS
 10
4.0705808984
 20
4.9425961928
 11
4.0707691864
 21
4.9423420132
  0
LINE
  5
40F
100
AcDbEntity
  8
ALL_ASSEMBLY_MEMBERS
100
AcDbLine
 62
7
  6
CONTINUOUS
 10
4.1603870743
 20
4.9249608661
 11
4.1605547271
 21
4.9249896312
  0
LINE
  5
410
100
AcDbEntity
  8
ALL_ASSEMBLY_MEMBERS
100
AcDbLine
 62
7
  6
CONTINUOUS
 10
4.1763417765
 20
4.9232529423
 11
4.1736729958
 21
4.9237817678
  0
LINE
  5
411
100
AcDbEntity
  8
ALL_ASSEMBLY_MEMBERS
100
AcDbLine
 62
7
  6
CONTINUOUS
 10
4.1666981649
 20
4.9246390534
 11
4.1730052583
 21
4.9239140854
  0
LINE
  5
412
100
AcDbEntity
  8
ALL_ASSEMBLY_MEMBERS
100
AcDbLine
 62
7
  6
CONTINUOUS
 10
4.1551579268
 20
4.9267817021
 11
4.1666981649
 21
4.9246390534
  0
LINE
  5
413
100
AcDbEntity
  8
ALL_ASSEMBLY_MEMBERS
100
AcDbLine
 62
7
  6
CONTINUOUS
 10
4.1551579268
 20
4.9267817021
 11
4.0962202707
 21
4.938437408
  0
LINE
  5
414
100
AcDbEntity
  8
ALL_ASSEMBLY_MEMBERS
100
AcDbLine
 62
7
  6
CONTINUOUS
 10
4.0968185063
 20
4.9412944223
 11
4.0969799527
 21
4.9408911916
  0
LINE
  5
415
100
AcDbEntity
  8
ALL_ASSEMBLY_MEMBERS
100
AcDbLine
 62
7
  6
CONTINUOUS
 10
4.1846250437
 20
4.9234419993
 11
4.1866780956
 21
4.9235130681
  0
LINE
  5
416
100
AcDbEntity
  8
ALL_ASSEMBLY_MEMBERS
100
AcDbLine
 62
7
  6
CONTINUOUS
 10
4.1866780956
 20
4.9235130681
 11
4.1867719033
 21
4.9235743712
  0
LINE
  5
417
100
AcDbEntity
  8
ALL_ASSEMBLY_MEMBERS
100
AcDbLine
 62
7
  6
CONTINUOUS
 10
4.1993949109
 20
4.9234564119
 11
4.2020638419
 21
4.9229253785
  0
SPLINE
  5
418
100
AcDbEntity
  8
ALL_ASSEMBLY_MEMBERS
100
AcDbSpline
 62
7
  6
CONTINUOUS
 70
0
 71
3
 72
9
 73
5
 74
0
 42
0.0000001
 43
0.0000001
 44
0.0000000001
 40
0.0
 40
0.0
 40
0.0
 40
0.0
 40
0.6005862442
 40
1.0
 40
1.0
 40
1.0
 40
1.0
 10
4.1930291776
 20
4.9238554023
 30
0.0
 10
4.1942382678
 20
4.9236827046
 30
0.0
 10
4.1962680107
 20
4.9235070406
 30
0.0
 10
4.1983013973
 20
4.9234585158
 30
0.0
 10
4.1991136485
 20
4.9234564423
 30
0.0
  0
LINE
  5
419
100
AcDbEntity
  8
ALL_ASSEMBLY_MEMBERS
100
AcDbLine
 62
7
  6
CONTINUOUS
 10
4.1814750574
 20
4.9259213811
 11
4.1930291776
 21
4.9238554023
  0
SPLINE
  5
41A
100
AcDbEntity
  8
ALL_ASSEMBLY_MEMBERS
100
AcDbSpline
 62
7
  6
CONTINUOUS
 70
0
 71
3
 72
12
 73
8
 74
0
 42
0.0000001
 43
0.0000001
 44
0.0000000001
 40
0.0
 40
0.0
 40
0.0
 40
0.0
 40
0.3833093502
 40
0.6738094032
 40
0.7846928013
 40
0.8738922004
 40
1.0
 40
1.0
 40
1.0
 40
1.0
 10
4.2151645245
 20
4.9247242019
 30
0.0
 10
4.2152956653
 20
4.9247342791
 30
0.0
 10
4.215525816
 20
4.9247583043
 30
0.0
 10
4.2157907595
 20
4.924809522
 30
0.0
 10
4.2159503429
 20
4.9248664339
 30
0.0
 10
4.2160487376
 20
4.9249167461
 30
0.0
 10
4.216106356
 20
4.9249767215
 30
0.0
 10
4.2161146456
 20
4.9250191923
 30
0.0
  0
SPLINE
  5
41B
100
AcDbEntity
  8
ALL_ASSEMBLY_MEMBERS
100
AcDbSpline
 62
7
  6
CONTINUOUS
 70
0
 71
3
 72
11
 73
7
 74
0
 42
0.0000001
 43
0.0000001
 44
0.0000000001
 40
0.0
 40
0.0
 40
0.0
 40
0.0
 40
0.3275027615
 40
0.6084466309
 40
0.8330748408
 40
1.0
 40
1.0
 40
1.0
 40
1.0
 10
4.2090784079
 20
4.9250690639
 30
0.0
 10
4.2097405525
 20
4.924996203
 30
0.0
 10
4.2109718564
 20
4.924871144
 30
0.0
 10
4.2126615791
 20
4.9247396138
 30
0.0
 10
4.2140285544
 20
4.9246855656
 30
0.0
 10
4.2148259964
 20
4.9246981885
 30
0.0
 10
4.2151645245
 20
4.9247242019
 30
0.0
  0
LINE
  5
41C
100
AcDbEntity
  8
ALL_ASSEMBLY_MEMBERS
100
AcDbLine
 62
7
  6
CONTINUOUS
 10
4.2020662003
 20
4.9258322567
 11
4.2024513246
 21
4.9257921283
  0
LINE
  5
41D
100
AcDbEntity
  8
ALL_ASSEMBLY_MEMBERS
100
AcDbLine
 62
7
  6
CONTINUOUS
 10
4.2024513246
 20
4.9257921283
 11
4.2090784079
 21
4.9250690639
  0
LINE
  5
41E
100
AcDbEntity
  8
ALL_ASSEMBLY_MEMBERS
100
AcDbLine
 62
7
  6
CONTINUOUS
 10
4.197237229
 20
4.926163329
 11
4.2020662003
 21
4.9258322567
  0
LINE
  5
41F
100
AcDbEntity
  8
ALL_ASSEMBLY_MEMBERS
100
AcDbLine
 62
7
  6
CONTINUOUS
 10
4.2177545038
 20
4.926195179
 11
4.2193274372
 21
4.9255946566
  0
LINE
  5
420
100
AcDbEntity
  8
ALL_ASSEMBLY_MEMBERS
100
AcDbLine
 62
7
  6
CONTINUOUS
 10
4.2193274372
 20
4.9255946566
 11
4.2205353113
 21
4.9250533413
  0
LINE
  5
421
100
AcDbEntity
  8
ALL_ASSEMBLY_MEMBERS
100
AcDbLine
 62
7
  6
CONTINUOUS
 10
4.2205353113
 20
4.9250533413
 11
4.2218674502
 21
4.9241452303
  0
LINE
  5
422
100
AcDbEntity
  8
ALL_ASSEMBLY_MEMBERS
100
AcDbLine
 62
7
  6
CONTINUOUS
 10
4.2218674502
 20
4.9241452303
 11
4.2219890437
 21
4.9237798242
  0
SPLINE
  5
423
100
AcDbEntity
  8
ALL_ASSEMBLY_MEMBERS
100
AcDbSpline
 62
7
  6
CONTINUOUS
 70
0
 71
3
 72
11
 73
7
 74
0
 42
0.0000001
 43
0.0000001
 44
0.0000000001
 40
0.0
 40
0.0
 40
0.0
 40
0.0
 40
0.3137689799
 40
0.5932498284
 40
0.8239525143
 40
1.0
 40
1.0
 40
1.0
 40
1.0
 10
4.192695666
 20
4.9323865007
 30
0.0
 10
4.1953469233
 20
4.9318669845
 30
0.0
 10
4.200352077
 20
4.9308447893
 30
0.0
 10
4.2072688245
 20
4.9292618693
 30
0.0
 10
4.2129837328
 20
4.927756593
 30
0.0
 10
4.2163274913
 20
4.9267064577
 30
0.0
 10
4.2177545038
 20
4.926195179
 30
0.0
  0
SPLINE
  5
424
100
AcDbEntity
  8
ALL_ASSEMBLY_MEMBERS
100
AcDbSpline
 62
7
  6
CONTINUOUS
 70
0
 71
3
 72
9
 73
5
 74
0
 42
0.0000001
 43
0.0000001
 44
0.0000000001
 40
0.0
 40
0.0
 40
0.0
 40
0.0
 40
0.2000389476
 40
1.0
 40
1.0
 40
1.0
 40
1.0
 10
4.141277975
 20
4.9392417782
 30
0.0
 10
4.1426721331
 20
4.9391788632
 30
0.0
 10
4.1496382971
 20
4.938794392
 30
0.0
 10
4.1565860727
 20
4.9380884102
 30
0.0
 10
4.1621203158
 20
4.9373678926
 30
0.0
  0
LINE
  5
425
100
AcDbEntity
  8
ALL_ASSEMBLY_MEMBERS
100
AcDbLine
 62
7
  6
CONTINUOUS
 10
4.1351323171
 20
4.9394249091
 11
4.1263386857
 21
4.9416272942
  0
LINE
  5
426
100
AcDbEntity
  8
ALL_ASSEMBLY_MEMBERS
100
AcDbLine
 62
7
  6
CONTINUOUS
 10
4.1362513435
 20
4.942964457
 11
4.1244157273
 21
4.9459791886
  0
LINE
  5
427
100
AcDbEntity
  8
ALL_ASSEMBLY_MEMBERS
100
AcDbLine
 62
7
  6
CONTINUOUS
 10
5.2163643441
 20
4.9365124604
 11
5.1848389933
 21
4.9272244085
  0
LINE
  5
428
100
AcDbEntity
  8
ALL_ASSEMBLY_MEMBERS
100
AcDbLine
 62
7
  6
CONTINUOUS
 10
5.4510861498
 20
4.9385269801
 11
5.4509895402
 21
4.9383329699
  0
LINE
  5
429
100
AcDbEntity
  8
ALL_ASSEMBLY_MEMBERS
100
AcDbLine
 62
7
  6
CONTINUOUS
 10
5.4509895402
 20
4.9383329699
 11
5.4493184615
 21
4.9376042951
  0
LINE
  5
42A
100
AcDbEntity
  8
ALL_ASSEMBLY_MEMBERS
100
AcDbLine
 62
7
  6
CONTINUOUS
 10
5.4493184615
 20
4.9376042951
 11
5.4457679259
 21
4.9366388547
  0
LINE
  5
42B
100
AcDbEntity
  8
ALL_ASSEMBLY_MEMBERS
100
AcDbLine
 62
7
  6
CONTINUOUS
 10
5.3477809186
 20
4.9224975523
 11
5.3462674843
 21
4.9227808334
  0
LINE
  5
42C
100
AcDbEntity
  8
ALL_ASSEMBLY_MEMBERS
100
AcDbLine
 62
7
  6
CONTINUOUS
 10
5.3462674843
 20
4.9227808334
 11
5.3461760455
 21
4.9229116017
  0
LINE
  5
42D
100
AcDbEntity
  8
ALL_ASSEMBLY_MEMBERS
100
AcDbLine
 62
7
  6
CONTINUOUS
 10
5.3560004607
 20
4.9229793678
 11
5.3511224334
 21
4.922543236
  0
LINE
  5
42E
100
AcDbEntity
  8
ALL_ASSEMBLY_MEMBERS
100
AcDbLine
 62
7
  6
CONTINUOUS
 10
5.3498553254
 20
4.922487489
 11
5.3487452349
 21
4.922472769
  0
LINE
  5
42F
100
AcDbEntity
  8
ALL_ASSEMBLY_MEMBERS
100
AcDbLine
 62
7
  6
CONTINUOUS
 10
5.3487452349
 20
4.922472769
 11
5.3477809186
 21
4.9224975523
  0
LINE
  5
430
100
AcDbEntity
  8
ALL_ASSEMBLY_MEMBERS
100
AcDbLine
 62
7
  6
CONTINUOUS
 10
5.4088428801
 20
4.9332663245
 11
5.4033584932
 21
4.9317348314
  0
LINE
  5
431
100
AcDbEntity
  8
ALL_ASSEMBLY_MEMBERS
100
AcDbLine
 62
7
  6
CONTINUOUS
 10
5.461126935
 20
4.9432799616
 11
5.4577008583
 21
4.9423540394
  0
LINE
  5
432
100
AcDbEntity
  8
ALL_ASSEMBLY_MEMBERS
100
AcDbLine
 62
7
  6
CONTINUOUS
 10
5.4577008583
 20
4.9423540394
 11
5.4545843256
 21
4.9416264103
  0
LINE
  5
433
100
AcDbEntity
  8
ALL_ASSEMBLY_MEMBERS
100
AcDbLine
 62
7
  6
CONTINUOUS
 10
5.4486928202
 20
4.9403829028
 11
5.4480565632
 21
4.9402552522
  0
LINE
  5
434
100
AcDbEntity
  8
ALL_ASSEMBLY_MEMBERS
100
AcDbLine
 62
7
  6
CONTINUOUS
 10
5.3769445934
 20
4.9244384515
 11
5.375974221
 21
4.9240508405
  0
SPLINE
  5
435
100
AcDbEntity
  8
ALL_ASSEMBLY_MEMBERS
100
AcDbSpline
 62
7
  6
CONTINUOUS
 70
0
 71
3
 72
9
 73
5
 74
0
 42
0.0000001
 43
0.0000001
 44
0.0000000001
 40
0.0
 40
0.0
 40
0.0
 40
0.0
 40
0.3001320584
 40
1.0
 40
1.0
 40
1.0
 40
1.0
 10
5.375974221
 20
4.9240508405
 30
0.0
 10
5.3759723228
 20
4.9240483195
 30
0.0
 10
5.3759664772
 20
4.924039693
 30
0.0
 10
5.3759633538
 20
4.9240284372
 30
0.0
 10
5.3759648531
 20
4.924021233
 30
0.0
  0
LINE
  5
436
100
AcDbEntity
  8
ALL_ASSEMBLY_MEMBERS
100
AcDbLine
 62
7
  6
CONTINUOUS
 10
5.3796676207
 20
4.9253017948
 11
5.3771711055
 21
4.9245076319
  0
LINE
  5
437
100
AcDbEntity
  8
ALL_ASSEMBLY_MEMBERS
100
AcDbLine
 62
7
  6
CONTINUOUS
 10
5.3656068755
 20
4.9223269032
 11
5.3641194453
 21
4.9224731586
  0
SPLINE
  5
438
100
AcDbEntity
  8
ALL_ASSEMBLY_MEMBERS
100
AcDbSpline
 62
7
  6
CONTINUOUS
 70
0
 71
3
 72
8
 73
4
 74
0
 42
0.0000001
 43
0.0000001
 44
0.0000000001
 40
0.0
 40
0.0
 40
0.0
 40
0.0
 40
1.0
 40
1.0
 40
1.0
 40
1.0
 10
5.3641194453
 20
4.9224731586
 30
0.0
 10
5.3641126318
 20
4.9224817376
 30
0.0
 10
5.3641073164
 20
4.9224920707
 30
0.0
 10
5.3641053473
 20
4.9225028477
 30
0.0
  0
LINE
  5
439
100
AcDbEntity
  8
ALL_ASSEMBLY_MEMBERS
100
AcDbLine
 62
7
  6
CONTINUOUS
 10
5.3702967785
 20
4.9227021686
 11
5.3671042843
 21
4.9223977348
  0
LINE
  5
43A
100
AcDbEntity
  8
ALL_ASSEMBLY_MEMBERS
100
AcDbLine
 62
7
  6
CONTINUOUS
 10
5.4009692611
 20
4.927644105
 11
5.4003792148
 21
4.9275373137
  0
LINE
  5
43B
100
AcDbEntity
  8
ALL_ASSEMBLY_MEMBERS
100
AcDbLine
 62
7
  6
CONTINUOUS
 10
5.3882676022
 20
4.9254152001
 11
5.3867709315
 21
4.9251633192
  0
SPLINE
  5
43C
100
AcDbEntity
  8
ALL_ASSEMBLY_MEMBERS
100
AcDbSpline
 62
7
  6
CONTINUOUS
 70
0
 71
3
 72
12
 73
8
 74
0
 42
0.0000001
 43
0.0000001
 44
0.0000000001
 40
0.0
 40
0.0
 40
0.0
 40
0.0
 40
0.1362586301
 40
0.2320097584
 40
0.3480192321
 40
0.6384674269
 40
1.0
 40
1.0
 40
1.0
 40
1.0
 10
5.432885157
 20
4.935397477
 30
0.0
 10
5.4328716436
 20
4.9354710997
 30
0.0
 10
5.4327693197
 20
4.9355725492
 30
0.0
 10
5.4326041059
 20
4.9356621085
 30
0.0
 10
5.4323464906
 20
4.935765989
 30
0.0
 10
5.4319382073
 20
4.9358731742
 30
0.0
 10
5.431585935
 20
4.9359395656
 30
0.0
 10
5.4313900105
 20
4.9359720874
 30
0.0
  0
LINE
  5
43D
100
AcDbEntity
  8
ALL_ASSEMBLY_MEMBERS
100
AcDbLine
 62
7
  6
CONTINUOUS
 10
5.4351096371
 20
4.9407550299
 11
5.4268923532
 21
4.9389546758
  0
LINE
  5
43E
100
AcDbEntity
  8
ALL_ASSEMBLY_MEMBERS
100
AcDbLine
 62
7
  6
CONTINUOUS
 10
5.4218316766
 20
4.937601782
 11
5.4167837329
 21
4.9359917834
  0
LINE
  5
43F
100
AcDbEntity
  8
ALL_ASSEMBLY_MEMBERS
100
AcDbLine
 62
7
  6
CONTINUOUS
 10
5.4556328947
 20
4.9435997018
 11
5.4513282325
 21
4.9433180203
  0
LINE
  5
440
100
AcDbEntity
  8
ALL_ASSEMBLY_MEMBERS
100
AcDbLine
 62
7
  6
CONTINUOUS
 10
4.1605547271
 20
4.9249896312
 11
4.160268169
 21
4.9251057467
  0
SPLINE
  5
441
100
AcDbEntity
  8
ALL_ASSEMBLY_MEMBERS
100
AcDbSpline
 62
7
  6
CONTINUOUS
 70
0
 71
3
 72
9
 73
5
 74
0
 42
0.0000001
 43
0.0000001
 44
0.0000000001
 40
0.0
 40
0.0
 40
0.0
 40
0.0
 40
0.723983543
 40
1.0
 40
1.0
 40
1.0
 40
1.0
 10
5.4564687942
 20
4.9434112111
 30
0.0
 10
5.4564667035
 20
4.9434231792
 30
0.0
 10
5.4564585687
 20
4.9434389396
 30
0.0
 10
5.4564471337
 20
4.9434511757
 30
0.0
 10
5.456443798
 20
4.9434543893
 30
0.0
  0
LINE
  5
442
100
AcDbEntity
  8
ALL_ASSEMBLY_MEMBERS
100
AcDbLine
 62
7
  6
CONTINUOUS
 10
5.456443798
 20
4.9434543893
 11
5.4560250493
 21
4.943571322
  0
LINE
  5
443
100
AcDbEntity
  8
ALL_ASSEMBLY_MEMBERS
100
AcDbLine
 62
7
  6
CONTINUOUS
 10
5.4560250493
 20
4.943571322
 11
5.4556328947
 21
4.9435997018
  0
SPLINE
  5
444
100
AcDbEntity
  8
ALL_ASSEMBLY_MEMBERS
100
AcDbSpline
 62
7
  6
CONTINUOUS
 70
0
 71
3
 72
13
 73
9
 74
0
 42
0.0000001
 43
0.0000001
 44
0.0000000001
 40
0.0
 40
0.0
 40
0.0
 40
0.0
 40
0.3803382422
 40
0.6795899149
 40
0.7952464485
 40
0.8871892121
 40
0.9550696237
 40
1.0
 40
1.0
 40
1.0
 40
1.0
 10
5.3567283838
 20
4.9251646123
 30
0.0
 10
5.3563164243
 20
4.9250435422
 30
0.0
 10
5.3555827062
 20
4.9248193947
 30
0.0
 10
5.3547330505
 20
4.9245272185
 30
0.0
 10
5.3542036069
 20
4.924310301
 30
0.0
 10
5.3539222246
 20
4.9241761772
 30
0.0
 10
5.3537241841
 20
4.9240581041
 30
0.0
 10
5.3536252834
 20
4.923973157
 30
0.0
 10
5.3535973065
 20
4.9239308461
 30
0.0
  0
SPLINE
  5
445
100
AcDbEntity
  8
ALL_ASSEMBLY_MEMBERS
100
AcDbSpline
 62
7
  6
CONTINUOUS
 70
0
 71
3
 72
9
 73
5
 74
0
 42
0.0000001
 43
0.0000001
 44
0.0000000001
 40
0.0
 40
0.0
 40
0.0
 40
0.0
 40
0.2904436657
 40
1.0
 40
1.0
 40
1.0
 40
1.0
 10
5.3535973065
 20
4.9239308461
 30
0.0
 10
5.3535923781
 20
4.9239233927
 30
0.0
 10
5.3535768574
 20
4.9238970211
 30
0.0
 10
5.3535694299
 20
4.9238644404
 30
0.0
 10
5.3535732791
 20
4.9238429532
 30
0.0
  0
LINE
  5
446
100
AcDbEntity
  8
ALL_ASSEMBLY_MEMBERS
100
AcDbLine
 62
7
  6
CONTINUOUS
 10
5.3709269978
 20
4.9284139878
 11
5.3619695326
 21
4.926520263
  0
LINE
  5
447
100
AcDbEntity
  8
ALL_ASSEMBLY_MEMBERS
100
AcDbLine
 62
7
  6
CONTINUOUS
 10
5.3619695326
 20
4.926520263
 11
5.3578615683
 21
4.9254862212
  0
SPLINE
  5
448
100
AcDbEntity
  8
ALL_ASSEMBLY_MEMBERS
100
AcDbSpline
 62
7
  6
CONTINUOUS
 70
0
 71
3
 72
11
 73
7
 74
0
 42
0.0000001
 43
0.0000001
 44
0.0000000001
 40
0.0
 40
0.0
 40
0.0
 40
0.0
 40
0.3464796191
 40
0.5962249626
 40
0.8050217473
 40
1.0
 40
1.0
 40
1.0
 40
1.0
 10
4.8412941211
 20
4.9415844734
 30
0.0
 10
4.8403341584
 20
4.9411186542
 30
0.0
 10
4.8387469928
 20
4.940134442
 30
0.0
 10
4.8371306057
 20
4.9381995794
 30
0.0
 10
4.8363843085
 20
4.9362988241
 30
0.0
 10
4.8362549865
 20
4.9350489253
 30
0.0
 10
4.8362549865
 20
4.9344484737
 30
0.0
  0
LINE
  5
449
100
AcDbEntity
  8
ALL_ASSEMBLY_MEMBERS
100
AcDbLine
 62
7
  6
CONTINUOUS
 10
4.8580912816
 20
4.9442734208
 11
4.8542620858
 21
4.9441245983
  0
LINE
  5
44A
100
AcDbEntity
  8
ALL_ASSEMBLY_MEMBERS
100
AcDbLine
 62
7
  6
CONTINUOUS
 10
4.8542620858
 20
4.9441245983
 11
4.8477294499
 21
4.943434637
  0
SPLINE
  5
44B
100
AcDbEntity
  8
ALL_ASSEMBLY_MEMBERS
100
AcDbSpline
 62
7
  6
CONTINUOUS
 70
0
 71
3
 72
9
 73
5
 74
0
 42
0.0000001
 43
0.0000001
 44
0.0000000001
 40
0.0
 40
0.0
 40
0.0
 40
0.0
 40
0.5842259357
 40
1.0
 40
1.0
 40
1.0
 40
1.0
 10
4.8477294499
 20
4.943434637
 30
0.0
 10
4.8464398966
 20
4.9432206041
 30
0.0
 10
4.8442455715
 20
4.9427564453
 30
0.0
 10
4.8421310752
 20
4.9419906031
 30
0.0
 10
4.8412941211
 20
4.9415844734
 30
0.0
  0
SPLINE
  5
44C
100
AcDbEntity
  8
ALL_ASSEMBLY_MEMBERS
100
AcDbSpline
 62
7
  6
CONTINUOUS
 70
0
 71
3
 72
9
 73
5
 74
0
 42
0.0000001
 43
0.0000001
 44
0.0000000001
 40
0.0
 40
0.0
 40
0.0
 40
0.0
 40
0.4281861409
 40
1.0
 40
1.0
 40
1.0
 40
1.0
 10
4.8750564003
 20
4.9420719604
 30
0.0
 10
4.8743634608
 20
4.9423943232
 30
0.0
 10
4.872680747
 20
4.9430094373
 30
0.0
 10
4.870935578
 20
4.9434037868
 30
0.0
 10
4.8699308893
 20
4.9435833505
 30
0.0
  0
SPLINE
  5
44D
100
AcDbEntity
  8
ALL_ASSEMBLY_MEMBERS
100
AcDbSpline
 62
7
  6
CONTINUOUS
 70
0
 71
3
 72
10
 73
6
 74
0
 42
0.0000001
 43
0.0000001
 44
0.0000000001
 40
0.0
 40
0.0
 40
0.0
 40
0.0
 40
0.2096182999
 40
0.4530557247
 40
1.0
 40
1.0
 40
1.0
 40
1.0
 10
4.8699308893
 20
4.9435833505
 30
0.0
 10
4.8691140516
 20
4.9437293403
 30
0.0
 10
4.8673361955
 20
4.9439765139
 30
0.0
 10
4.8633892694
 20
4.9442979182
 30
0.0
 10
4.8602558846
 20
4.9443197018
 30
0.0
 10
4.8580912816
 20
4.9442734208
 30
0.0
  0
SPLINE
  5
44E
100
AcDbEntity
  8
ALL_ASSEMBLY_MEMBERS
100
AcDbSpline
 62
7
  6
CONTINUOUS
 70
0
 71
3
 72
11
 73
7
 74
0
 42
0.0000001
 43
0.0000001
 44
0.0000000001
 40
0.0
 40
0.0
 40
0.0
 40
0.0
 40
0.1955526503
 40
0.4053491524
 40
0.6577040662
 40
1.0
 40
1.0
 40
1.0
 40
1.0
 10
4.8803475098
 20
4.9350767333
 30
0.0
 10
4.8803475098
 20
4.9356821018
 30
0.0
 10
4.880198667
 20
4.9369454041
 30
0.0
 10
4.8793555081
 20
4.9388363421
 30
0.0
 10
4.877629913
 20
4.9406880472
 30
0.0
 10
4.8760171626
 20
4.9416250036
 30
0.0
 10
4.8750564003
 20
4.9420719604
 30
0.0
  0
LINE
  5
44F
100
AcDbEntity
  8
ALL_ASSEMBLY_MEMBERS
100
AcDbLine
 62
7
  6
CONTINUOUS
 10
5.3804107826
 20
4.9256698442
 11
5.3796676207
 21
4.9253017948
  0
SPLINE
  5
450
100
AcDbEntity
  8
ALL_ASSEMBLY_MEMBERS
100
AcDbSpline
 62
7
  6
CONTINUOUS
 70
0
 71
3
 72
11
 73
7
 74
0
 42
0.0000001
 43
0.0000001
 44
0.0000000001
 40
0.0
 40
0.0
 40
0.0
 40
0.0
 40
0.3454817897
 40
0.5945431222
 40
0.8036304781
 40
1.0
 40
1.0
 40
1.0
 40
1.0
 10
4.7556286713
 20
4.9410343363
 30
0.0
 10
4.7546698373
 20
4.9405884456
 30
0.0
 10
4.7530813232
 20
4.9396356766
 30
0.0
 10
4.7514626069
 20
4.9377261141
 30
0.0
 10
4.7507175501
 20
4.9358340619
 30
0.0
 10
4.7505894961
 20
4.9345865266
 30
0.0
 10
4.7505894961
 20
4.9339854843
 30
0.0
  0
LINE
  5
451
100
AcDbEntity
  8
ALL_ASSEMBLY_MEMBERS
100
AcDbLine
 62
7
  6
CONTINUOUS
 10
4.7679816456
 20
4.9432768282
 11
4.7615390887
 21
4.9426709222
  0
SPLINE
  5
452
100
AcDbEntity
  8
ALL_ASSEMBLY_MEMBERS
100
AcDbSpline
 62
7
  6
CONTINUOUS
 70
0
 71
3
 72
9
 73
5
 74
0
 42
0.0000001
 43
0.0000001
 44
0.0000000001
 40
0.0
 40
0.0
 40
0.0
 40
0.0
 40
0.5801773815
 40
1.0
 40
1.0
 40
1.0
 40
1.0
 10
4.7615390887
 20
4.9426709222
 30
0.0
 10
4.7603649735
 20
4.9424847196
 30
0.0
 10
4.7583522805
 20
4.9420759191
 30
0.0
 10
4.7564086755
 20
4.941397065
 30
0.0
 10
4.7556286713
 20
4.9410343363
 30
0.0
  0
LINE
  5
453
100
AcDbEntity
  8
ALL_ASSEMBLY_MEMBERS
100
AcDbLine
 62
7
  6
CONTINUOUS
 10
4.7724257982
 20
4.9433679126
 11
4.7779265985
 21
4.9432026406
  0
LINE
  5
454
100
AcDbEntity
  8
ALL_ASSEMBLY_MEMBERS
100
AcDbLine
 62
7
  6
CONTINUOUS
 10
4.7779265985
 20
4.9432026406
 11
4.7840167213
 21
4.9424622389
  0
SPLINE
  5
455
100
AcDbEntity
  8
ALL_ASSEMBLY_MEMBERS
100
AcDbSpline
 62
7
  6
CONTINUOUS
 70
0
 71
3
 72
9
 73
5
 74
0
 42
0.0000001
 43
0.0000001
 44
0.0000000001
 40
0.0
 40
0.0
 40
0.0
 40
0.0
 40
0.5737393781
 40
1.0
 40
1.0
 40
1.0
 40
1.0
 10
4.7840167213
 20
4.9424622389
 30
0.0
 10
4.7850764666
 20
4.9422561267
 30
0.0
 10
4.7869098578
 20
4.9418117326
 30
0.0
 10
4.7886712115
 20
4.9411285301
 30
0.0
 10
4.7893909126
 20
4.9407744353
 30
0.0
  0
SPLINE
  5
456
100
AcDbEntity
  8
ALL_ASSEMBLY_MEMBERS
100
AcDbSpline
 62
7
  6
CONTINUOUS
 70
0
 71
3
 72
11
 73
7
 74
0
 42
0.0000001
 43
0.0000001
 44
0.0000000001
 40
0.0
 40
0.0
 40
0.0
 40
0.0
 40
0.1953557523
 40
0.405675738
 40
0.6585102992
 40
1.0
 40
1.0
 40
1.0
 40
1.0
 10
4.7946820194
 20
4.9335828345
 30
0.0
 10
4.7946820194
 20
4.9341969181
 30
0.0
 10
4.7945320867
 20
4.9354802949
 30
0.0
 10
4.7936902038
 20
4.9374076319
 30
0.0
 10
4.7919693894
 20
4.9393149237
 30
0.0
 10
4.7903540904
 20
4.9403005493
 30
0.0
 10
4.7893909126
 20
4.9407744353
 30
0.0
  0
SPLINE
  5
457
100
AcDbEntity
  8
ALL_ASSEMBLY_MEMBERS
100
AcDbSpline
 62
7
  6
CONTINUOUS
 70
0
 71
3
 72
12
 73
8
 74
0
 42
0.0000001
 43
0.0000001
 44
0.0000000001
 40
0.0
 40
0.0
 40
0.0
 40
0.0
 40
0.097168212
 40
0.1760531751
 40
0.2812842109
 40
0.5792825096
 40
1.0
 40
1.0
 40
1.0
 40
1.0
 10
5.4634385725
 20
4.9443743508
 30
0.0
 10
5.4634487536
 20
4.9443201692
 30
0.0
 10
5.4633867923
 20
4.9442195449
 30
0.0
 10
5.4632655176
 20
4.9441223167
 30
0.0
 10
5.4630318069
 20
4.9439751577
 30
0.0
 10
5.4626053761
 20
4.9437838557
 30
0.0
 10
5.4622228768
 20
4.9436412437
 30
0.0
 10
5.4619974643
 20
4.9435627131
 30
0.0
  0
LINE
  5
458
100
AcDbEntity
  8
ALL_ASSEMBLY_MEMBERS
100
AcDbLine
 62
7
  6
CONTINUOUS
 10
5.4619974643
 20
4.9435627131
 11
5.461126935
 21
4.9432799616
  0
LINE
  5
459
100
AcDbEntity
  8
ALL_ASSEMBLY_MEMBERS
100
AcDbLine
 62
7
  6
CONTINUOUS
 10
4.6718052399
 20
4.9425961928
 11
4.664420105
 21
4.9423142715
  0
LINE
  5
45A
100
AcDbEntity
  8
ALL_ASSEMBLY_MEMBERS
100
AcDbLine
 62
7
  6
CONTINUOUS
 10
4.6766820265
 20
4.9426551114
 11
4.6718052399
 21
4.9425961928
  0
SPLINE
  5
45B
100
AcDbEntity
  8
ALL_ASSEMBLY_MEMBERS
100
AcDbSpline
 62
7
  6
CONTINUOUS
 70
0
 71
3
 72
14
 73
10
 74
0
 42
0.0000001
 43
0.0000001
 44
0.0000000001
 40
0.0
 40
0.0
 40
0.0
 40
0.0
 40
0.0432540708
 40
0.0926995051
 40
0.1570390707
 40
0.2475862248
 40
0.3778229492
 40
0.5558235348
 40
1.0
 40
1.0
 40
1.0
 40
1.0
 10
4.6816371855
 20
4.9411555432
 30
0.0
 10
4.6816371855
 20
4.9412346905
 30
0.0
 10
4.6816090716
 20
4.9414061181
 30
0.0
 10
4.6814576557
 20
4.9416575862
 30
0.0
 10
4.6811668369
 20
4.9419005314
 30
0.0
 10
4.6806959812
 20
4.9421328461
 30
0.0
 10
4.6799931413
 20
4.9423382207
 30
0.0
 10
4.678634871
 20
4.942573332
 30
0.0
 10
4.6774945399
 20
4.9426349255
 30
0.0
 10
4.6766820265
 20
4.9426551114
 30
0.0
  0
SPLINE
  5
45C
100
AcDbEntity
  8
ALL_ASSEMBLY_MEMBERS
100
AcDbSpline
 62
7
  6
CONTINUOUS
 70
0
 71
3
 72
15
 73
11
 74
0
 42
0.0000001
 43
0.0000001
 44
0.0000000001
 40
0.0
 40
0.0
 40
0.0
 40
0.0
 40
0.2072279329
 40
0.384902125
 40
0.5346210898
 40
0.6593932753
 40
0.7632112256
 40
0.8509308868
 40
0.928014025
 40
1.0
 40
1.0
 40
1.0
 40
1.0
 10
4.7446074156
 20
4.9254229713
 30
0.0
 10
4.7436457972
 20
4.9256982775
 30
0.0
 10
4.7418722442
 20
4.9262562508
 30
0.0
 10
4.7394688653
 20
4.9272030518
 30
0.0
 10
4.7375155291
 20
4.9281851501
 30
0.0
 10
4.7359871063
 20
4.9291941681
 30
0.0
 10
4.7348510032
 20
4.9302254931
 30
0.0
 10
4.7340748975
 20
4.9312774181
 30
0.0
 10
4.733632399
 20
4.9323444429
 30
0.0
 10
4.733540386
 20
4.9330676653
 30
0.0
 10
4.733540386
 20
4.9334151285
 30
0.0
  0
SPLINE
  5
45D
100
AcDbEntity
  8
ALL_ASSEMBLY_MEMBERS
100
AcDbSpline
 62
7
  6
CONTINUOUS
 70
0
 71
3
 72
9
 73
5
 74
0
 42
0.0000001
 43
0.0000001
 44
0.0000000001
 40
0.0
 40
0.0
 40
0.0
 40
0.0
 40
0.5581886797
 40
1.0
 40
1.0
 40
1.0
 40
1.0
 10
4.763183576
 20
4.922495361
 30
0.0
 10
4.75992938
 20
4.9226975573
 30
0.0
 10
4.7541083364
 20
4.9232765354
 30
0.0
 10
4.7483676124
 20
4.9244190592
 30
0.0
 10
4.7458718793
 20
4.9250757852
 30
0.0
  0
LINE
  5
45E
100
AcDbEntity
  8
ALL_ASSEMBLY_MEMBERS
100
AcDbLine
 62
7
  6
CONTINUOUS
 10
4.3881453136
 20
4.9272244085
 11
4.358631935
 21
4.9365116793
  0
LINE
  5
45F
100
AcDbEntity
  8
ALL_ASSEMBLY_MEMBERS
100
AcDbLine
 62
7
  6
CONTINUOUS
 10
4.0707818767
 20
4.9423142715
 11
4.0677199018
 21
4.9429168298
  0
LINE
  5
460
100
AcDbEntity
  8
ALL_ASSEMBLY_MEMBERS
100
AcDbLine
 62
7
  6
CONTINUOUS
 10
4.0711367255
 20
4.9426551114
 11
4.0705548188
 21
4.9426337895
  0
LINE
  5
461
100
AcDbEntity
  8
ALL_ASSEMBLY_MEMBERS
100
AcDbLine
 62
7
  6
CONTINUOUS
 10
4.0796331141
 20
4.9411555432
 11
4.0711367255
 21
4.9426551114
  0
LINE
  5
462
100
AcDbEntity
  8
ALL_ASSEMBLY_MEMBERS
100
AcDbLine
 62
7
  6
CONTINUOUS
 10
4.1506811108
 20
4.9271423782
 11
4.0916816354
 21
4.938777113
  0
LINE
  5
463
100
AcDbEntity
  8
ALL_ASSEMBLY_MEMBERS
100
AcDbLine
 62
7
  6
CONTINUOUS
 10
4.160268169
 20
4.9251057467
 11
4.1559097014
 21
4.9260880648
  0
LINE
  5
464
100
AcDbEntity
  8
ALL_ASSEMBLY_MEMBERS
100
AcDbLine
 62
7
  6
CONTINUOUS
 10
4.1515026225
 20
4.9269790565
 11
4.1506811108
 21
4.9271423782
  0
LINE
  5
465
100
AcDbEntity
  8
ALL_ASSEMBLY_MEMBERS
100
AcDbLine
 62
7
  6
CONTINUOUS
 10
4.0969894155
 20
4.940845514
 11
4.0939286309
 21
4.941454681
  0
LINE
  5
466
100
AcDbEntity
  8
ALL_ASSEMBLY_MEMBERS
100
AcDbLine
 62
7
  6
CONTINUOUS
 10
4.0973939307
 20
4.9414619546
 11
4.0967963069
 21
4.9413535292
  0
SPLINE
  5
467
100
AcDbEntity
  8
ALL_ASSEMBLY_MEMBERS
100
AcDbSpline
 62
7
  6
CONTINUOUS
 70
0
 71
3
 72
13
 73
9
 74
0
 42
0.0000001
 43
0.0000001
 44
0.0000000001
 40
0.0
 40
0.0
 40
0.0
 40
0.0
 40
0.2897054765
 40
0.5850650873
 40
0.7253467454
 40
0.8478685672
 40
0.9399328053
 40
1.0
 40
1.0
 40
1.0
 40
1.0
 10
4.1052112143
 20
4.9401977584
 30
0.0
 10
4.104460413
 20
4.9403455399
 30
0.0
 10
4.1029430026
 20
4.9406380803
 30
0.0
 10
4.1010577364
 20
4.9409799402
 30
0.0
 10
4.0996024839
 20
4.9412162666
 30
0.0
 10
4.0986746635
 20
4.9413503238
 30
0.0
 10
4.097953954
 20
4.9414332522
 30
0.0
 10
4.0975525808
 20
4.9414604537
 30
0.0
 10
4.0973939307
 20
4.9414619546
 30
0.0
  0
LINE
  5
468
100
AcDbEntity
  8
ALL_ASSEMBLY_MEMBERS
100
AcDbLine
 62
7
  6
CONTINUOUS
 10
4.1864944357
 20
4.923741131
 11
4.1821549461
 21
4.9248332207
  0
LINE
  5
469
100
AcDbEntity
  8
ALL_ASSEMBLY_MEMBERS
100
AcDbLine
 62
7
  6
CONTINUOUS
 10
4.1777533259
 20
4.9257509488
 11
4.176932496
 21
4.9259170412
  0
SPLINE
  5
46A
100
AcDbEntity
  8
ALL_ASSEMBLY_MEMBERS
100
AcDbSpline
 62
7
  6
CONTINUOUS
 70
0
 71
3
 72
9
 73
5
 74
0
 42
0.0000001
 43
0.0000001
 44
0.0000000001
 40
0.0
 40
0.0
 40
0.0
 40
0.0
 40
0.2906403922
 40
1.0
 40
1.0
 40
1.0
 40
1.0
 10
4.170478266
 20
4.9345501642
 30
0.0
 10
4.169170155
 20
4.9347119755
 30
0.0
 10
4.1646639693
 20
4.9352251125
 30
0.0
 10
4.1601424362
 20
4.9355967985
 30
0.0
 10
4.1569319367
 20
4.9358013794
 30
0.0
  0
LINE
  5
46B
100
AcDbEntity
  8
ALL_ASSEMBLY_MEMBERS
100
AcDbLine
 62
7
  6
CONTINUOUS
 10
4.2125022621
 20
4.9266160238
 11
4.2025577459
 21
4.9291107382
  0
LINE
  5
46C
100
AcDbEntity
  8
ALL_ASSEMBLY_MEMBERS
100
AcDbLine
 62
7
  6
CONTINUOUS
 10
4.1975006415
 20
4.9256308721
 11
4.1970390483
 21
4.9257863705
  0
LINE
  5
46D
100
AcDbEntity
  8
ALL_ASSEMBLY_MEMBERS
100
AcDbLine
 62
7
  6
CONTINUOUS
 10
4.1970390483
 20
4.9257863705
 11
4.1966635929
 21
4.9260280009
  0
LINE
  5
46E
100
AcDbEntity
  8
ALL_ASSEMBLY_MEMBERS
100
AcDbLine
 62
7
  6
CONTINUOUS
 10
4.2018153909
 20
4.9246209596
 11
4.1980415355
 21
4.9254761725
  0
LINE
  5
46F
100
AcDbEntity
  8
ALL_ASSEMBLY_MEMBERS
100
AcDbLine
 62
7
  6
CONTINUOUS
 10
4.1980415355
 20
4.9254761725
 11
4.1975006415
 21
4.9256308721
  0
LINE
  5
470
100
AcDbEntity
  8
ALL_ASSEMBLY_MEMBERS
100
AcDbLine
 62
7
  6
CONTINUOUS
 10
4.210113666
 20
4.9233247436
 11
4.2043154303
 21
4.9241547129
  0
SPLINE
  5
471
100
AcDbEntity
  8
ALL_ASSEMBLY_MEMBERS
100
AcDbSpline
 62
7
  6
CONTINUOUS
 70
0
 71
3
 72
9
 73
5
 74
0
 42
0.0000001
 43
0.0000001
 44
0.0000000001
 40
0.0
 40
0.0
 40
0.0
 40
0.0
 40
0.4157773902
 40
1.0
 40
1.0
 40
1.0
 40
1.0
 10
4.2191505532
 20
4.9229582972
 30
0.0
 10
4.2182654429
 20
4.9228989601
 30
0.0
 10
4.2161295564
 20
4.9228624465
 30
0.0
 10
4.2139976061
 20
4.9229782554
 30
0.0
 10
4.2127549023
 20
4.9230753286
 30
0.0
  0
SPLINE
  5
472
100
AcDbEntity
  8
ALL_ASSEMBLY_MEMBERS
100
AcDbSpline
 62
7
  6
CONTINUOUS
 70
0
 71
3
 72
15
 73
11
 74
0
 42
0.0000001
 43
0.0000001
 44
0.0000000001
 40
0.0
 40
0.0
 40
0.0
 40
0.0
 40
0.0396367045
 40
0.0668195009
 40
0.1002971492
 40
0.1872916909
 40
0.3012133068
 40
0.4411380782
 40
0.6055913053
 40
1.0
 40
1.0
 40
1.0
 40
1.0
 10
4.2161146456
 20
4.9250191923
 30
0.0
 10
4.2161220472
 20
4.9250571128
 30
0.0
 10
4.2160973777
 20
4.9251257515
 30
0.0
 10
4.2160346425
 20
4.9251995597
 30
0.0
 10
4.2159267427
 20
4.9252960807
 30
0.0
 10
4.2157337682
 20
4.9254197033
 30
0.0
 10
4.2154386031
 20
4.925572645
 30
0.0
 10
4.215065488
 20
4.9257375822
 30
0.0
 10
4.2144317326
 20
4.9259874774
 30
0.0
 10
4.2139163404
 20
4.9261647238
 30
0.0
 10
4.2135511558
 20
4.9262849066
 30
0.0
  0
SPLINE
  5
473
100
AcDbEntity
  8
ALL_ASSEMBLY_MEMBERS
100
AcDbSpline
 62
7
  6
CONTINUOUS
 70
0
 71
3
 72
14
 73
10
 74
0
 42
0.0000001
 43
0.0000001
 44
0.0000000001
 40
0.0
 40
0.0
 40
0.0
 40
0.0
 40
0.0567571096
 40
0.1264073464
 40
0.2160516754
 40
0.3281622029
 40
0.4631761214
 40
0.6207085469
 40
1.0
 40
1.0
 40
1.0
 40
1.0
 10
4.2219890437
 20
4.9237798242
 30
0.0
 10
4.2219790482
 20
4.9237227161
 30
0.0
 10
4.221918229
 20
4.9236018277
 30
0.0
 10
4.2217439144
 20
4.9234609765
 30
0.0
 10
4.2214933931
 20
4.923339434
 30
0.0
 10
4.2211652864
 20
4.9232336689
 30
0.0
 10
4.2207617801
 20
4.9231424229
 30
0.0
 10
4.2200839532
 20
4.9230332061
 30
0.0
 10
4.219537124
 20
4.9229842126
 30
0.0
 10
4.2191505532
 20
4.9229582972
 30
0.0
  0
LINE
  5
474
100
AcDbEntity
  8
ALL_ASSEMBLY_MEMBERS
100
AcDbLine
 62
7
  6
CONTINUOUS
 10
4.1867719033
 20
4.9235743712
 11
4.1864944357
 21
4.923741131
  0
SPLINE
  5
475
100
AcDbEntity
  8
ALL_ASSEMBLY_MEMBERS
100
AcDbSpline
 62
7
  6
CONTINUOUS
 70
0
 71
3
 72
11
 73
7
 74
0
 42
0.0000001
 43
0.0000001
 44
0.0000000001
 40
0.0
 40
0.0
 40
0.0
 40
0.0
 40
0.1923778299
 40
0.422984916
 40
0.6938081878
 40
1.0
 40
1.0
 40
1.0
 40
1.0
 10
4.8017543332
 20
4.9256968826
 30
0.0
 10
4.8007136813
 20
4.9253369113
 30
0.0
 10
4.7983885744
 20
4.9246510068
 30
0.0
 10
4.7945045819
 20
4.9238094223
 30
0.0
 10
4.7899314358
 20
4.9231165507
 30
0.0
 10
4.7866429727
 20
4.9227939864
 30
0.0
 10
4.784895506
 20
4.9226597873
 30
0.0
  0
SPLINE
  5
476
100
AcDbEntity
  8
ALL_ASSEMBLY_MEMBERS
100
AcDbSpline
 62
7
  6
CONTINUOUS
 70
0
 71
3
 72
15
 73
11
 74
0
 42
0.0000001
 43
0.0000001
 44
0.0000000001
 40
0.0
 40
0.0
 40
0.0
 40
0.0
 40
0.0768360467
 40
0.1588021338
 40
0.2510202881
 40
0.3581741421
 40
0.4840829077
 40
0.6318714221
 40
0.803547966
 40
1.0
 40
1.0
 40
1.0
 40
1.0
 10
4.8117311382
 20
4.9337523795
 30
0.0
 10
4.8117311382
 20
4.9334053545
 30
0.0
 10
4.8116402418
 20
4.9326847625
 30
0.0
 10
4.8112132737
 20
4.9316226971
 30
0.0
 10
4.8104784678
 20
4.9305747186
 30
0.0
 10
4.8094220943
 20
4.9295444221
 30
0.0
 10
4.8080263207
 20
4.9285312788
 30
0.0
 10
4.8062727453
 20
4.9275391583
 30
0.0
 10
4.8041504878
 20
4.9265718554
 30
0.0
 10
4.8025928476
 20
4.9259869326
 30
0.0
 10
4.8017543332
 20
4.9256968826
 30
0.0
  0
SPLINE
  5
477
100
AcDbEntity
  8
ALL_ASSEMBLY_MEMBERS
100
AcDbSpline
 62
7
  6
CONTINUOUS
 70
0
 71
3
 72
15
 73
11
 74
0
 42
0.0000001
 43
0.0000001
 44
0.0000000001
 40
0.0
 40
0.0
 40
0.0
 40
0.0
 40
0.2076403031
 40
0.3854195306
 40
0.5350076719
 40
0.6594894457
 40
0.7629766548
 40
0.8504709758
 40
0.9275925694
 40
1.0
 40
1.0
 40
1.0
 40
1.0
 10
4.8302711075
 20
4.9257699285
 30
0.0
 10
4.8293102764
 20
4.9260201084
 30
0.0
 10
4.8275383052
 20
4.9265318643
 30
0.0
 10
4.8251351929
 20
4.9274169865
 30
0.0
 10
4.8231817491
 20
4.9283493238
 30
0.0
 10
4.8216528814
 20
4.9293199846
 30
0.0
 10
4.8205160418
 20
4.930323471
 30
0.0
 10
4.8197393215
 20
4.931357262
 30
0.0
 10
4.8192970578
 20
4.9324144179
 30
0.0
 10
4.8192058692
 20
4.9331332406
 30
0.0
 10
4.8192058692
 20
4.9334794691
 30
0.0
  0
SPLINE
  5
478
100
AcDbEntity
  8
ALL_ASSEMBLY_MEMBERS
100
AcDbSpline
 62
7
  6
CONTINUOUS
 70
0
 71
3
 72
9
 73
5
 74
0
 42
0.0000001
 43
0.0000001
 44
0.0000000001
 40
0.0
 40
0.0
 40
0.0
 40
0.0
 40
0.5588864426
 40
1.0
 40
1.0
 40
1.0
 40
1.0
 10
4.8491487769
 20
4.9233169388
 30
0.0
 10
4.845853823
 20
4.9234281546
 30
0.0
 10
4.8399609244
 20
4.923845883
 30
0.0
 10
4.8341337952
 20
4.9248423067
 30
0.0
 10
4.8316012735
 20
4.9254400032
 30
0.0
  0
SPLINE
  5
479
100
AcDbEntity
  8
ALL_ASSEMBLY_MEMBERS
100
AcDbSpline
 62
7
  6
CONTINUOUS
 70
0
 71
3
 72
11
 73
7
 74
0
 42
0.0000001
 43
0.0000001
 44
0.0000000001
 40
0.0
 40
0.0
 40
0.0
 40
0.0
 40
0.1952261615
 40
0.4264466789
 40
0.6957189663
 40
1.0
 40
1.0
 40
1.0
 40
1.0
 10
4.8874200382
 20
4.9274643622
 30
0.0
 10
4.8864559917
 20
4.9271119544
 30
0.0
 10
4.8843178123
 20
4.9264294842
 30
0.0
 10
4.8807639961
 20
4.9255538344
 30
0.0
 10
4.8766014723
 20
4.924782872
 30
0.0
 10
4.8736114396
 20
4.924381946
 30
0.0
 10
4.8720218455
 20
4.9242013873
 30
0.0
  0
SPLINE
  5
47A
100
AcDbEntity
  8
ALL_ASSEMBLY_MEMBERS
100
AcDbSpline
 62
7
  6
CONTINUOUS
 70
0
 71
3
 72
15
 73
11
 74
0
 42
0.0000001
 43
0.0000001
 44
0.0000000001
 40
0.0
 40
0.0
 40
0.0
 40
0.0
 40
0.0756788437
 40
0.1569563601
 40
0.248926417
 40
0.3561803463
 40
0.4824326575
 40
0.6307162734
 40
0.8029624957
 40
1.0
 40
1.0
 40
1.0
 40
1.0
 10
4.8973966128
 20
4.935639752
 30
0.0
 10
4.8973966128
 20
4.9352967977
 30
0.0
 10
4.8973047693
 20
4.9345822238
 30
0.0
 10
4.896877025
 20
4.9335267873
 30
0.0
 10
4.8961423001
 20
4.9324785472
 30
0.0
 10
4.8950864681
 20
4.9314397762
 30
0.0
 10
4.8936912996
 20
4.9304091683
 30
0.0
 10
4.8919382502
 20
4.9293899911
 30
0.0
 10
4.8898164239
 20
4.9283856001
 30
0.0
 10
4.8882586782
 20
4.9277709275
 30
0.0
 10
4.8874200382
 20
4.9274643622
 30
0.0
  0
SPLINE
  5
47B
100
AcDbEntity
  8
ALL_ASSEMBLY_MEMBERS
100
AcDbSpline
 62
7
  6
CONTINUOUS
 70
0
 71
3
 72
11
 73
7
 74
0
 42
0.0000001
 43
0.0000001
 44
0.0000000001
 40
0.0
 40
0.0
 40
0.0
 40
0.0
 40
0.1863152501
 40
0.4102888079
 40
0.679985406
 40
1.0
 40
1.0
 40
1.0
 40
1.0
 10
4.7342624245
 20
4.9357569451
 30
0.0
 10
4.7345914004
 20
4.935247882
 30
0.0
 10
4.7355085025
 20
4.934251082
 30
0.0
 10
4.7373372802
 20
4.932989026
 30
0.0
 10
4.7397211916
 20
4.9318223313
 30
0.0
 10
4.7415259012
 20
4.9311636385
 30
0.0
 10
4.7425156885
 20
4.9308409695
 30
0.0
  0
LINE
  5
47C
100
AcDbEntity
  8
ALL_ASSEMBLY_MEMBERS
100
AcDbLine
 62
7
  6
CONTINUOUS
 10
4.7425156885
 20
4.9308409695
 11
4.7446070901
 21
4.9302119322
  0
SPLINE
  5
47D
100
AcDbEntity
  8
ALL_ASSEMBLY_MEMBERS
100
AcDbSpline
 62
7
  6
CONTINUOUS
 70
0
 71
3
 72
11
 73
7
 74
0
 42
0.0000001
 43
0.0000001
 44
0.0000000001
 40
0.0
 40
0.0
 40
0.0
 40
0.0
 40
0.3226447514
 40
0.5934486008
 40
0.8166151288
 40
1.0
 40
1.0
 40
1.0
 40
1.0
 10
4.8017545619
 20
4.930493832
 30
0.0
 10
4.8028751229
 20
4.9308725886
 30
0.0
 10
4.8049142846
 20
4.9316392734
 30
0.0
 10
4.8076007951
 20
4.9329779466
 30
0.0
 10
4.809646038
 20
4.9344049641
 30
0.0
 10
4.8106628915
 20
4.9355265829
 30
0.0
 10
4.8110188541
 20
4.9360969185
 30
0.0
  0
LINE
  5
47E
100
AcDbEntity
  8
ALL_ASSEMBLY_MEMBERS
100
AcDbLine
 62
7
  6
CONTINUOUS
 10
4.7928595197
 20
4.9284314533
 11
4.7992763215
 21
4.9297478259
  0
LINE
  5
47F
100
AcDbEntity
  8
ALL_ASSEMBLY_MEMBERS
100
AcDbLine
 62
7
  6
CONTINUOUS
 10
4.7992763215
 20
4.9297478259
 11
4.8017545619
 21
4.930493832
  0
SPLINE
  5
480
100
AcDbEntity
  8
ALL_ASSEMBLY_MEMBERS
100
AcDbSpline
 62
7
  6
CONTINUOUS
 70
0
 71
3
 72
9
 73
5
 74
0
 42
0.0000001
 43
0.0000001
 44
0.0000000001
 40
0.0
 40
0.0
 40
0.0
 40
0.0
 40
0.4741085748
 40
1.0
 40
1.0
 40
1.0
 40
1.0
 10
4.7505894961
 20
4.9388254137
 30
0.0
 10
4.7505894961
 20
4.9395587919
 30
0.0
 10
4.7507842464
 20
4.9411180135
 30
0.0
 10
4.7515139586
 20
4.942530622
 30
0.0
 10
4.7520120149
 20
4.9431738077
 30
0.0
  0
SPLINE
  5
481
100
AcDbEntity
  8
ALL_ASSEMBLY_MEMBERS
100
AcDbSpline
 62
7
  6
CONTINUOUS
 70
0
 71
3
 72
12
 73
8
 74
0
 42
0.0000001
 43
0.0000001
 44
0.0000000001
 40
0.0
 40
0.0
 40
0.0
 40
0.0
 40
0.3185816149
 40
0.4511064033
 40
0.5718669825
 40
0.7919945927
 40
1.0
 40
1.0
 40
1.0
 40
1.0
 10
4.8764867921
 20
4.9448482123
 30
0.0
 10
4.8771851478
 20
4.9443983833
 30
0.0
 10
4.8781198662
 20
4.9436582876
 30
0.0
 10
4.8790757376
 20
4.9425084717
 30
0.0
 10
4.8797272253
 20
4.9414560653
 30
0.0
 10
4.880234457
 20
4.9400988948
 30
0.0
 10
4.8803475098
 20
4.9389770794
 30
0.0
 10
4.8803475098
 20
4.9384347125
 30
0.0
  0
SPLINE
  5
482
100
AcDbEntity
  8
ALL_ASSEMBLY_MEMBERS
100
AcDbSpline
 62
7
  6
CONTINUOUS
 70
0
 71
3
 72
11
 73
7
 74
0
 42
0.0000001
 43
0.0000001
 44
0.0000000001
 40
0.0
 40
0.0
 40
0.0
 40
0.0
 40
0.2291001315
 40
0.4643105188
 40
0.7155502587
 40
1.0
 40
1.0
 40
1.0
 40
1.0
 10
4.8362549865
 20
4.9388254137
 30
0.0
 10
4.8362549865
 20
4.9392360437
 30
0.0
 10
4.8363109746
 20
4.9400702285
 30
0.0
 10
4.836619507
 20
4.941322462
 30
0.0
 10
4.8372062979
 20
4.9425837708
 30
0.0
 10
4.8377978318
 20
4.9433520765
 30
0.0
 10
4.838148411
 20
4.9437222487
 30
0.0
  0
SPLINE
  5
483
100
AcDbEntity
  8
ALL_ASSEMBLY_MEMBERS
100
AcDbSpline
 62
7
  6
CONTINUOUS
 70
0
 71
3
 72
11
 73
7
 74
0
 42
0.0000001
 43
0.0000001
 44
0.0000000001
 40
0.0
 40
0.0
 40
0.0
 40
0.0
 40
0.2848495924
 40
0.5369915875
 40
0.7719481655
 40
1.0
 40
1.0
 40
1.0
 40
1.0
 10
4.7927311611
 20
4.9432895006
 30
0.0
 10
4.7930811937
 20
4.9429201777
 30
0.0
 10
4.7936790041
 20
4.9421597128
 30
0.0
 10
4.7942912549
 20
4.9409138191
 30
0.0
 10
4.7946200109
 20
4.9396713418
 30
0.0
 10
4.7946820194
 20
4.9388420953
 30
0.0
 10
4.7946820194
 20
4.9384347125
 30
0.0
  0
SPLINE
  5
484
100
AcDbEntity
  8
ALL_ASSEMBLY_MEMBERS
100
AcDbSpline
 62
7
  6
CONTINUOUS
 70
0
 71
3
 72
11
 73
7
 74
0
 42
0.0000001
 43
0.0000001
 44
0.0000000001
 40
0.0
 40
0.0
 40
0.0
 40
0.0
 40
0.1859662628
 40
0.4097042279
 40
0.6794842401
 40
1.0
 40
1.0
 40
1.0
 40
1.0
 10
4.8199037906
 20
4.935794614
 30
0.0
 10
4.820229294
 20
4.9352814093
 30
0.0
 10
4.8211436233
 20
4.9342755645
 30
0.0
 10
4.8229760994
 20
4.9330035263
 30
0.0
 10
4.8253707014
 20
4.9318283227
 30
0.0
 10
4.8271853252
 20
4.9311656138
 30
0.0
 10
4.8281811705
 20
4.9308409699
 30
0.0
  0
LINE
  5
485
100
AcDbEntity
  8
ALL_ASSEMBLY_MEMBERS
100
AcDbLine
 62
7
  6
CONTINUOUS
 10
4.8281811705
 20
4.9308409699
 11
4.8302725713
 21
4.9302119328
  0
SPLINE
  5
486
100
AcDbEntity
  8
ALL_ASSEMBLY_MEMBERS
100
AcDbSpline
 62
7
  6
CONTINUOUS
 70
0
 71
3
 72
9
 73
5
 74
0
 42
0.0000001
 43
0.0000001
 44
0.0000000001
 40
0.0
 40
0.0
 40
0.0
 40
0.0
 40
0.5282131363
 40
1.0
 40
1.0
 40
1.0
 40
1.0
 10
4.8763958645
 20
4.9281318656
 30
0.0
 10
4.8779156445
 20
4.9283265647
 30
0.0
 10
4.8807844539
 20
4.9287667638
 30
0.0
 10
4.8836198548
 20
4.9293938148
 30
0.0
 10
4.8849417978
 20
4.9297478259
 30
0.0
  0
LINE
  5
487
100
AcDbEntity
  8
ALL_ASSEMBLY_MEMBERS
100
AcDbLine
 62
7
  6
CONTINUOUS
 10
4.8849417978
 20
4.9297478259
 11
4.8874200382
 21
4.930493832
  0
LINE
  5
488
100
AcDbEntity
  8
ALL_ASSEMBLY_MEMBERS
100
AcDbLine
 62
7
  6
CONTINUOUS
 10
4.8874200382
 20
4.930493832
 11
4.8911027718
 21
4.9319336744
  0
SPLINE
  5
489
100
AcDbEntity
  8
ALL_ASSEMBLY_MEMBERS
100
AcDbSpline
 62
7
  6
CONTINUOUS
 70
0
 71
3
 72
11
 73
7
 74
0
 42
0.0000001
 43
0.0000001
 44
0.0000000001
 40
0.0
 40
0.0
 40
0.0
 40
0.0
 40
0.3156169845
 40
0.5822356899
 40
0.8065496703
 40
1.0
 40
1.0
 40
1.0
 40
1.0
 10
4.8911027718
 20
4.9319336744
 30
0.0
 10
4.8918805996
 20
4.9322896288
 30
0.0
 10
4.8932891118
 20
4.933009001
 30
0.0
 10
4.8950969653
 20
4.9342530713
 30
0.0
 10
4.8964161066
 20
4.9355764541
 30
0.0
 10
4.8969852089
 20
4.9365797306
 30
0.0
 10
4.8971583235
 20
4.9370746284
 30
0.0
  0
ENDSEC
  0
SECTION
  2
OBJECTS
  0
DICTIONARY
  5
C
100
AcDbDictionary
280
0
281
1
  3
ACAD_GROUP
350
D
  3
ACAD_MLINESTYLE
350
17
  3
ACAD_LAYOUT
350
1A
  3
ACAD_PLOTSETTINGS
350
19
  3
ACAD_PLOTSTYLENAME
350
E
  0
DICTIONARY
  5
D
102
{ACAD_REACTORS
330
C
102
}
100
AcDbDictionary
280
0
281
1
  0
ACDBDICTIONARYWDFLT
  5
E
102
{ACAD_REACTORS
330
C
102
}
100
AcDbDictionary
281
1
  3
Normal
350
F
100
AcDbDictionaryWithDefault
340
F
  0
DICTIONARY
  5
17
102
{ACAD_REACTORS
330
C
102
}
100
AcDbDictionary
280
0
281
1
  3
Standard
350
18
  0
DICTIONARY
  5
19
102
{ACAD_REACTORS
330
C
102
}
100
AcDbDictionary
281
1
  0
DICTIONARY
  5
1A
102
{ACAD_REACTORS
330
C
102
}
100
AcDbDictionary
281
1
  3
Model
350
48A
  3
Layout1
350
48B
  0
ACDBPLACEHOLDER
  5
F
102
{ACAD_REACTORS
330
E
102
}
  0
MLINESTYLE
  5
18
102
{ACAD_REACTORS
330
17
102
}
100
AcDbMlineStyle
  2
STANDARD
 70
0
  3

 62
256
 51
90.0
 52
90.0
 71
2
 49
0.5
 62
256
  6
BYLAYER
 49
-0.5
 62
256
  6
BYLAYER
  0
LAYOUT
  5
48A
102
{ACAD_REACTORS
330
1A
102
}
100
AcDbPlotSettings
  1

  2
none_device
  4
ANSI_A_(11.00_x_8.50_Inches)
  6

 40
0.0
 41
0.0
 42
0.0
 43
0.0
 44
279.4
 45
215.9
 46
0.0
 47
0.0
 48
0.0
 49
0.0
140
0.0
141
0.0
142
1.0
143
1.0
 70
1024
 72
0
 73
0
 74
0
  7

 75
0
147
1.0
148
0.0
149
0.0
100
AcDbLayout
  1
Model
 70
0
 71
0
 10
0.0
 20
0.0
 11
11.0
 21
8.5
 12
0.0
 22
0.0
 32
0.0
 14
0.0
 24
0.0
 34
0.0
 15
0.0
 25
0.0
 35
0.0
146
0.0
 13
0.0
 23
0.0
 33
0.0
 16
1.0
 26
0.0
 36
0.0
 17
0.0
 27
1.0
 37
0.0
 76
0
330
21E
345
0
346
0
  0
LAYOUT
  5
48B
102
{ACAD_REACTORS
330
1A
102
}
100
AcDbPlotSettings
  1

  2
none_device
  4
ANSI_A_(11.00_x_8.50_Inches)
  6

 40
0.0
 41
0.0
 42
0.0
 43
0.0
 44
279.4
 45
215.9
 46
0.0
 47
0.0
 48
0.0
 49
0.0
140
0.0
141
0.0
142
1.0
143
1.0
 70
0
 72
0
 73
0
 74
0
  7

 75
0
147
1.0
148
0.0
149
0.0
100
AcDbLayout
  1
Layout1
 70
0
 71
1
 10
0.0
 20
0.0
 11
11.0
 21
8.5
 12
0.0
 22
0.0
 32
0.0
 14
0.0
 24
0.0
 34
0.0
 15
0.0
 25
0.0
 35
0.0
146
0.0
 13
0.0
 23
0.0
 33
0.0
 16
1.0
 26
0.0
 36
0.0
 17
0.0
 27
1.0
 37
0.0
 76
0
330
21F
345
0
346
0
  0
ENDSEC
  0
EOF
