999
DXF file: 3-2545_FRONT.dxf
999
Pro/ENGINEER 2018400 by Parametric Technology Corporation
  0
SECTION
  2
HEADER
  9
$ACADVER
  1
AC1027
  9
$DWGCODEPAGE
  3
ANSI_1252
  9
$EXTMAX
 10
11.0
 20
8.5
 30
0.0
  9
$EXTMIN
 10
0.0
 20
0.0
 30
0.0
  9
$LIMMIN
 10
0.0
 20
0.0
  9
$LIMMAX
 10
11.0
 20
8.5
  9
$VIEWCTR
 10
5.5
 20
4.25
  9
$VIEWSIZE
 40
8.5
  9
$CLAYER
  8
0
  9
$LTSCALE
 40
0.605
  9
$CELTYPE
  6
BYLAYER
  9
$DIMSCALE
 40
1.0
  9
$DIMASZ
 40
0.1
  9
$DIMEXO
 40
0.0625
  9
$DIMDLI
 40
0.418
  9
$DIMEXE
 40
0.125
  9
$DIMCEN
 40
0.099
  9
$DIMLFAC
 40
1.0
  9
$DIMBLK
  1
_FILLED
  9
$DIMALT
 70
1
  9
$DIMALTD
 70
2
  9
$DIMALTTD
 70
2
  9
$DIMALTF
 40
25.4
  9
$DIMTXT
 40
0.08
  9
$DIMTOL
 70
1
  9
$DIMLIM
 70
0
  9
$DIMTFAC
 40
1.0
  9
$DIMTP
 40
0.001
  9
$DIMTM
 40
0.001
  9
$DIMGAP
 40
0.09
  9
$DIMDSEP
 70
46
  9
$AUNITS
 70
0
  9
$PDMODE
 70
3
  9
$PDSIZE
 40
0.3125
  9
$HANDSEED
  5
2C1
  9
$TILEMODE
 70
1
  9
$MEASUREMENT
 70
0
  9
$INSUNITS
 70
1
  0
ENDSEC
  0
SECTION
  2
CLASSES
  0
CLASS
  1
ACDBDICTIONARYWDFLT
  2
AcDbDictionaryWithDefault
  3
AutoCAD 2000
 90
0
 91
1
280
0
281
0
  0
CLASS
  1
ACDBPLACEHOLDER
  2
AcDbPlaceHolder
  3
AutoCAD 2000
 90
0
 91
1
280
0
281
0
  0
CLASS
  1
LAYOUT
  2
AcDbLayout
  3
AutoCAD 2000
 90
0
 91
0
280
0
281
0
  0
ENDSEC
  0
SECTION
  2
TABLES
  0
TABLE
  2
VPORT
  5
8
100
AcDbSymbolTable
 70
2
  0
VPORT
  5
1F4
100
AcDbSymbolTableRecord
100
AcDbViewportTableRecord
  2
*ACTIVE
 70
0
 10
0.0
 20
0.0
 11
1.0
 21
1.0
 12
5.5
 22
4.25
 13
0.0
 23
0.0
 14
1.0
 24
1.0
 15
0.0
 25
0.0
 16
0.0
 26
0.0
 36
1.0
 17
0.0
 27
0.0
 37
0.0
 40
8.5
 41
1.2941176471
 42
50.0
 43
0.0
 44
0.0
 50
0.0
 51
0.0
 71
0
 72
100
 73
1
 74
1
 75
0
 76
0
 77
0
 78
0
  0
ENDTAB
  0
TABLE
  2
LTYPE
  5
5
100
AcDbSymbolTable
 70
6
  0
LTYPE
  5
14
100
AcDbSymbolTableRecord
100
AcDbLinetypeTableRecord
  2
BYBLOCK
 70
0
  3

 72
65
 73
0
 40
0.0
  0
LTYPE
  5
15
100
AcDbSymbolTableRecord
100
AcDbLinetypeTableRecord
  2
BYLAYER
 70
0
  3

 72
65
 73
0
 40
0.0
  0
LTYPE
  5
16
100
AcDbSymbolTableRecord
100
AcDbLinetypeTableRecord
  2
CONTINUOUS
 70
64
  3
Solid line
 72
65
 73
0
 40
0.0
  0
LTYPE
  5
1F5
100
AcDbSymbolTableRecord
100
AcDbLinetypeTableRecord
  2
CENTER
 70
64
  3
____ _ ____ _ ____ _ ____ _ ____ _ ____ _ ____
 72
65
 73
4
 40
0.6
 49
0.375
 74
0
 49
-0.075
 74
0
 49
0.075
 74
0
 49
-0.075
 74
0
  0
LTYPE
  5
1F6
100
AcDbSymbolTableRecord
100
AcDbLinetypeTableRecord
  2
HIDDEN
 70
64
  3
- - - - - - - - - - - - - - - - - - - -
 72
65
 73
2
 40
0.2
 49
0.1
 74
0
 49
-0.1
 74
0
  0
LTYPE
  5
1F7
100
AcDbSymbolTableRecord
100
AcDbLinetypeTableRecord
  2
PHANTOM
 70
64
  3
_____ _ _ _____ _ _ _____ _ _ _____
 72
65
 73
6
 40
0.8
 49
0.45
 74
0
 49
-0.05
 74
0
 49
0.1
 74
0
 49
-0.05
 74
0
 49
0.1
 74
0
 49
-0.05
 74
0
  0
LTYPE
  5
1F8
100
AcDbSymbolTableRecord
100
AcDbLinetypeTableRecord
  2
DOT
 70
64
  3
. . . . . . . . . . . . . . . . . . . .
 72
65
 73
2
 40
0.2
 49
0.1
 74
0
 49
-0.1
 74
0
  0
LTYPE
  5
1F9
100
AcDbSymbolTableRecord
100
AcDbLinetypeTableRecord
  2
DASHED
 70
64
  3
- - - - - - - - - - - - - - - - - - - -
 72
65
 73
2
 40
0.2
 49
0.1
 74
0
 49
-0.1
 74
0
  0
ENDTAB
  0
TABLE
  2
LAYER
  5
2
100
AcDbSymbolTable
 70
36
  0
LAYER
  5
10
100
AcDbSymbolTableRecord
100
AcDbLayerTableRecord
  2
0
 70
0
 62
7
  6
CONTINUOUS
370
-3
390
F
  0
LAYER
  5
1FA
100
AcDbSymbolTableRecord
100
AcDbLayerTableRecord
  2
DEFAULT_1
 70
0
 62
7
  6
CENTER
370
-3
390
F
  0
LAYER
  5
1FB
100
AcDbSymbolTableRecord
100
AcDbLayerTableRecord
  2
DEFAULT_2
 70
0
 62
8
  6
HIDDEN
370
-3
390
F
  0
LAYER
  5
1FC
100
AcDbSymbolTableRecord
100
AcDbLayerTableRecord
  2
DEFAULT_3
 70
0
 62
7
  6
PHANTOM
370
-3
390
F
  0
LAYER
  5
1FD
100
AcDbSymbolTableRecord
100
AcDbLayerTableRecord
  2
3-985_ASSY_PLANES
 70
0
 62
7
  6
CONTINUOUS
370
-3
390
F
  0
LAYER
  5
1FE
100
AcDbSymbolTableRecord
100
AcDbLayerTableRecord
  2
ALL_ASSEMBLY_MEMBERS
 70
0
 62
7
  6
CONTINUOUS
370
-3
390
F
  0
LAYER
  5
1FF
100
AcDbSymbolTableRecord
100
AcDbLayerTableRecord
  2
ALL_FEATURES
 70
0
 62
7
  6
CONTINUOUS
370
-3
390
F
  0
LAYER
  5
200
100
AcDbSymbolTableRecord
100
AcDbLayerTableRecord
  2
AXES_FEATURES
 70
0
 62
7
  6
CONTINUOUS
370
-3
390
F
  0
LAYER
  5
201
100
AcDbSymbolTableRecord
100
AcDbLayerTableRecord
  2
CHAMFER_FEATURES
 70
0
 62
7
  6
CONTINUOUS
370
-3
390
F
  0
LAYER
  5
202
100
AcDbSymbolTableRecord
100
AcDbLayerTableRecord
  2
COSMETIC_SKETCHES
 70
0
 62
7
  6
CONTINUOUS
370
-3
390
F
  0
LAYER
  5
203
100
AcDbSymbolTableRecord
100
AcDbLayerTableRecord
  2
CUT_FEATURES
 70
0
 62
7
  6
CONTINUOUS
370
-3
390
F
  0
LAYER
  5
204
100
AcDbSymbolTableRecord
100
AcDbLayerTableRecord
  2
DATUM_CURVES
 70
0
 62
7
  6
CONTINUOUS
370
-3
390
F
  0
LAYER
  5
205
100
AcDbSymbolTableRecord
100
AcDbLayerTableRecord
  2
DATUM_PLANES
 70
0
 62
7
  6
CONTINUOUS
370
-3
390
F
  0
LAYER
  5
206
100
AcDbSymbolTableRecord
100
AcDbLayerTableRecord
  2
DATUM_POINTS
 70
0
 62
7
  6
CONTINUOUS
370
-3
390
F
  0
LAYER
  5
207
100
AcDbSymbolTableRecord
100
AcDbLayerTableRecord
  2
DEFAULT_COORDINATE_SYSTEM
 70
0
 62
7
  6
CONTINUOUS
370
-3
390
F
  0
LAYER
  5
208
100
AcDbSymbolTableRecord
100
AcDbLayerTableRecord
  2
DEFAULT_DATUM_AXES
 70
0
 62
7
  6
CONTINUOUS
370
-3
390
F
  0
LAYER
  5
209
100
AcDbSymbolTableRecord
100
AcDbLayerTableRecord
  2
DEFAULT_DATUM_CURVES
 70
0
 62
7
  6
CONTINUOUS
370
-3
390
F
  0
LAYER
  5
20A
100
AcDbSymbolTableRecord
100
AcDbLayerTableRecord
  2
DEFAULT_DATUM_PLANES
 70
0
 62
7
  6
CONTINUOUS
370
-3
390
F
  0
LAYER
  5
20B
100
AcDbSymbolTableRecord
100
AcDbLayerTableRecord
  2
DEFAULT_SURFACES
 70
0
 62
7
  6
CONTINUOUS
370
-3
390
F
  0
LAYER
  5
20C
100
AcDbSymbolTableRecord
100
AcDbLayerTableRecord
  2
DIMENSIONS
 70
0
 62
7
  6
CONTINUOUS
370
-3
390
F
  0
LAYER
  5
20D
100
AcDbSymbolTableRecord
100
AcDbLayerTableRecord
  2
HOLE_FEATURES
 70
0
 62
7
  6
CONTINUOUS
370
-3
390
F
  0
LAYER
  5
20E
100
AcDbSymbolTableRecord
100
AcDbLayerTableRecord
  2
NONE
 70
0
 62
7
  6
CONTINUOUS
370
-3
390
F
  0
LAYER
  5
20F
100
AcDbSymbolTableRecord
100
AcDbLayerTableRecord
  2
PART_REFERENCE_DIMENSIONS
 70
0
 62
7
  6
CONTINUOUS
370
-3
390
F
  0
LAYER
  5
210
100
AcDbSymbolTableRecord
100
AcDbLayerTableRecord
  2
PLATED_SURFACE_AREA
 70
0
 62
7
  6
CONTINUOUS
370
-3
390
F
  0
LAYER
  5
211
100
AcDbSymbolTableRecord
100
AcDbLayerTableRecord
  2
POINTS
 70
0
 62
7
  6
CONTINUOUS
370
-3
390
F
  0
LAYER
  5
212
100
AcDbSymbolTableRecord
100
AcDbLayerTableRecord
  2
PROTRUSION_FEATURES
 70
0
 62
7
  6
CONTINUOUS
370
-3
390
F
  0
LAYER
  5
213
100
AcDbSymbolTableRecord
100
AcDbLayerTableRecord
  2
QUILTS
 70
0
 62
7
  6
CONTINUOUS
370
-3
390
F
  0
LAYER
  5
214
100
AcDbSymbolTableRecord
100
AcDbLayerTableRecord
  2
REFERENCE_DIMENSIONS
 70
0
 62
7
  6
CONTINUOUS
370
-3
390
F
  0
LAYER
  5
215
100
AcDbSymbolTableRecord
100
AcDbLayerTableRecord
  2
ROUND_FEATURES
 70
0
 62
7
  6
CONTINUOUS
370
-3
390
F
  0
LAYER
  5
216
100
AcDbSymbolTableRecord
100
AcDbLayerTableRecord
  2
SHELL_FEATURES
 70
0
 62
7
  6
CONTINUOUS
370
-3
390
F
  0
LAYER
  5
217
100
AcDbSymbolTableRecord
100
AcDbLayerTableRecord
  2
SURFACE_FEATURES
 70
0
 62
7
  6
CONTINUOUS
370
-3
390
F
  0
LAYER
  5
218
100
AcDbSymbolTableRecord
100
AcDbLayerTableRecord
  2
WETTED_SURFACES
 70
0
 62
7
  6
CONTINUOUS
370
-3
390
F
  0
LAYER
  5
219
100
AcDbSymbolTableRecord
100
AcDbLayerTableRecord
  2
WETTED_SURFACE_AREA
 70
0
 62
7
  6
CONTINUOUS
370
-3
390
F
  0
LAYER
  5
21A
100
AcDbSymbolTableRecord
100
AcDbLayerTableRecord
  2
XSEC_DATUMS
 70
0
 62
7
  6
CONTINUOUS
370
-3
390
F
  0
ENDTAB
  0
TABLE
  2
STYLE
  5
3
100
AcDbSymbolTable
 70
1
  0
STYLE
  5
11
100
AcDbSymbolTableRecord
100
AcDbTextStyleTableRecord
  2
STANDARD
 70
0
 40
0.0
 41
0.8
 50
0.0
 71
0
 42
0.2
  3
txt
  4

  0
STYLE
  5
21B
100
AcDbSymbolTableRecord
100
AcDbTextStyleTableRecord
  2
TEXTSTYLE_1
 70
0
 40
0.0
 41
0.8
 50
0.0
 71
0
 42
0.2
  3
gdt
  4

  0
ENDTAB
  0
TABLE
  2
VIEW
  5
6
100
AcDbSymbolTable
 70
0
  0
ENDTAB
  0
TABLE
  2
UCS
  5
7
100
AcDbSymbolTable
 70
0
  0
ENDTAB
  0
TABLE
  2
APPID
  5
9
100
AcDbSymbolTable
 70
1
  0
APPID
  5
21C
100
AcDbSymbolTableRecord
100
AcDbRegAppTableRecord
  2
ACAD
 70
0
  0
ENDTAB
  0
TABLE
  2
BLOCK_RECORD
  5
1
100
AcDbSymbolTable
 70
0
  0
BLOCK_RECORD
  5
21D
100
AcDbSymbolTableRecord
100
AcDbBlockTableRecord
  2
*Model_Space
  0
BLOCK_RECORD
  5
21E
100
AcDbSymbolTableRecord
100
AcDbBlockTableRecord
  2
*Paper_Space
  0
BLOCK_RECORD
  5
21F
100
AcDbSymbolTableRecord
100
AcDbBlockTableRecord
  2
_FILLED
  0
ENDTAB
  0
TABLE
  2
DIMSTYLE
  5
A
100
AcDbSymbolTable
 70
1
100
AcDbDimStyleTable
 71
0
  0
DIMSTYLE
105
220
100
AcDbSymbolTableRecord
100
AcDbDimStyleTableRecord
  2
STANDARD
 70
0
  3

  4

 40
1.0
 41
0.1
 42
0.0625
 43
0.38
 44
0.125
 45
0.0
 46
0.0
 47
0.001
 48
0.001
140
0.08
141
0.09
142
0.0
143
25.4
144
1.0
145
0.0
146
1.0
147
0.09
 71
1.0
 72
0.0
 73
1
 74
1
 75
0
 76
0
 77
0
 78
4
 79
1
170
1
171
2
172
0
173
0
174
0
175
0
176
0
177
0
178
0
270
2
179
3
271
3
272
3
273
2
274
2
275
0
280
0
281
0
282
0
283
1
284
4
285
0
286
0
287
3
288
0
340
11
278
46
341
21F
342
21F
343
21F
344
21F
  0
ENDTAB
  0
ENDSEC
  0
SECTION
  2
BLOCKS
  0
BLOCK
  5
20
100
AcDbEntity
  8
0
100
AcDbBlockBegin
  2
*Model_Space
 70
0
 10
0.0
 20
0.0
 30
0.0
  3
*Model_Space
  1

  0
ENDBLK
  5
21
100
AcDbEntity
  8
0
100
AcDbBlockEnd
  0
BLOCK
  5
1C
100
AcDbEntity
  8
0
100
AcDbBlockBegin
  2
*Paper_Space
 70
0
 10
0.0
 20
0.0
 30
0.0
  3
*Paper_Space
  1

  0
ENDBLK
  5
1D
100
AcDbEntity
  8
0
100
AcDbBlockEnd
  0
BLOCK
  5
221
100
AcDbEntity
  8
0
100
AcDbBlockBegin
  2
_FILLED
 70
64
 10
0.0
 20
0.0
  3
_FILLED
  1

  0
SOLID
  5
222
100
AcDbEntity
  8
0
  6
BYBLOCK
 62
0
100
AcDbTrace
 10
0.0
 20
0.0
 11
-1.0
 21
0.2
 12
-1.0
 22
-0.2
 13
-1.0
 23
-0.2
  0
ENDBLK
  5
223
100
AcDbEntity
  8
0
  6
BYBLOCK
 62
0
100
AcDbBlockEnd
  0
ENDSEC
  0
SECTION
  2
ENTITIES
  0
MTEXT
  5
224
100
AcDbEntity
  8
0
100
AcDbMText
 62
2
  6
CONTINUOUS
  7
STANDARD
 71
3
 72
1
 10
3.0845690994
 20
1.8109976708
 30
0.0
 11
1.0
 21
0.0
 31
0.0
 73
2
 44
0.9
  1
SCALE  .500
 40
0.08
 41
0.704
  0
LINE
  5
225
100
AcDbEntity
  8
0
100
AcDbLine
 62
7
  6
CONTINUOUS
 10
0.0
 20
0.0
 11
0.0
 21
8.5
  0
LINE
  5
226
100
AcDbEntity
  8
0
100
AcDbLine
 62
7
  6
CONTINUOUS
 10
0.0
 20
0.0
 11
11.0
 21
0.0
  0
LINE
  5
227
100
AcDbEntity
  8
0
100
AcDbLine
 62
7
  6
CONTINUOUS
 10
0.0
 20
8.5
 11
11.0
 21
8.5
  0
LINE
  5
228
100
AcDbEntity
  8
0
100
AcDbLine
 62
7
  6
CONTINUOUS
 10
11.0
 20
0.0
 11
11.0
 21
8.5
  0
LINE
  5
229
100
AcDbEntity
  8
ALL_ASSEMBLY_MEMBERS
100
AcDbLine
 62
7
  6
CONTINUOUS
 10
2.2224262422
 20
6.0165318323
 11
2.2224262422
 21
6.0945318323
  0
LINE
  5
22A
100
AcDbEntity
  8
ALL_ASSEMBLY_MEMBERS
100
AcDbLine
 62
7
  6
CONTINUOUS
 10
2.2424262422
 20
5.9965318323
 11
2.2424262422
 21
6.1145318323
  0
LINE
  5
22B
100
AcDbEntity
  8
ALL_ASSEMBLY_MEMBERS
100
AcDbLine
 62
7
  6
CONTINUOUS
 10
2.2724262422
 20
6.5855318323
 11
2.2724262422
 21
6.1145318323
  0
LINE
  5
22C
100
AcDbEntity
  8
ALL_ASSEMBLY_MEMBERS
100
AcDbLine
 62
7
  6
CONTINUOUS
 10
2.2724262422
 20
5.9965318323
 11
2.2724262422
 21
5.5255318323
  0
LINE
  5
22D
100
AcDbEntity
  8
ALL_ASSEMBLY_MEMBERS
100
AcDbLine
 62
7
  6
CONTINUOUS
 10
2.2924262422
 20
5.9965318323
 11
2.2924262422
 21
5.5055318323
  0
LINE
  5
22E
100
AcDbEntity
  8
ALL_ASSEMBLY_MEMBERS
100
AcDbLine
 62
7
  6
CONTINUOUS
 10
2.2924262422
 20
6.1145318323
 11
2.2924262422
 21
6.6055318323
  0
LINE
  5
22F
100
AcDbEntity
  8
ALL_ASSEMBLY_MEMBERS
100
AcDbLine
 62
7
  6
CONTINUOUS
 10
3.2978126538
 20
6.1215482256
 11
3.2978172223
 21
6.1215623663
  0
LWPOLYLINE
  5
230
100
AcDbEntity
  8
ALL_ASSEMBLY_MEMBERS
100
AcDbPolyline
 62
7
  6
CONTINUOUS
 90
7
 70
0
 10
3.2978782218
 20
6.1217408788
 10
3.2978863134
 20
6.1217625711
 10
3.2978611769
 20
6.1217028378
 10
3.2977535942
 20
6.1214726595
 10
3.2975305223
 20
6.1210560644
 10
3.297151102
 20
6.1204476139
 10
3.2965981863
 20
6.1196952071
  0
LWPOLYLINE
  5
231
100
AcDbEntity
  8
ALL_ASSEMBLY_MEMBERS
100
AcDbPolyline
 62
7
  6
CONTINUOUS
 90
4
 70
0
 10
3.2965981863
 20
6.1196952071
 10
3.2958732863
 20
6.1188639919
 10
3.2949283077
 20
6.1179615388
 10
3.2937815368
 20
6.1170658645
  0
LWPOLYLINE
  5
232
100
AcDbEntity
  8
ALL_ASSEMBLY_MEMBERS
100
AcDbPolyline
 62
7
  6
CONTINUOUS
 90
3
 70
0
 10
3.2937815368
 20
6.1170658645
 10
3.2925854354
 20
6.1163113834
 10
3.2914068085
 20
6.1157158434
  0
LWPOLYLINE
  5
233
100
AcDbEntity
  8
ALL_ASSEMBLY_MEMBERS
100
AcDbPolyline
 62
7
  6
CONTINUOUS
 90
7
 70
0
 10
3.2914068085
 20
6.1157158434
 10
3.2902355215
 20
6.1152513212
 10
3.289144032
 20
6.1149235544
 10
3.2881747098
 20
6.1147142422
 10
3.2873201422
 20
6.114593655
 10
3.2865848351
 20
6.1145400058
 10
3.2862098228
 20
6.1145318729
  0
LINE
  5
234
100
AcDbEntity
  8
ALL_ASSEMBLY_MEMBERS
100
AcDbLine
 62
7
  6
CONTINUOUS
 10
6.0649262422
 20
2.5055318323
 11
4.8749262422
 21
2.5055318323
  0
LINE
  5
235
100
AcDbEntity
  8
ALL_ASSEMBLY_MEMBERS
100
AcDbLine
 62
7
  6
CONTINUOUS
 10
4.8449262422
 20
2.5355318323
 11
6.0949262422
 21
2.5355318323
  0
LINE
  5
236
100
AcDbEntity
  8
ALL_ASSEMBLY_MEMBERS
100
AcDbLine
 62
7
  6
CONTINUOUS
 10
3.7959262422
 20
5.9965318323
 11
3.7959262422
 21
6.1145318323
  0
LINE
  5
237
100
AcDbEntity
  8
ALL_ASSEMBLY_MEMBERS
100
AcDbLine
 62
7
  6
CONTINUOUS
 10
3.8159262422
 20
6.0165318323
 11
3.8159262422
 21
6.0945318323
  0
LINE
  5
238
100
AcDbEntity
  8
ALL_ASSEMBLY_MEMBERS
100
AcDbLine
 62
7
  6
CONTINUOUS
 10
5.1624262422
 20
3.0205318323
 11
5.7774262422
 21
3.0205318323
  0
LINE
  5
239
100
AcDbEntity
  8
ALL_ASSEMBLY_MEMBERS
100
AcDbLine
 62
7
  6
CONTINUOUS
 10
5.1574262422
 20
3.0255318323
 11
5.7824262422
 21
3.0255318323
  0
LINE
  5
23A
100
AcDbEntity
  8
ALL_ASSEMBLY_MEMBERS
100
AcDbLine
 62
7
  6
CONTINUOUS
 10
3.2978185271
 20
5.989496598
 11
3.2978084784
 21
5.9895277071
  0
LINE
  5
23B
100
AcDbEntity
  8
ALL_ASSEMBLY_MEMBERS
100
AcDbLine
 62
7
  6
CONTINUOUS
 10
4.0824262422
 20
5.5055318323
 11
4.0824262422
 21
6.6055318323
  0
LINE
  5
23C
100
AcDbEntity
  8
ALL_ASSEMBLY_MEMBERS
100
AcDbLine
 62
7
  6
CONTINUOUS
 10
4.1024262422
 20
5.5255318323
 11
4.1024262422
 21
6.5855318323
  0
LINE
  5
23D
100
AcDbEntity
  8
ALL_ASSEMBLY_MEMBERS
100
AcDbLine
 62
7
  6
CONTINUOUS
 10
4.8449262422
 20
3.2305318323
 11
5.1574262422
 21
3.2305318323
  0
LINE
  5
23E
100
AcDbEntity
  8
ALL_ASSEMBLY_MEMBERS
100
AcDbLine
 62
7
  6
CONTINUOUS
 10
5.7824262422
 20
3.2305318323
 11
6.0949262422
 21
3.2305318323
  0
LINE
  5
23F
100
AcDbEntity
  8
ALL_ASSEMBLY_MEMBERS
100
AcDbLine
 62
7
  6
CONTINUOUS
 10
4.8749262422
 20
3.2705318323
 11
6.0649262422
 21
3.2705318323
  0
LINE
  5
240
100
AcDbEntity
  8
ALL_ASSEMBLY_MEMBERS
100
AcDbLine
 62
7
  6
CONTINUOUS
 10
4.8449262422
 20
3.3005318323
 11
6.0949262422
 21
3.3005318323
  0
LINE
  5
241
100
AcDbEntity
  8
ALL_ASSEMBLY_MEMBERS
100
AcDbLine
 62
7
  6
CONTINUOUS
 10
6.0949262422
 20
3.5755318323
 11
4.8449262422
 21
3.5755318323
  0
LINE
  5
242
100
AcDbEntity
  8
ALL_ASSEMBLY_MEMBERS
100
AcDbLine
 62
7
  6
CONTINUOUS
 10
6.0649262422
 20
3.6055318323
 11
4.8749262422
 21
3.6055318323
  0
LINE
  5
243
100
AcDbEntity
  8
ALL_ASSEMBLY_MEMBERS
100
AcDbLine
 62
7
  6
CONTINUOUS
 10
4.8449262422
 20
2.5355318323
 11
4.8449262422
 21
3.5755318323
  0
LINE
  5
244
100
AcDbEntity
  8
ALL_ASSEMBLY_MEMBERS
100
AcDbLine
 62
7
  6
CONTINUOUS
 10
4.8749262422
 20
2.5055318323
 11
4.8749262422
 21
3.2705318323
  0
LINE
  5
245
100
AcDbEntity
  8
ALL_ASSEMBLY_MEMBERS
100
AcDbLine
 62
7
  6
CONTINUOUS
 10
4.9039262422
 20
3.2705318323
 11
4.9039262422
 21
3.6055318323
  0
LWPOLYLINE
  5
246
100
AcDbEntity
  8
ALL_ASSEMBLY_MEMBERS
100
AcDbPolyline
 62
7
  6
CONTINUOUS
 90
7
 70
0
 10
7.650945676
 20
5.9953478212
 10
7.652116963
 20
5.9958123434
 10
7.6532084525
 20
5.9961401102
 10
7.6541777746
 20
5.9963494224
 10
7.6550323423
 20
5.9964700096
 10
7.6557676493
 20
5.9965236588
 10
7.6561426617
 20
5.9965317917
  0
LINE
  5
247
100
AcDbEntity
  8
ALL_ASSEMBLY_MEMBERS
100
AcDbLine
 62
7
  6
CONTINUOUS
 10
5.1574262422
 20
3.0255318323
 11
5.1574262422
 21
3.2705318323
  0
LWPOLYLINE
  5
248
100
AcDbEntity
  8
ALL_ASSEMBLY_MEMBERS
100
AcDbPolyline
 62
7
  6
CONTINUOUS
 90
3
 70
0
 10
7.6485709476
 20
5.9939978001
 10
7.6497670491
 20
5.9947522812
 10
7.650945676
 20
5.9953478212
  0
LINE
  5
249
100
AcDbEntity
  8
ALL_ASSEMBLY_MEMBERS
100
AcDbLine
 62
7
  6
CONTINUOUS
 10
5.7824262422
 20
3.0255318323
 11
5.7824262422
 21
3.2705318323
  0
LWPOLYLINE
  5
24A
100
AcDbEntity
  8
ALL_ASSEMBLY_MEMBERS
100
AcDbPolyline
 62
7
  6
CONTINUOUS
 90
11
 70
0
 10
3.2914355553
 20
5.9953347748
 10
3.2924469842
 20
5.9948292978
 10
3.29346287
 20
5.9942150139
 10
3.2944040038
 20
5.9935351937
 10
3.295264237
 20
5.9928008423
 10
3.296032979
 20
5.9920285016
 10
3.2966514877
 20
5.9913009902
 10
3.2971185923
 20
5.9906638815
 10
3.2974646366
 20
5.9901205412
 10
3.2976980632
 20
5.9897005876
 10
3.2977962046
 20
5.9895032123
  0
LINE
  5
24B
100
AcDbEntity
  8
ALL_ASSEMBLY_MEMBERS
100
AcDbLine
 62
7
  6
CONTINUOUS
 10
6.0359262422
 20
3.2705318323
 11
6.0359262422
 21
3.6055318323
  0
LINE
  5
24C
100
AcDbEntity
  8
ALL_ASSEMBLY_MEMBERS
100
AcDbLine
 62
7
  6
CONTINUOUS
 10
6.0649262422
 20
2.5055318323
 11
6.0649262422
 21
3.2705318323
  0
LINE
  5
24D
100
AcDbEntity
  8
ALL_ASSEMBLY_MEMBERS
100
AcDbLine
 62
7
  6
CONTINUOUS
 10
6.0949262422
 20
3.5755318323
 11
6.0949262422
 21
2.5355318323
  0
LWPOLYLINE
  5
24E
100
AcDbEntity
  8
ALL_ASSEMBLY_MEMBERS
100
AcDbPolyline
 62
7
  6
CONTINUOUS
 90
4
 70
0
 10
7.6457542982
 20
5.9913684575
 10
7.6464791982
 20
5.9921996727
 10
7.6474241768
 20
5.9931021258
 10
7.6485709476
 20
5.9939978001
  0
LINE
  5
24F
100
AcDbEntity
  8
ALL_ASSEMBLY_MEMBERS
100
AcDbLine
 62
7
  6
CONTINUOUS
 10
2.2924262422
 20
5.5055318323
 11
4.0824262422
 21
5.5055318323
  0
LINE
  5
250
100
AcDbEntity
  8
ALL_ASSEMBLY_MEMBERS
100
AcDbLine
 62
7
  6
CONTINUOUS
 10
6.8599262422
 20
5.5055318323
 11
8.6499262422
 21
5.5055318323
  0
LINE
  5
251
100
AcDbEntity
  8
ALL_ASSEMBLY_MEMBERS
100
AcDbLine
 62
7
  6
CONTINUOUS
 10
2.2724262422
 20
5.5255318323
 11
4.1024262422
 21
5.5255318323
  0
LINE
  5
252
100
AcDbEntity
  8
ALL_ASSEMBLY_MEMBERS
100
AcDbLine
 62
7
  6
CONTINUOUS
 10
6.8399262422
 20
5.5255318323
 11
8.6699262422
 21
5.5255318323
  0
LINE
  5
253
100
AcDbEntity
  8
ALL_ASSEMBLY_MEMBERS
100
AcDbLine
 62
7
  6
CONTINUOUS
 10
6.8399262422
 20
6.5855318323
 11
6.8399262422
 21
5.5255318323
  0
LINE
  5
254
100
AcDbEntity
  8
ALL_ASSEMBLY_MEMBERS
100
AcDbLine
 62
7
  6
CONTINUOUS
 10
6.8599262422
 20
5.5055318323
 11
6.8599262422
 21
6.6055318323
  0
LWPOLYLINE
  5
255
100
AcDbEntity
  8
ALL_ASSEMBLY_MEMBERS
100
AcDbPolyline
 62
7
  6
CONTINUOUS
 90
7
 70
0
 10
7.6444742627
 20
5.9893227858
 10
7.644466171
 20
5.9893010935
 10
7.6444913076
 20
5.9893608268
 10
7.6445988902
 20
5.9895910051
 10
7.6448219622
 20
5.9900076002
 10
7.6452013825
 20
5.9906160507
 10
7.6457542982
 20
5.9913684575
  0
LINE
  5
256
100
AcDbEntity
  8
ALL_ASSEMBLY_MEMBERS
100
AcDbLine
 62
7
  6
CONTINUOUS
 10
3.3100037231
 20
5.9765318323
 11
3.6665646317
 21
5.9765318323
  0
LINE
  5
257
100
AcDbEntity
  8
ALL_ASSEMBLY_MEMBERS
100
AcDbLine
 62
7
  6
CONTINUOUS
 10
7.2757879964
 20
5.9765318323
 11
7.6323488924
 21
5.9765318323
  0
LINE
  5
258
100
AcDbEntity
  8
ALL_ASSEMBLY_MEMBERS
100
AcDbLine
 62
7
  6
CONTINUOUS
 10
2.2424262422
 20
5.9965318323
 11
3.7959262422
 21
5.9965318323
  0
LINE
  5
259
100
AcDbEntity
  8
ALL_ASSEMBLY_MEMBERS
100
AcDbLine
 62
7
  6
CONTINUOUS
 10
7.1464262422
 20
5.9965318323
 11
8.6999262422
 21
5.9965318323
  0
LINE
  5
25A
100
AcDbEntity
  8
ALL_ASSEMBLY_MEMBERS
100
AcDbLine
 62
7
  6
CONTINUOUS
 10
2.2224262422
 20
6.0165318323
 11
3.8159262422
 21
6.0165318323
  0
LINE
  5
25B
100
AcDbEntity
  8
ALL_ASSEMBLY_MEMBERS
100
AcDbLine
 62
7
  6
CONTINUOUS
 10
7.1264262422
 20
6.0165318323
 11
8.7199262422
 21
6.0165318323
  0
LINE
  5
25C
100
AcDbEntity
  8
ALL_ASSEMBLY_MEMBERS
100
AcDbLine
 62
7
  6
CONTINUOUS
 10
8.7199262422
 20
6.0945318323
 11
7.1264262422
 21
6.0945318323
  0
LINE
  5
25D
100
AcDbEntity
  8
ALL_ASSEMBLY_MEMBERS
100
AcDbLine
 62
7
  6
CONTINUOUS
 10
2.2224262422
 20
6.0945318323
 11
3.8159262422
 21
6.0945318323
  0
LINE
  5
25E
100
AcDbEntity
  8
ALL_ASSEMBLY_MEMBERS
100
AcDbLine
 62
7
  6
CONTINUOUS
 10
8.6999262422
 20
6.1145318323
 11
7.1464262422
 21
6.1145318323
  0
LINE
  5
25F
100
AcDbEntity
  8
ALL_ASSEMBLY_MEMBERS
100
AcDbLine
 62
7
  6
CONTINUOUS
 10
3.7959262422
 20
6.1145318323
 11
2.2424262422
 21
6.1145318323
  0
LWPOLYLINE
  5
260
100
AcDbEntity
  8
ALL_ASSEMBLY_MEMBERS
100
AcDbPolyline
 62
7
  6
CONTINUOUS
 90
8
 70
0
 10
3.2861898847
 20
5.9965318284
 10
3.2864113434
 20
5.9965291416
 10
3.2870642797
 20
5.9964941502
 10
3.2878258338
 20
5.9964060125
 10
3.2886578784
 20
5.9962546408
 10
3.2895407048
 20
5.9960323372
 10
3.290470108
 20
5.9957288112
 10
3.2914355553
 20
5.9953347748
  0
LINE
  5
261
100
AcDbEntity
  8
ALL_ASSEMBLY_MEMBERS
100
AcDbLine
 62
7
  6
CONTINUOUS
 10
7.1264262422
 20
6.0945318323
 11
7.1264262422
 21
6.0165318323
  0
LINE
  5
262
100
AcDbEntity
  8
ALL_ASSEMBLY_MEMBERS
100
AcDbLine
 62
7
  6
CONTINUOUS
 10
7.1464262422
 20
6.1145318323
 11
7.1464262422
 21
5.9965318323
  0
LINE
  5
263
100
AcDbEntity
  8
ALL_ASSEMBLY_MEMBERS
100
AcDbLine
 62
7
  6
CONTINUOUS
 10
7.6445398307
 20
5.989515439
 11
7.6445352622
 21
5.9895012983
  0
LINE
  5
264
100
AcDbEntity
  8
ALL_ASSEMBLY_MEMBERS
100
AcDbLine
 62
7
  6
CONTINUOUS
 10
7.6323487614
 20
6.1345318323
 11
7.2757878528
 21
6.1345318323
  0
LINE
  5
265
100
AcDbEntity
  8
ALL_ASSEMBLY_MEMBERS
100
AcDbLine
 62
7
  6
CONTINUOUS
 10
3.666564488
 20
6.1345318323
 11
3.3100035921
 21
6.1345318323
  0
LWPOLYLINE
  5
266
100
AcDbEntity
  8
ALL_ASSEMBLY_MEMBERS
100
AcDbPolyline
 62
7
  6
CONTINUOUS
 90
8
 70
0
 10
7.6561625998
 20
6.1145318362
 10
7.6559411411
 20
6.114534523
 10
7.6552882048
 20
6.1145695144
 10
7.6545266507
 20
6.1146576521
 10
7.653694606
 20
6.1148090238
 10
7.6528117797
 20
6.1150313273
 10
7.6518823765
 20
6.1153348534
 10
7.6509169291
 20
6.1157288898
  0
LINE
  5
267
100
AcDbEntity
  8
ALL_ASSEMBLY_MEMBERS
100
AcDbLine
 62
7
  6
CONTINUOUS
 10
2.2724262422
 20
6.5855318323
 11
4.1024262422
 21
6.5855318323
  0
LINE
  5
268
100
AcDbEntity
  8
ALL_ASSEMBLY_MEMBERS
100
AcDbLine
 62
7
  6
CONTINUOUS
 10
6.8399262422
 20
6.5855318323
 11
8.6699262422
 21
6.5855318323
  0
LINE
  5
269
100
AcDbEntity
  8
ALL_ASSEMBLY_MEMBERS
100
AcDbLine
 62
7
  6
CONTINUOUS
 10
8.6499262422
 20
6.6055318323
 11
6.8599262422
 21
6.6055318323
  0
LINE
  5
26A
100
AcDbEntity
  8
ALL_ASSEMBLY_MEMBERS
100
AcDbLine
 62
7
  6
CONTINUOUS
 10
4.0824262422
 20
6.6055318323
 11
2.2924262422
 21
6.6055318323
  0
LWPOLYLINE
  5
26B
100
AcDbEntity
  8
ALL_ASSEMBLY_MEMBERS
100
AcDbPolyline
 62
7
  6
CONTINUOUS
 90
11
 70
0
 10
7.6509169291
 20
6.1157288898
 10
7.6499055002
 20
6.1162343667
 10
7.6488896144
 20
6.1168486507
 10
7.6479484807
 20
6.1175284709
 10
7.6470882474
 20
6.1182628223
 10
7.6463195055
 20
6.119035163
 10
7.6457009968
 20
6.1197626744
 10
7.6452338922
 20
6.1203997831
 10
7.6448878478
 20
6.1209431234
 10
7.6446544212
 20
6.121363077
 10
7.6445562799
 20
6.1215604523
  0
LINE
  5
26C
100
AcDbEntity
  8
ALL_ASSEMBLY_MEMBERS
100
AcDbLine
 62
7
  6
CONTINUOUS
 10
7.6445339574
 20
6.1215670666
 11
7.644544006
 21
6.1215359575
  0
LINE
  5
26D
100
AcDbEntity
  8
ALL_ASSEMBLY_MEMBERS
100
AcDbLine
 62
7
  6
CONTINUOUS
 10
8.6499262422
 20
5.5055318323
 11
8.6499262422
 21
5.9965318323
  0
LINE
  5
26E
100
AcDbEntity
  8
ALL_ASSEMBLY_MEMBERS
100
AcDbLine
 62
7
  6
CONTINUOUS
 10
8.6499262422
 20
6.1145318323
 11
8.6499262422
 21
6.6055318323
  0
LINE
  5
26F
100
AcDbEntity
  8
ALL_ASSEMBLY_MEMBERS
100
AcDbLine
 62
7
  6
CONTINUOUS
 10
8.6699262422
 20
5.5255318323
 11
8.6699262422
 21
5.9965318323
  0
LINE
  5
270
100
AcDbEntity
  8
ALL_ASSEMBLY_MEMBERS
100
AcDbLine
 62
7
  6
CONTINUOUS
 10
8.6699262422
 20
6.1145318323
 11
8.6699262422
 21
6.5855318323
  0
LINE
  5
271
100
AcDbEntity
  8
ALL_ASSEMBLY_MEMBERS
100
AcDbLine
 62
7
  6
CONTINUOUS
 10
8.6999262422
 20
5.9965318323
 11
8.6999262422
 21
6.1145318323
  0
LINE
  5
272
100
AcDbEntity
  8
ALL_ASSEMBLY_MEMBERS
100
AcDbLine
 62
7
  6
CONTINUOUS
 10
8.7199262422
 20
6.0945318323
 11
8.7199262422
 21
6.0165318323
  0
ARC
  5
273
100
AcDbEntity
  8
ALL_ASSEMBLY_MEMBERS
100
AcDbCircle
 62
7
  6
CONTINUOUS
 10
4.8749262422
 20
3.3005318323
 40
0.03
100
AcDbArc
 50
180.0
 51
270.0
  0
ARC
  5
274
100
AcDbEntity
  8
ALL_ASSEMBLY_MEMBERS
100
AcDbCircle
 62
7
  6
CONTINUOUS
 10
4.8749262422
 20
2.5355318323
 40
0.03
100
AcDbArc
 50
180.0
 51
270.0
  0
ARC
  5
275
100
AcDbEntity
  8
ALL_ASSEMBLY_MEMBERS
100
AcDbCircle
 62
7
  6
CONTINUOUS
 10
4.8749262422
 20
3.5755318323
 40
0.03
100
AcDbArc
 50
90.0
 51
180.0
  0
ARC
  5
276
100
AcDbEntity
  8
ALL_ASSEMBLY_MEMBERS
100
AcDbCircle
 62
7
  6
CONTINUOUS
 10
5.1624262422
 20
3.0255318323
 40
0.005
100
AcDbArc
 50
180.0
 51
270.0
  0
ARC
  5
277
100
AcDbEntity
  8
ALL_ASSEMBLY_MEMBERS
100
AcDbCircle
 62
7
  6
CONTINUOUS
 10
3.5024262422
 20
6.0555318323
 40
0.215
100
AcDbArc
 50
19.6437136923
 51
162.0645476125
  0
ARC
  5
278
100
AcDbEntity
  8
ALL_ASSEMBLY_MEMBERS
100
AcDbCircle
 62
7
  6
CONTINUOUS
 10
3.5024262422
 20
6.0555318323
 40
0.215
100
AcDbArc
 50
197.8851371453
 51
340.4699136769
  0
ARC
  5
279
100
AcDbEntity
  8
ALL_ASSEMBLY_MEMBERS
100
AcDbCircle
 62
7
  6
CONTINUOUS
 10
3.4882840673
 20
6.055528783
 40
0.1949984607
100
AcDbArc
 50
203.8983819228
 51
336.1016442765
  0
ARC
  5
27A
100
AcDbEntity
  8
ALL_ASSEMBLY_MEMBERS
100
AcDbCircle
 62
7
  6
CONTINUOUS
 10
3.488284123
 20
6.0555348839
 40
0.194998451
100
AcDbArc
 50
23.8983788208
 51
156.1016409261
  0
ARC
  5
27B
100
AcDbEntity
  8
ALL_ASSEMBLY_MEMBERS
100
AcDbCircle
 62
7
  6
CONTINUOUS
 10
3.2820046974
 20
6.134470872
 40
0.0219789989
100
AcDbArc
 50
339.1681950432
 51
351.2179388861
  0
ARC
  5
27C
100
AcDbEntity
  8
ALL_ASSEMBLY_MEMBERS
100
AcDbCircle
 62
7
  6
CONTINUOUS
 10
3.2820049683
 20
5.9765929191
 40
0.0219786719
100
AcDbArc
 50
8.7822270854
 51
20.832004958
  0
ARC
  5
27D
100
AcDbEntity
  8
ALL_ASSEMBLY_MEMBERS
100
AcDbCircle
 62
7
  6
CONTINUOUS
 10
2.2424262422
 20
6.0165318323
 40
0.02
100
AcDbArc
 50
180.0
 51
270.0
  0
ARC
  5
27E
100
AcDbEntity
  8
ALL_ASSEMBLY_MEMBERS
100
AcDbCircle
 62
7
  6
CONTINUOUS
 10
2.2424262422
 20
6.0945318323
 40
0.02
100
AcDbArc
 50
90.0
 51
180.0
  0
ARC
  5
27F
100
AcDbEntity
  8
ALL_ASSEMBLY_MEMBERS
100
AcDbCircle
 62
7
  6
CONTINUOUS
 10
3.7959262422
 20
6.0165318323
 40
0.02
100
AcDbArc
 50
270.0
 51
360.0
  0
ARC
  5
280
100
AcDbEntity
  8
ALL_ASSEMBLY_MEMBERS
100
AcDbCircle
 62
7
  6
CONTINUOUS
 10
3.7959262422
 20
6.0945318323
 40
0.02
100
AcDbArc
 50
0.0
 51
90.0
  0
ARC
  5
281
100
AcDbEntity
  8
ALL_ASSEMBLY_MEMBERS
100
AcDbCircle
 62
7
  6
CONTINUOUS
 10
4.0824262422
 20
6.5855318323
 40
0.02
100
AcDbArc
 50
0.0
 51
90.0
  0
ARC
  5
282
100
AcDbEntity
  8
ALL_ASSEMBLY_MEMBERS
100
AcDbCircle
 62
7
  6
CONTINUOUS
 10
2.2924262422
 20
6.5855318323
 40
0.02
100
AcDbArc
 50
90.0
 51
180.0
  0
ARC
  5
283
100
AcDbEntity
  8
ALL_ASSEMBLY_MEMBERS
100
AcDbCircle
 62
7
  6
CONTINUOUS
 10
2.2924262422
 20
5.5255318323
 40
0.02
100
AcDbArc
 50
180.0
 51
270.0
  0
ARC
  5
284
100
AcDbEntity
  8
ALL_ASSEMBLY_MEMBERS
100
AcDbCircle
 62
7
  6
CONTINUOUS
 10
4.0824262422
 20
5.5255318323
 40
0.02
100
AcDbArc
 50
270.0
 51
360.0
  0
ARC
  5
285
100
AcDbEntity
  8
ALL_ASSEMBLY_MEMBERS
100
AcDbCircle
 62
7
  6
CONTINUOUS
 10
3.7237484427
 20
5.9765318323
 40
0.0199998729
100
AcDbArc
 50
89.9968701744
 51
160.3552340994
  0
ARC
  5
286
100
AcDbEntity
  8
ALL_ASSEMBLY_MEMBERS
100
AcDbCircle
 62
7
  6
CONTINUOUS
 10
3.7237504193
 20
6.1345302888
 40
0.0199992282
100
AcDbArc
 50
199.6386977675
 51
269.9974670327
  0
ARC
  5
287
100
AcDbEntity
  8
ALL_ASSEMBLY_MEMBERS
100
AcDbCircle
 62
7
  6
CONTINUOUS
 10
3.2858981366
 20
6.1313120238
 40
0.0168271731
100
AcDbArc
 50
292.2955698216
 51
299.5101241453
  0
ARC
  5
288
100
AcDbEntity
  8
ALL_ASSEMBLY_MEMBERS
100
AcDbCircle
 62
7
  6
CONTINUOUS
 10
3.285898237
 20
5.9797516638
 40
0.016827052
100
AcDbArc
 50
60.4901518877
 51
67.7047045474
  0
ARC
  5
289
100
AcDbEntity
  8
ALL_ASSEMBLY_MEMBERS
100
AcDbCircle
 62
7
  6
CONTINUOUS
 10
6.0649262422
 20
2.5355318323
 40
0.03
100
AcDbArc
 50
270.0
 51
360.0
  0
ARC
  5
28A
100
AcDbEntity
  8
ALL_ASSEMBLY_MEMBERS
100
AcDbCircle
 62
7
  6
CONTINUOUS
 10
6.0649262422
 20
3.3005318323
 40
0.03
100
AcDbArc
 50
270.0
 51
360.0
  0
ARC
  5
28B
100
AcDbEntity
  8
ALL_ASSEMBLY_MEMBERS
100
AcDbCircle
 62
7
  6
CONTINUOUS
 10
6.0649262422
 20
3.5755318323
 40
0.03
100
AcDbArc
 50
0.0
 51
90.0
  0
ARC
  5
28C
100
AcDbEntity
  8
ALL_ASSEMBLY_MEMBERS
100
AcDbCircle
 62
7
  6
CONTINUOUS
 10
5.7774262422
 20
3.0255318323
 40
0.005
100
AcDbArc
 50
270.0
 51
360.0
  0
ARC
  5
28D
100
AcDbEntity
  8
ALL_ASSEMBLY_MEMBERS
100
AcDbCircle
 62
7
  6
CONTINUOUS
 10
7.4399262422
 20
6.0555318323
 40
0.215
100
AcDbArc
 50
199.6437136923
 51
342.0645476125
  0
ARC
  5
28E
100
AcDbEntity
  8
ALL_ASSEMBLY_MEMBERS
100
AcDbCircle
 62
7
  6
CONTINUOUS
 10
7.4399262422
 20
6.0555318323
 40
0.215
100
AcDbArc
 50
17.8851371453
 51
160.4699136769
  0
ARC
  5
28F
100
AcDbEntity
  8
ALL_ASSEMBLY_MEMBERS
100
AcDbCircle
 62
7
  6
CONTINUOUS
 10
7.4540683936
 20
6.0555348724
 40
0.1949984607
100
AcDbArc
 50
23.8983815834
 51
156.1016390145
  0
ARC
  5
290
100
AcDbEntity
  8
ALL_ASSEMBLY_MEMBERS
100
AcDbCircle
 62
7
  6
CONTINUOUS
 10
7.4540683344
 20
6.0555287715
 40
0.194998451
100
AcDbArc
 50
203.8983795869
 51
336.1016466124
  0
ARC
  5
291
100
AcDbEntity
  8
ALL_ASSEMBLY_MEMBERS
100
AcDbCircle
 62
7
  6
CONTINUOUS
 10
7.6603477871
 20
5.9765927926
 40
0.0219789989
100
AcDbArc
 50
159.1681950433
 51
171.217938886
  0
ARC
  5
292
100
AcDbEntity
  8
ALL_ASSEMBLY_MEMBERS
100
AcDbCircle
 62
7
  6
CONTINUOUS
 10
7.6603475162
 20
6.1344707455
 40
0.0219786719
100
AcDbArc
 50
188.7822270855
 51
200.832004958
  0
ARC
  5
293
100
AcDbEntity
  8
ALL_ASSEMBLY_MEMBERS
100
AcDbCircle
 62
7
  6
CONTINUOUS
 10
8.6999262422
 20
6.0945318323
 40
0.02
100
AcDbArc
 50
0.0
 51
90.0
  0
ARC
  5
294
100
AcDbEntity
  8
ALL_ASSEMBLY_MEMBERS
100
AcDbCircle
 62
7
  6
CONTINUOUS
 10
8.6999262422
 20
6.0165318323
 40
0.02
100
AcDbArc
 50
270.0
 51
360.0
  0
ARC
  5
295
100
AcDbEntity
  8
ALL_ASSEMBLY_MEMBERS
100
AcDbCircle
 62
7
  6
CONTINUOUS
 10
7.1464262422
 20
6.0945318323
 40
0.02
100
AcDbArc
 50
90.0
 51
180.0
  0
ARC
  5
296
100
AcDbEntity
  8
ALL_ASSEMBLY_MEMBERS
100
AcDbCircle
 62
7
  6
CONTINUOUS
 10
7.1464262422
 20
6.0165318323
 40
0.02
100
AcDbArc
 50
180.0
 51
270.0
  0
ARC
  5
297
100
AcDbEntity
  8
ALL_ASSEMBLY_MEMBERS
100
AcDbCircle
 62
7
  6
CONTINUOUS
 10
6.8599262422
 20
5.5255318323
 40
0.02
100
AcDbArc
 50
180.0
 51
270.0
  0
ARC
  5
298
100
AcDbEntity
  8
ALL_ASSEMBLY_MEMBERS
100
AcDbCircle
 62
7
  6
CONTINUOUS
 10
8.6499262422
 20
5.5255318323
 40
0.02
100
AcDbArc
 50
270.0
 51
360.0
  0
ARC
  5
299
100
AcDbEntity
  8
ALL_ASSEMBLY_MEMBERS
100
AcDbCircle
 62
7
  6
CONTINUOUS
 10
8.6499262422
 20
6.5855318323
 40
0.02
100
AcDbArc
 50
0.0
 51
90.0
  0
ARC
  5
29A
100
AcDbEntity
  8
ALL_ASSEMBLY_MEMBERS
100
AcDbCircle
 62
7
  6
CONTINUOUS
 10
6.8599262422
 20
6.5855318323
 40
0.02
100
AcDbArc
 50
90.0
 51
180.0
  0
ARC
  5
29B
100
AcDbEntity
  8
ALL_ASSEMBLY_MEMBERS
100
AcDbCircle
 62
7
  6
CONTINUOUS
 10
7.2186040418
 20
6.1345318323
 40
0.0199998729
100
AcDbArc
 50
269.9968701744
 51
340.3552340994
  0
ARC
  5
29C
100
AcDbEntity
  8
ALL_ASSEMBLY_MEMBERS
100
AcDbCircle
 62
7
  6
CONTINUOUS
 10
7.2186020652
 20
5.9765333758
 40
0.0199992282
100
AcDbArc
 50
19.6386977675
 51
89.9974670327
  0
ARC
  5
29D
100
AcDbEntity
  8
ALL_ASSEMBLY_MEMBERS
100
AcDbCircle
 62
7
  6
CONTINUOUS
 10
7.6564543479
 20
5.9797516408
 40
0.0168271731
100
AcDbArc
 50
112.2955698214
 51
119.5101241455
  0
ARC
  5
29E
100
AcDbEntity
  8
ALL_ASSEMBLY_MEMBERS
100
AcDbCircle
 62
7
  6
CONTINUOUS
 10
7.6564542474
 20
6.1313120008
 40
0.016827052
100
AcDbArc
 50
240.4901518878
 51
247.7047045473
  0
SPLINE
  5
29F
100
AcDbEntity
  8
ALL_ASSEMBLY_MEMBERS
100
AcDbSpline
 62
7
  6
CONTINUOUS
 70
0
 71
3
 72
17
 73
13
 74
0
 42
0.0000001
 43
0.0000001
 44
0.0000000001
 40
0.0
 40
0.0
 40
0.0
 40
0.0
 40
0.1448394545
 40
0.2872051468
 40
0.4241810545
 40
0.5540293409
 40
0.6757122752
 40
0.7892889767
 40
0.843600491
 40
0.8965986363
 40
0.9486127639
 40
1.0
 40
1.0
 40
1.0
 40
1.0
 10
7.6323488978
 20
5.9765318323
 30
0.0
 10
7.6323488957
 20
5.9778344975
 30
0.0
 10
7.6325285177
 20
5.9804211209
 30
0.0
 10
7.6333216772
 20
5.9841655676
 30
0.0
 10
7.634615732
 20
5.9876267762
 30
0.0
 10
7.636363905
 20
5.9906722268
 30
0.0
 10
7.6385015659
 20
5.9931915279
 30
0.0
 10
7.6405874579
 20
5.9947925906
 30
0.0
 10
7.6423627716
 20
5.9956946119
 30
0.0
 10
7.6437173429
 20
5.9961749673
 30
0.0
 10
7.6450976512
 20
5.9964660081
 30
0.0
 10
7.6460288641
 20
5.9965318323
 30
0.0
 10
7.6464910335
 20
5.9965318323
 30
0.0
  0
LINE
  5
2A0
100
AcDbEntity
  8
ALL_ASSEMBLY_MEMBERS
100
AcDbLine
 62
7
  6
CONTINUOUS
 10
7.6445353094
 20
5.9895014412
 11
7.6438963231
 21
5.987653461
  0
SPLINE
  5
2A1
100
AcDbEntity
  8
ALL_ASSEMBLY_MEMBERS
100
AcDbSpline
 62
7
  6
CONTINUOUS
 70
0
 71
3
 72
14
 73
10
 74
0
 42
0.0000001
 43
0.0000001
 44
0.0000000001
 40
0.0
 40
0.0
 40
0.0
 40
0.0
 40
0.2795366185
 40
0.4111240186
 40
0.5372342982
 40
0.6581404589
 40
0.7745478132
 40
0.8878833448
 40
1.0
 40
1.0
 40
1.0
 40
1.0
 10
7.6438963231
 20
5.987653461
 30
0.0
 10
7.6435879075
 20
5.9868235013
 30
0.0
 10
7.643092224
 20
5.9856167972
 30
0.0
 10
7.6423203241
 20
5.9840993081
 30
0.0
 10
7.6417064693
 20
5.9830678689
 30
0.0
 10
7.6410387117
 20
5.9821283547
 30
0.0
 10
7.6403082034
 20
5.9812889792
 30
0.0
 10
7.6395093603
 20
5.9805545711
 30
0.0
 10
7.6389274203
 20
5.9801369796
 30
0.0
 10
7.6386264649
 20
5.9799484675
 30
0.0
  0
SPLINE
  5
2A2
100
AcDbEntity
  8
ALL_ASSEMBLY_MEMBERS
100
AcDbSpline
 62
7
  6
CONTINUOUS
 70
0
 71
3
 72
17
 73
13
 74
0
 42
0.0000001
 43
0.0000001
 44
0.0000000001
 40
0.0
 40
0.0
 40
0.0
 40
0.0
 40
0.1448395153
 40
0.2872052815
 40
0.4241812672
 40
0.5540296151
 40
0.6757125712
 40
0.7892892396
 40
0.8436007136
 40
0.8965988018
 40
0.9486128549
 40
1.0
 40
1.0
 40
1.0
 40
1.0
 10
7.2757879887
 20
5.9765318323
 30
0.0
 10
7.2757879887
 20
5.9778344976
 30
0.0
 10
7.2759676143
 20
5.980421121
 30
0.0
 10
7.2767607779
 20
5.9841655675
 30
0.0
 10
7.278054835
 20
5.9876267758
 30
0.0
 10
7.2798030087
 20
5.9906722261
 30
0.0
 10
7.2819406685
 20
5.9931915272
 30
0.0
 10
7.2840265584
 20
5.9947925902
 30
0.0
 10
7.2858018699
 20
5.9956946117
 30
0.0
 10
7.2871564391
 20
5.9961749672
 30
0.0
 10
7.2885367448
 20
5.9964660081
 30
0.0
 10
7.2894679559
 20
5.9965318323
 30
0.0
 10
7.2899301243
 20
5.9965318323
 30
0.0
  0
SPLINE
  5
2A3
100
AcDbEntity
  8
ALL_ASSEMBLY_MEMBERS
100
AcDbSpline
 62
7
  6
CONTINUOUS
 70
0
 71
3
 72
27
 73
23
 74
0
 42
0.0000001
 43
0.0000001
 44
0.0000000001
 40
0.0
 40
0.0
 40
0.0
 40
0.0
 40
0.0088037664
 40
0.0128759934
 40
0.0169282846
 40
0.0256743882
 40
0.0364239463
 40
0.0500330998
 40
0.0669955986
 40
0.0875070714
 40
0.1116049977
 40
0.13915444
 40
0.169910931
 40
0.2395575368
 40
0.3171357642
 40
0.3991186359
 40
0.4825499912
 40
0.5652743642
 40
0.6458930633
 40
0.7236051443
 40
0.8688166337
 40
1.0
 40
1.0
 40
1.0
 40
1.0
 10
7.2374394334
 20
5.9832564263
 30
0.0
 10
7.2373993334
 20
5.9833688044
 30
0.0
 10
7.2373611139
 20
5.9835437903
 30
0.0
 10
7.2373823168
 20
5.9837737646
 30
0.0
 10
7.2374523045
 20
5.9839934335
 30
0.0
 10
7.2376509764
 20
5.9842547953
 30
0.0
 10
7.2380293125
 20
5.9845049824
 30
0.0
 10
7.2385521346
 20
5.9847124634
 30
0.0
 10
7.2392262901
 20
5.9848764997
 30
0.0
 10
7.2400528795
 20
5.9849969967
 30
0.0
 10
7.241028633
 20
5.9850710064
 30
0.0
 10
7.2421455302
 20
5.9850976504
 30
0.0
 10
7.2438797959
 20
5.9850669806
 30
0.0
 10
7.2462877181
 20
5.9848993974
 30
0.0
 10
7.2493733628
 20
5.9845326613
 30
0.0
 10
7.2526257363
 20
5.9840096306
 30
0.0
 10
7.2559247946
 20
5.9833530544
 30
0.0
 10
7.2591806982
 20
5.9825851972
 30
0.0
 10
7.2623334603
 20
5.9817260872
 30
0.0
 10
7.266263877
 20
5.9805088451
 30
0.0
 10
7.2707743811
 20
5.9788576557
 30
0.0
 10
7.2741954215
 20
5.9773222265
 30
0.0
 10
7.2757880132
 20
5.9765318323
 30
0.0
  0
SPLINE
  5
2A4
100
AcDbEntity
  8
ALL_ASSEMBLY_MEMBERS
100
AcDbSpline
 62
7
  6
CONTINUOUS
 70
0
 71
3
 72
14
 73
10
 74
0
 42
0.0000001
 43
0.0000001
 44
0.0000000001
 40
0.0
 40
0.0
 40
0.0
 40
0.0
 40
0.1120815854
 40
0.2253740665
 40
0.3417506551
 40
0.4626458837
 40
0.5887622884
 40
0.7203733628
 40
1.0
 40
1.0
 40
1.0
 40
1.0
 10
7.6386265528
 20
6.1311150626
 30
0.0
 10
7.6389280511
 20
6.1309261743
 30
0.0
 10
7.639510991
 20
6.1305077252
 30
0.0
 10
7.6403110635
 20
6.1297716732
 30
0.0
 10
7.6410425527
 20
6.128930302
 30
0.0
 10
7.6417112146
 20
6.1279885002
 30
0.0
 10
7.6423259084
 20
6.1269544576
 30
0.0
 10
7.6430988363
 20
6.1254329139
 30
0.0
 10
7.643594939
 20
6.1242229289
 30
0.0
 10
7.6439036661
 20
6.1233907294
 30
0.0
  0
LINE
  5
2A5
100
AcDbEntity
  8
ALL_ASSEMBLY_MEMBERS
100
AcDbLine
 62
7
  6
CONTINUOUS
 10
7.6439036661
 20
6.1233907294
 11
7.6445340608
 21
6.1215667433
  0
LINE
  5
2A6
100
AcDbEntity
  8
ALL_ASSEMBLY_MEMBERS
100
AcDbLine
 62
7
  6
CONTINUOUS
 10
7.6386265269
 20
6.1311150576
 11
7.6323487302
 21
6.1345318323
  0
SPLINE
  5
2A7
100
AcDbEntity
  8
ALL_ASSEMBLY_MEMBERS
100
AcDbSpline
 62
7
  6
CONTINUOUS
 70
0
 71
3
 72
11
 73
7
 74
0
 42
0.0000001
 43
0.0000001
 44
0.0000000001
 40
0.0
 40
0.0
 40
0.0
 40
0.0
 40
0.2573979918
 40
0.5099514784
 40
0.7573746026
 40
1.0
 40
1.0
 40
1.0
 40
1.0
 10
7.6398056523
 20
6.1266544903
 30
0.0
 10
7.6402111101
 20
6.1255905636
 30
0.0
 10
7.6411843279
 20
6.1235424381
 30
0.0
 10
7.6431144263
 20
6.1207851603
 30
0.0
 10
7.6454410191
 20
6.1184434378
 30
0.0
 10
7.647231574
 20
6.1171963251
 30
0.0
 10
7.6481656934
 20
6.1166679047
 30
0.0
  0
SPLINE
  5
2A8
100
AcDbEntity
  8
ALL_ASSEMBLY_MEMBERS
100
AcDbSpline
 62
7
  6
CONTINUOUS
 70
0
 71
3
 72
9
 73
5
 74
0
 42
0.0000001
 43
0.0000001
 44
0.0000000001
 40
0.0
 40
0.0
 40
0.0
 40
0.0
 40
0.5026996626
 40
1.0
 40
1.0
 40
1.0
 40
1.0
 10
7.6500703973
 20
6.1157429246
 30
0.0
 10
7.6510398473
 20
6.115346248
 30
0.0
 10
7.6530486662
 20
6.1147407296
 30
0.0
 10
7.6551369506
 20
6.11453193
 30
0.0
 10
7.6561731664
 20
6.1145319379
 30
0.0
  0
SPLINE
  5
2A9
100
AcDbEntity
  8
ALL_ASSEMBLY_MEMBERS
100
AcDbSpline
 62
7
  6
CONTINUOUS
 70
0
 71
3
 72
17
 73
13
 74
0
 42
0.0000001
 43
0.0000001
 44
0.0000000001
 40
0.0
 40
0.0
 40
0.0
 40
0.0
 40
0.1448395153
 40
0.2872052815
 40
0.4241812673
 40
0.5540296152
 40
0.6757125713
 40
0.7892892397
 40
0.8436007137
 40
0.8965988019
 40
0.9486128549
 40
1.0
 40
1.0
 40
1.0
 40
1.0
 10
7.6323487671
 20
6.1345318323
 30
0.0
 10
7.6323487671
 20
6.133229167
 30
0.0
 10
7.6325283927
 20
6.1306425436
 30
0.0
 10
7.6333215562
 20
6.1268980971
 30
0.0
 10
7.6346156134
 20
6.1234368888
 30
0.0
 10
7.6363637871
 20
6.1203914385
 30
0.0
 10
7.6385014469
 20
6.1178721374
 30
0.0
 10
7.6405873368
 20
6.1162710744
 30
0.0
 10
7.6423626483
 20
6.1153690529
 30
0.0
 10
7.6437172175
 20
6.1148886974
 30
0.0
 10
7.6450975232
 20
6.1145976565
 30
0.0
 10
7.6460287342
 20
6.1145318323
 30
0.0
 10
7.6464909027
 20
6.1145318323
 30
0.0
  0
SPLINE
  5
2AA
100
AcDbEntity
  8
ALL_ASSEMBLY_MEMBERS
100
AcDbSpline
 62
7
  6
CONTINUOUS
 70
0
 71
3
 72
27
 73
23
 74
0
 42
0.0000001
 43
0.0000001
 44
0.0000000001
 40
0.0
 40
0.0
 40
0.0
 40
0.0
 40
0.1311792582
 40
0.2763880636
 40
0.3541016753
 40
0.4347224048
 40
0.5174484592
 40
0.6008811889
 40
0.6828641392
 40
0.7604418327
 40
0.8300881147
 40
0.8608446836
 40
0.8883945925
 40
0.9124927401
 40
0.9330044773
 40
0.9499670734
 40
0.9635764108
 40
0.9743265321
 40
0.9830739516
 40
0.9871269519
 40
0.9911993752
 40
1.0
 40
1.0
 40
1.0
 40
1.0
 10
7.2757879128
 20
6.1345318323
 30
0.0
 10
7.2741953191
 20
6.1337415847
 30
0.0
 10
7.2707744485
 20
6.132206068
 30
0.0
 10
7.2662640667
 20
6.1305547932
 30
0.0
 10
7.2623336693
 20
6.1293375085
 30
0.0
 10
7.2591808477
 20
6.1284783981
 30
0.0
 10
7.2559248823
 20
6.1277105639
 30
0.0
 10
7.2526257835
 20
6.1270540476
 30
0.0
 10
7.2493734054
 20
6.1265310597
 30
0.0
 10
7.2462877854
 20
6.1261643242
 30
0.0
 10
7.2438798866
 20
6.1259967143
 30
0.0
 10
7.2421456264
 20
6.1259660047
 30
0.0
 10
7.2410287227
 20
6.125992604
 30
0.0
 10
7.2400529581
 20
6.1260665896
 30
0.0
 10
7.2392263644
 20
6.126187091
 30
0.0
 10
7.2385522094
 20
6.1263511539
 30
0.0
 10
7.2380293939
 20
6.1265586745
 30
0.0
 10
7.2376510618
 20
6.1268089297
 30
0.0
 10
7.2374524459
 20
6.1270703769
 30
0.0
 10
7.2373824823
 20
6.1272900814
 30
0.0
 10
7.2373612804
 20
6.1275200217
 30
0.0
 10
7.2373994565
 20
6.1276949723
 30
0.0
 10
7.2374395336
 20
6.1278073128
 30
0.0
  0
SPLINE
  5
2AB
100
AcDbEntity
  8
ALL_ASSEMBLY_MEMBERS
100
AcDbSpline
 62
7
  6
CONTINUOUS
 70
0
 71
3
 72
17
 73
13
 74
0
 42
0.0000001
 43
0.0000001
 44
0.0000000001
 40
0.0
 40
0.0
 40
0.0
 40
0.0
 40
0.1448396761
 40
0.2872056495
 40
0.4241818323
 40
0.5540303236
 40
0.6757133275
 40
0.7892899026
 40
0.8436012694
 40
0.8965992102
 40
0.9486130771
 40
1.0
 40
1.0
 40
1.0
 40
1.0
 10
7.2757878579
 20
6.1345318323
 30
0.0
 10
7.2757878629
 20
6.1332291666
 30
0.0
 10
7.2759674976
 20
6.1306425428
 30
0.0
 10
7.2767606709
 20
6.1268980966
 30
0.0
 10
7.2780547342
 20
6.1234368887
 30
0.0
 10
7.2798029097
 20
6.120391439
 30
0.0
 10
7.2819405669
 20
6.1178721384
 30
0.0
 10
7.2840264518
 20
6.1162710749
 30
0.0
 10
7.2858017577
 20
6.115369053
 30
0.0
 10
7.2871563214
 20
6.1148886974
 30
0.0
 10
7.2885366208
 20
6.1145976566
 30
0.0
 10
7.2894678275
 20
6.1145318323
 30
0.0
 10
7.2899299935
 20
6.1145318323
 30
0.0
  0
SPLINE
  5
2AC
100
AcDbEntity
  8
ALL_ASSEMBLY_MEMBERS
100
AcDbSpline
 62
7
  6
CONTINUOUS
 70
0
 71
3
 72
11
 73
7
 74
0
 42
0.0000001
 43
0.0000001
 44
0.0000000001
 40
0.0
 40
0.0
 40
0.0
 40
0.0
 40
0.25739798
 40
0.509951507
 40
0.7573746548
 40
1.0
 40
1.0
 40
1.0
 40
1.0
 10
7.6398055902
 20
5.9844090923
 30
0.0
 10
7.640211048
 20
5.9854730297
 30
0.0
 10
7.6411842669
 20
5.987521177
 30
0.0
 10
7.6431143714
 20
5.9902784869
 30
0.0
 10
7.6454409743
 20
5.9926202405
 30
0.0
 10
7.6472315387
 20
5.9938673729
 30
0.0
 10
7.6481656636
 20
5.9943958024
 30
0.0
  0
SPLINE
  5
2AD
100
AcDbEntity
  8
ALL_ASSEMBLY_MEMBERS
100
AcDbSpline
 62
7
  6
CONTINUOUS
 70
0
 71
3
 72
9
 73
5
 74
0
 42
0.0000001
 43
0.0000001
 44
0.0000000001
 40
0.0
 40
0.0
 40
0.0
 40
0.0
 40
0.5026882934
 40
1.0
 40
1.0
 40
1.0
 40
1.0
 10
7.6500703772
 20
5.9953207985
 30
0.0
 10
7.6510350995
 20
5.9957155459
 30
0.0
 10
7.653033755
 20
5.9963190211
 30
0.0
 10
7.6551114523
 20
5.9965297709
 30
0.0
 10
7.6561426617
 20
5.9965317911
 30
0.0
  0
LINE
  5
2AE
100
AcDbEntity
  8
ALL_ASSEMBLY_MEMBERS
100
AcDbLine
 62
7
  6
CONTINUOUS
 10
7.6323488625
 20
5.9765318323
 11
7.6386264998
 21
5.9799484607
  0
SPLINE
  5
2AF
100
AcDbEntity
  8
ALL_ASSEMBLY_MEMBERS
100
AcDbSpline
 62
7
  6
CONTINUOUS
 70
0
 71
3
 72
17
 73
13
 74
0
 42
0.0000001
 43
0.0000001
 44
0.0000000001
 40
0.0
 40
0.0
 40
0.0
 40
0.0
 40
0.1448394545
 40
0.2872051468
 40
0.4241810545
 40
0.5540293409
 40
0.6757122752
 40
0.7892889767
 40
0.843600491
 40
0.8965986363
 40
0.9486127639
 40
1.0
 40
1.0
 40
1.0
 40
1.0
 10
3.3100035866
 20
6.1345318323
 30
0.0
 10
3.3100035887
 20
6.1332291671
 30
0.0
 10
3.3098239667
 20
6.1306425437
 30
0.0
 10
3.3090308072
 20
6.126898097
 30
0.0
 10
3.3077367525
 20
6.1234368883
 30
0.0
 10
3.3059885795
 20
6.1203914378
 30
0.0
 10
3.3038509185
 20
6.1178721367
 30
0.0
 10
3.3017650266
 20
6.116271074
 30
0.0
 10
3.2999897129
 20
6.1153690527
 30
0.0
 10
3.2986351416
 20
6.1148886973
 30
0.0
 10
3.2972548333
 20
6.1145976565
 30
0.0
 10
3.2963236204
 20
6.1145318323
 30
0.0
 10
3.295861451
 20
6.1145318323
 30
0.0
  0
LINE
  5
2B0
100
AcDbEntity
  8
ALL_ASSEMBLY_MEMBERS
100
AcDbLine
 62
7
  6
CONTINUOUS
 10
3.297817175
 20
6.1215622234
 11
3.2984561614
 21
6.1234102036
  0
SPLINE
  5
2B1
100
AcDbEntity
  8
ALL_ASSEMBLY_MEMBERS
100
AcDbSpline
 62
7
  6
CONTINUOUS
 70
0
 71
3
 72
14
 73
10
 74
0
 42
0.0000001
 43
0.0000001
 44
0.0000000001
 40
0.0
 40
0.0
 40
0.0
 40
0.0
 40
0.2795366185
 40
0.4111240186
 40
0.5372342982
 40
0.6581404589
 40
0.7745478132
 40
0.8878833448
 40
1.0
 40
1.0
 40
1.0
 40
1.0
 10
3.2984561614
 20
6.1234102036
 30
0.0
 10
3.298764577
 20
6.1242401633
 30
0.0
 10
3.2992602604
 20
6.1254468674
 30
0.0
 10
3.3000321604
 20
6.1269643565
 30
0.0
 10
3.3006460152
 20
6.1279957957
 30
0.0
 10
3.3013137728
 20
6.1289353099
 30
0.0
 10
3.302044281
 20
6.1297746854
 30
0.0
 10
3.3028431241
 20
6.1305090935
 30
0.0
 10
3.3034250641
 20
6.130926685
 30
0.0
 10
3.3037260196
 20
6.1311151971
 30
0.0
  0
SPLINE
  5
2B2
100
AcDbEntity
  8
ALL_ASSEMBLY_MEMBERS
100
AcDbSpline
 62
7
  6
CONTINUOUS
 70
0
 71
3
 72
17
 73
13
 74
0
 42
0.0000001
 43
0.0000001
 44
0.0000000001
 40
0.0
 40
0.0
 40
0.0
 40
0.0
 40
0.1448395153
 40
0.2872052815
 40
0.4241812672
 40
0.5540296151
 40
0.6757125712
 40
0.7892892396
 40
0.8436007136
 40
0.8965988018
 40
0.9486128549
 40
1.0
 40
1.0
 40
1.0
 40
1.0
 10
3.6665644958
 20
6.1345318323
 30
0.0
 10
3.6665644958
 20
6.133229167
 30
0.0
 10
3.6663848702
 20
6.1306425436
 30
0.0
 10
3.6655917066
 20
6.1268980971
 30
0.0
 10
3.6642976495
 20
6.1234368888
 30
0.0
 10
3.6625494758
 20
6.1203914385
 30
0.0
 10
3.6604118159
 20
6.1178721374
 30
0.0
 10
3.6583259261
 20
6.1162710744
 30
0.0
 10
3.6565506145
 20
6.1153690529
 30
0.0
 10
3.6551960454
 20
6.1148886974
 30
0.0
 10
3.6538157397
 20
6.1145976565
 30
0.0
 10
3.6528845286
 20
6.1145318323
 30
0.0
 10
3.6524223602
 20
6.1145318323
 30
0.0
  0
SPLINE
  5
2B3
100
AcDbEntity
  8
ALL_ASSEMBLY_MEMBERS
100
AcDbSpline
 62
7
  6
CONTINUOUS
 70
0
 71
3
 72
27
 73
23
 74
0
 42
0.0000001
 43
0.0000001
 44
0.0000000001
 40
0.0
 40
0.0
 40
0.0
 40
0.0
 40
0.0088037664
 40
0.0128759934
 40
0.0169282846
 40
0.0256743882
 40
0.0364239463
 40
0.0500330998
 40
0.0669955986
 40
0.0875070714
 40
0.1116049977
 40
0.13915444
 40
0.169910931
 40
0.2395575368
 40
0.3171357642
 40
0.3991186359
 40
0.4825499912
 40
0.5652743642
 40
0.6458930633
 40
0.7236051443
 40
0.8688166337
 40
1.0
 40
1.0
 40
1.0
 40
1.0
 10
3.7049130511
 20
6.1278072383
 30
0.0
 10
3.7049531511
 20
6.1276948602
 30
0.0
 10
3.7049913706
 20
6.1275198743
 30
0.0
 10
3.7049701677
 20
6.1272899
 30
0.0
 10
3.70490018
 20
6.1270702311
 30
0.0
 10
3.7047015081
 20
6.1268088693
 30
0.0
 10
3.7043231719
 20
6.1265586822
 30
0.0
 10
3.7038003499
 20
6.1263512012
 30
0.0
 10
3.7031261944
 20
6.1261871649
 30
0.0
 10
3.7022996049
 20
6.1260666679
 30
0.0
 10
3.7013238515
 20
6.1259926582
 30
0.0
 10
3.7002069543
 20
6.1259660142
 30
0.0
 10
3.6984726886
 20
6.125996684
 30
0.0
 10
3.6960647664
 20
6.1261642672
 30
0.0
 10
3.6929791217
 20
6.1265310033
 30
0.0
 10
3.6897267482
 20
6.127054034
 30
0.0
 10
3.6864276899
 20
6.1277106102
 30
0.0
 10
3.6831717863
 20
6.1284784674
 30
0.0
 10
3.6800190242
 20
6.1293375773
 30
0.0
 10
3.6760886074
 20
6.1305548195
 30
0.0
 10
3.6715781034
 20
6.1322060089
 30
0.0
 10
3.6681570629
 20
6.1337414381
 30
0.0
 10
3.6665644713
 20
6.1345318323
 30
0.0
  0
SPLINE
  5
2B4
100
AcDbEntity
  8
ALL_ASSEMBLY_MEMBERS
100
AcDbSpline
 62
7
  6
CONTINUOUS
 70
0
 71
3
 72
14
 73
10
 74
0
 42
0.0000001
 43
0.0000001
 44
0.0000000001
 40
0.0
 40
0.0
 40
0.0
 40
0.0
 40
0.1120815854
 40
0.2253740665
 40
0.3417506551
 40
0.4626458837
 40
0.5887622884
 40
0.7203733628
 40
1.0
 40
1.0
 40
1.0
 40
1.0
 10
3.3037259317
 20
5.979948602
 30
0.0
 10
3.3034244334
 20
5.9801374903
 30
0.0
 10
3.3028414935
 20
5.9805559394
 30
0.0
 10
3.302041421
 20
5.9812919914
 30
0.0
 10
3.3013099318
 20
5.9821333626
 30
0.0
 10
3.3006412699
 20
5.9830751644
 30
0.0
 10
3.3000265761
 20
5.984109207
 30
0.0
 10
3.2992536482
 20
5.9856307507
 30
0.0
 10
3.2987575455
 20
5.9868407357
 30
0.0
 10
3.2984488184
 20
5.9876729352
 30
0.0
  0
LINE
  5
2B5
100
AcDbEntity
  8
ALL_ASSEMBLY_MEMBERS
100
AcDbLine
 62
7
  6
CONTINUOUS
 10
3.2984488184
 20
5.9876729352
 11
3.2978184237
 21
5.9894969213
  0
LINE
  5
2B6
100
AcDbEntity
  8
ALL_ASSEMBLY_MEMBERS
100
AcDbLine
 62
7
  6
CONTINUOUS
 10
3.3037259575
 20
5.979948607
 11
3.3100037542
 21
5.9765318323
  0
SPLINE
  5
2B7
100
AcDbEntity
  8
ALL_ASSEMBLY_MEMBERS
100
AcDbSpline
 62
7
  6
CONTINUOUS
 70
0
 71
3
 72
11
 73
7
 74
0
 42
0.0000001
 43
0.0000001
 44
0.0000000001
 40
0.0
 40
0.0
 40
0.0
 40
0.0
 40
0.2573979918
 40
0.5099514784
 40
0.7573746026
 40
1.0
 40
1.0
 40
1.0
 40
1.0
 10
3.3025468322
 20
5.9844091743
 30
0.0
 10
3.3021413744
 20
5.985473101
 30
0.0
 10
3.3011681566
 20
5.9875212265
 30
0.0
 10
3.2992380582
 20
5.9902785043
 30
0.0
 10
3.2969114653
 20
5.9926202268
 30
0.0
 10
3.2951209105
 20
5.9938673395
 30
0.0
 10
3.294186791
 20
5.9943957599
 30
0.0
  0
SPLINE
  5
2B8
100
AcDbEntity
  8
ALL_ASSEMBLY_MEMBERS
100
AcDbSpline
 62
7
  6
CONTINUOUS
 70
0
 71
3
 72
9
 73
5
 74
0
 42
0.0000001
 43
0.0000001
 44
0.0000000001
 40
0.0
 40
0.0
 40
0.0
 40
0.0
 40
0.5026996626
 40
1.0
 40
1.0
 40
1.0
 40
1.0
 10
3.2922820872
 20
5.99532074
 30
0.0
 10
3.2913126371
 20
5.9957174165
 30
0.0
 10
3.2893038183
 20
5.996322935
 30
0.0
 10
3.2872155339
 20
5.9965317346
 30
0.0
 10
3.2861793181
 20
5.9965317267
 30
0.0
  0
SPLINE
  5
2B9
100
AcDbEntity
  8
ALL_ASSEMBLY_MEMBERS
100
AcDbSpline
 62
7
  6
CONTINUOUS
 70
0
 71
3
 72
17
 73
13
 74
0
 42
0.0000001
 43
0.0000001
 44
0.0000000001
 40
0.0
 40
0.0
 40
0.0
 40
0.0
 40
0.1448395153
 40
0.2872052815
 40
0.4241812673
 40
0.5540296152
 40
0.6757125713
 40
0.7892892397
 40
0.8436007137
 40
0.8965988019
 40
0.9486128549
 40
1.0
 40
1.0
 40
1.0
 40
1.0
 10
3.3100037174
 20
5.9765318323
 30
0.0
 10
3.3100037174
 20
5.9778344976
 30
0.0
 10
3.3098240918
 20
5.980421121
 30
0.0
 10
3.3090309282
 20
5.9841655675
 30
0.0
 10
3.3077368711
 20
5.9876267758
 30
0.0
 10
3.3059886974
 20
5.9906722261
 30
0.0
 10
3.3038510376
 20
5.9931915272
 30
0.0
 10
3.3017651477
 20
5.9947925902
 30
0.0
 10
3.2999898362
 20
5.9956946117
 30
0.0
 10
3.298635267
 20
5.9961749672
 30
0.0
 10
3.2972549613
 20
5.9964660081
 30
0.0
 10
3.2963237502
 20
5.9965318323
 30
0.0
 10
3.2958615818
 20
5.9965318323
 30
0.0
  0
SPLINE
  5
2BA
100
AcDbEntity
  8
ALL_ASSEMBLY_MEMBERS
100
AcDbSpline
 62
7
  6
CONTINUOUS
 70
0
 71
3
 72
27
 73
23
 74
0
 42
0.0000001
 43
0.0000001
 44
0.0000000001
 40
0.0
 40
0.0
 40
0.0
 40
0.0
 40
0.1311792582
 40
0.2763880636
 40
0.3541016753
 40
0.4347224048
 40
0.5174484592
 40
0.6008811889
 40
0.6828641392
 40
0.7604418327
 40
0.8300881147
 40
0.8608446836
 40
0.8883945925
 40
0.9124927401
 40
0.9330044773
 40
0.9499670734
 40
0.9635764108
 40
0.9743265321
 40
0.9830739516
 40
0.9871269519
 40
0.9911993752
 40
1.0
 40
1.0
 40
1.0
 40
1.0
 10
3.6665645717
 20
5.9765318323
 30
0.0
 10
3.6681571654
 20
5.9773220799
 30
0.0
 10
3.671578036
 20
5.9788575966
 30
0.0
 10
3.6760884178
 20
5.9805088714
 30
0.0
 10
3.6800188151
 20
5.9817261561
 30
0.0
 10
3.6831716368
 20
5.9825852665
 30
0.0
 10
3.6864276021
 20
5.9833531007
 30
0.0
 10
3.689726701
 20
5.984009617
 30
0.0
 10
3.692979079
 20
5.9845326049
 30
0.0
 10
3.6960646991
 20
5.9848993404
 30
0.0
 10
3.6984725979
 20
5.9850669503
 30
0.0
 10
3.700206858
 20
5.9850976599
 30
0.0
 10
3.7013237618
 20
5.9850710606
 30
0.0
 10
3.7022995263
 20
5.984997075
 30
0.0
 10
3.7031261201
 20
5.9848765736
 30
0.0
 10
3.7038002751
 20
5.9847125107
 30
0.0
 10
3.7043230905
 20
5.9845049901
 30
0.0
 10
3.7047014226
 20
5.9842547349
 30
0.0
 10
3.7049000385
 20
5.9839932877
 30
0.0
 10
3.7049700022
 20
5.9837735832
 30
0.0
 10
3.7049912041
 20
5.9835436429
 30
0.0
 10
3.704953028
 20
5.9833686923
 30
0.0
 10
3.7049129508
 20
5.9832563518
 30
0.0
  0
SPLINE
  5
2BB
100
AcDbEntity
  8
ALL_ASSEMBLY_MEMBERS
100
AcDbSpline
 62
7
  6
CONTINUOUS
 70
0
 71
3
 72
17
 73
13
 74
0
 42
0.0000001
 43
0.0000001
 44
0.0000000001
 40
0.0
 40
0.0
 40
0.0
 40
0.0
 40
0.1448396761
 40
0.2872056495
 40
0.4241818323
 40
0.5540303236
 40
0.6757133275
 40
0.7892899026
 40
0.8436012694
 40
0.8965992102
 40
0.9486130771
 40
1.0
 40
1.0
 40
1.0
 40
1.0
 10
3.6665646266
 20
5.9765318323
 30
0.0
 10
3.6665646215
 20
5.977834498
 30
0.0
 10
3.6663849869
 20
5.9804211218
 30
0.0
 10
3.6655918136
 20
5.984165568
 30
0.0
 10
3.6642977503
 20
5.9876267758
 30
0.0
 10
3.6625495748
 20
5.9906722256
 30
0.0
 10
3.6604119176
 20
5.9931915262
 30
0.0
 10
3.6583260327
 20
5.9947925897
 30
0.0
 10
3.6565507267
 20
5.9956946116
 30
0.0
 10
3.6551961631
 20
5.9961749671
 30
0.0
 10
3.6538158636
 20
5.996466008
 30
0.0
 10
3.652884657
 20
5.9965318323
 30
0.0
 10
3.652422491
 20
5.9965318323
 30
0.0
  0
SPLINE
  5
2BC
100
AcDbEntity
  8
ALL_ASSEMBLY_MEMBERS
100
AcDbSpline
 62
7
  6
CONTINUOUS
 70
0
 71
3
 72
11
 73
7
 74
0
 42
0.0000001
 43
0.0000001
 44
0.0000000001
 40
0.0
 40
0.0
 40
0.0
 40
0.0
 40
0.25739798
 40
0.509951507
 40
0.7573746548
 40
1.0
 40
1.0
 40
1.0
 40
1.0
 10
3.3025468942
 20
6.1266545723
 30
0.0
 10
3.3021414365
 20
6.1255906348
 30
0.0
 10
3.3011682175
 20
6.1235424876
 30
0.0
 10
3.299238113
 20
6.1207851777
 30
0.0
 10
3.2969115102
 20
6.1184434241
 30
0.0
 10
3.2951209458
 20
6.1171962917
 30
0.0
 10
3.2941868208
 20
6.1166678622
 30
0.0
  0
SPLINE
  5
2BD
100
AcDbEntity
  8
ALL_ASSEMBLY_MEMBERS
100
AcDbSpline
 62
7
  6
CONTINUOUS
 70
0
 71
3
 72
9
 73
5
 74
0
 42
0.0000001
 43
0.0000001
 44
0.0000000001
 40
0.0
 40
0.0
 40
0.0
 40
0.0
 40
0.5026882934
 40
1.0
 40
1.0
 40
1.0
 40
1.0
 10
3.2922821073
 20
6.1157428661
 30
0.0
 10
3.2913173849
 20
6.1153481187
 30
0.0
 10
3.2893187295
 20
6.1147446435
 30
0.0
 10
3.2872410322
 20
6.1145338937
 30
0.0
 10
3.2862098228
 20
6.1145318735
 30
0.0
  0
LINE
  5
2BE
100
AcDbEntity
  8
ALL_ASSEMBLY_MEMBERS
100
AcDbLine
 62
7
  6
CONTINUOUS
 10
3.310003622
 20
6.1345318323
 11
3.3037259847
 21
6.1311152039
  0
ENDSEC
  0
SECTION
  2
OBJECTS
  0
DICTIONARY
  5
C
100
AcDbDictionary
280
0
281
1
  3
ACAD_GROUP
350
D
  3
ACAD_MLINESTYLE
350
17
  3
ACAD_LAYOUT
350
1A
  3
ACAD_PLOTSETTINGS
350
19
  3
ACAD_PLOTSTYLENAME
350
E
  0
DICTIONARY
  5
D
102
{ACAD_REACTORS
330
C
102
}
100
AcDbDictionary
280
0
281
1
  0
ACDBDICTIONARYWDFLT
  5
E
102
{ACAD_REACTORS
330
C
102
}
100
AcDbDictionary
281
1
  3
Normal
350
F
100
AcDbDictionaryWithDefault
340
F
  0
DICTIONARY
  5
17
102
{ACAD_REACTORS
330
C
102
}
100
AcDbDictionary
280
0
281
1
  3
Standard
350
18
  0
DICTIONARY
  5
19
102
{ACAD_REACTORS
330
C
102
}
100
AcDbDictionary
281
1
  0
DICTIONARY
  5
1A
102
{ACAD_REACTORS
330
C
102
}
100
AcDbDictionary
281
1
  3
Model
350
2BF
  3
Layout1
350
2C0
  0
ACDBPLACEHOLDER
  5
F
102
{ACAD_REACTORS
330
E
102
}
  0
MLINESTYLE
  5
18
102
{ACAD_REACTORS
330
17
102
}
100
AcDbMlineStyle
  2
STANDARD
 70
0
  3

 62
256
 51
90.0
 52
90.0
 71
2
 49
0.5
 62
256
  6
BYLAYER
 49
-0.5
 62
256
  6
BYLAYER
  0
LAYOUT
  5
2BF
102
{ACAD_REACTORS
330
1A
102
}
100
AcDbPlotSettings
  1

  2
none_device
  4
ANSI_A_(11.00_x_8.50_Inches)
  6

 40
0.0
 41
0.0
 42
0.0
 43
0.0
 44
279.4
 45
215.9
 46
0.0
 47
0.0
 48
0.0
 49
0.0
140
0.0
141
0.0
142
1.0
143
1.0
 70
1024
 72
0
 73
0
 74
0
  7

 75
0
147
1.0
148
0.0
149
0.0
100
AcDbLayout
  1
Model
 70
0
 71
0
 10
0.0
 20
0.0
 11
11.0
 21
8.5
 12
0.0
 22
0.0
 32
0.0
 14
0.0
 24
0.0
 34
0.0
 15
0.0
 25
0.0
 35
0.0
146
0.0
 13
0.0
 23
0.0
 33
0.0
 16
1.0
 26
0.0
 36
0.0
 17
0.0
 27
1.0
 37
0.0
 76
0
330
21D
345
0
346
0
  0
LAYOUT
  5
2C0
102
{ACAD_REACTORS
330
1A
102
}
100
AcDbPlotSettings
  1

  2
none_device
  4
ANSI_A_(11.00_x_8.50_Inches)
  6

 40
0.0
 41
0.0
 42
0.0
 43
0.0
 44
279.4
 45
215.9
 46
0.0
 47
0.0
 48
0.0
 49
0.0
140
0.0
141
0.0
142
1.0
143
1.0
 70
0
 72
0
 73
0
 74
0
  7

 75
0
147
1.0
148
0.0
149
0.0
100
AcDbLayout
  1
Layout1
 70
0
 71
1
 10
0.0
 20
0.0
 11
11.0
 21
8.5
 12
0.0
 22
0.0
 32
0.0
 14
0.0
 24
0.0
 34
0.0
 15
0.0
 25
0.0
 35
0.0
146
0.0
 13
0.0
 23
0.0
 33
0.0
 16
1.0
 26
0.0
 36
0.0
 17
0.0
 27
1.0
 37
0.0
 76
0
330
21E
345
0
346
0
  0
ENDSEC
  0
EOF
