999
DXF file: 3-2545_RIGHT.dxf
999
Pro/ENGINEER 2018400 by Parametric Technology Corporation
  0
SECTION
  2
HEADER
  9
$ACADVER
  1
AC1027
  9
$DWGCODEPAGE
  3
ANSI_1252
  9
$EXTMAX
 10
11.0
 20
8.5
 30
0.0
  9
$EXTMIN
 10
0.0
 20
0.0
 30
0.0
  9
$LIMMIN
 10
0.0
 20
0.0
  9
$LIMMAX
 10
11.0
 20
8.5
  9
$VIEWCTR
 10
5.5
 20
4.25
  9
$VIEWSIZE
 40
8.5
  9
$CLAYER
  8
0
  9
$LTSCALE
 40
0.605
  9
$CELTYPE
  6
BYLAYER
  9
$DIMSCALE
 40
1.0
  9
$DIMASZ
 40
0.1
  9
$DIMEXO
 40
0.0625
  9
$DIMDLI
 40
0.418
  9
$DIMEXE
 40
0.125
  9
$DIMCEN
 40
0.099
  9
$DIMLFAC
 40
1.0
  9
$DIMBLK
  1
_FILLED
  9
$DIMALT
 70
1
  9
$DIMALTD
 70
2
  9
$DIMALTTD
 70
2
  9
$DIMALTF
 40
25.4
  9
$DIMTXT
 40
0.08
  9
$DIMTOL
 70
1
  9
$DIMLIM
 70
0
  9
$DIMTFAC
 40
1.0
  9
$DIMTP
 40
0.001
  9
$DIMTM
 40
0.001
  9
$DIMGAP
 40
0.09
  9
$DIMDSEP
 70
46
  9
$AUNITS
 70
0
  9
$PDMODE
 70
3
  9
$PDSIZE
 40
0.3125
  9
$HANDSEED
  5
2A6
  9
$TILEMODE
 70
1
  9
$MEASUREMENT
 70
0
  9
$INSUNITS
 70
1
  0
ENDSEC
  0
SECTION
  2
CLASSES
  0
CLASS
  1
ACDBDICTIONARYWDFLT
  2
AcDbDictionaryWithDefault
  3
AutoCAD 2000
 90
0
 91
1
280
0
281
0
  0
CLASS
  1
ACDBPLACEHOLDER
  2
AcDbPlaceHolder
  3
AutoCAD 2000
 90
0
 91
1
280
0
281
0
  0
CLASS
  1
LAYOUT
  2
AcDbLayout
  3
AutoCAD 2000
 90
0
 91
0
280
0
281
0
  0
ENDSEC
  0
SECTION
  2
TABLES
  0
TABLE
  2
VPORT
  5
8
100
AcDbSymbolTable
 70
2
  0
VPORT
  5
1F4
100
AcDbSymbolTableRecord
100
AcDbViewportTableRecord
  2
*ACTIVE
 70
0
 10
0.0
 20
0.0
 11
1.0
 21
1.0
 12
5.5
 22
4.25
 13
0.0
 23
0.0
 14
1.0
 24
1.0
 15
0.0
 25
0.0
 16
0.0
 26
0.0
 36
1.0
 17
0.0
 27
0.0
 37
0.0
 40
8.5
 41
1.2941176471
 42
50.0
 43
0.0
 44
0.0
 50
0.0
 51
0.0
 71
0
 72
100
 73
1
 74
1
 75
0
 76
0
 77
0
 78
0
  0
ENDTAB
  0
TABLE
  2
LTYPE
  5
5
100
AcDbSymbolTable
 70
6
  0
LTYPE
  5
14
100
AcDbSymbolTableRecord
100
AcDbLinetypeTableRecord
  2
BYBLOCK
 70
0
  3

 72
65
 73
0
 40
0.0
  0
LTYPE
  5
15
100
AcDbSymbolTableRecord
100
AcDbLinetypeTableRecord
  2
BYLAYER
 70
0
  3

 72
65
 73
0
 40
0.0
  0
LTYPE
  5
16
100
AcDbSymbolTableRecord
100
AcDbLinetypeTableRecord
  2
CONTINUOUS
 70
64
  3
Solid line
 72
65
 73
0
 40
0.0
  0
LTYPE
  5
1F5
100
AcDbSymbolTableRecord
100
AcDbLinetypeTableRecord
  2
CENTER
 70
64
  3
____ _ ____ _ ____ _ ____ _ ____ _ ____ _ ____
 72
65
 73
4
 40
0.6
 49
0.375
 74
0
 49
-0.075
 74
0
 49
0.075
 74
0
 49
-0.075
 74
0
  0
LTYPE
  5
1F6
100
AcDbSymbolTableRecord
100
AcDbLinetypeTableRecord
  2
HIDDEN
 70
64
  3
- - - - - - - - - - - - - - - - - - - -
 72
65
 73
2
 40
0.2
 49
0.1
 74
0
 49
-0.1
 74
0
  0
LTYPE
  5
1F7
100
AcDbSymbolTableRecord
100
AcDbLinetypeTableRecord
  2
PHANTOM
 70
64
  3
_____ _ _ _____ _ _ _____ _ _ _____
 72
65
 73
6
 40
0.8
 49
0.45
 74
0
 49
-0.05
 74
0
 49
0.1
 74
0
 49
-0.05
 74
0
 49
0.1
 74
0
 49
-0.05
 74
0
  0
LTYPE
  5
1F8
100
AcDbSymbolTableRecord
100
AcDbLinetypeTableRecord
  2
DOT
 70
64
  3
. . . . . . . . . . . . . . . . . . . .
 72
65
 73
2
 40
0.2
 49
0.1
 74
0
 49
-0.1
 74
0
  0
LTYPE
  5
1F9
100
AcDbSymbolTableRecord
100
AcDbLinetypeTableRecord
  2
DASHED
 70
64
  3
- - - - - - - - - - - - - - - - - - - -
 72
65
 73
2
 40
0.2
 49
0.1
 74
0
 49
-0.1
 74
0
  0
ENDTAB
  0
TABLE
  2
LAYER
  5
2
100
AcDbSymbolTable
 70
36
  0
LAYER
  5
10
100
AcDbSymbolTableRecord
100
AcDbLayerTableRecord
  2
0
 70
0
 62
7
  6
CONTINUOUS
370
-3
390
F
  0
LAYER
  5
1FA
100
AcDbSymbolTableRecord
100
AcDbLayerTableRecord
  2
DEFAULT_1
 70
0
 62
7
  6
CENTER
370
-3
390
F
  0
LAYER
  5
1FB
100
AcDbSymbolTableRecord
100
AcDbLayerTableRecord
  2
DEFAULT_2
 70
0
 62
8
  6
HIDDEN
370
-3
390
F
  0
LAYER
  5
1FC
100
AcDbSymbolTableRecord
100
AcDbLayerTableRecord
  2
DEFAULT_3
 70
0
 62
7
  6
PHANTOM
370
-3
390
F
  0
LAYER
  5
1FD
100
AcDbSymbolTableRecord
100
AcDbLayerTableRecord
  2
3-985_ASSY_PLANES
 70
0
 62
7
  6
CONTINUOUS
370
-3
390
F
  0
LAYER
  5
1FE
100
AcDbSymbolTableRecord
100
AcDbLayerTableRecord
  2
ALL_ASSEMBLY_MEMBERS
 70
0
 62
7
  6
CONTINUOUS
370
-3
390
F
  0
LAYER
  5
1FF
100
AcDbSymbolTableRecord
100
AcDbLayerTableRecord
  2
ALL_FEATURES
 70
0
 62
7
  6
CONTINUOUS
370
-3
390
F
  0
LAYER
  5
200
100
AcDbSymbolTableRecord
100
AcDbLayerTableRecord
  2
AXES_FEATURES
 70
0
 62
7
  6
CONTINUOUS
370
-3
390
F
  0
LAYER
  5
201
100
AcDbSymbolTableRecord
100
AcDbLayerTableRecord
  2
CHAMFER_FEATURES
 70
0
 62
7
  6
CONTINUOUS
370
-3
390
F
  0
LAYER
  5
202
100
AcDbSymbolTableRecord
100
AcDbLayerTableRecord
  2
COSMETIC_SKETCHES
 70
0
 62
7
  6
CONTINUOUS
370
-3
390
F
  0
LAYER
  5
203
100
AcDbSymbolTableRecord
100
AcDbLayerTableRecord
  2
CUT_FEATURES
 70
0
 62
7
  6
CONTINUOUS
370
-3
390
F
  0
LAYER
  5
204
100
AcDbSymbolTableRecord
100
AcDbLayerTableRecord
  2
DATUM_CURVES
 70
0
 62
7
  6
CONTINUOUS
370
-3
390
F
  0
LAYER
  5
205
100
AcDbSymbolTableRecord
100
AcDbLayerTableRecord
  2
DATUM_PLANES
 70
0
 62
7
  6
CONTINUOUS
370
-3
390
F
  0
LAYER
  5
206
100
AcDbSymbolTableRecord
100
AcDbLayerTableRecord
  2
DATUM_POINTS
 70
0
 62
7
  6
CONTINUOUS
370
-3
390
F
  0
LAYER
  5
207
100
AcDbSymbolTableRecord
100
AcDbLayerTableRecord
  2
DEFAULT_COORDINATE_SYSTEM
 70
0
 62
7
  6
CONTINUOUS
370
-3
390
F
  0
LAYER
  5
208
100
AcDbSymbolTableRecord
100
AcDbLayerTableRecord
  2
DEFAULT_DATUM_AXES
 70
0
 62
7
  6
CONTINUOUS
370
-3
390
F
  0
LAYER
  5
209
100
AcDbSymbolTableRecord
100
AcDbLayerTableRecord
  2
DEFAULT_DATUM_CURVES
 70
0
 62
7
  6
CONTINUOUS
370
-3
390
F
  0
LAYER
  5
20A
100
AcDbSymbolTableRecord
100
AcDbLayerTableRecord
  2
DEFAULT_DATUM_PLANES
 70
0
 62
7
  6
CONTINUOUS
370
-3
390
F
  0
LAYER
  5
20B
100
AcDbSymbolTableRecord
100
AcDbLayerTableRecord
  2
DEFAULT_SURFACES
 70
0
 62
7
  6
CONTINUOUS
370
-3
390
F
  0
LAYER
  5
20C
100
AcDbSymbolTableRecord
100
AcDbLayerTableRecord
  2
DIMENSIONS
 70
0
 62
7
  6
CONTINUOUS
370
-3
390
F
  0
LAYER
  5
20D
100
AcDbSymbolTableRecord
100
AcDbLayerTableRecord
  2
HOLE_FEATURES
 70
0
 62
7
  6
CONTINUOUS
370
-3
390
F
  0
LAYER
  5
20E
100
AcDbSymbolTableRecord
100
AcDbLayerTableRecord
  2
NONE
 70
0
 62
7
  6
CONTINUOUS
370
-3
390
F
  0
LAYER
  5
20F
100
AcDbSymbolTableRecord
100
AcDbLayerTableRecord
  2
PART_REFERENCE_DIMENSIONS
 70
0
 62
7
  6
CONTINUOUS
370
-3
390
F
  0
LAYER
  5
210
100
AcDbSymbolTableRecord
100
AcDbLayerTableRecord
  2
PLATED_SURFACE_AREA
 70
0
 62
7
  6
CONTINUOUS
370
-3
390
F
  0
LAYER
  5
211
100
AcDbSymbolTableRecord
100
AcDbLayerTableRecord
  2
POINTS
 70
0
 62
7
  6
CONTINUOUS
370
-3
390
F
  0
LAYER
  5
212
100
AcDbSymbolTableRecord
100
AcDbLayerTableRecord
  2
PROTRUSION_FEATURES
 70
0
 62
7
  6
CONTINUOUS
370
-3
390
F
  0
LAYER
  5
213
100
AcDbSymbolTableRecord
100
AcDbLayerTableRecord
  2
QUILTS
 70
0
 62
7
  6
CONTINUOUS
370
-3
390
F
  0
LAYER
  5
214
100
AcDbSymbolTableRecord
100
AcDbLayerTableRecord
  2
REFERENCE_DIMENSIONS
 70
0
 62
7
  6
CONTINUOUS
370
-3
390
F
  0
LAYER
  5
215
100
AcDbSymbolTableRecord
100
AcDbLayerTableRecord
  2
ROUND_FEATURES
 70
0
 62
7
  6
CONTINUOUS
370
-3
390
F
  0
LAYER
  5
216
100
AcDbSymbolTableRecord
100
AcDbLayerTableRecord
  2
SHELL_FEATURES
 70
0
 62
7
  6
CONTINUOUS
370
-3
390
F
  0
LAYER
  5
217
100
AcDbSymbolTableRecord
100
AcDbLayerTableRecord
  2
SURFACE_FEATURES
 70
0
 62
7
  6
CONTINUOUS
370
-3
390
F
  0
LAYER
  5
218
100
AcDbSymbolTableRecord
100
AcDbLayerTableRecord
  2
WETTED_SURFACES
 70
0
 62
7
  6
CONTINUOUS
370
-3
390
F
  0
LAYER
  5
219
100
AcDbSymbolTableRecord
100
AcDbLayerTableRecord
  2
WETTED_SURFACE_AREA
 70
0
 62
7
  6
CONTINUOUS
370
-3
390
F
  0
LAYER
  5
21A
100
AcDbSymbolTableRecord
100
AcDbLayerTableRecord
  2
XSEC_DATUMS
 70
0
 62
7
  6
CONTINUOUS
370
-3
390
F
  0
ENDTAB
  0
TABLE
  2
STYLE
  5
3
100
AcDbSymbolTable
 70
1
  0
STYLE
  5
11
100
AcDbSymbolTableRecord
100
AcDbTextStyleTableRecord
  2
STANDARD
 70
0
 40
0.0
 41
0.8
 50
0.0
 71
0
 42
0.2
  3
txt
  4

  0
STYLE
  5
21B
100
AcDbSymbolTableRecord
100
AcDbTextStyleTableRecord
  2
TEXTSTYLE_1
 70
0
 40
0.0
 41
0.8
 50
0.0
 71
0
 42
0.2
  3
gdt
  4

  0
ENDTAB
  0
TABLE
  2
VIEW
  5
6
100
AcDbSymbolTable
 70
0
  0
ENDTAB
  0
TABLE
  2
UCS
  5
7
100
AcDbSymbolTable
 70
0
  0
ENDTAB
  0
TABLE
  2
APPID
  5
9
100
AcDbSymbolTable
 70
1
  0
APPID
  5
21C
100
AcDbSymbolTableRecord
100
AcDbRegAppTableRecord
  2
ACAD
 70
0
  0
ENDTAB
  0
TABLE
  2
BLOCK_RECORD
  5
1
100
AcDbSymbolTable
 70
0
  0
BLOCK_RECORD
  5
21D
100
AcDbSymbolTableRecord
100
AcDbBlockTableRecord
  2
*Model_Space
  0
BLOCK_RECORD
  5
21E
100
AcDbSymbolTableRecord
100
AcDbBlockTableRecord
  2
*Paper_Space
  0
BLOCK_RECORD
  5
21F
100
AcDbSymbolTableRecord
100
AcDbBlockTableRecord
  2
_FILLED
  0
ENDTAB
  0
TABLE
  2
DIMSTYLE
  5
A
100
AcDbSymbolTable
 70
1
100
AcDbDimStyleTable
 71
0
  0
DIMSTYLE
105
220
100
AcDbSymbolTableRecord
100
AcDbDimStyleTableRecord
  2
STANDARD
 70
0
  3

  4

 40
1.0
 41
0.1
 42
0.0625
 43
0.38
 44
0.125
 45
0.0
 46
0.0
 47
0.001
 48
0.001
140
0.08
141
0.09
142
0.0
143
25.4
144
1.0
145
0.0
146
1.0
147
0.09
 71
1.0
 72
0.0
 73
1
 74
1
 75
0
 76
0
 77
0
 78
4
 79
1
170
1
171
2
172
0
173
0
174
0
175
0
176
0
177
0
178
0
270
2
179
3
271
3
272
3
273
2
274
2
275
0
280
0
281
0
282
0
283
1
284
4
285
0
286
0
287
3
288
0
340
11
278
46
341
21F
342
21F
343
21F
344
21F
  0
ENDTAB
  0
ENDSEC
  0
SECTION
  2
BLOCKS
  0
BLOCK
  5
20
100
AcDbEntity
  8
0
100
AcDbBlockBegin
  2
*Model_Space
 70
0
 10
0.0
 20
0.0
 30
0.0
  3
*Model_Space
  1

  0
ENDBLK
  5
21
100
AcDbEntity
  8
0
100
AcDbBlockEnd
  0
BLOCK
  5
1C
100
AcDbEntity
  8
0
100
AcDbBlockBegin
  2
*Paper_Space
 70
0
 10
0.0
 20
0.0
 30
0.0
  3
*Paper_Space
  1

  0
ENDBLK
  5
1D
100
AcDbEntity
  8
0
100
AcDbBlockEnd
  0
BLOCK
  5
221
100
AcDbEntity
  8
0
100
AcDbBlockBegin
  2
_FILLED
 70
64
 10
0.0
 20
0.0
  3
_FILLED
  1

  0
SOLID
  5
222
100
AcDbEntity
  8
0
  6
BYBLOCK
 62
0
100
AcDbTrace
 10
0.0
 20
0.0
 11
-1.0
 21
0.2
 12
-1.0
 22
-0.2
 13
-1.0
 23
-0.2
  0
ENDBLK
  5
223
100
AcDbEntity
  8
0
  6
BYBLOCK
 62
0
100
AcDbBlockEnd
  0
ENDSEC
  0
SECTION
  2
ENTITIES
  0
MTEXT
  5
224
100
AcDbEntity
  8
0
100
AcDbMText
 62
2
  6
CONTINUOUS
  7
STANDARD
 71
3
 72
1
 10
3.737832786
 20
1.8109976708
 30
0.0
 11
1.0
 21
0.0
 31
0.0
 73
2
 44
0.9
  1
SCALE  .500
 40
0.08
 41
0.704
  0
LINE
  5
225
100
AcDbEntity
  8
0
100
AcDbLine
 62
7
  6
CONTINUOUS
 10
0.0
 20
0.0
 11
0.0
 21
8.5
  0
LINE
  5
226
100
AcDbEntity
  8
0
100
AcDbLine
 62
7
  6
CONTINUOUS
 10
0.0
 20
0.0
 11
11.0
 21
0.0
  0
LINE
  5
227
100
AcDbEntity
  8
0
100
AcDbLine
 62
7
  6
CONTINUOUS
 10
0.0
 20
8.5
 11
11.0
 21
8.5
  0
LINE
  5
228
100
AcDbEntity
  8
0
100
AcDbLine
 62
7
  6
CONTINUOUS
 10
11.0
 20
0.0
 11
11.0
 21
8.5
  0
LINE
  5
229
100
AcDbEntity
  8
ALL_ASSEMBLY_MEMBERS
100
AcDbLine
 62
7
  6
CONTINUOUS
 10
3.1116762422
 20
3.5755318323
 11
3.1116762422
 21
3.3005318323
  0
LINE
  5
22A
100
AcDbEntity
  8
ALL_ASSEMBLY_MEMBERS
100
AcDbLine
 62
7
  6
CONTINUOUS
 10
3.1706762422
 20
3.2705318323
 11
3.1706762422
 21
3.6055318323
  0
LINE
  5
22B
100
AcDbEntity
  8
ALL_ASSEMBLY_MEMBERS
100
AcDbLine
 62
7
  6
CONTINUOUS
 10
3.2991762422
 20
3.2705318323
 11
3.2991762422
 21
3.0255318323
  0
LINE
  5
22C
100
AcDbEntity
  8
ALL_ASSEMBLY_MEMBERS
100
AcDbLine
 62
7
  6
CONTINUOUS
 10
7.3066762422
 20
2.5055318323
 11
7.6116762422
 21
2.5055318323
  0
LINE
  5
22D
100
AcDbEntity
  8
ALL_ASSEMBLY_MEMBERS
100
AcDbLine
 62
7
  6
CONTINUOUS
 10
7.2766762422
 20
2.5355318323
 11
7.6116762422
 21
2.5355318323
  0
LINE
  5
22E
100
AcDbEntity
  8
ALL_ASSEMBLY_MEMBERS
100
AcDbLine
 62
7
  6
CONTINUOUS
 10
7.6166762422
 20
2.6055318323
 11
7.6116762422
 21
2.6055318323
  0
LINE
  5
22F
100
AcDbEntity
  8
ALL_ASSEMBLY_MEMBERS
100
AcDbLine
 62
7
  6
CONTINUOUS
 10
7.8306762422
 20
2.7313318323
 11
7.6166762422
 21
2.7313318323
  0
LINE
  5
230
100
AcDbEntity
  8
ALL_ASSEMBLY_MEMBERS
100
AcDbLine
 62
7
  6
CONTINUOUS
 10
3.9241762422
 20
3.2705318323
 11
3.9241762422
 21
3.0255318323
  0
LINE
  5
231
100
AcDbEntity
  8
ALL_ASSEMBLY_MEMBERS
100
AcDbLine
 62
7
  6
CONTINUOUS
 10
3.9191762422
 20
3.0205318323
 11
3.3041762422
 21
3.0205318323
  0
LINE
  5
232
100
AcDbEntity
  8
ALL_ASSEMBLY_MEMBERS
100
AcDbLine
 62
7
  6
CONTINUOUS
 10
3.2991762422
 20
3.0255318323
 11
3.9241762422
 21
3.0255318323
  0
LINE
  5
233
100
AcDbEntity
  8
ALL_ASSEMBLY_MEMBERS
100
AcDbLine
 62
7
  6
CONTINUOUS
 10
7.3066762422
 20
3.2305318323
 11
7.2766762422
 21
3.2305318323
  0
LINE
  5
234
100
AcDbEntity
  8
ALL_ASSEMBLY_MEMBERS
100
AcDbLine
 62
7
  6
CONTINUOUS
 10
3.1416762422
 20
3.2705318323
 11
7.2366762422
 21
3.2705318323
  0
LINE
  5
235
100
AcDbEntity
  8
ALL_ASSEMBLY_MEMBERS
100
AcDbLine
 62
7
  6
CONTINUOUS
 10
3.1116762422
 20
3.3005318323
 11
7.2366762422
 21
3.3005318323
  0
LWPOLYLINE
  5
236
100
AcDbEntity
  8
ALL_ASSEMBLY_MEMBERS
100
AcDbPolyline
 62
7
  6
CONTINUOUS
 90
7
 70
0
 10
5.9591057728
 20
6.1171927861
 10
5.957437907
 20
6.11633542
 10
5.9557313418
 20
6.1156499741
 10
5.9540269068
 20
6.1151386842
 10
5.9523503724
 20
6.1147916399
 10
5.9507097893
 20
6.1145938527
 10
5.9491382667
 20
6.1145320153
  0
LINE
  5
237
100
AcDbEntity
  8
ALL_ASSEMBLY_MEMBERS
100
AcDbLine
 62
7
  6
CONTINUOUS
 10
7.8306762422
 20
3.3797318323
 11
7.6166762422
 21
3.3797318323
  0
LINE
  5
238
100
AcDbEntity
  8
ALL_ASSEMBLY_MEMBERS
100
AcDbLine
 62
7
  6
CONTINUOUS
 10
7.6166762422
 20
3.5055318323
 11
7.6116762422
 21
3.5055318323
  0
LINE
  5
239
100
AcDbEntity
  8
ALL_ASSEMBLY_MEMBERS
100
AcDbLine
 62
7
  6
CONTINUOUS
 10
7.6116762422
 20
3.5755318323
 11
3.1116762422
 21
3.5755318323
  0
LINE
  5
23A
100
AcDbEntity
  8
ALL_ASSEMBLY_MEMBERS
100
AcDbLine
 62
7
  6
CONTINUOUS
 10
7.6116762422
 20
3.6055318323
 11
3.1416762422
 21
3.6055318323
  0
LINE
  5
23B
100
AcDbEntity
  8
ALL_ASSEMBLY_MEMBERS
100
AcDbLine
 62
7
  6
CONTINUOUS
 10
5.9679740359
 20
6.1278081083
 11
5.9679731094
 21
6.1278055048
  0
LWPOLYLINE
  5
23C
100
AcDbEntity
  8
ALL_ASSEMBLY_MEMBERS
100
AcDbPolyline
 62
7
  6
CONTINUOUS
 90
8
 70
0
 10
5.9679736758
 20
6.1278076078
 10
5.9672150695
 20
6.1259751093
 10
5.9663175515
 20
6.1242916644
 10
5.9652405806
 20
6.1226699177
 10
5.9640059748
 20
6.1211549291
 10
5.9626237564
 20
6.1197625164
 10
5.9611056913
 20
6.1185077007
 10
5.9594922134
 20
6.1174207595
  0
LINE
  5
23D
100
AcDbEntity
  8
ALL_ASSEMBLY_MEMBERS
100
AcDbLine
 62
7
  6
CONTINUOUS
 10
5.96969815
 20
6.1324607717
 11
5.9696655084
 21
6.1323823169
  0
LWPOLYLINE
  5
23E
100
AcDbEntity
  8
ALL_ASSEMBLY_MEMBERS
100
AcDbPolyline
 62
7
  6
CONTINUOUS
 90
8
 70
0
 10
5.967833056
 20
6.1274255299
 10
5.9670491609
 20
6.1256326986
 10
5.9660840591
 20
6.1239094599
 10
5.9649471803
 20
6.1222814112
 10
5.963663162
 20
6.1207833116
 10
5.9622472482
 20
6.1194272369
 10
5.9607156832
 20
6.1182236324
 10
5.9591057728
 20
6.1171927861
  0
LINE
  5
23F
100
AcDbEntity
  8
ALL_ASSEMBLY_MEMBERS
100
AcDbLine
 62
7
  6
CONTINUOUS
 10
5.8616762422
 20
6.0945318323
 11
5.8616762422
 21
6.0165318323
  0
LINE
  5
240
100
AcDbEntity
  8
ALL_ASSEMBLY_MEMBERS
100
AcDbLine
 62
7
  6
CONTINUOUS
 10
5.8816762422
 20
5.9965318323
 11
5.8816762422
 21
6.1145318323
  0
LINE
  5
241
100
AcDbEntity
  8
ALL_ASSEMBLY_MEMBERS
100
AcDbLine
 62
7
  6
CONTINUOUS
 10
6.3336762422
 20
5.9965318323
 11
6.3336762422
 21
6.1145318323
  0
LINE
  5
242
100
AcDbEntity
  8
ALL_ASSEMBLY_MEMBERS
100
AcDbLine
 62
7
  6
CONTINUOUS
 10
6.3536762422
 20
6.0165318323
 11
6.3536762422
 21
6.0945318323
  0
LINE
  5
243
100
AcDbEntity
  8
ALL_ASSEMBLY_MEMBERS
100
AcDbLine
 62
7
  6
CONTINUOUS
 10
6.3736762422
 20
6.0912126834
 11
6.3736762422
 21
6.0198509812
  0
LINE
  5
244
100
AcDbEntity
  8
ALL_ASSEMBLY_MEMBERS
100
AcDbLine
 62
7
  6
CONTINUOUS
 10
7.4816762422
 20
5.5055318323
 11
7.6166762422
 21
5.5055318323
  0
LINE
  5
245
100
AcDbEntity
  8
ALL_ASSEMBLY_MEMBERS
100
AcDbLine
 62
7
  6
CONTINUOUS
 10
7.4616762422
 20
5.5255318323
 11
7.6166762422
 21
5.5255318323
  0
LWPOLYLINE
  5
246
100
AcDbEntity
  8
ALL_ASSEMBLY_MEMBERS
100
AcDbPolyline
 62
7
  6
CONTINUOUS
 90
3
 70
0
 10
5.9744208056
 20
5.9672519015
 10
5.979717143
 20
5.95632449
 10
5.9856423934
 20
5.9456809296
  0
LINE
  5
247
100
AcDbEntity
  8
ALL_ASSEMBLY_MEMBERS
100
AcDbLine
 62
7
  6
CONTINUOUS
 10
5.96969815
 20
5.9786028929
 11
5.9697706014
 21
5.9784073807
  0
LWPOLYLINE
  5
248
100
AcDbEntity
  8
ALL_ASSEMBLY_MEMBERS
100
AcDbPolyline
 62
7
  6
CONTINUOUS
 90
3
 70
0
 10
5.9679727685
 20
5.9832585907
 10
5.9696655084
 20
5.9786813476
 10
5.9745434554
 20
5.9669796632
  0
LINE
  5
249
100
AcDbEntity
  8
ALL_ASSEMBLY_MEMBERS
100
AcDbLine
 62
7
  6
CONTINUOUS
 10
5.9679729343
 20
5.9832581406
 11
5.9679737617
 21
5.9832558162
  0
LINE
  5
24A
100
AcDbEntity
  8
ALL_ASSEMBLY_MEMBERS
100
AcDbLine
 62
7
  6
CONTINUOUS
 10
5.9983505885
 20
5.9266775855
 11
6.0056116966
 21
5.9175097075
  0
LINE
  5
24B
100
AcDbEntity
  8
ALL_ASSEMBLY_MEMBERS
100
AcDbLine
 62
7
  6
CONTINUOUS
 10
5.9916964243
 20
5.9360815717
 11
5.9985324187
 21
5.9264349504
  0
LINE
  5
24C
100
AcDbEntity
  8
ALL_ASSEMBLY_MEMBERS
100
AcDbLine
 62
7
  6
CONTINUOUS
 10
5.9854873526
 20
5.9459420282
 11
5.9918654293
 21
5.9358288983
  0
LINE
  5
24D
100
AcDbEntity
  8
ALL_ASSEMBLY_MEMBERS
100
AcDbLine
 62
7
  6
CONTINUOUS
 10
5.9745434554
 20
5.9669796632
 11
5.9798564974
 21
5.9560571214
  0
LINE
  5
24E
100
AcDbEntity
  8
ALL_ASSEMBLY_MEMBERS
100
AcDbLine
 62
7
  6
CONTINUOUS
 10
7.4616762422
 20
5.8405318323
 11
7.2736762422
 21
5.8405318323
  0
LINE
  5
24F
100
AcDbEntity
  8
ALL_ASSEMBLY_MEMBERS
100
AcDbLine
 62
7
  6
CONTINUOUS
 10
6.1704374595
 20
5.8405318326
 11
7.2486762422
 21
5.8405318323
  0
LINE
  5
250
100
AcDbEntity
  8
ALL_ASSEMBLY_MEMBERS
100
AcDbLine
 62
7
  6
CONTINUOUS
 10
7.2706762422
 20
5.8855318323
 11
7.2736762422
 21
5.8855318323
  0
LINE
  5
251
100
AcDbEntity
  8
ALL_ASSEMBLY_MEMBERS
100
AcDbLine
 62
7
  6
CONTINUOUS
 10
5.9780379964
 20
5.9765318323
 11
6.3345988924
 21
5.9765318323
  0
LINE
  5
252
100
AcDbEntity
  8
ALL_ASSEMBLY_MEMBERS
100
AcDbLine
 62
7
  6
CONTINUOUS
 10
5.8816762422
 20
5.9965318323
 11
6.3336762422
 21
5.9965318323
  0
LINE
  5
253
100
AcDbEntity
  8
ALL_ASSEMBLY_MEMBERS
100
AcDbLine
 62
7
  6
CONTINUOUS
 10
5.8616762422
 20
6.0165318323
 11
6.3536762422
 21
6.0165318323
  0
LWPOLYLINE
  5
254
100
AcDbEntity
  8
ALL_ASSEMBLY_MEMBERS
100
AcDbPolyline
 62
7
  6
CONTINUOUS
 90
7
 70
0
 10
5.9496582418
 20
5.9965111889
 10
5.9507097887
 20
5.9964698119
 10
5.9523503718
 20
5.9962720248
 10
5.9540269059
 20
5.9959249806
 10
5.9557313408
 20
5.9954136909
 10
5.9574379059
 20
5.9947282451
 10
5.9591057715
 20
5.9938708793
  0
LWPOLYLINE
  5
255
100
AcDbEntity
  8
ALL_ASSEMBLY_MEMBERS
100
AcDbPolyline
 62
7
  6
CONTINUOUS
 90
14
 70
0
 10
5.9491985366
 20
5.9965317249
 10
5.9508609261
 20
5.9964574624
 10
5.9525662949
 20
5.9962357878
 10
5.9543001653
 20
5.9958541246
 10
5.9560555549
 20
5.9952973921
 10
5.9578025452
 20
5.9945574898
 10
5.9594922135
 20
5.9936429051
 10
5.9611056914
 20
5.9925559639
 10
5.9626237564
 20
5.9913011482
 10
5.9640059748
 20
5.9899087355
 10
5.9652405806
 20
5.9883937468
 10
5.9663175515
 20
5.9867720002
 10
5.9672150695
 20
5.9850885553
 10
5.9679736758
 20
5.9832560568
  0
LINE
  5
256
100
AcDbEntity
  8
ALL_ASSEMBLY_MEMBERS
100
AcDbLine
 62
7
  6
CONTINUOUS
 10
7.2701545397
 20
5.8855693637
 11
7.2706762422
 21
5.8855318323
  0
LINE
  5
257
100
AcDbEntity
  8
ALL_ASSEMBLY_MEMBERS
100
AcDbLine
 62
7
  6
CONTINUOUS
 10
7.2701571987
 20
5.885569208
 11
7.2706762422
 21
5.8855318323
  0
LWPOLYLINE
  5
258
100
AcDbEntity
  8
ALL_ASSEMBLY_MEMBERS
100
AcDbPolyline
 62
7
  6
CONTINUOUS
 90
7
 70
0
 10
6.087496746
 20
5.8571833397
 10
6.0987446915
 20
5.8528439503
 10
6.1104625459
 20
5.8490719192
 10
6.12273263
 20
5.8458962797
 10
6.1354419396
 20
5.8434021714
 10
6.1483254393
 20
5.8416730643
 10
6.1613598093
 20
5.8407241005
  0
LWPOLYLINE
  5
259
100
AcDbEntity
  8
ALL_ASSEMBLY_MEMBERS
100
AcDbPolyline
 62
7
  6
CONTINUOUS
 90
8
 70
0
 10
6.0872098757
 20
5.8573037484
 10
6.0984443084
 20
5.8529506332
 10
6.1101487286
 20
5.849163218
 10
6.1224036162
 20
5.8459713287
 10
6.1350983855
 20
5.8434593798
 10
6.1479758112
 20
5.8417095373
 10
6.1610171125
 20
5.8407386917
 10
6.1704417936
 20
5.840531823
  0
LINE
  5
25A
100
AcDbEntity
  8
ALL_ASSEMBLY_MEMBERS
100
AcDbLine
 62
7
  6
CONTINUOUS
 10
6.0764106846
 20
5.8621930857
 11
6.087496746
 21
5.8571833397
  0
LINE
  5
25B
100
AcDbEntity
  8
ALL_ASSEMBLY_MEMBERS
100
AcDbLine
 62
7
  6
CONTINUOUS
 10
6.0660700012
 20
5.8675738363
 11
6.0766852498
 21
5.8620600049
  0
LINE
  5
25C
100
AcDbEntity
  8
ALL_ASSEMBLY_MEMBERS
100
AcDbLine
 62
7
  6
CONTINUOUS
 10
6.0561905303
 20
5.8734117513
 11
6.0663333123
 21
5.8674279123
  0
LINE
  5
25D
100
AcDbEntity
  8
ALL_ASSEMBLY_MEMBERS
100
AcDbLine
 62
7
  6
CONTINUOUS
 10
6.0467105249
 20
5.8797167589
 11
6.0564434738
 21
5.8732530558
  0
LINE
  5
25E
100
AcDbEntity
  8
ALL_ASSEMBLY_MEMBERS
100
AcDbLine
 62
7
  6
CONTINUOUS
 10
6.0376410435
 20
5.8864628495
 11
6.0469539377
 21
5.8795456298
  0
LINE
  5
25F
100
AcDbEntity
  8
ALL_ASSEMBLY_MEMBERS
100
AcDbLine
 62
7
  6
CONTINUOUS
 10
6.0289991323
 20
5.8936238983
 11
6.0378752979
 21
5.8862793325
  0
LINE
  5
260
100
AcDbEntity
  8
ALL_ASSEMBLY_MEMBERS
100
AcDbLine
 62
7
  6
CONTINUOUS
 10
6.0207360585
 20
5.901234235
 11
6.0292239565
 21
5.8934277241
  0
LINE
  5
261
100
AcDbEntity
  8
ALL_ASSEMBLY_MEMBERS
100
AcDbLine
 62
7
  6
CONTINUOUS
 10
6.0128686839
 20
5.9092791519
 11
6.020951078
 21
5.9010256195
  0
LINE
  5
262
100
AcDbEntity
  8
ALL_ASSEMBLY_MEMBERS
100
AcDbLine
 62
7
  6
CONTINUOUS
 10
6.005417552
 20
5.9177417497
 11
6.0130738535
 21
5.9090584985
  0
LINE
  5
263
100
AcDbEntity
  8
ALL_ASSEMBLY_MEMBERS
100
AcDbLine
 62
7
  6
CONTINUOUS
 10
7.2706762422
 20
6.2255318323
 11
7.2701834414
 21
6.2254963072
  0
LINE
  5
264
100
AcDbEntity
  8
ALL_ASSEMBLY_MEMBERS
100
AcDbLine
 62
7
  6
CONTINUOUS
 10
5.8616762422
 20
6.0945318323
 11
6.3536762422
 21
6.0945318323
  0
LINE
  5
265
100
AcDbEntity
  8
ALL_ASSEMBLY_MEMBERS
100
AcDbLine
 62
7
  6
CONTINUOUS
 10
6.3336762422
 20
6.1145318323
 11
5.8816762422
 21
6.1145318323
  0
LINE
  5
266
100
AcDbEntity
  8
ALL_ASSEMBLY_MEMBERS
100
AcDbLine
 62
7
  6
CONTINUOUS
 10
6.3345987614
 20
6.1345318323
 11
5.9780378528
 21
6.1345318323
  0
LINE
  5
267
100
AcDbEntity
  8
ALL_ASSEMBLY_MEMBERS
100
AcDbLine
 62
7
  6
CONTINUOUS
 10
7.2706762422
 20
6.2255318323
 11
7.2736762422
 21
6.2255318323
  0
LINE
  5
268
100
AcDbEntity
  8
ALL_ASSEMBLY_MEMBERS
100
AcDbLine
 62
7
  6
CONTINUOUS
 10
7.2366762422
 20
3.3005318323
 11
7.2366762422
 21
3.2705318323
  0
LINE
  5
269
100
AcDbEntity
  8
ALL_ASSEMBLY_MEMBERS
100
AcDbLine
 62
7
  6
CONTINUOUS
 10
7.2486762422
 20
5.8405318323
 11
7.2486762422
 21
6.2705318323
  0
LINE
  5
26A
100
AcDbEntity
  8
ALL_ASSEMBLY_MEMBERS
100
AcDbLine
 62
7
  6
CONTINUOUS
 10
7.2736762422
 20
5.8405318323
 11
7.2736762422
 21
6.2705318323
  0
LINE
  5
26B
100
AcDbEntity
  8
ALL_ASSEMBLY_MEMBERS
100
AcDbLine
 62
7
  6
CONTINUOUS
 10
7.2766762422
 20
3.2305318323
 11
7.2766762422
 21
2.5355318323
  0
LINE
  5
26C
100
AcDbEntity
  8
ALL_ASSEMBLY_MEMBERS
100
AcDbLine
 62
7
  6
CONTINUOUS
 10
7.3066762422
 20
3.2305318323
 11
7.3066762422
 21
2.5055318323
  0
LWPOLYLINE
  5
26D
100
AcDbEntity
  8
ALL_ASSEMBLY_MEMBERS
100
AcDbPolyline
 62
7
  6
CONTINUOUS
 90
24
 70
0
 10
6.1704853591
 20
6.2705318411
 10
6.1613598093
 20
6.2703395641
 10
6.1483254393
 20
6.2693906002
 10
6.1354419396
 20
6.2676614932
 10
6.12273263
 20
6.2651673849
 10
6.1104625459
 20
6.2619917454
 10
6.0987446915
 20
6.2582197143
 10
6.087496746
 20
6.2538803249
 10
6.0766852498
 20
6.2490036597
 10
6.0663333123
 20
6.2436357523
 10
6.0564434738
 20
6.2378106088
 10
6.0469539377
 20
6.2315180348
 10
6.0378752979
 20
6.224784332
 10
6.0292239565
 20
6.2176359405
 10
6.020951078
 20
6.2100380451
 10
6.0130738535
 20
6.2020051661
 10
6.0056116966
 20
6.1935539571
 10
5.9985324187
 20
6.1846287142
 10
5.9918654293
 20
6.1752347663
 10
5.9856423934
 20
6.165382735
 10
5.9798564974
 20
6.1550065432
 10
5.9745434554
 20
6.1440840014
 10
5.9697706014
 20
6.1326562839
 10
5.967833056
 20
6.1274255299
  0
LINE
  5
26E
100
AcDbEntity
  8
ALL_ASSEMBLY_MEMBERS
100
AcDbLine
 62
7
  6
CONTINUOUS
 10
7.4616762422
 20
6.2705318323
 11
7.2736762422
 21
6.2705318323
  0
LINE
  5
26F
100
AcDbEntity
  8
ALL_ASSEMBLY_MEMBERS
100
AcDbLine
 62
7
  6
CONTINUOUS
 10
7.2486762422
 20
6.2705318323
 11
6.1704608842
 21
6.2705318323
  0
LINE
  5
270
100
AcDbEntity
  8
ALL_ASSEMBLY_MEMBERS
100
AcDbLine
 62
7
  6
CONTINUOUS
 10
7.4616762422
 20
5.5255318323
 11
7.4616762422
 21
6.5855318323
  0
LINE
  5
271
100
AcDbEntity
  8
ALL_ASSEMBLY_MEMBERS
100
AcDbLine
 62
7
  6
CONTINUOUS
 10
7.4816762422
 20
5.5055318323
 11
7.4816762422
 21
6.6055318323
  0
LINE
  5
272
100
AcDbEntity
  8
ALL_ASSEMBLY_MEMBERS
100
AcDbLine
 62
7
  6
CONTINUOUS
 10
7.4616762422
 20
6.5855318323
 11
7.6166762422
 21
6.5855318323
  0
LINE
  5
273
100
AcDbEntity
  8
ALL_ASSEMBLY_MEMBERS
100
AcDbLine
 62
7
  6
CONTINUOUS
 10
7.4816762422
 20
6.6055318323
 11
7.6166762422
 21
6.6055318323
  0
LINE
  5
274
100
AcDbEntity
  8
ALL_ASSEMBLY_MEMBERS
100
AcDbLine
 62
7
  6
CONTINUOUS
 10
7.6116762422
 20
2.5055318323
 11
7.6116762422
 21
3.6055318323
  0
LINE
  5
275
100
AcDbEntity
  8
ALL_ASSEMBLY_MEMBERS
100
AcDbLine
 62
7
  6
CONTINUOUS
 10
7.6166762422
 20
3.5055318323
 11
7.6166762422
 21
2.6055318323
  0
LINE
  5
276
100
AcDbEntity
  8
ALL_ASSEMBLY_MEMBERS
100
AcDbLine
 62
7
  6
CONTINUOUS
 10
7.6166762422
 20
5.5055318323
 11
7.6166762422
 21
6.6055318323
  0
LINE
  5
277
100
AcDbEntity
  8
ALL_ASSEMBLY_MEMBERS
100
AcDbLine
 62
7
  6
CONTINUOUS
 10
7.8306762422
 20
3.3797318323
 11
7.8306762422
 21
2.7313318323
  0
ARC
  5
278
100
AcDbEntity
  8
ALL_ASSEMBLY_MEMBERS
100
AcDbCircle
 62
7
  6
CONTINUOUS
 10
3.1416762422
 20
3.3005318323
 40
0.03
100
AcDbArc
 50
180.0
 51
270.0
  0
ARC
  5
279
100
AcDbEntity
  8
ALL_ASSEMBLY_MEMBERS
100
AcDbCircle
 62
7
  6
CONTINUOUS
 10
3.1416762422
 20
3.5755318323
 40
0.03
100
AcDbArc
 50
90.0
 51
180.0
  0
ARC
  5
27A
100
AcDbEntity
  8
ALL_ASSEMBLY_MEMBERS
100
AcDbCircle
 62
7
  6
CONTINUOUS
 10
3.9191762422
 20
3.0255318323
 40
0.005
100
AcDbArc
 50
270.0
 51
360.0
  0
ARC
  5
27B
100
AcDbEntity
  8
ALL_ASSEMBLY_MEMBERS
100
AcDbCircle
 62
7
  6
CONTINUOUS
 10
3.3041762422
 20
3.0255318323
 40
0.005
100
AcDbArc
 50
180.0
 51
270.0
  0
ARC
  5
27C
100
AcDbEntity
  8
ALL_ASSEMBLY_MEMBERS
100
AcDbCircle
 62
7
  6
CONTINUOUS
 10
7.2366762422
 20
3.2305318323
 40
0.0699998679
100
AcDbArc
 50
0.0
 51
90.0
  0
ARC
  5
27D
100
AcDbEntity
  8
ALL_ASSEMBLY_MEMBERS
100
AcDbCircle
 62
7
  6
CONTINUOUS
 10
7.2366762422
 20
3.2305318323
 40
0.04
100
AcDbArc
 50
0.0
 51
90.0
  0
ARC
  5
27E
100
AcDbEntity
  8
ALL_ASSEMBLY_MEMBERS
100
AcDbCircle
 62
7
  6
CONTINUOUS
 10
7.3066762422
 20
2.5355318323
 40
0.03
100
AcDbArc
 50
180.0
 51
270.0
  0
ARC
  5
27F
100
AcDbEntity
  8
ALL_ASSEMBLY_MEMBERS
100
AcDbCircle
 62
7
  6
CONTINUOUS
 10
6.1563183344
 20
6.0555287715
 40
0.194998451
100
AcDbArc
 50
203.8983795869
 51
336.1016466124
  0
ARC
  5
280
100
AcDbEntity
  8
ALL_ASSEMBLY_MEMBERS
100
AcDbCircle
 62
7
  6
CONTINUOUS
 10
6.3336762422
 20
6.0165318323
 40
0.02
100
AcDbArc
 50
270.0
 51
360.0
  0
ARC
  5
281
100
AcDbEntity
  8
ALL_ASSEMBLY_MEMBERS
100
AcDbCircle
 62
7
  6
CONTINUOUS
 10
5.8816762422
 20
6.0165318323
 40
0.02
100
AcDbArc
 50
180.0
 51
270.0
  0
ARC
  5
282
100
AcDbEntity
  8
ALL_ASSEMBLY_MEMBERS
100
AcDbCircle
 62
7
  6
CONTINUOUS
 10
6.1563183936
 20
6.0555348724
 40
0.1949984607
100
AcDbArc
 50
23.8983815834
 51
156.1016390145
  0
ARC
  5
283
100
AcDbEntity
  8
ALL_ASSEMBLY_MEMBERS
100
AcDbCircle
 62
7
  6
CONTINUOUS
 10
5.8816762422
 20
6.0945318323
 40
0.02
100
AcDbArc
 50
90.0
 51
180.0
  0
ARC
  5
284
100
AcDbEntity
  8
ALL_ASSEMBLY_MEMBERS
100
AcDbCircle
 62
7
  6
CONTINUOUS
 10
6.3336762422
 20
6.0945318323
 40
0.02
100
AcDbArc
 50
0.0
 51
90.0
  0
ARC
  5
285
100
AcDbEntity
  8
ALL_ASSEMBLY_MEMBERS
100
AcDbCircle
 62
7
  6
CONTINUOUS
 10
7.2581691346
 20
5.7155987889
 40
0.1703926556
100
AcDbArc
 50
85.9655925804
 51
86.4646651291
  0
ARC
  5
286
100
AcDbEntity
  8
ALL_ASSEMBLY_MEMBERS
100
AcDbCircle
 62
7
  6
CONTINUOUS
 10
7.258176912
 20
5.7161305763
 40
0.1698613888
100
AcDbArc
 50
86.4977833232
 51
93.210556182
  0
ARC
  5
287
100
AcDbEntity
  8
ALL_ASSEMBLY_MEMBERS
100
AcDbCircle
 62
7
  6
CONTINUOUS
 10
7.4816762422
 20
5.5255318323
 40
0.02
100
AcDbArc
 50
180.0
 51
270.0
  0
ARC
  5
288
100
AcDbEntity
  8
ALL_ASSEMBLY_MEMBERS
100
AcDbCircle
 62
7
  6
CONTINUOUS
 10
7.2580017569
 20
6.3981482928
 40
0.1730812855
100
AcDbArc
 50
273.3163633537
 51
273.4952904431
  0
ARC
  5
289
100
AcDbEntity
  8
ALL_ASSEMBLY_MEMBERS
100
AcDbCircle
 62
7
  6
CONTINUOUS
 10
7.2581454802
 20
6.3956649575
 40
0.1705937948
100
AcDbArc
 50
272.7615684281
 51
273.3164225343
  0
ARC
  5
28A
100
AcDbEntity
  8
ALL_ASSEMBLY_MEMBERS
100
AcDbCircle
 62
7
  6
CONTINUOUS
 10
7.2581754728
 20
6.3948791894
 40
0.1698074943
100
AcDbArc
 50
266.788878864
 51
272.7642341267
  0
ARC
  5
28B
100
AcDbEntity
  8
ALL_ASSEMBLY_MEMBERS
100
AcDbCircle
 62
7
  6
CONTINUOUS
 10
7.2582326958
 20
6.3945113012
 40
0.169436975
100
AcDbArc
 50
273.5387049605
 51
274.0445498275
  0
ARC
  5
28C
100
AcDbEntity
  8
ALL_ASSEMBLY_MEMBERS
100
AcDbCircle
 62
7
  6
CONTINUOUS
 10
7.4816762422
 20
6.5855318323
 40
0.02
100
AcDbArc
 50
90.0
 51
180.0
  0
ARC
  5
28D
100
AcDbEntity
  8
ALL_ASSEMBLY_MEMBERS
100
AcDbCircle
 62
7
  6
CONTINUOUS
 10
7.2581762422
 20
6.0555318323
 40
0.0125
100
AcDbArc
 50
220.4438584186
 51
139.5537424743
  0
LINE
  5
28E
100
AcDbEntity
  8
ALL_ASSEMBLY_MEMBERS
100
AcDbLine
 62
7
  6
CONTINUOUS
 10
7.2685532611
 20
5.885674738
 11
7.2686762422
 21
5.8856671803
  0
LINE
  5
28F
100
AcDbEntity
  8
ALL_ASSEMBLY_MEMBERS
100
AcDbLine
 62
7
  6
CONTINUOUS
 10
7.2686908194
 20
6.2253973865
 11
7.2685539163
 21
6.2253889708
  0
SPLINE
  5
290
100
AcDbEntity
  8
ALL_ASSEMBLY_MEMBERS
100
AcDbSpline
 62
7
  6
CONTINUOUS
 70
0
 71
3
 72
22
 73
18
 74
0
 42
0.0000001
 43
0.0000001
 44
0.0000000001
 40
0.0
 40
0.0
 40
0.0
 40
0.0
 40
0.0079150667
 40
0.0164830204
 40
0.0262003449
 40
0.0374008693
 40
0.0649787966
 40
0.1001340329
 40
0.1430204578
 40
0.1934861719
 40
0.2512602923
 40
0.315888391
 40
0.3867838407
 40
0.46333679
 40
0.6306772186
 40
0.8120056821
 40
1.0
 40
1.0
 40
1.0
 40
1.0
 10
6.3536762422
 20
6.0945318323
 30
0.0
 10
6.3536762422
 20
6.0944771123
 30
0.0
 10
6.353694143
 20
6.0943625955
 30
0.0
 10
6.3537711501
 20
6.0941966954
 30
0.0
 10
6.35389572
 20
6.094033785
 30
0.0
 10
6.3541412251
 20
6.0938038481
 30
0.0
 10
6.3545770529
 20
6.0935297535
 30
0.0
 10
6.3552440047
 20
6.0932302329
 30
0.0
 10
6.3560853238
 20
6.0929416344
 30
0.0
 10
6.3570937944
 20
6.0926667743
 30
0.0
 10
6.3582611578
 20
6.0924089801
 30
0.0
 10
6.3595763392
 20
6.0921707034
 30
0.0
 10
6.3610266316
 20
6.0919541403
 30
0.0
 10
6.3631870183
 20
6.0916900978
 30
0.0
 10
6.366116749
 20
6.0914364247
 30
0.0
 10
6.3698230769
 20
6.0912539473
 30
0.0
 10
6.3723765634
 20
6.0912126834
 30
0.0
 10
6.3736762422
 20
6.0912126834
 30
0.0
  0
SPLINE
  5
291
100
AcDbEntity
  8
ALL_ASSEMBLY_MEMBERS
100
AcDbSpline
 62
7
  6
CONTINUOUS
 70
0
 71
3
 72
14
 73
10
 74
0
 42
0.0000001
 43
0.0000001
 44
0.0000000001
 40
0.0
 40
0.0
 40
0.0
 40
0.0
 40
0.2503406805
 40
0.3751807426
 40
0.4998268735
 40
0.6244928024
 40
0.7493170557
 40
0.8744808284
 40
1.0
 40
1.0
 40
1.0
 40
1.0
 10
6.3560364525
 20
6.1215604304
 30
0.0
 10
6.3586375288
 20
6.119954132
 30
0.0
 10
6.3622817042
 20
6.1170868777
 30
0.0
 10
6.3663296268
 20
6.1125038348
 30
0.0
 10
6.3689146331
 20
6.1087206777
 30
0.0
 10
6.370995766
 20
6.1046392352
 30
0.0
 10
6.3725264211
 20
6.1003130989
 30
0.0
 10
6.3734649281
 20
6.0958108932
 30
0.0
 10
6.3736762993
 20
6.0927454876
 30
0.0
 10
6.3736762422
 20
6.0912126834
 30
0.0
  0
SPLINE
  5
292
100
AcDbEntity
  8
ALL_ASSEMBLY_MEMBERS
100
AcDbSpline
 62
7
  6
CONTINUOUS
 70
0
 71
3
 72
20
 73
16
 74
0
 42
0.0000001
 43
0.0000001
 44
0.0000000001
 40
0.0
 40
0.0
 40
0.0
 40
0.0
 40
0.0192785729
 40
0.042085921
 40
0.0705488728
 40
0.1057052271
 40
0.1479412174
 40
0.1971007866
 40
0.2529101014
 40
0.3150865577
 40
0.383364668
 40
0.4574759565
 40
0.6218178712
 40
0.8045323353
 40
1.0
 40
1.0
 40
1.0
 40
1.0
 10
6.3447074396
 20
5.9998492295
 30
0.0
 10
6.3447921706
 20
5.9999052436
 30
0.0
 10
6.3450091293
 20
5.9999812139
 30
0.0
 10
6.3453855696
 20
5.9999644879
 30
0.0
 10
6.3458264801
 20
5.9998421669
 30
0.0
 10
6.3463381424
 20
5.9996172078
 30
0.0
 10
6.3469210859
 20
5.9992920763
 30
0.0
 10
6.347568276
 20
5.9988635285
 30
0.0
 10
6.3482700104
 20
5.9983305876
 30
0.0
 10
6.3490159774
 20
5.9976921186
 30
0.0
 10
6.3497964442
 20
5.9969482362
 30
0.0
 10
6.3509212927
 20
5.9957874815
 30
0.0
 10
6.3523926821
 20
5.9941253333
 30
0.0
 10
6.3542190177
 20
5.9919260949
 30
0.0
 10
6.3554335198
 20
5.9903455768
 30
0.0
 10
6.3560430011
 20
5.989515439
 30
0.0
  0
SPLINE
  5
293
100
AcDbEntity
  8
ALL_ASSEMBLY_MEMBERS
100
AcDbSpline
 62
7
  6
CONTINUOUS
 70
0
 71
3
 72
14
 73
10
 74
0
 42
0.0000001
 43
0.0000001
 44
0.0000000001
 40
0.0
 40
0.0
 40
0.0
 40
0.0
 40
0.2572902629
 40
0.3849590649
 40
0.5115934386
 40
0.6368246184
 40
0.7603437021
 40
0.881669625
 40
1.0
 40
1.0
 40
1.0
 40
1.0
 10
6.3560430011
 20
5.989515439
 30
0.0
 10
6.3551044361
 20
5.9884410906
 30
0.0
 10
6.353613798
 20
5.9869055895
 30
0.0
 10
6.3514730104
 20
5.9850429027
 30
0.0
 10
6.3498061991
 20
5.9837560947
 30
0.0
 10
6.3480808931
 20
5.9825892256
 30
0.0
 10
6.346304539
 20
5.9815585904
 30
0.0
 10
6.3444939768
 20
5.9806736775
 30
0.0
 10
6.3432615677
 20
5.9801734455
 30
0.0
 10
6.3426452482
 20
5.9799484675
 30
0.0
  0
SPLINE
  5
294
100
AcDbEntity
  8
ALL_ASSEMBLY_MEMBERS
100
AcDbSpline
 62
7
  6
CONTINUOUS
 70
0
 71
3
 72
17
 73
13
 74
0
 42
0.0000001
 43
0.0000001
 44
0.0000000001
 40
0.0
 40
0.0
 40
0.0
 40
0.0
 40
0.1678778611
 40
0.3283081144
 40
0.4769994758
 40
0.6112695522
 40
0.7294826135
 40
0.7825637424
 40
0.831783763
 40
0.9200249619
 40
0.9606347608
 40
1.0
 40
1.0
 40
1.0
 40
1.0
 10
6.3426452482
 20
5.9799484675
 30
0.0
 10
6.3425562147
 20
5.9810767964
 30
0.0
 10
6.3422926831
 20
5.9832775083
 30
0.0
 10
6.3416390972
 20
5.9864306565
 30
0.0
 10
6.3407453815
 20
5.9892893709
 30
0.0
 10
6.339644021
 20
5.9917670585
 30
0.0
 10
6.3385375481
 20
5.9935178177
 30
0.0
 10
6.3375632051
 20
5.994644899
 30
0.0
 10
6.3366178724
 20
5.9955166382
 30
0.0
 10
6.3355753046
 20
5.9961563773
 30
0.0
 10
6.3344821961
 20
5.9964782638
 30
0.0
 10
6.3339416435
 20
5.9965318231
 30
0.0
 10
6.3336762422
 20
5.9965318209
 30
0.0
  0
SPLINE
  5
295
100
AcDbEntity
  8
ALL_ASSEMBLY_MEMBERS
100
AcDbSpline
 62
7
  6
CONTINUOUS
 70
0
 71
3
 72
9
 73
5
 74
0
 42
0.0000001
 43
0.0000001
 44
0.0000000001
 40
0.0
 40
0.0
 40
0.0
 40
0.0
 40
0.2346690707
 40
1.0
 40
1.0
 40
1.0
 40
1.0
 10
6.3345989332
 20
5.9765318323
 30
0.0
 10
6.3352116043
 20
5.9768359651
 30
0.0
 10
6.3378417907
 20
5.9780926842
 30
0.0
 10
6.3405470692
 20
5.9791908294
 30
0.0
 10
6.3426452303
 20
5.9799484607
 30
0.0
  0
SPLINE
  5
296
100
AcDbEntity
  8
ALL_ASSEMBLY_MEMBERS
100
AcDbSpline
 62
7
  6
CONTINUOUS
 70
0
 71
3
 72
17
 73
13
 74
0
 42
0.0000001
 43
0.0000001
 44
0.0000000001
 40
0.0
 40
0.0
 40
0.0
 40
0.0
 40
0.1448395821
 40
0.287205435
 40
0.4241815026
 40
0.5540299098
 40
0.6757128856
 40
0.7892895148
 40
0.8436009441
 40
0.8965989709
 40
0.9486129468
 40
1.0
 40
1.0
 40
1.0
 40
1.0
 10
6.3345988978
 20
5.9765318323
 30
0.0
 10
6.3345988957
 20
5.9778344978
 30
0.0
 10
6.3344192664
 20
5.9804211213
 30
0.0
 10
6.3336260988
 20
5.9841655677
 30
0.0
 10
6.3323320391
 20
5.9876267759
 30
0.0
 10
6.3305838646
 20
5.9906722259
 30
0.0
 10
6.3284462059
 20
5.9931915268
 30
0.0
 10
6.3263603181
 20
5.99479259
 30
0.0
 10
6.3245850089
 20
5.9956946117
 30
0.0
 10
6.323230442
 20
5.9961749672
 30
0.0
 10
6.3218501389
 20
5.996466008
 30
0.0
 10
6.3209189297
 20
5.9965318323
 30
0.0
 10
6.3204567622
 20
5.9965318323
 30
0.0
  0
SPLINE
  5
297
100
AcDbEntity
  8
ALL_ASSEMBLY_MEMBERS
100
AcDbSpline
 62
7
  6
CONTINUOUS
 70
0
 71
3
 72
16
 73
12
 74
0
 42
0.0000001
 43
0.0000001
 44
0.0000000001
 40
0.0
 40
0.0
 40
0.0
 40
0.0
 40
0.0295189127
 40
0.0639337647
 40
0.1035148662
 40
0.1482458774
 40
0.252423092
 40
0.37443924
 40
0.5121805651
 40
0.6635544875
 40
1.0
 40
1.0
 40
1.0
 40
1.0
 10
5.9679738359
 20
5.9832557866
 30
0.0
 10
5.9680143497
 20
5.983142373
 30
0.0
 10
5.9681331388
 20
5.9829078113
 30
0.0
 10
5.9683820555
 20
5.9825654594
 30
0.0
 10
5.9687088305
 20
5.9822068627
 30
0.0
 10
5.9692712213
 20
5.9816815496
 30
0.0
 10
5.9701460055
 20
5.9810028104
 30
0.0
 10
5.9713785844
 20
5.9801740547
 30
0.0
 10
5.9728132228
 20
5.9793039944
 30
0.0
 10
5.9750377447
 20
5.9780523945
 30
0.0
 10
5.9768084094
 20
5.9771420374
 30
0.0
 10
5.9780379641
 20
5.9765318323
 30
0.0
  0
SPLINE
  5
298
100
AcDbEntity
  8
ALL_ASSEMBLY_MEMBERS
100
AcDbSpline
 62
7
  6
CONTINUOUS
 70
0
 71
3
 72
14
 73
10
 74
0
 42
0.0000001
 43
0.0000001
 44
0.0000000001
 40
0.0
 40
0.0
 40
0.0
 40
0.0
 40
0.1183285859
 40
0.2396547992
 40
0.3631733771
 40
0.4884061005
 40
0.6150413577
 40
0.742709638
 40
1.0
 40
1.0
 40
1.0
 40
1.0
 10
6.3426452575
 20
6.1311150626
 30
0.0
 10
6.3432621498
 20
6.1308898154
 30
0.0
 10
6.3444957359
 20
6.1303890612
 30
0.0
 10
6.346308045
 20
6.1295032608
 30
0.0
 10
6.3480860228
 20
6.1284714091
 30
0.0
 10
6.349812864
 20
6.1273031588
 30
0.0
 10
6.3514810079
 20
6.1260146857
 30
0.0
 10
6.3536230933
 20
6.1241492482
 30
0.0
 10
6.3551144093
 20
6.122611533
 30
0.0
 10
6.3560536868
 20
6.1215359575
 30
0.0
  0
SPLINE
  5
299
100
AcDbEntity
  8
ALL_ASSEMBLY_MEMBERS
100
AcDbSpline
 62
7
  6
CONTINUOUS
 70
0
 71
3
 72
19
 73
15
 74
0
 42
0.0000001
 43
0.0000001
 44
0.0000000001
 40
0.0
 40
0.0
 40
0.0
 40
0.0
 40
0.1950771265
 40
0.3774960765
 40
0.541683925
 40
0.6836275686
 40
0.7452070645
 40
0.8001943144
 40
0.8485343155
 40
0.8903508885
 40
0.9260077394
 40
0.9416488992
 40
0.9558840855
 40
1.0
 40
1.0
 40
1.0
 40
1.0
 10
6.3560536868
 20
6.1215359575
 30
0.0
 10
6.3554463913
 20
6.1207048614
 30
0.0
 10
6.3542335346
 20
6.1191238117
 30
0.0
 10
6.3524004211
 20
6.1169299149
 30
0.0
 10
6.3506713002
 20
6.1150171053
 30
0.0
 10
6.3493040636
 20
6.1136388442
 30
0.0
 10
6.3482959091
 20
6.1127195685
 30
0.0
 10
6.3476260949
 20
6.1121634446
 30
0.0
 10
6.3470051802
 20
6.1117138637
 30
0.0
 10
6.3464313586
 20
6.1113769141
 30
0.0
 10
6.345975042
 20
6.1111895081
 30
0.0
 10
6.3456387655
 20
6.1111034603
 30
0.0
 10
6.3452557782
 20
6.1110450401
 30
0.0
 10
6.3449165586
 20
6.1110761732
 30
0.0
 10
6.3447223358
 20
6.1112044851
 30
0.0
  0
SPLINE
  5
29A
100
AcDbEntity
  8
ALL_ASSEMBLY_MEMBERS
100
AcDbSpline
 62
7
  6
CONTINUOUS
 70
0
 71
3
 72
9
 73
5
 74
0
 42
0.0000001
 43
0.0000001
 44
0.0000000001
 40
0.0
 40
0.0
 40
0.0
 40
0.0
 40
0.2654325286
 40
1.0
 40
1.0
 40
1.0
 40
1.0
 10
6.3426452708
 20
6.1311150576
 30
0.0
 10
6.341917568
 20
6.1313778331
 30
0.0
 10
6.3391897364
 20
6.1324052266
 30
0.0
 10
6.3365166534
 20
6.1335797984
 30
0.0
 10
6.3345988039
 20
6.1345318323
 30
0.0
  0
SPLINE
  5
29B
100
AcDbEntity
  8
ALL_ASSEMBLY_MEMBERS
100
AcDbSpline
 62
7
  6
CONTINUOUS
 70
0
 71
3
 72
22
 73
18
 74
0
 42
0.0000001
 43
0.0000001
 44
0.0000000001
 40
0.0
 40
0.0
 40
0.0
 40
0.0
 40
0.0544803003
 40
0.1091467509
 40
0.1641839765
 40
0.2197793586
 40
0.2761279454
 40
0.3334202926
 40
0.3918588595
 40
0.4516464219
 40
0.5129835643
 40
0.576080784
 40
0.6411255581
 40
0.7083066965
 40
0.7777486589
 40
0.8495528185
 40
1.0
 40
1.0
 40
1.0
 40
1.0
 10
6.1704603309
 20
5.8405313067
 30
0.0
 10
6.1750951398
 20
5.8405311756
 30
0.0
 10
6.1843847307
 20
5.8408970318
 30
0.0
 10
6.1982687661
 20
5.842543313
 30
0.0
 10
6.2120748438
 20
5.845292968
 30
0.0
 10
6.225758954
 20
5.8491608088
 30
0.0
 10
6.239277298
 20
5.8541577764
 30
0.0
 10
6.252579479
 20
5.8603066358
 30
0.0
 10
6.2656100905
 20
5.8676297888
 30
0.0
 10
6.2783076257
 20
5.8761514703
 30
0.0
 10
6.290598142
 20
5.8859026096
 30
0.0
 10
6.302400913
 20
5.8969066977
 30
0.0
 10
6.3136166364
 20
5.909191931
 30
0.0
 10
6.324133945
 20
5.9227700779
 30
0.0
 10
6.3338230533
 20
5.9376460933
 30
0.0
 10
6.3456180313
 20
5.9595010669
 30
0.0
 10
6.3524540758
 20
5.9772579859
 30
0.0
 10
6.3560498525
 20
5.9895415139
 30
0.0
  0
SPLINE
  5
29C
100
AcDbEntity
  8
ALL_ASSEMBLY_MEMBERS
100
AcDbSpline
 62
7
  6
CONTINUOUS
 70
0
 71
3
 72
17
 73
13
 74
0
 42
0.0000001
 43
0.0000001
 44
0.0000000001
 40
0.0
 40
0.0
 40
0.0
 40
0.0
 40
0.1678781104
 40
0.3283084886
 40
0.4769998833
 40
0.6112699192
 40
0.7294828708
 40
0.7825639386
 40
0.8317839107
 40
0.9200250676
 40
0.9606348358
 40
1.0
 40
1.0
 40
1.0
 40
1.0
 10
6.3426452708
 20
6.1311150576
 30
0.0
 10
6.3425562283
 20
6.1299867395
 30
0.0
 10
6.3422926826
 20
6.12778605
 30
0.0
 10
6.3416390819
 20
6.124632936
 30
0.0
 10
6.3407453552
 20
6.1217742567
 30
0.0
 10
6.3396439887
 20
6.1192966033
 30
0.0
 10
6.3385375158
 20
6.1175458712
 30
0.0
 10
6.3375631757
 20
6.1164188097
 30
0.0
 10
6.3366178469
 20
6.1155470874
 30
0.0
 10
6.3355752855
 20
6.1149073638
 30
0.0
 10
6.3344821869
 20
6.1145854889
 30
0.0
 10
6.3339416403
 20
6.1145319339
 30
0.0
 10
6.3336762422
 20
6.1145319379
 30
0.0
  0
SPLINE
  5
29D
100
AcDbEntity
  8
ALL_ASSEMBLY_MEMBERS
100
AcDbSpline
 62
7
  6
CONTINUOUS
 70
0
 71
3
 72
17
 73
13
 74
0
 42
0.0000001
 43
0.0000001
 44
0.0000000001
 40
0.0
 40
0.0
 40
0.0
 40
0.0
 40
0.1448395153
 40
0.2872052815
 40
0.4241812672
 40
0.5540296151
 40
0.6757125711
 40
0.7892892394
 40
0.8436007134
 40
0.8965988016
 40
0.9486128547
 40
1.0
 40
1.0
 40
1.0
 40
1.0
 10
5.9780379887
 20
5.9765318323
 30
0.0
 10
5.9780379887
 20
5.9778344976
 30
0.0
 10
5.977858363
 20
5.980421121
 30
0.0
 10
5.9770651995
 20
5.9841655675
 30
0.0
 10
5.9757711423
 20
5.9876267758
 30
0.0
 10
5.9740229686
 20
5.9906722261
 30
0.0
 10
5.9718853088
 20
5.9931915272
 30
0.0
 10
5.9697994189
 20
5.9947925902
 30
0.0
 10
5.9680241074
 20
5.9956946117
 30
0.0
 10
5.9666695383
 20
5.9961749672
 30
0.0
 10
5.9652892325
 20
5.9964660081
 30
0.0
 10
5.9643580215
 20
5.9965318323
 30
0.0
 10
5.963895853
 20
5.9965318323
 30
0.0
  0
SPLINE
  5
29E
100
AcDbEntity
  8
ALL_ASSEMBLY_MEMBERS
100
AcDbSpline
 62
7
  6
CONTINUOUS
 70
0
 71
3
 72
17
 73
13
 74
0
 42
0.0000001
 43
0.0000001
 44
0.0000000001
 40
0.0
 40
0.0
 40
0.0
 40
0.0
 40
0.1448395152
 40
0.2872052814
 40
0.4241812671
 40
0.554029615
 40
0.675712571
 40
0.7892892393
 40
0.8436007133
 40
0.8965988015
 40
0.9486128547
 40
1.0
 40
1.0
 40
1.0
 40
1.0
 10
6.3345987671
 20
6.1345318323
 30
0.0
 10
6.3345987671
 20
6.133229167
 30
0.0
 10
6.3344191414
 20
6.1306425436
 30
0.0
 10
6.3336259779
 20
6.1268980971
 30
0.0
 10
6.3323319207
 20
6.1234368888
 30
0.0
 10
6.330583747
 20
6.1203914385
 30
0.0
 10
6.3284460872
 20
6.1178721374
 30
0.0
 10
6.3263601973
 20
6.1162710744
 30
0.0
 10
6.3245848858
 20
6.1153690529
 30
0.0
 10
6.3232303166
 20
6.1148886974
 30
0.0
 10
6.3218500109
 20
6.1145976565
 30
0.0
 10
6.3209187999
 20
6.1145318323
 30
0.0
 10
6.3204566314
 20
6.1145318323
 30
0.0
  0
SPLINE
  5
29F
100
AcDbEntity
  8
ALL_ASSEMBLY_MEMBERS
100
AcDbSpline
 62
7
  6
CONTINUOUS
 70
0
 71
3
 72
16
 73
12
 74
0
 42
0.0000001
 43
0.0000001
 44
0.0000000001
 40
0.0
 40
0.0
 40
0.0
 40
0.0
 40
0.3364289885
 40
0.4878021146
 40
0.6255404272
 40
0.7475619024
 40
0.8517439214
 40
0.8964769936
 40
0.9360613909
 40
0.9704790603
 40
1.0
 40
1.0
 40
1.0
 40
1.0
 10
5.978037803
 20
6.1345318323
 30
0.0
 10
5.9768083284
 20
6.1339217546
 30
0.0
 10
5.9750378238
 20
6.1330114307
 30
0.0
 10
5.9728134868
 20
6.1317599025
 30
0.0
 10
5.971378946
 20
6.1308898132
 30
0.0
 10
5.9701464071
 20
6.1300610661
 30
0.0
 10
5.9692716177
 20
6.1293823329
 30
0.0
 10
5.9687092142
 20
6.1288570234
 30
0.0
 10
5.9683824097
 20
6.1284984387
 30
0.0
 10
5.9681334511
 20
6.1281561002
 30
0.0
 10
5.9680146244
 20
6.1279215495
 30
0.0
 10
5.9679740896
 20
6.1278081404
 30
0.0
  0
SPLINE
  5
2A0
100
AcDbEntity
  8
ALL_ASSEMBLY_MEMBERS
100
AcDbSpline
 62
7
  6
CONTINUOUS
 70
0
 71
3
 72
17
 73
13
 74
0
 42
0.0000001
 43
0.0000001
 44
0.0000000001
 40
0.0
 40
0.0
 40
0.0
 40
0.0
 40
0.1448393673
 40
0.2872049524
 40
0.4241807482
 40
0.5540289474
 40
0.6757118507
 40
0.7892886001
 40
0.8436001727
 40
0.8965984003
 40
0.9486126343
 40
1.0
 40
1.0
 40
1.0
 40
1.0
 10
5.9780378579
 20
6.1345318323
 30
0.0
 10
5.9780378629
 20
6.1332291672
 30
0.0
 10
5.9778582461
 20
6.130642544
 30
0.0
 10
5.9770650923
 20
6.1268980968
 30
0.0
 10
5.975771041
 20
6.1234368878
 30
0.0
 10
5.974022869
 20
6.120391437
 30
0.0
 10
5.9718852065
 20
6.1178721357
 30
0.0
 10
5.9697993117
 20
6.1162710735
 30
0.0
 10
5.9680239948
 20
6.1153690525
 30
0.0
 10
5.9666694204
 20
6.1148886971
 30
0.0
 10
5.9652891085
 20
6.1145976564
 30
0.0
 10
5.9643578931
 20
6.1145318323
 30
0.0
 10
5.9638957223
 20
6.1145318323
 30
0.0
  0
SPLINE
  5
2A1
100
AcDbEntity
  8
ALL_ASSEMBLY_MEMBERS
100
AcDbSpline
 62
7
  6
CONTINUOUS
 70
0
 71
3
 72
22
 73
18
 74
0
 42
0.0000001
 43
0.0000001
 44
0.0000000001
 40
0.0
 40
0.0
 40
0.0
 40
0.0
 40
0.1504408084
 40
0.2222429317
 40
0.2916833491
 40
0.3588633351
 40
0.423907578
 40
0.4870048884
 40
0.5483426506
 40
0.6081312449
 40
0.6665711522
 40
0.7238649857
 40
0.7802151617
 40
0.8358121238
 40
0.8908508272
 40
0.9455186135
 40
1.0
 40
1.0
 40
1.0
 40
1.0
 10
6.3560364525
 20
6.1215604304
 30
0.0
 10
6.3524418825
 20
6.1338404362
 30
0.0
 10
6.3456045947
 20
6.1515912432
 30
0.0
 10
6.3338103521
 20
6.1734385626
 30
0.0
 10
6.3241223933
 20
6.1883095859
 30
0.0
 10
6.3136068283
 20
6.2018833278
 30
0.0
 10
6.3023932349
 20
6.2141647223
 30
0.0
 10
6.290592901
 20
6.2251655611
 30
0.0
 10
6.2783050651
 20
6.2349140394
 30
0.0
 10
6.2656104026
 20
6.2434336337
 30
0.0
 10
6.2525828128
 20
6.2507552449
 30
0.0
 10
6.2392837774
 20
6.2569031183
 30
0.0
 10
6.2257686526
 20
6.2618995997
 30
0.0
 10
6.2120878191
 20
6.2657674819
 30
0.0
 10
6.1982850395
 20
6.2685176885
 30
0.0
 10
6.1844042928
 20
6.2701649939
 30
0.0
 10
6.1751168518
 20
6.2705318906
 30
0.0
 10
6.1704831011
 20
6.270532359
 30
0.0
  0
SPLINE
  5
2A2
100
AcDbEntity
  8
ALL_ASSEMBLY_MEMBERS
100
AcDbSpline
 62
7
  6
CONTINUOUS
 70
0
 71
3
 72
22
 73
18
 74
0
 42
0.0000001
 43
0.0000001
 44
0.0000000001
 40
0.0
 40
0.0
 40
0.0
 40
0.0
 40
0.0079150587
 40
0.0164830056
 40
0.0262003249
 40
0.0374008452
 40
0.0649787674
 40
0.1001340014
 40
0.1430204261
 40
0.1934861412
 40
0.2512602634
 40
0.3158883648
 40
0.3867838179
 40
0.4633367706
 40
0.6306772061
 40
0.8120056754
 40
1.0
 40
1.0
 40
1.0
 40
1.0
 10
6.3536762422
 20
6.0165318323
 30
0.0
 10
6.3536762422
 20
6.0165865522
 30
0.0
 10
6.353694143
 20
6.0167010689
 30
0.0
 10
6.3537711501
 20
6.0168669689
 30
0.0
 10
6.35389572
 20
6.0170298791
 30
0.0
 10
6.3541412252
 20
6.0172598158
 30
0.0
 10
6.3545770529
 20
6.0175339102
 30
0.0
 10
6.3552440047
 20
6.0178334306
 30
0.0
 10
6.3560853239
 20
6.018122029
 30
0.0
 10
6.3570937945
 20
6.0183968889
 30
0.0
 10
6.3582611579
 20
6.0186546831
 30
0.0
 10
6.3595763393
 20
6.0188929597
 30
0.0
 10
6.3610266317
 20
6.0191095228
 30
0.0
 10
6.3631870184
 20
6.0193735655
 30
0.0
 10
6.366116749
 20
6.0196272388
 30
0.0
 10
6.3698230769
 20
6.0198097167
 30
0.0
 10
6.3723765634
 20
6.019850981
 30
0.0
 10
6.3736762422
 20
6.0198509812
 30
0.0
  0
SPLINE
  5
2A3
100
AcDbEntity
  8
ALL_ASSEMBLY_MEMBERS
100
AcDbSpline
 62
7
  6
CONTINUOUS
 70
0
 71
3
 72
14
 73
10
 74
0
 42
0.0000001
 43
0.0000001
 44
0.0000000001
 40
0.0
 40
0.0
 40
0.0
 40
0.0
 40
0.1255031802
 40
0.2506455267
 40
0.3754502618
 40
0.5001051725
 40
0.6247595293
 40
0.7496065013
 40
1.0
 40
1.0
 40
1.0
 40
1.0
 10
6.3736762422
 20
6.0198509812
 30
0.0
 10
6.3736762502
 20
6.0183197974
 30
0.0
 10
6.3734653649
 20
6.01525772
 30
0.0
 10
6.3725291793
 20
6.0107601412
 30
0.0
 10
6.3710014276
 20
6.0064381347
 30
0.0
 10
6.368923336
 20
6.0023603455
 30
0.0
 10
6.366346187
 20
5.9985772664
 30
0.0
 10
6.3623048058
 20
5.9939934061
 30
0.0
 10
6.3586495071
 20
5.9911459302
 30
0.0
 10
6.3560498525
 20
5.9895415139
 30
0.0
  0
ENDSEC
  0
SECTION
  2
OBJECTS
  0
DICTIONARY
  5
C
100
AcDbDictionary
280
0
281
1
  3
ACAD_GROUP
350
D
  3
ACAD_MLINESTYLE
350
17
  3
ACAD_LAYOUT
350
1A
  3
ACAD_PLOTSETTINGS
350
19
  3
ACAD_PLOTSTYLENAME
350
E
  0
DICTIONARY
  5
D
102
{ACAD_REACTORS
330
C
102
}
100
AcDbDictionary
280
0
281
1
  0
ACDBDICTIONARYWDFLT
  5
E
102
{ACAD_REACTORS
330
C
102
}
100
AcDbDictionary
281
1
  3
Normal
350
F
100
AcDbDictionaryWithDefault
340
F
  0
DICTIONARY
  5
17
102
{ACAD_REACTORS
330
C
102
}
100
AcDbDictionary
280
0
281
1
  3
Standard
350
18
  0
DICTIONARY
  5
19
102
{ACAD_REACTORS
330
C
102
}
100
AcDbDictionary
281
1
  0
DICTIONARY
  5
1A
102
{ACAD_REACTORS
330
C
102
}
100
AcDbDictionary
281
1
  3
Model
350
2A4
  3
Layout1
350
2A5
  0
ACDBPLACEHOLDER
  5
F
102
{ACAD_REACTORS
330
E
102
}
  0
MLINESTYLE
  5
18
102
{ACAD_REACTORS
330
17
102
}
100
AcDbMlineStyle
  2
STANDARD
 70
0
  3

 62
256
 51
90.0
 52
90.0
 71
2
 49
0.5
 62
256
  6
BYLAYER
 49
-0.5
 62
256
  6
BYLAYER
  0
LAYOUT
  5
2A4
102
{ACAD_REACTORS
330
1A
102
}
100
AcDbPlotSettings
  1

  2
none_device
  4
ANSI_A_(11.00_x_8.50_Inches)
  6

 40
0.0
 41
0.0
 42
0.0
 43
0.0
 44
279.4
 45
215.9
 46
0.0
 47
0.0
 48
0.0
 49
0.0
140
0.0
141
0.0
142
1.0
143
1.0
 70
1024
 72
0
 73
0
 74
0
  7

 75
0
147
1.0
148
0.0
149
0.0
100
AcDbLayout
  1
Model
 70
0
 71
0
 10
0.0
 20
0.0
 11
11.0
 21
8.5
 12
0.0
 22
0.0
 32
0.0
 14
0.0
 24
0.0
 34
0.0
 15
0.0
 25
0.0
 35
0.0
146
0.0
 13
0.0
 23
0.0
 33
0.0
 16
1.0
 26
0.0
 36
0.0
 17
0.0
 27
1.0
 37
0.0
 76
0
330
21D
345
0
346
0
  0
LAYOUT
  5
2A5
102
{ACAD_REACTORS
330
1A
102
}
100
AcDbPlotSettings
  1

  2
none_device
  4
ANSI_A_(11.00_x_8.50_Inches)
  6

 40
0.0
 41
0.0
 42
0.0
 43
0.0
 44
279.4
 45
215.9
 46
0.0
 47
0.0
 48
0.0
 49
0.0
140
0.0
141
0.0
142
1.0
143
1.0
 70
0
 72
0
 73
0
 74
0
  7

 75
0
147
1.0
148
0.0
149
0.0
100
AcDbLayout
  1
Layout1
 70
0
 71
1
 10
0.0
 20
0.0
 11
11.0
 21
8.5
 12
0.0
 22
0.0
 32
0.0
 14
0.0
 24
0.0
 34
0.0
 15
0.0
 25
0.0
 35
0.0
146
0.0
 13
0.0
 23
0.0
 33
0.0
 16
1.0
 26
0.0
 36
0.0
 17
0.0
 27
1.0
 37
0.0
 76
0
330
21E
345
0
346
0
  0
ENDSEC
  0
EOF
