999
DXF file: 3-2545_TOP.dxf
999
Pro/ENGINEER 2018400 by Parametric Technology Corporation
  0
SECTION
  2
HEADER
  9
$ACADVER
  1
AC1027
  9
$DWGCODEPAGE
  3
ANSI_1252
  9
$EXTMAX
 10
11.0
 20
8.5
 30
0.0
  9
$EXTMIN
 10
0.0
 20
0.0
 30
0.0
  9
$LIMMIN
 10
0.0
 20
0.0
  9
$LIMMAX
 10
11.0
 20
8.5
  9
$VIEWCTR
 10
5.5
 20
4.25
  9
$VIEWSIZE
 40
8.5
  9
$CLAYER
  8
0
  9
$LTSCALE
 40
0.605
  9
$CELTYPE
  6
BYLAYER
  9
$DIMSCALE
 40
1.0
  9
$DIMASZ
 40
0.1
  9
$DIMEXO
 40
0.0625
  9
$DIMDLI
 40
0.418
  9
$DIMEXE
 40
0.125
  9
$DIMCEN
 40
0.099
  9
$DIMLFAC
 40
1.0
  9
$DIMBLK
  1
_FILLED
  9
$DIMALT
 70
1
  9
$DIMALTD
 70
2
  9
$DIMALTTD
 70
2
  9
$DIMALTF
 40
25.4
  9
$DIMTXT
 40
0.08
  9
$DIMTOL
 70
1
  9
$DIMLIM
 70
0
  9
$DIMTFAC
 40
1.0
  9
$DIMTP
 40
0.001
  9
$DIMTM
 40
0.001
  9
$DIMGAP
 40
0.09
  9
$DIMDSEP
 70
46
  9
$AUNITS
 70
0
  9
$PDMODE
 70
3
  9
$PDSIZE
 40
0.3125
  9
$HANDSEED
  5
2E9
  9
$TILEMODE
 70
1
  9
$MEASUREMENT
 70
0
  9
$INSUNITS
 70
1
  0
ENDSEC
  0
SECTION
  2
CLASSES
  0
CLASS
  1
ACDBDICTIONARYWDFLT
  2
AcDbDictionaryWithDefault
  3
AutoCAD 2000
 90
0
 91
1
280
0
281
0
  0
CLASS
  1
ACDBPLACEHOLDER
  2
AcDbPlaceHolder
  3
AutoCAD 2000
 90
0
 91
1
280
0
281
0
  0
CLASS
  1
LAYOUT
  2
AcDbLayout
  3
AutoCAD 2000
 90
0
 91
0
280
0
281
0
  0
ENDSEC
  0
SECTION
  2
TABLES
  0
TABLE
  2
VPORT
  5
8
100
AcDbSymbolTable
 70
2
  0
VPORT
  5
1F4
100
AcDbSymbolTableRecord
100
AcDbViewportTableRecord
  2
*ACTIVE
 70
0
 10
0.0
 20
0.0
 11
1.0
 21
1.0
 12
5.5
 22
4.25
 13
0.0
 23
0.0
 14
1.0
 24
1.0
 15
0.0
 25
0.0
 16
0.0
 26
0.0
 36
1.0
 17
0.0
 27
0.0
 37
0.0
 40
8.5
 41
1.2941176471
 42
50.0
 43
0.0
 44
0.0
 50
0.0
 51
0.0
 71
0
 72
100
 73
1
 74
1
 75
0
 76
0
 77
0
 78
0
  0
ENDTAB
  0
TABLE
  2
LTYPE
  5
5
100
AcDbSymbolTable
 70
6
  0
LTYPE
  5
14
100
AcDbSymbolTableRecord
100
AcDbLinetypeTableRecord
  2
BYBLOCK
 70
0
  3

 72
65
 73
0
 40
0.0
  0
LTYPE
  5
15
100
AcDbSymbolTableRecord
100
AcDbLinetypeTableRecord
  2
BYLAYER
 70
0
  3

 72
65
 73
0
 40
0.0
  0
LTYPE
  5
16
100
AcDbSymbolTableRecord
100
AcDbLinetypeTableRecord
  2
CONTINUOUS
 70
64
  3
Solid line
 72
65
 73
0
 40
0.0
  0
LTYPE
  5
1F5
100
AcDbSymbolTableRecord
100
AcDbLinetypeTableRecord
  2
CENTER
 70
64
  3
____ _ ____ _ ____ _ ____ _ ____ _ ____ _ ____
 72
65
 73
4
 40
0.6
 49
0.375
 74
0
 49
-0.075
 74
0
 49
0.075
 74
0
 49
-0.075
 74
0
  0
LTYPE
  5
1F6
100
AcDbSymbolTableRecord
100
AcDbLinetypeTableRecord
  2
HIDDEN
 70
64
  3
- - - - - - - - - - - - - - - - - - - -
 72
65
 73
2
 40
0.2
 49
0.1
 74
0
 49
-0.1
 74
0
  0
LTYPE
  5
1F7
100
AcDbSymbolTableRecord
100
AcDbLinetypeTableRecord
  2
PHANTOM
 70
64
  3
_____ _ _ _____ _ _ _____ _ _ _____
 72
65
 73
6
 40
0.8
 49
0.45
 74
0
 49
-0.05
 74
0
 49
0.1
 74
0
 49
-0.05
 74
0
 49
0.1
 74
0
 49
-0.05
 74
0
  0
LTYPE
  5
1F8
100
AcDbSymbolTableRecord
100
AcDbLinetypeTableRecord
  2
DOT
 70
64
  3
. . . . . . . . . . . . . . . . . . . .
 72
65
 73
2
 40
0.2
 49
0.1
 74
0
 49
-0.1
 74
0
  0
LTYPE
  5
1F9
100
AcDbSymbolTableRecord
100
AcDbLinetypeTableRecord
  2
DASHED
 70
64
  3
- - - - - - - - - - - - - - - - - - - -
 72
65
 73
2
 40
0.2
 49
0.1
 74
0
 49
-0.1
 74
0
  0
ENDTAB
  0
TABLE
  2
LAYER
  5
2
100
AcDbSymbolTable
 70
36
  0
LAYER
  5
10
100
AcDbSymbolTableRecord
100
AcDbLayerTableRecord
  2
0
 70
0
 62
7
  6
CONTINUOUS
370
-3
390
F
  0
LAYER
  5
1FA
100
AcDbSymbolTableRecord
100
AcDbLayerTableRecord
  2
DEFAULT_1
 70
0
 62
7
  6
CENTER
370
-3
390
F
  0
LAYER
  5
1FB
100
AcDbSymbolTableRecord
100
AcDbLayerTableRecord
  2
DEFAULT_2
 70
0
 62
8
  6
HIDDEN
370
-3
390
F
  0
LAYER
  5
1FC
100
AcDbSymbolTableRecord
100
AcDbLayerTableRecord
  2
DEFAULT_3
 70
0
 62
7
  6
PHANTOM
370
-3
390
F
  0
LAYER
  5
1FD
100
AcDbSymbolTableRecord
100
AcDbLayerTableRecord
  2
3-985_ASSY_PLANES
 70
0
 62
7
  6
CONTINUOUS
370
-3
390
F
  0
LAYER
  5
1FE
100
AcDbSymbolTableRecord
100
AcDbLayerTableRecord
  2
ALL_ASSEMBLY_MEMBERS
 70
0
 62
7
  6
CONTINUOUS
370
-3
390
F
  0
LAYER
  5
1FF
100
AcDbSymbolTableRecord
100
AcDbLayerTableRecord
  2
ALL_FEATURES
 70
0
 62
7
  6
CONTINUOUS
370
-3
390
F
  0
LAYER
  5
200
100
AcDbSymbolTableRecord
100
AcDbLayerTableRecord
  2
AXES_FEATURES
 70
0
 62
7
  6
CONTINUOUS
370
-3
390
F
  0
LAYER
  5
201
100
AcDbSymbolTableRecord
100
AcDbLayerTableRecord
  2
CHAMFER_FEATURES
 70
0
 62
7
  6
CONTINUOUS
370
-3
390
F
  0
LAYER
  5
202
100
AcDbSymbolTableRecord
100
AcDbLayerTableRecord
  2
COSMETIC_SKETCHES
 70
0
 62
7
  6
CONTINUOUS
370
-3
390
F
  0
LAYER
  5
203
100
AcDbSymbolTableRecord
100
AcDbLayerTableRecord
  2
CUT_FEATURES
 70
0
 62
7
  6
CONTINUOUS
370
-3
390
F
  0
LAYER
  5
204
100
AcDbSymbolTableRecord
100
AcDbLayerTableRecord
  2
DATUM_CURVES
 70
0
 62
7
  6
CONTINUOUS
370
-3
390
F
  0
LAYER
  5
205
100
AcDbSymbolTableRecord
100
AcDbLayerTableRecord
  2
DATUM_PLANES
 70
0
 62
7
  6
CONTINUOUS
370
-3
390
F
  0
LAYER
  5
206
100
AcDbSymbolTableRecord
100
AcDbLayerTableRecord
  2
DATUM_POINTS
 70
0
 62
7
  6
CONTINUOUS
370
-3
390
F
  0
LAYER
  5
207
100
AcDbSymbolTableRecord
100
AcDbLayerTableRecord
  2
DEFAULT_COORDINATE_SYSTEM
 70
0
 62
7
  6
CONTINUOUS
370
-3
390
F
  0
LAYER
  5
208
100
AcDbSymbolTableRecord
100
AcDbLayerTableRecord
  2
DEFAULT_DATUM_AXES
 70
0
 62
7
  6
CONTINUOUS
370
-3
390
F
  0
LAYER
  5
209
100
AcDbSymbolTableRecord
100
AcDbLayerTableRecord
  2
DEFAULT_DATUM_CURVES
 70
0
 62
7
  6
CONTINUOUS
370
-3
390
F
  0
LAYER
  5
20A
100
AcDbSymbolTableRecord
100
AcDbLayerTableRecord
  2
DEFAULT_DATUM_PLANES
 70
0
 62
7
  6
CONTINUOUS
370
-3
390
F
  0
LAYER
  5
20B
100
AcDbSymbolTableRecord
100
AcDbLayerTableRecord
  2
DEFAULT_SURFACES
 70
0
 62
7
  6
CONTINUOUS
370
-3
390
F
  0
LAYER
  5
20C
100
AcDbSymbolTableRecord
100
AcDbLayerTableRecord
  2
DIMENSIONS
 70
0
 62
7
  6
CONTINUOUS
370
-3
390
F
  0
LAYER
  5
20D
100
AcDbSymbolTableRecord
100
AcDbLayerTableRecord
  2
HOLE_FEATURES
 70
0
 62
7
  6
CONTINUOUS
370
-3
390
F
  0
LAYER
  5
20E
100
AcDbSymbolTableRecord
100
AcDbLayerTableRecord
  2
NONE
 70
0
 62
7
  6
CONTINUOUS
370
-3
390
F
  0
LAYER
  5
20F
100
AcDbSymbolTableRecord
100
AcDbLayerTableRecord
  2
PART_REFERENCE_DIMENSIONS
 70
0
 62
7
  6
CONTINUOUS
370
-3
390
F
  0
LAYER
  5
210
100
AcDbSymbolTableRecord
100
AcDbLayerTableRecord
  2
PLATED_SURFACE_AREA
 70
0
 62
7
  6
CONTINUOUS
370
-3
390
F
  0
LAYER
  5
211
100
AcDbSymbolTableRecord
100
AcDbLayerTableRecord
  2
POINTS
 70
0
 62
7
  6
CONTINUOUS
370
-3
390
F
  0
LAYER
  5
212
100
AcDbSymbolTableRecord
100
AcDbLayerTableRecord
  2
PROTRUSION_FEATURES
 70
0
 62
7
  6
CONTINUOUS
370
-3
390
F
  0
LAYER
  5
213
100
AcDbSymbolTableRecord
100
AcDbLayerTableRecord
  2
QUILTS
 70
0
 62
7
  6
CONTINUOUS
370
-3
390
F
  0
LAYER
  5
214
100
AcDbSymbolTableRecord
100
AcDbLayerTableRecord
  2
REFERENCE_DIMENSIONS
 70
0
 62
7
  6
CONTINUOUS
370
-3
390
F
  0
LAYER
  5
215
100
AcDbSymbolTableRecord
100
AcDbLayerTableRecord
  2
ROUND_FEATURES
 70
0
 62
7
  6
CONTINUOUS
370
-3
390
F
  0
LAYER
  5
216
100
AcDbSymbolTableRecord
100
AcDbLayerTableRecord
  2
SHELL_FEATURES
 70
0
 62
7
  6
CONTINUOUS
370
-3
390
F
  0
LAYER
  5
217
100
AcDbSymbolTableRecord
100
AcDbLayerTableRecord
  2
SURFACE_FEATURES
 70
0
 62
7
  6
CONTINUOUS
370
-3
390
F
  0
LAYER
  5
218
100
AcDbSymbolTableRecord
100
AcDbLayerTableRecord
  2
WETTED_SURFACES
 70
0
 62
7
  6
CONTINUOUS
370
-3
390
F
  0
LAYER
  5
219
100
AcDbSymbolTableRecord
100
AcDbLayerTableRecord
  2
WETTED_SURFACE_AREA
 70
0
 62
7
  6
CONTINUOUS
370
-3
390
F
  0
LAYER
  5
21A
100
AcDbSymbolTableRecord
100
AcDbLayerTableRecord
  2
XSEC_DATUMS
 70
0
 62
7
  6
CONTINUOUS
370
-3
390
F
  0
ENDTAB
  0
TABLE
  2
STYLE
  5
3
100
AcDbSymbolTable
 70
1
  0
STYLE
  5
11
100
AcDbSymbolTableRecord
100
AcDbTextStyleTableRecord
  2
STANDARD
 70
0
 40
0.0
 41
0.8
 50
0.0
 71
0
 42
0.2
  3
txt
  4

  0
STYLE
  5
21B
100
AcDbSymbolTableRecord
100
AcDbTextStyleTableRecord
  2
TEXTSTYLE_1
 70
0
 40
0.0
 41
0.8
 50
0.0
 71
0
 42
0.2
  3
gdt
  4

  0
ENDTAB
  0
TABLE
  2
VIEW
  5
6
100
AcDbSymbolTable
 70
0
  0
ENDTAB
  0
TABLE
  2
UCS
  5
7
100
AcDbSymbolTable
 70
0
  0
ENDTAB
  0
TABLE
  2
APPID
  5
9
100
AcDbSymbolTable
 70
1
  0
APPID
  5
21C
100
AcDbSymbolTableRecord
100
AcDbRegAppTableRecord
  2
ACAD
 70
0
  0
ENDTAB
  0
TABLE
  2
BLOCK_RECORD
  5
1
100
AcDbSymbolTable
 70
0
  0
BLOCK_RECORD
  5
21D
100
AcDbSymbolTableRecord
100
AcDbBlockTableRecord
  2
*Model_Space
  0
BLOCK_RECORD
  5
21E
100
AcDbSymbolTableRecord
100
AcDbBlockTableRecord
  2
*Paper_Space
  0
BLOCK_RECORD
  5
21F
100
AcDbSymbolTableRecord
100
AcDbBlockTableRecord
  2
_FILLED
  0
ENDTAB
  0
TABLE
  2
DIMSTYLE
  5
A
100
AcDbSymbolTable
 70
1
100
AcDbDimStyleTable
 71
0
  0
DIMSTYLE
105
220
100
AcDbSymbolTableRecord
100
AcDbDimStyleTableRecord
  2
STANDARD
 70
0
  3

  4

 40
1.0
 41
0.1
 42
0.0625
 43
0.38
 44
0.125
 45
0.0
 46
0.0
 47
0.001
 48
0.001
140
0.08
141
0.09
142
0.0
143
25.4
144
1.0
145
0.0
146
1.0
147
0.09
 71
1.0
 72
0.0
 73
1
 74
1
 75
0
 76
0
 77
0
 78
4
 79
1
170
1
171
2
172
0
173
0
174
0
175
0
176
0
177
0
178
0
270
2
179
3
271
3
272
3
273
2
274
2
275
0
280
0
281
0
282
0
283
1
284
4
285
0
286
0
287
3
288
0
340
11
278
46
341
21F
342
21F
343
21F
344
21F
  0
ENDTAB
  0
ENDSEC
  0
SECTION
  2
BLOCKS
  0
BLOCK
  5
20
100
AcDbEntity
  8
0
100
AcDbBlockBegin
  2
*Model_Space
 70
0
 10
0.0
 20
0.0
 30
0.0
  3
*Model_Space
  1

  0
ENDBLK
  5
21
100
AcDbEntity
  8
0
100
AcDbBlockEnd
  0
BLOCK
  5
1C
100
AcDbEntity
  8
0
100
AcDbBlockBegin
  2
*Paper_Space
 70
0
 10
0.0
 20
0.0
 30
0.0
  3
*Paper_Space
  1

  0
ENDBLK
  5
1D
100
AcDbEntity
  8
0
100
AcDbBlockEnd
  0
BLOCK
  5
221
100
AcDbEntity
  8
0
100
AcDbBlockBegin
  2
_FILLED
 70
64
 10
0.0
 20
0.0
  3
_FILLED
  1

  0
SOLID
  5
222
100
AcDbEntity
  8
0
  6
BYBLOCK
 62
0
100
AcDbTrace
 10
0.0
 20
0.0
 11
-1.0
 21
0.2
 12
-1.0
 22
-0.2
 13
-1.0
 23
-0.2
  0
ENDBLK
  5
223
100
AcDbEntity
  8
0
  6
BYBLOCK
 62
0
100
AcDbBlockEnd
  0
ENDSEC
  0
SECTION
  2
ENTITIES
  0
MTEXT
  5
224
100
AcDbEntity
  8
0
100
AcDbMText
 62
2
  6
CONTINUOUS
  7
STANDARD
 71
3
 72
1
 10
3.0845690994
 20
1.5014976708
 30
0.0
 11
1.0
 21
0.0
 31
0.0
 73
2
 44
0.9
  1
SCALE  .500
 40
0.08
 41
0.704
  0
LINE
  5
225
100
AcDbEntity
  8
0
100
AcDbLine
 62
7
  6
CONTINUOUS
 10
0.0
 20
0.0
 11
0.0
 21
8.5
  0
LINE
  5
226
100
AcDbEntity
  8
0
100
AcDbLine
 62
7
  6
CONTINUOUS
 10
0.0
 20
0.0
 11
11.0
 21
0.0
  0
LINE
  5
227
100
AcDbEntity
  8
0
100
AcDbLine
 62
7
  6
CONTINUOUS
 10
0.0
 20
8.5
 11
11.0
 21
8.5
  0
LINE
  5
228
100
AcDbEntity
  8
0
100
AcDbLine
 62
7
  6
CONTINUOUS
 10
11.0
 20
0.0
 11
11.0
 21
8.5
  0
LINE
  5
229
100
AcDbEntity
  8
ALL_ASSEMBLY_MEMBERS
100
AcDbLine
 62
7
  6
CONTINUOUS
 10
2.2224262422
 20
4.9660318323
 11
2.2224262422
 21
5.4180318323
  0
LINE
  5
22A
100
AcDbEntity
  8
ALL_ASSEMBLY_MEMBERS
100
AcDbLine
 62
7
  6
CONTINUOUS
 10
2.2424262422
 20
4.9460318323
 11
2.2424262422
 21
5.4380318323
  0
LINE
  5
22B
100
AcDbEntity
  8
ALL_ASSEMBLY_MEMBERS
100
AcDbLine
 62
7
  6
CONTINUOUS
 10
2.2724262422
 20
6.5660318323
 11
2.2724262422
 21
6.7010318323
  0
LINE
  5
22C
100
AcDbEntity
  8
ALL_ASSEMBLY_MEMBERS
100
AcDbLine
 62
7
  6
CONTINUOUS
 10
2.2924262422
 20
6.5460318323
 11
2.2924262422
 21
6.7010318323
  0
LINE
  5
22D
100
AcDbEntity
  8
ALL_ASSEMBLY_MEMBERS
100
AcDbLine
 62
7
  6
CONTINUOUS
 10
3.2874262422
 20
6.5460318323
 11
3.2874262422
 21
6.3580318323
  0
LINE
  5
22E
100
AcDbEntity
  8
ALL_ASSEMBLY_MEMBERS
100
AcDbLine
 62
7
  6
CONTINUOUS
 10
3.2874262422
 20
6.3330318323
 11
3.2874262422
 21
5.4580318323
  0
LINE
  5
22F
100
AcDbEntity
  8
ALL_ASSEMBLY_MEMBERS
100
AcDbLine
 62
7
  6
CONTINUOUS
 10
3.3324262422
 20
6.3580318323
 11
3.3324262422
 21
6.3550318323
  0
LINE
  5
230
100
AcDbEntity
  8
ALL_ASSEMBLY_MEMBERS
100
AcDbLine
 62
7
  6
CONTINUOUS
 10
3.3100035866
 20
5.4189544879
 11
3.295861451
 21
5.4048123523
  0
LINE
  5
231
100
AcDbEntity
  8
ALL_ASSEMBLY_MEMBERS
100
AcDbLine
 62
7
  6
CONTINUOUS
 10
6.0359262422
 20
2.1960318323
 11
4.9039262422
 21
2.1960318323
  0
LINE
  5
232
100
AcDbEntity
  8
ALL_ASSEMBLY_MEMBERS
100
AcDbLine
 62
7
  6
CONTINUOUS
 10
6.0359262422
 20
2.2260318323
 11
4.9039262422
 21
2.2260318323
  0
LINE
  5
233
100
AcDbEntity
  8
ALL_ASSEMBLY_MEMBERS
100
AcDbLine
 62
7
  6
CONTINUOUS
 10
6.0949262422
 20
2.2550318323
 11
6.0649262422
 21
2.2550318323
  0
LINE
  5
234
100
AcDbEntity
  8
ALL_ASSEMBLY_MEMBERS
100
AcDbLine
 62
7
  6
CONTINUOUS
 10
4.8449262422
 20
2.2550318323
 11
4.8749262422
 21
2.2550318323
  0
LINE
  5
235
100
AcDbEntity
  8
ALL_ASSEMBLY_MEMBERS
100
AcDbLine
 62
7
  6
CONTINUOUS
 10
3.3324262422
 20
6.3550318323
 11
3.3324621428
 21
6.3545336235
  0
LINE
  5
236
100
AcDbEntity
  8
ALL_ASSEMBLY_MEMBERS
100
AcDbLine
 62
7
  6
CONTINUOUS
 10
3.3324262422
 20
6.3550318323
 11
3.3324620424
 21
6.354535143
  0
LINE
  5
237
100
AcDbEntity
  8
ALL_ASSEMBLY_MEMBERS
100
AcDbLine
 62
7
  6
CONTINUOUS
 10
3.6723903763
 20
6.3545342001
 11
3.6724262422
 21
6.3550318323
  0
LINE
  5
238
100
AcDbEntity
  8
ALL_ASSEMBLY_MEMBERS
100
AcDbLine
 62
7
  6
CONTINUOUS
 10
3.6724262422
 20
6.3580318323
 11
3.6724262422
 21
6.3550318323
  0
LINE
  5
239
100
AcDbEntity
  8
ALL_ASSEMBLY_MEMBERS
100
AcDbLine
 62
7
  6
CONTINUOUS
 10
3.7049135102
 20
5.0711653763
 11
3.7049135102
 21
5.4180318323
  0
LINE
  5
23A
100
AcDbEntity
  8
ALL_ASSEMBLY_MEMBERS
100
AcDbLine
 62
7
  6
CONTINUOUS
 10
3.7174262422
 20
6.5460318323
 11
3.7174262422
 21
6.3580318323
  0
LINE
  5
23B
100
AcDbEntity
  8
ALL_ASSEMBLY_MEMBERS
100
AcDbLine
 62
7
  6
CONTINUOUS
 10
3.7174262422
 20
6.3330318323
 11
3.7174262422
 21
5.4580318323
  0
LINE
  5
23C
100
AcDbEntity
  8
ALL_ASSEMBLY_MEMBERS
100
AcDbLine
 62
7
  6
CONTINUOUS
 10
3.7237495352
 20
5.0711737708
 11
3.7237495352
 21
5.4180318323
  0
LINE
  5
23D
100
AcDbEntity
  8
ALL_ASSEMBLY_MEMBERS
100
AcDbLine
 62
7
  6
CONTINUOUS
 10
3.7959262422
 20
4.9460318323
 11
3.7959262422
 21
5.4380318323
  0
LINE
  5
23E
100
AcDbEntity
  8
ALL_ASSEMBLY_MEMBERS
100
AcDbLine
 62
7
  6
CONTINUOUS
 10
3.8159262422
 20
4.9660318323
 11
3.8159262422
 21
5.4180318323
  0
LINE
  5
23F
100
AcDbEntity
  8
ALL_ASSEMBLY_MEMBERS
100
AcDbLine
 62
7
  6
CONTINUOUS
 10
3.6665644958
 20
5.0623935787
 11
3.6524223602
 21
5.0482514431
  0
LINE
  5
240
100
AcDbEntity
  8
ALL_ASSEMBLY_MEMBERS
100
AcDbLine
 62
7
  6
CONTINUOUS
 10
3.3037260196
 20
5.4270008382
 11
3.2861792962
 21
5.4180318323
  0
LINE
  5
241
100
AcDbEntity
  8
ALL_ASSEMBLY_MEMBERS
100
AcDbLine
 62
7
  6
CONTINUOUS
 10
4.0824262422
 20
6.5460318323
 11
4.0824262422
 21
6.7010318323
  0
LINE
  5
242
100
AcDbEntity
  8
ALL_ASSEMBLY_MEMBERS
100
AcDbLine
 62
7
  6
CONTINUOUS
 10
4.1024262422
 20
6.5660318323
 11
4.1024262422
 21
6.7010318323
  0
LINE
  5
243
100
AcDbEntity
  8
ALL_ASSEMBLY_MEMBERS
100
AcDbLine
 62
7
  6
CONTINUOUS
 10
3.7049135102
 20
5.071165472
 11
3.7013691007
 21
5.0743601759
  0
LINE
  5
244
100
AcDbEntity
  8
ALL_ASSEMBLY_MEMBERS
100
AcDbLine
 62
7
  6
CONTINUOUS
 10
3.3010282622
 20
5.4374996542
 11
3.2978039613
 21
5.4404054426
  0
LWPOLYLINE
  5
245
100
AcDbEntity
  8
ALL_ASSEMBLY_MEMBERS
100
AcDbPolyline
 62
7
  6
CONTINUOUS
 90
4
 70
0
 10
3.5314184095
 20
5.2285397086
 10
3.5045876319
 20
5.2528396408
 10
3.4910865145
 20
5.2651158
 10
3.4644204023
 20
5.2892673023
  0
LWPOLYLINE
  5
246
100
AcDbEntity
  8
ALL_ASSEMBLY_MEMBERS
100
AcDbPolyline
 62
7
  6
CONTINUOUS
 90
3
 70
0
 10
3.5702336226
 20
5.1933352394
 10
3.5446437965
 20
5.2165159357
 10
3.5314184095
 20
5.2285397086
  0
LINE
  5
247
100
AcDbEntity
  8
ALL_ASSEMBLY_MEMBERS
100
AcDbLine
 62
7
  6
CONTINUOUS
 10
3.7049135102
 20
5.071165472
 11
3.2978039613
 21
5.4404054426
  0
LWPOLYLINE
  5
248
100
AcDbEntity
  8
ALL_ASSEMBLY_MEMBERS
100
AcDbPolyline
 62
7
  6
CONTINUOUS
 90
3
 70
0
 10
3.6164653719
 20
5.1513882749
 10
3.6056545321
 20
5.1612048337
 10
3.5943313186
 20
5.1714600493
  0
LWPOLYLINE
  5
249
100
AcDbEntity
  8
ALL_ASSEMBLY_MEMBERS
100
AcDbPolyline
 62
7
  6
CONTINUOUS
 90
5
 70
0
 10
3.4262349634
 20
5.3239018783
 10
3.4142558375
 20
5.3347857681
 10
3.4027668034
 20
5.3452055731
 10
3.3918039967
 20
5.355135651
 10
3.3813773827
 20
5.3646016441
  0
LINE
  5
24A
100
AcDbEntity
  8
ALL_ASSEMBLY_MEMBERS
100
AcDbLine
 62
7
  6
CONTINUOUS
 10
3.5825114902
 20
5.182178316
 11
3.5702336226
 21
5.1933352394
  0
LWPOLYLINE
  5
24B
100
AcDbEntity
  8
ALL_ASSEMBLY_MEMBERS
100
AcDbPolyline
 62
7
  6
CONTINUOUS
 90
3
 70
0
 10
3.4644204023
 20
5.2892673023
 10
3.4513572711
 20
5.3011426454
 10
3.4262349634
 20
5.3239018783
  0
LINE
  5
24C
100
AcDbEntity
  8
ALL_ASSEMBLY_MEMBERS
100
AcDbLine
 62
7
  6
CONTINUOUS
 10
3.7013691007
 20
5.0743601759
 11
3.6927677891
 21
5.0821803007
  0
LINE
  5
24D
100
AcDbEntity
  8
ALL_ASSEMBLY_MEMBERS
100
AcDbLine
 62
7
  6
CONTINUOUS
 10
3.3089523589
 20
5.4302927185
 11
3.3010282622
 21
5.4374996542
  0
LINE
  5
24E
100
AcDbEntity
  8
ALL_ASSEMBLY_MEMBERS
100
AcDbLine
 62
7
  6
CONTINUOUS
 10
3.6524223602
 20
5.0482514431
 11
3.295861451
 21
5.4048123523
  0
LINE
  5
24F
100
AcDbEntity
  8
ALL_ASSEMBLY_MEMBERS
100
AcDbLine
 62
7
  6
CONTINUOUS
 10
3.666564488
 20
5.0623935865
 11
3.3100035921
 21
5.4189544824
  0
LINE
  5
250
100
AcDbEntity
  8
ALL_ASSEMBLY_MEMBERS
100
AcDbLine
 62
7
  6
CONTINUOUS
 10
4.8449262422
 20
2.2550318323
 11
4.8449262422
 21
6.6960318323
  0
LINE
  5
251
100
AcDbEntity
  8
ALL_ASSEMBLY_MEMBERS
100
AcDbLine
 62
7
  6
CONTINUOUS
 10
4.8749262422
 20
2.2550318323
 11
4.8749262422
 21
6.6960318323
  0
LINE
  5
252
100
AcDbEntity
  8
ALL_ASSEMBLY_MEMBERS
100
AcDbLine
 62
7
  6
CONTINUOUS
 10
4.9039262422
 20
2.1960318323
 11
4.9039262422
 21
2.2260318323
  0
LINE
  5
253
100
AcDbEntity
  8
ALL_ASSEMBLY_MEMBERS
100
AcDbLine
 62
7
  6
CONTINUOUS
 10
5.0199262422
 20
6.6960318323
 11
5.0199262422
 21
6.7010318323
  0
LINE
  5
254
100
AcDbEntity
  8
ALL_ASSEMBLY_MEMBERS
100
AcDbLine
 62
7
  6
CONTINUOUS
 10
5.1457262422
 20
6.7010318323
 11
5.1457262422
 21
6.9150318323
  0
LINE
  5
255
100
AcDbEntity
  8
ALL_ASSEMBLY_MEMBERS
100
AcDbLine
 62
7
  6
CONTINUOUS
 10
5.7941262422
 20
6.7010318323
 11
5.7941262422
 21
6.9150318323
  0
LINE
  5
256
100
AcDbEntity
  8
ALL_ASSEMBLY_MEMBERS
100
AcDbLine
 62
7
  6
CONTINUOUS
 10
5.9199262422
 20
6.6960318323
 11
5.9199262422
 21
6.7010318323
  0
LINE
  5
257
100
AcDbEntity
  8
ALL_ASSEMBLY_MEMBERS
100
AcDbLine
 62
7
  6
CONTINUOUS
 10
6.0359262422
 20
2.1960318323
 11
6.0359262422
 21
2.2260318323
  0
LINE
  5
258
100
AcDbEntity
  8
ALL_ASSEMBLY_MEMBERS
100
AcDbLine
 62
7
  6
CONTINUOUS
 10
3.7237495352
 20
5.071189908
 11
3.7049135102
 21
5.0711653763
  0
LINE
  5
259
100
AcDbEntity
  8
ALL_ASSEMBLY_MEMBERS
100
AcDbLine
 62
7
  6
CONTINUOUS
 10
8.6999262422
 20
4.9460318323
 11
7.1464262422
 21
4.9460318323
  0
LINE
  5
25A
100
AcDbEntity
  8
ALL_ASSEMBLY_MEMBERS
100
AcDbLine
 62
7
  6
CONTINUOUS
 10
3.7959262422
 20
4.9460318323
 11
2.2424262422
 21
4.9460318323
  0
LINE
  5
25B
100
AcDbEntity
  8
ALL_ASSEMBLY_MEMBERS
100
AcDbLine
 62
7
  6
CONTINUOUS
 10
8.7199262422
 20
4.9660318323
 11
7.1264262422
 21
4.9660318323
  0
LINE
  5
25C
100
AcDbEntity
  8
ALL_ASSEMBLY_MEMBERS
100
AcDbLine
 62
7
  6
CONTINUOUS
 10
2.2224262422
 20
4.9660318323
 11
3.8159262422
 21
4.9660318323
  0
LINE
  5
25D
100
AcDbEntity
  8
ALL_ASSEMBLY_MEMBERS
100
AcDbLine
 62
7
  6
CONTINUOUS
 10
7.2374389742
 20
5.0711655333
 11
7.2186029493
 21
5.0711656183
  0
LINE
  5
25E
100
AcDbEntity
  8
ALL_ASSEMBLY_MEMBERS
100
AcDbLine
 62
7
  6
CONTINUOUS
 10
6.0649262422
 20
6.6960318323
 11
6.0649262422
 21
2.2550318323
  0
LINE
  5
25F
100
AcDbEntity
  8
ALL_ASSEMBLY_MEMBERS
100
AcDbLine
 62
7
  6
CONTINUOUS
 10
6.0949262422
 20
6.6960318323
 11
6.0949262422
 21
2.2550318323
  0
LINE
  5
260
100
AcDbEntity
  8
ALL_ASSEMBLY_MEMBERS
100
AcDbLine
 62
7
  6
CONTINUOUS
 10
7.4511912598
 20
5.2650480666
 11
7.4376895978
 21
5.252771415
  0
LWPOLYLINE
  5
261
100
AcDbEntity
  8
ALL_ASSEMBLY_MEMBERS
100
AcDbPolyline
 62
7
  6
CONTINUOUS
 90
3
 70
0
 10
7.4909309834
 20
5.3010844338
 10
7.4778629422
 20
5.289204576
 10
7.4511912598
 20
5.2650480666
  0
LINE
  5
262
100
AcDbEntity
  8
ALL_ASSEMBLY_MEMBERS
100
AcDbLine
 62
7
  6
CONTINUOUS
 10
7.6376102833
 20
5.4341267579
 11
7.6286791802
 21
5.4260062742
  0
LINE
  5
263
100
AcDbEntity
  8
ALL_ASSEMBLY_MEMBERS
100
AcDbLine
 62
7
  6
CONTINUOUS
 10
7.2546650229
 20
5.0867926113
 11
7.2409838131
 21
5.0743608686
  0
LINE
  5
264
100
AcDbEntity
  8
ALL_ASSEMBLY_MEMBERS
100
AcDbLine
 62
7
  6
CONTINUOUS
 10
7.3366658562
 20
5.1611756552
 11
7.3156239012
 21
5.1420767889
  0
LINE
  5
265
100
AcDbEntity
  8
ALL_ASSEMBLY_MEMBERS
100
AcDbLine
 62
7
  6
CONTINUOUS
 10
7.2968994687
 20
5.1250978777
 11
7.2602820514
 21
5.0918811407
  0
LWPOLYLINE
  5
266
100
AcDbEntity
  8
ALL_ASSEMBLY_MEMBERS
100
AcDbPolyline
 62
7
  6
CONTINUOUS
 90
4
 70
0
 10
7.5395507914
 20
5.3451740031
 10
7.5280537542
 20
5.3347469129
 10
7.516066545
 20
5.3238556022
 10
7.5036809669
 20
5.3126406681
  0
LINE
  5
267
100
AcDbEntity
  8
ALL_ASSEMBLY_MEMBERS
100
AcDbLine
 62
7
  6
CONTINUOUS
 10
7.6445361742
 20
5.4403920426
 11
7.2374389742
 21
5.071165595
  0
LWPOLYLINE
  5
268
100
AcDbEntity
  8
ALL_ASSEMBLY_MEMBERS
100
AcDbPolyline
 62
7
  6
CONTINUOUS
 90
5
 70
0
 10
7.3846915427
 20
5.2047192164
 10
7.3720627347
 20
5.1932843676
 10
7.3597923928
 20
5.1821343592
 10
7.3479804166
 20
5.1714231967
 10
7.3366658562
 20
5.1611756552
  0
LWPOLYLINE
  5
269
100
AcDbEntity
  8
ALL_ASSEMBLY_MEMBERS
100
AcDbPolyline
 62
7
  6
CONTINUOUS
 90
3
 70
0
 10
7.4376895978
 20
5.252771415
 10
7.4108622945
 20
5.2284746342
 10
7.3976408531
 20
5.216454505
  0
LINE
  5
26A
100
AcDbEntity
  8
ALL_ASSEMBLY_MEMBERS
100
AcDbLine
 62
7
  6
CONTINUOUS
 10
7.2409838131
 20
5.0743608686
 11
7.2374389742
 21
5.071165595
  0
LWPOLYLINE
  5
26B
100
AcDbEntity
  8
ALL_ASSEMBLY_MEMBERS
100
AcDbPolyline
 62
7
  6
CONTINUOUS
 90
3
 70
0
 10
7.6445361742
 20
5.4403920426
 10
7.6413170245
 20
5.4374929563
 10
7.6376102833
 20
5.4341267579
  0
LINE
  5
26C
100
AcDbEntity
  8
ALL_ASSEMBLY_MEMBERS
100
AcDbLine
 62
7
  6
CONTINUOUS
 10
7.6323487614
 20
5.4189543514
 11
7.2757878528
 21
5.0623934429
  0
LINE
  5
26D
100
AcDbEntity
  8
ALL_ASSEMBLY_MEMBERS
100
AcDbLine
 62
7
  6
CONTINUOUS
 10
7.6464909027
 20
5.4048122215
 11
7.2899299935
 21
5.0482513123
  0
LINE
  5
26E
100
AcDbEntity
  8
ALL_ASSEMBLY_MEMBERS
100
AcDbLine
 62
7
  6
CONTINUOUS
 10
2.2224262422
 20
5.4180318323
 11
3.2861792962
 21
5.4180318323
  0
LINE
  5
26F
100
AcDbEntity
  8
ALL_ASSEMBLY_MEMBERS
100
AcDbLine
 62
7
  6
CONTINUOUS
 10
3.7049135102
 20
5.4180318323
 11
3.8159262422
 21
5.4180318323
  0
LINE
  5
270
100
AcDbEntity
  8
ALL_ASSEMBLY_MEMBERS
100
AcDbLine
 62
7
  6
CONTINUOUS
 10
7.1264262422
 20
5.4180318323
 11
7.2374389742
 21
5.4180318327
  0
LINE
  5
271
100
AcDbEntity
  8
ALL_ASSEMBLY_MEMBERS
100
AcDbLine
 62
7
  6
CONTINUOUS
 10
7.6561731664
 20
5.4180318323
 11
8.7199262422
 21
5.4180318323
  0
LINE
  5
272
100
AcDbEntity
  8
ALL_ASSEMBLY_MEMBERS
100
AcDbLine
 62
7
  6
CONTINUOUS
 10
2.2424262422
 20
5.4380318323
 11
3.2706850072
 21
5.4380318323
  0
LINE
  5
273
100
AcDbEntity
  8
ALL_ASSEMBLY_MEMBERS
100
AcDbLine
 62
7
  6
CONTINUOUS
 10
3.7341674772
 20
5.4380318323
 11
3.7959262422
 21
5.4380318323
  0
LINE
  5
274
100
AcDbEntity
  8
ALL_ASSEMBLY_MEMBERS
100
AcDbLine
 62
7
  6
CONTINUOUS
 10
7.1464262422
 20
5.4380318323
 11
7.2081850072
 21
5.4380318323
  0
LINE
  5
275
100
AcDbEntity
  8
ALL_ASSEMBLY_MEMBERS
100
AcDbLine
 62
7
  6
CONTINUOUS
 10
7.6716674772
 20
5.4380318323
 11
8.6999262422
 21
5.4380318323
  0
LINE
  5
276
100
AcDbEntity
  8
ALL_ASSEMBLY_MEMBERS
100
AcDbLine
 62
7
  6
CONTINUOUS
 10
3.2874262422
 20
5.4580318323
 11
3.2904076655
 21
5.4580318323
  0
LINE
  5
277
100
AcDbEntity
  8
ALL_ASSEMBLY_MEMBERS
100
AcDbLine
 62
7
  6
CONTINUOUS
 10
3.7144448189
 20
5.4580318323
 11
3.7174262422
 21
5.4580318323
  0
LINE
  5
278
100
AcDbEntity
  8
ALL_ASSEMBLY_MEMBERS
100
AcDbLine
 62
7
  6
CONTINUOUS
 10
7.2249262422
 20
5.4580318323
 11
7.2279076655
 21
5.4580318323
  0
LINE
  5
279
100
AcDbEntity
  8
ALL_ASSEMBLY_MEMBERS
100
AcDbLine
 62
7
  6
CONTINUOUS
 10
7.6519448189
 20
5.4580318323
 11
7.6549262422
 21
5.4580318323
  0
LINE
  5
27A
100
AcDbEntity
  8
ALL_ASSEMBLY_MEMBERS
100
AcDbLine
 62
7
  6
CONTINUOUS
 10
6.8399262422
 20
6.5660318323
 11
6.8399262422
 21
6.7010318323
  0
LINE
  5
27B
100
AcDbEntity
  8
ALL_ASSEMBLY_MEMBERS
100
AcDbLine
 62
7
  6
CONTINUOUS
 10
6.8599262422
 20
6.5460318323
 11
6.8599262422
 21
6.7010318323
  0
LINE
  5
27C
100
AcDbEntity
  8
ALL_ASSEMBLY_MEMBERS
100
AcDbLine
 62
7
  6
CONTINUOUS
 10
7.2757878579
 20
5.0623934479
 11
7.2899299935
 21
5.0482513123
  0
LINE
  5
27D
100
AcDbEntity
  8
ALL_ASSEMBLY_MEMBERS
100
AcDbLine
 62
7
  6
CONTINUOUS
 10
7.1264262422
 20
5.4180318323
 11
7.1264262422
 21
4.9660318323
  0
LINE
  5
27E
100
AcDbEntity
  8
ALL_ASSEMBLY_MEMBERS
100
AcDbLine
 62
7
  6
CONTINUOUS
 10
7.1464262422
 20
5.4380318323
 11
7.1464262422
 21
4.9460318323
  0
LINE
  5
27F
100
AcDbEntity
  8
ALL_ASSEMBLY_MEMBERS
100
AcDbLine
 62
7
  6
CONTINUOUS
 10
7.2186029493
 20
5.4180318323
 11
7.2186029493
 21
5.0711477374
  0
LINE
  5
280
100
AcDbEntity
  8
ALL_ASSEMBLY_MEMBERS
100
AcDbLine
 62
7
  6
CONTINUOUS
 10
7.2249262422
 20
6.5460318323
 11
7.2249262422
 21
6.3580318323
  0
LINE
  5
281
100
AcDbEntity
  8
ALL_ASSEMBLY_MEMBERS
100
AcDbLine
 62
7
  6
CONTINUOUS
 10
7.2249262422
 20
6.3330318323
 11
7.2249262422
 21
5.4580318323
  0
LINE
  5
282
100
AcDbEntity
  8
ALL_ASSEMBLY_MEMBERS
100
AcDbLine
 62
7
  6
CONTINUOUS
 10
7.2374389742
 20
5.4180318327
 11
7.2374389742
 21
5.0711655333
  0
LINE
  5
283
100
AcDbEntity
  8
ALL_ASSEMBLY_MEMBERS
100
AcDbLine
 62
7
  6
CONTINUOUS
 10
7.2699262422
 20
6.3580318323
 11
7.2699262422
 21
6.3550318323
  0
LINE
  5
284
100
AcDbEntity
  8
ALL_ASSEMBLY_MEMBERS
100
AcDbLine
 62
7
  6
CONTINUOUS
 10
7.6549262422
 20
6.3330318323
 11
7.2249262422
 21
6.3330318323
  0
LINE
  5
285
100
AcDbEntity
  8
ALL_ASSEMBLY_MEMBERS
100
AcDbLine
 62
7
  6
CONTINUOUS
 10
3.7174262422
 20
6.3330318323
 11
3.2874262422
 21
6.3330318323
  0
LINE
  5
286
100
AcDbEntity
  8
ALL_ASSEMBLY_MEMBERS
100
AcDbLine
 62
7
  6
CONTINUOUS
 10
7.654923723
 20
6.3580318323
 11
7.2249287614
 21
6.3580318323
  0
LINE
  5
287
100
AcDbEntity
  8
ALL_ASSEMBLY_MEMBERS
100
AcDbLine
 62
7
  6
CONTINUOUS
 10
3.717423723
 20
6.3580318323
 11
3.2874287614
 21
6.3580318323
  0
LINE
  5
288
100
AcDbEntity
  8
ALL_ASSEMBLY_MEMBERS
100
AcDbLine
 62
7
  6
CONTINUOUS
 10
7.6386265269
 20
5.4270008608
 11
7.6561731664
 21
5.4180318323
  0
LINE
  5
289
100
AcDbEntity
  8
ALL_ASSEMBLY_MEMBERS
100
AcDbLine
 62
7
  6
CONTINUOUS
 10
7.2699262422
 20
6.3550318323
 11
7.2699621428
 21
6.3545336235
  0
LINE
  5
28A
100
AcDbEntity
  8
ALL_ASSEMBLY_MEMBERS
100
AcDbLine
 62
7
  6
CONTINUOUS
 10
7.2699262422
 20
6.3550318323
 11
7.2699620424
 21
6.354535143
  0
LINE
  5
28B
100
AcDbEntity
  8
ALL_ASSEMBLY_MEMBERS
100
AcDbLine
 62
7
  6
CONTINUOUS
 10
7.6099262422
 20
6.3580318323
 11
7.6099262422
 21
6.3550318323
  0
LINE
  5
28C
100
AcDbEntity
  8
ALL_ASSEMBLY_MEMBERS
100
AcDbLine
 62
7
  6
CONTINUOUS
 10
7.6098903763
 20
6.3545342001
 11
7.6099262422
 21
6.3550318323
  0
LINE
  5
28D
100
AcDbEntity
  8
ALL_ASSEMBLY_MEMBERS
100
AcDbLine
 62
7
  6
CONTINUOUS
 10
8.6499262422
 20
6.5460318323
 11
6.8599262422
 21
6.5460318323
  0
LINE
  5
28E
100
AcDbEntity
  8
ALL_ASSEMBLY_MEMBERS
100
AcDbLine
 62
7
  6
CONTINUOUS
 10
4.0824262422
 20
6.5460318323
 11
2.2924262422
 21
6.5460318323
  0
LINE
  5
28F
100
AcDbEntity
  8
ALL_ASSEMBLY_MEMBERS
100
AcDbLine
 62
7
  6
CONTINUOUS
 10
2.2724262422
 20
6.5660318323
 11
4.1024262422
 21
6.5660318323
  0
LINE
  5
290
100
AcDbEntity
  8
ALL_ASSEMBLY_MEMBERS
100
AcDbLine
 62
7
  6
CONTINUOUS
 10
6.8399262422
 20
6.5660318323
 11
8.6699262422
 21
6.5660318323
  0
LINE
  5
291
100
AcDbEntity
  8
ALL_ASSEMBLY_MEMBERS
100
AcDbLine
 62
7
  6
CONTINUOUS
 10
4.8449262422
 20
6.6960318323
 11
6.0949262422
 21
6.6960318323
  0
LINE
  5
292
100
AcDbEntity
  8
ALL_ASSEMBLY_MEMBERS
100
AcDbLine
 62
7
  6
CONTINUOUS
 10
2.2724262422
 20
6.7010318323
 11
4.1024262422
 21
6.7010318323
  0
LINE
  5
293
100
AcDbEntity
  8
ALL_ASSEMBLY_MEMBERS
100
AcDbLine
 62
7
  6
CONTINUOUS
 10
5.0199262422
 20
6.7010318323
 11
5.9199262422
 21
6.7010318323
  0
LINE
  5
294
100
AcDbEntity
  8
ALL_ASSEMBLY_MEMBERS
100
AcDbLine
 62
7
  6
CONTINUOUS
 10
6.8399262422
 20
6.7010318323
 11
8.6699262422
 21
6.7010318323
  0
LINE
  5
295
100
AcDbEntity
  8
ALL_ASSEMBLY_MEMBERS
100
AcDbLine
 62
7
  6
CONTINUOUS
 10
7.6323487671
 20
5.4189543571
 11
7.6464909027
 21
5.4048122215
  0
LINE
  5
296
100
AcDbEntity
  8
ALL_ASSEMBLY_MEMBERS
100
AcDbLine
 62
7
  6
CONTINUOUS
 10
7.6549262422
 20
6.5460318323
 11
7.6549262422
 21
6.3580318323
  0
LINE
  5
297
100
AcDbEntity
  8
ALL_ASSEMBLY_MEMBERS
100
AcDbLine
 62
7
  6
CONTINUOUS
 10
7.6549262422
 20
6.3330318323
 11
7.6549262422
 21
5.4580318323
  0
LINE
  5
298
100
AcDbEntity
  8
ALL_ASSEMBLY_MEMBERS
100
AcDbLine
 62
7
  6
CONTINUOUS
 10
5.1457408093
 20
6.9150318323
 11
5.7941116752
 21
6.9150318323
  0
LINE
  5
299
100
AcDbEntity
  8
ALL_ASSEMBLY_MEMBERS
100
AcDbLine
 62
7
  6
CONTINUOUS
 10
8.6499262422
 20
6.5460318323
 11
8.6499262422
 21
6.7010318323
  0
LINE
  5
29A
100
AcDbEntity
  8
ALL_ASSEMBLY_MEMBERS
100
AcDbLine
 62
7
  6
CONTINUOUS
 10
8.6699262422
 20
6.5660318323
 11
8.6699262422
 21
6.7010318323
  0
LINE
  5
29B
100
AcDbEntity
  8
ALL_ASSEMBLY_MEMBERS
100
AcDbLine
 62
7
  6
CONTINUOUS
 10
8.6999262422
 20
4.9460318323
 11
8.6999262422
 21
5.4380318323
  0
LINE
  5
29C
100
AcDbEntity
  8
ALL_ASSEMBLY_MEMBERS
100
AcDbLine
 62
7
  6
CONTINUOUS
 10
8.7199262422
 20
5.4180318323
 11
8.7199262422
 21
4.9660318323
  0
ARC
  5
29D
100
AcDbEntity
  8
ALL_ASSEMBLY_MEMBERS
100
AcDbCircle
 62
7
  6
CONTINUOUS
 10
4.9039262422
 20
2.2550318323
 40
0.059
100
AcDbArc
 50
180.0
 51
270.0
  0
ARC
  5
29E
100
AcDbEntity
  8
ALL_ASSEMBLY_MEMBERS
100
AcDbCircle
 62
7
  6
CONTINUOUS
 10
4.9039262422
 20
2.2550318323
 40
0.0289999042
100
AcDbArc
 50
180.0
 51
270.0
  0
ARC
  5
29F
100
AcDbEntity
  8
ALL_ASSEMBLY_MEMBERS
100
AcDbCircle
 62
7
  6
CONTINUOUS
 10
3.8423797029
 20
6.3425112777
 40
0.1704138471
100
AcDbArc
 50
176.5624817239
 51
177.2403746571
  0
ARC
  5
2A0
100
AcDbEntity
  8
ALL_ASSEMBLY_MEMBERS
100
AcDbCircle
 62
7
  6
CONTINUOUS
 10
3.163026568
 20
6.3425323501
 40
0.169859801
100
AcDbArc
 50
356.7893659044
 51
3.4416349943
  0
ARC
  5
2A1
100
AcDbEntity
  8
ALL_ASSEMBLY_MEMBERS
100
AcDbCircle
 62
7
  6
CONTINUOUS
 10
3.8417726209
 20
6.342531064
 40
0.1698065168
100
AcDbArc
 50
177.2371809561
 51
183.2110988618
  0
ARC
  5
2A2
100
AcDbEntity
  8
ALL_ASSEMBLY_MEMBERS
100
AcDbCircle
 62
7
  6
CONTINUOUS
 10
3.8417459218
 20
6.3425674697
 40
0.1697778214
100
AcDbArc
 50
176.1051297394
 51
176.4595674144
  0
ARC
  5
2A3
100
AcDbEntity
  8
ALL_ASSEMBLY_MEMBERS
100
AcDbCircle
 62
7
  6
CONTINUOUS
 10
3.1634651214
 20
6.3425880601
 40
0.1694186771
100
AcDbArc
 50
3.5342248691
 51
3.8956711647
  0
ARC
  5
2A4
100
AcDbEntity
  8
ALL_ASSEMBLY_MEMBERS
100
AcDbCircle
 62
7
  6
CONTINUOUS
 10
4.0824262422
 20
6.5660318323
 40
0.02
100
AcDbArc
 50
270.0
 51
360.0
  0
ARC
  5
2A5
100
AcDbEntity
  8
ALL_ASSEMBLY_MEMBERS
100
AcDbCircle
 62
7
  6
CONTINUOUS
 10
2.2924262422
 20
6.5660318323
 40
0.02
100
AcDbArc
 50
180.0
 51
270.0
  0
ARC
  5
2A6
100
AcDbEntity
  8
ALL_ASSEMBLY_MEMBERS
100
AcDbCircle
 62
7
  6
CONTINUOUS
 10
2.2424262422
 20
5.4180318323
 40
0.02
100
AcDbArc
 50
90.0
 51
180.0
  0
ARC
  5
2A7
100
AcDbEntity
  8
ALL_ASSEMBLY_MEMBERS
100
AcDbCircle
 62
7
  6
CONTINUOUS
 10
2.2424262422
 20
4.9660318323
 40
0.02
100
AcDbArc
 50
180.0
 51
270.0
  0
ARC
  5
2A8
100
AcDbEntity
  8
ALL_ASSEMBLY_MEMBERS
100
AcDbCircle
 62
7
  6
CONTINUOUS
 10
3.7959262422
 20
5.4180318323
 40
0.02
100
AcDbArc
 50
0.0
 51
90.0
  0
ARC
  5
2A9
100
AcDbEntity
  8
ALL_ASSEMBLY_MEMBERS
100
AcDbCircle
 62
7
  6
CONTINUOUS
 10
3.7959262422
 20
4.9660318323
 40
0.02
100
AcDbArc
 50
270.0
 51
360.0
  0
ARC
  5
2AA
100
AcDbEntity
  8
ALL_ASSEMBLY_MEMBERS
100
AcDbCircle
 62
7
  6
CONTINUOUS
 10
3.2674262422
 20
5.4580318323
 40
0.02
100
AcDbArc
 50
282.0
 51
360.0
  0
ARC
  5
2AB
100
AcDbEntity
  8
ALL_ASSEMBLY_MEMBERS
100
AcDbCircle
 62
7
  6
CONTINUOUS
 10
3.7374262422
 20
5.4580318323
 40
0.02
100
AcDbArc
 50
180.0
 51
258.0
  0
ARC
  5
2AC
100
AcDbEntity
  8
ALL_ASSEMBLY_MEMBERS
100
AcDbCircle
 62
7
  6
CONTINUOUS
 10
3.5024262422
 20
6.3425318323
 40
0.0125
100
AcDbArc
 50
310.4448485947
 51
229.5539328701
  0
ARC
  5
2AD
100
AcDbEntity
  8
ALL_ASSEMBLY_MEMBERS
100
AcDbCircle
 62
7
  6
CONTINUOUS
 10
6.0359262422
 20
2.2550318323
 40
0.059
100
AcDbArc
 50
270.0
 51
360.0
  0
ARC
  5
2AE
100
AcDbEntity
  8
ALL_ASSEMBLY_MEMBERS
100
AcDbCircle
 62
7
  6
CONTINUOUS
 10
6.0359262422
 20
2.2550318323
 40
0.0289999042
100
AcDbArc
 50
270.0
 51
360.0
  0
ARC
  5
2AF
100
AcDbEntity
  8
ALL_ASSEMBLY_MEMBERS
100
AcDbCircle
 62
7
  6
CONTINUOUS
 10
7.7798797029
 20
6.3425112777
 40
0.1704138471
100
AcDbArc
 50
176.5624817244
 51
177.2403746571
  0
ARC
  5
2B0
100
AcDbEntity
  8
ALL_ASSEMBLY_MEMBERS
100
AcDbCircle
 62
7
  6
CONTINUOUS
 10
7.100526568
 20
6.3425323501
 40
0.169859801
100
AcDbArc
 50
356.7893659044
 51
3.4416349939
  0
ARC
  5
2B1
100
AcDbEntity
  8
ALL_ASSEMBLY_MEMBERS
100
AcDbCircle
 62
7
  6
CONTINUOUS
 10
7.7792726209
 20
6.342531064
 40
0.1698065168
100
AcDbArc
 50
177.2371809561
 51
183.2110988618
  0
ARC
  5
2B2
100
AcDbEntity
  8
ALL_ASSEMBLY_MEMBERS
100
AcDbCircle
 62
7
  6
CONTINUOUS
 10
7.7792459217
 20
6.3425674697
 40
0.1697778213
100
AcDbArc
 50
176.10512974
 51
176.4595674146
  0
ARC
  5
2B3
100
AcDbEntity
  8
ALL_ASSEMBLY_MEMBERS
100
AcDbCircle
 62
7
  6
CONTINUOUS
 10
7.1009651215
 20
6.3425880601
 40
0.169418677
100
AcDbArc
 50
3.534224869
 51
3.895671164
  0
ARC
  5
2B4
100
AcDbEntity
  8
ALL_ASSEMBLY_MEMBERS
100
AcDbCircle
 62
7
  6
CONTINUOUS
 10
6.8599262422
 20
6.5660318323
 40
0.02
100
AcDbArc
 50
180.0
 51
270.0
  0
ARC
  5
2B5
100
AcDbEntity
  8
ALL_ASSEMBLY_MEMBERS
100
AcDbCircle
 62
7
  6
CONTINUOUS
 10
8.6499262422
 20
6.5660318323
 40
0.02
100
AcDbArc
 50
270.0
 51
360.0
  0
ARC
  5
2B6
100
AcDbEntity
  8
ALL_ASSEMBLY_MEMBERS
100
AcDbCircle
 62
7
  6
CONTINUOUS
 10
8.6999262422
 20
5.4180318323
 40
0.02
100
AcDbArc
 50
0.0
 51
90.0
  0
ARC
  5
2B7
100
AcDbEntity
  8
ALL_ASSEMBLY_MEMBERS
100
AcDbCircle
 62
7
  6
CONTINUOUS
 10
8.6999262422
 20
4.9660318323
 40
0.02
100
AcDbArc
 50
270.0
 51
360.0
  0
ARC
  5
2B8
100
AcDbEntity
  8
ALL_ASSEMBLY_MEMBERS
100
AcDbCircle
 62
7
  6
CONTINUOUS
 10
7.1464262422
 20
5.4180318323
 40
0.02
100
AcDbArc
 50
90.0
 51
180.0
  0
ARC
  5
2B9
100
AcDbEntity
  8
ALL_ASSEMBLY_MEMBERS
100
AcDbCircle
 62
7
  6
CONTINUOUS
 10
7.1464262422
 20
4.9660318323
 40
0.02
100
AcDbArc
 50
180.0
 51
270.0
  0
ARC
  5
2BA
100
AcDbEntity
  8
ALL_ASSEMBLY_MEMBERS
100
AcDbCircle
 62
7
  6
CONTINUOUS
 10
7.6749262422
 20
5.4580318323
 40
0.02
100
AcDbArc
 50
180.0
 51
258.0
  0
ARC
  5
2BB
100
AcDbEntity
  8
ALL_ASSEMBLY_MEMBERS
100
AcDbCircle
 62
7
  6
CONTINUOUS
 10
7.2049262422
 20
5.4580318323
 40
0.02
100
AcDbArc
 50
282.0
 51
360.0
  0
ARC
  5
2BC
100
AcDbEntity
  8
ALL_ASSEMBLY_MEMBERS
100
AcDbCircle
 62
7
  6
CONTINUOUS
 10
7.4399262422
 20
6.3425318323
 40
0.0125
100
AcDbArc
 50
310.4448485947
 51
229.5539328701
  0
LINE
  5
2BD
100
AcDbEntity
  8
ALL_ASSEMBLY_MEMBERS
100
AcDbLine
 62
7
  6
CONTINUOUS
 10
7.2699620424
 20
6.354535143
 11
7.2699806125
 21
6.3542693056
  0
LINE
  5
2BE
100
AcDbEntity
  8
ALL_ASSEMBLY_MEMBERS
100
AcDbLine
 62
7
  6
CONTINUOUS
 10
7.2699806125
 20
6.3542693056
 11
7.2699886603
 21
6.3541522847
  0
SPLINE
  5
2BF
100
AcDbEntity
  8
ALL_ASSEMBLY_MEMBERS
100
AcDbSpline
 62
7
  6
CONTINUOUS
 70
0
 71
3
 72
8
 73
4
 74
0
 42
0.0000001
 43
0.0000001
 44
0.0000000001
 40
0.0
 40
0.0
 40
0.0
 40
0.0
 40
1.0
 40
1.0
 40
1.0
 40
1.0
 10
7.2699886603
 20
6.3541522847
 30
0.0
 10
7.2699898905
 20
6.3541343068
 30
0.0
 10
7.2699911178
 20
6.3541163286
 30
0.0
 10
7.2699923422
 20
6.3540983503
 30
0.0
  0
LINE
  5
2C0
100
AcDbEntity
  8
ALL_ASSEMBLY_MEMBERS
100
AcDbLine
 62
7
  6
CONTINUOUS
 10
7.2700615902
 20
6.3530318323
 11
7.2700800215
 21
6.3527293306
  0
LINE
  5
2C1
100
AcDbEntity
  8
ALL_ASSEMBLY_MEMBERS
100
AcDbLine
 62
7
  6
CONTINUOUS
 10
7.6097724679
 20
6.3527292963
 11
7.6097921266
 21
6.3530517408
  0
SPLINE
  5
2C2
100
AcDbEntity
  8
ALL_ASSEMBLY_MEMBERS
100
AcDbSpline
 62
7
  6
CONTINUOUS
 70
0
 71
3
 72
8
 73
4
 74
0
 42
0.0000001
 43
0.0000001
 44
0.0000000001
 40
0.0
 40
0.0
 40
0.0
 40
0.0
 40
1.0
 40
1.0
 40
1.0
 40
1.0
 10
7.6098602253
 20
6.3540997924
 30
0.0
 10
7.6098614
 20
6.3541170342
 30
0.0
 10
7.6098625774
 20
6.3541342758
 30
0.0
 10
7.6098637575
 20
6.3541515173
 30
0.0
  0
LINE
  5
2C3
100
AcDbEntity
  8
ALL_ASSEMBLY_MEMBERS
100
AcDbLine
 62
7
  6
CONTINUOUS
 10
7.6098637575
 20
6.3541515173
 11
7.6098718273
 21
6.3542688146
  0
LINE
  5
2C4
100
AcDbEntity
  8
ALL_ASSEMBLY_MEMBERS
100
AcDbLine
 62
7
  6
CONTINUOUS
 10
7.6098718273
 20
6.3542688146
 11
7.6098903763
 21
6.3545342001
  0
LINE
  5
2C5
100
AcDbEntity
  8
ALL_ASSEMBLY_MEMBERS
100
AcDbLine
 62
7
  6
CONTINUOUS
 10
3.6722724679
 20
6.3527292963
 11
3.6722921266
 21
6.3530517408
  0
SPLINE
  5
2C6
100
AcDbEntity
  8
ALL_ASSEMBLY_MEMBERS
100
AcDbSpline
 62
7
  6
CONTINUOUS
 70
0
 71
3
 72
8
 73
4
 74
0
 42
0.0000001
 43
0.0000001
 44
0.0000000001
 40
0.0
 40
0.0
 40
0.0
 40
0.0
 40
1.0
 40
1.0
 40
1.0
 40
1.0
 10
3.6723602253
 20
6.3540997924
 30
0.0
 10
3.6723614
 20
6.3541170342
 30
0.0
 10
3.6723625774
 20
6.3541342758
 30
0.0
 10
3.6723637575
 20
6.3541515173
 30
0.0
  0
LINE
  5
2C7
100
AcDbEntity
  8
ALL_ASSEMBLY_MEMBERS
100
AcDbLine
 62
7
  6
CONTINUOUS
 10
3.6723637575
 20
6.3541515173
 11
3.6723718273
 21
6.3542688147
  0
LINE
  5
2C8
100
AcDbEntity
  8
ALL_ASSEMBLY_MEMBERS
100
AcDbLine
 62
7
  6
CONTINUOUS
 10
3.6723718273
 20
6.3542688147
 11
3.6723903763
 21
6.3545342001
  0
LINE
  5
2C9
100
AcDbEntity
  8
ALL_ASSEMBLY_MEMBERS
100
AcDbLine
 62
7
  6
CONTINUOUS
 10
3.3325615902
 20
6.3530318323
 11
3.3325800215
 21
6.3527293306
  0
LINE
  5
2CA
100
AcDbEntity
  8
ALL_ASSEMBLY_MEMBERS
100
AcDbLine
 62
7
  6
CONTINUOUS
 10
3.3324620424
 20
6.354535143
 11
3.3324806125
 21
6.3542693056
  0
LINE
  5
2CB
100
AcDbEntity
  8
ALL_ASSEMBLY_MEMBERS
100
AcDbLine
 62
7
  6
CONTINUOUS
 10
3.3324806125
 20
6.3542693056
 11
3.3324886603
 21
6.3541522847
  0
SPLINE
  5
2CC
100
AcDbEntity
  8
ALL_ASSEMBLY_MEMBERS
100
AcDbSpline
 62
7
  6
CONTINUOUS
 70
0
 71
3
 72
8
 73
4
 74
0
 42
0.0000001
 43
0.0000001
 44
0.0000000001
 40
0.0
 40
0.0
 40
0.0
 40
0.0
 40
1.0
 40
1.0
 40
1.0
 40
1.0
 10
3.3324886603
 20
6.3541522847
 30
0.0
 10
3.3324898905
 20
6.3541343068
 30
0.0
 10
3.3324911178
 20
6.3541163286
 30
0.0
 10
3.3324923422
 20
6.3540983503
 30
0.0
  0
SPLINE
  5
2CD
100
AcDbEntity
  8
ALL_ASSEMBLY_MEMBERS
100
AcDbSpline
 62
7
  6
CONTINUOUS
 70
0
 71
3
 72
20
 73
16
 74
0
 42
0.0000001
 43
0.0000001
 44
0.0000000001
 40
0.0
 40
0.0
 40
0.0
 40
0.0
 40
0.2425083536
 40
0.304134522
 40
0.3661282437
 40
0.428543236
 40
0.4914001627
 40
0.5546872697
 40
0.6183531187
 40
0.6822832249
 40
0.7463070566
 40
0.810233387
 40
0.8738791839
 40
0.9371748891
 40
1.0
 40
1.0
 40
1.0
 40
1.0
 10
7.2757879128
 20
5.062393393
 30
0.0
 10
7.2727617704
 20
5.0593673026
 30
0.0
 10
7.2683620899
 20
5.0560380547
 30
0.0
 10
7.2623820583
 20
5.0535678403
 30
0.0
 10
7.2592119326
 20
5.0526795158
 30
0.0
 10
7.2559280969
 20
5.0522202631
 30
0.0
 10
7.2525863116
 20
5.05226492
 30
0.0
 10
7.2492757465
 20
5.0528839212
 30
0.0
 10
7.2461208637
 20
5.0541267844
 30
0.0
 10
7.2432737908
 20
5.0559980351
 30
0.0
 10
7.2408875709
 20
5.0584378312
 30
0.0
 10
7.2390792875
 20
5.0613245036
 30
0.0
 10
7.2379013278
 20
5.0645036753
 30
0.0
 10
7.2373448415
 20
5.0678235554
 30
0.0
 10
7.2373522565
 20
5.0700602064
 30
0.0
 10
7.2374395336
 20
5.0711654483
 30
0.0
  0
SPLINE
  5
2CE
100
AcDbEntity
  8
ALL_ASSEMBLY_MEMBERS
100
AcDbSpline
 62
7
  6
CONTINUOUS
 70
0
 71
3
 72
23
 73
19
 74
0
 42
0.0000001
 43
0.0000001
 44
0.0000000001
 40
0.0
 40
0.0
 40
0.0
 40
0.0
 40
0.0625074167
 40
0.1250730658
 40
0.1876091578
 40
0.2501281369
 40
0.3126481449
 40
0.3751606033
 40
0.4376581548
 40
0.5001434719
 40
0.5626171074
 40
0.6250815268
 40
0.6875424004
 40
0.7500070438
 40
0.8124841756
 40
0.8749651777
 40
0.937496383
 40
1.0
 40
1.0
 40
1.0
 40
1.0
 10
7.2899299935
 20
5.0482513123
 30
0.0
 10
7.2885008344
 20
5.0468221309
 30
0.0
 10
7.2854822976
 20
5.0441160744
 30
0.0
 10
7.2805269989
 20
5.0405944123
 30
0.0
 10
7.2751869749
 20
5.0376836256
 30
0.0
 10
7.2695260434
 20
5.0354608348
 30
0.0
 10
7.2636216123
 20
5.033998321
 30
0.0
 10
7.2575702698
 20
5.0333667558
 30
0.0
 10
7.2514904586
 20
5.0336207124
 30
0.0
 10
7.2455191127
 20
5.0347959689
 30
0.0
 10
7.2398078581
 20
5.0369003238
 30
0.0
 10
7.2345148373
 20
5.0399065577
 30
0.0
 10
7.2297936568
 20
5.0437496866
 30
0.0
 10
7.2257810116
 20
5.0483283555
 30
0.0
 10
7.2225862594
 20
5.0535108742
 30
0.0
 10
7.220282363
 20
5.0591476102
 30
0.0
 10
7.2189056501
 20
5.0650769503
 30
0.0
 10
7.2186032845
 20
5.0691267083
 30
0.0
 10
7.2186029493
 20
5.0711477374
 30
0.0
  0
SPLINE
  5
2CF
100
AcDbEntity
  8
ALL_ASSEMBLY_MEMBERS
100
AcDbSpline
 62
7
  6
CONTINUOUS
 70
0
 71
3
 72
19
 73
15
 74
0
 42
0.0000001
 43
0.0000001
 44
0.0000000001
 40
0.0
 40
0.0
 40
0.0
 40
0.0
 40
0.0622666244
 40
0.1005683499
 40
0.1440339296
 40
0.1926627348
 40
0.2463084404
 40
0.3677248186
 40
0.5065335915
 40
0.6605344541
 40
0.7423762507
 40
0.8268225957
 40
0.9130813622
 40
1.0
 40
1.0
 40
1.0
 40
1.0
 10
7.2081850072
 20
5.4380318323
 30
0.0
 10
7.2086812587
 20
5.4380318408
 30
0.0
 10
7.2094772808
 20
5.4377725502
 30
0.0
 10
7.2104589599
 20
5.4371828336
 30
0.0
 10
7.2112803273
 20
5.43654014
 30
0.0
 10
7.2121202789
 20
5.4357363109
 30
0.0
 10
7.2133022403
 20
5.4343992235
 30
0.0
 10
7.2147410128
 20
5.4323423754
 30
0.0
 10
7.2162767916
 20
5.429410835
 30
0.0
 10
7.2173143341
 20
5.4266007367
 30
0.0
 10
7.2179567988
 20
5.4241285657
 30
0.0
 10
7.2183229884
 20
5.4221475113
 30
0.0
 10
7.218550078
 20
5.4201052492
 30
0.0
 10
7.2186030562
 20
5.418724555
 30
0.0
 10
7.2186029493
 20
5.4180318323
 30
0.0
  0
SPLINE
  5
2D0
100
AcDbEntity
  8
ALL_ASSEMBLY_MEMBERS
100
AcDbSpline
 62
7
  6
CONTINUOUS
 70
0
 71
3
 72
16
 73
12
 74
0
 42
0.0000001
 43
0.0000001
 44
0.0000000001
 40
0.0
 40
0.0
 40
0.0
 40
0.0
 40
0.1240232724
 40
0.1862879378
 40
0.2485586813
 40
0.3730369456
 40
0.4978412861
 40
0.6229851623
 40
0.7484327261
 40
0.8742665845
 40
1.0
 40
1.0
 40
1.0
 40
1.0
 10
7.6716674772
 20
5.4380318323
 30
0.0
 10
7.6703795909
 20
5.4380318323
 30
0.0
 10
7.6684383055
 20
5.4382277424
 30
0.0
 10
7.6659332902
 20
5.4388621385
 30
0.0
 10
7.6634988029
 20
5.4397452028
 30
0.0
 10
7.660634334
 20
5.4412979717
 30
0.0
 10
7.6576290237
 20
5.4438035155
 30
0.0
 10
7.6551602005
 20
5.4468523393
 30
0.0
 10
7.6533263321
 20
5.4503330168
 30
0.0
 10
7.6522006125
 20
5.4541070926
 30
0.0
 10
7.6519448189
 20
5.4567261874
 30
0.0
 10
7.6519448189
 20
5.4580318323
 30
0.0
  0
SPLINE
  5
2D1
100
AcDbEntity
  8
ALL_ASSEMBLY_MEMBERS
100
AcDbSpline
 62
7
  6
CONTINUOUS
 70
0
 71
3
 72
16
 73
12
 74
0
 42
0.0000001
 43
0.0000001
 44
0.0000000001
 40
0.0
 40
0.0
 40
0.0
 40
0.0
 40
0.1751772686
 40
0.3378426392
 40
0.4865229008
 40
0.6204280325
 40
0.7387919816
 40
0.8409870773
 40
0.8861140072
 40
0.9274482316
 40
1.0
 40
1.0
 40
1.0
 40
1.0
 10
7.6635065359
 20
5.4290776601
 30
0.0
 10
7.6637958512
 20
5.429752529
 30
0.0
 10
7.6644089792
 20
5.4310312414
 30
0.0
 10
7.66543984
 20
5.4327932379
 30
0.0
 10
7.6665115251
 20
5.4343238945
 30
0.0
 10
7.6675976146
 20
5.4356099754
 30
0.0
 10
7.6686717363
 20
5.4366406879
 30
0.0
 10
7.6695714755
 20
5.437305091
 30
0.0
 10
7.670268183
 20
5.4376826833
 30
0.0
 10
7.670885196
 20
5.437934999
 30
0.0
 10
7.6713633708
 20
5.4380318533
 30
0.0
 10
7.6716674772
 20
5.4380318323
 30
0.0
  0
SPLINE
  5
2D2
100
AcDbEntity
  8
ALL_ASSEMBLY_MEMBERS
100
AcDbSpline
 62
7
  6
CONTINUOUS
 70
0
 71
3
 72
19
 73
15
 74
0
 42
0.0000001
 43
0.0000001
 44
0.0000000001
 40
0.0
 40
0.0
 40
0.0
 40
0.0
 40
0.1964086722
 40
0.3769716525
 40
0.538744722
 40
0.6792662514
 40
0.740861487
 40
0.7963324754
 40
0.8454673308
 40
0.8881581429
 40
0.9244396926
 40
0.954561601
 40
0.979241421
 40
1.0
 40
1.0
 40
1.0
 40
1.0
 10
7.6445361742
 20
5.4403920426
 30
0.0
 10
7.6447874039
 20
5.4416534657
 30
0.0
 10
7.6453179088
 20
5.4440652813
 30
0.0
 10
7.6462244289
 20
5.4474761016
 30
0.0
 10
7.6471842759
 20
5.4504902709
 30
0.0
 10
7.6480363473
 20
5.4527178324
 30
0.0
 10
7.6487307117
 20
5.454255628
 30
0.0
 10
7.6492235074
 20
5.4552265641
 30
0.0
 10
7.6497078329
 20
5.4560614725
 30
0.0
 10
7.6501805021
 20
5.4567556949
 30
0.0
 10
7.6506385343
 20
5.4573059113
 30
0.0
 10
7.6510814945
 20
5.457709385
 30
0.0
 10
7.6515106675
 20
5.4579648763
 30
0.0
 10
7.6518088797
 20
5.4580318623
 30
0.0
 10
7.6519448189
 20
5.4580318323
 30
0.0
  0
SPLINE
  5
2D3
100
AcDbEntity
  8
ALL_ASSEMBLY_MEMBERS
100
AcDbSpline
 62
7
  6
CONTINUOUS
 70
0
 71
3
 72
16
 73
12
 74
0
 42
0.0000001
 43
0.0000001
 44
0.0000000001
 40
0.0
 40
0.0
 40
0.0
 40
0.0
 40
0.1240232759
 40
0.1862879433
 40
0.2485586884
 40
0.3730369542
 40
0.4978412943
 40
0.6229851694
 40
0.7484327309
 40
0.8742665863
 40
1.0
 40
1.0
 40
1.0
 40
1.0
 10
7.2081850072
 20
5.4380318323
 30
0.0
 10
7.2094728937
 20
5.4380318323
 30
0.0
 10
7.2114141791
 20
5.4382277424
 30
0.0
 10
7.2139191945
 20
5.4388621385
 30
0.0
 10
7.2163536819
 20
5.4397452028
 30
0.0
 10
7.2192181508
 20
5.4412979718
 30
0.0
 10
7.2222234611
 20
5.4438035156
 30
0.0
 10
7.2246922843
 20
5.4468523393
 30
0.0
 10
7.2265261526
 20
5.4503330168
 30
0.0
 10
7.2276518721
 20
5.4541070926
 30
0.0
 10
7.2279076656
 20
5.4567261874
 30
0.0
 10
7.2279076655
 20
5.4580318323
 30
0.0
  0
SPLINE
  5
2D4
100
AcDbEntity
  8
ALL_ASSEMBLY_MEMBERS
100
AcDbSpline
 62
7
  6
CONTINUOUS
 70
0
 71
3
 72
24
 73
20
 74
0
 42
0.0000001
 43
0.0000001
 44
0.0000000001
 40
0.0
 40
0.0
 40
0.0
 40
0.0
 40
0.0077982507
 40
0.0166939609
 40
0.027141784
 40
0.0394035913
 40
0.053607406
 40
0.0698016631
 40
0.0879945455
 40
0.1081678686
 40
0.1542530295
 40
0.2075815826
 40
0.2675778613
 40
0.3336137824
 40
0.4050424963
 40
0.4811956662
 40
0.644985981
 40
0.8198175735
 40
1.0
 40
1.0
 40
1.0
 40
1.0
 10
7.2279076655
 20
5.4580318323
 30
0.0
 10
7.2280172051
 20
5.4580318362
 30
0.0
 10
7.2282524277
 20
5.4579896714
 30
0.0
 10
7.2285980234
 20
5.4578214229
 30
0.0
 10
7.2289535241
 20
5.457552129
 30
0.0
 10
7.2293196039
 20
5.4571832335
 30
0.0
 10
7.2296963516
 20
5.4567162532
 30
0.0
 10
7.2300826308
 20
5.456152898
 30
0.0
 10
7.2304769151
 20
5.4554952627
 30
0.0
 10
7.2310359555
 20
5.4544485576
 30
0.0
 10
7.2317329798
 20
5.4529184459
 30
0.0
 10
7.2325391362
 20
5.450828439
 30
0.0
 10
7.2333313346
 20
5.4484358859
 30
0.0
 10
7.2340934761
 20
5.4457682595
 30
0.0
 10
7.2348092704
 20
5.442853575
 30
0.0
 10
7.235704948
 20
5.4385717876
 30
0.0
 10
7.2366078335
 20
5.4328113609
 30
0.0
 10
7.237283906
 20
5.4255510192
 30
0.0
 10
7.2374392438
 20
5.4205627986
 30
0.0
 10
7.2374389742
 20
5.4180318323
 30
0.0
  0
SPLINE
  5
2D5
100
AcDbEntity
  8
ALL_ASSEMBLY_MEMBERS
100
AcDbSpline
 62
7
  6
CONTINUOUS
 70
0
 71
3
 72
11
 73
7
 74
0
 42
0.0000001
 43
0.0000001
 44
0.0000000001
 40
0.0
 40
0.0
 40
0.0
 40
0.0
 40
0.280578339
 40
0.5425225156
 40
0.7826939237
 40
1.0
 40
1.0
 40
1.0
 40
1.0
 10
7.6386265528
 20
5.4270008476
 30
0.0
 10
7.6393176041
 20
5.4281865629
 30
0.0
 10
7.640547518
 20
5.4305417981
 30
0.0
 10
7.6421033753
 20
5.4340412299
 30
0.0
 10
7.6433982843
 20
5.4373139138
 30
0.0
 10
7.6441755618
 20
5.4394122657
 30
0.0
 10
7.644544006
 20
5.4404092768
 30
0.0
  0
SPLINE
  5
2D6
100
AcDbEntity
  8
ALL_ASSEMBLY_MEMBERS
100
AcDbSpline
 62
7
  6
CONTINUOUS
 70
0
 71
3
 72
15
 73
11
 74
0
 42
0.0000001
 43
0.0000001
 44
0.0000000001
 40
0.0
 40
0.0
 40
0.0
 40
0.0
 40
0.0946917153
 40
0.2004654657
 40
0.3164755975
 40
0.4417240699
 40
0.5748633309
 40
0.7141536434
 40
0.8570320459
 40
1.0
 40
1.0
 40
1.0
 40
1.0
 10
7.644544006
 20
5.4404092768
 30
0.0
 10
7.6448356004
 20
5.4397496343
 30
0.0
 10
7.6456134326
 20
5.4384223076
 30
0.0
 10
7.6471804313
 20
5.4365781174
 30
0.0
 10
7.6491857555
 20
5.4348423783
 30
0.0
 10
7.6515688015
 20
5.4332638552
 30
0.0
 10
7.654272586
 20
5.4318867656
 30
0.0
 10
7.6572103318
 20
5.4307058197
 30
0.0
 10
7.6602958623
 20
5.4297143491
 30
0.0
 10
7.6624272984
 20
5.4292448876
 30
0.0
 10
7.6635033356
 20
5.4290779259
 30
0.0
  0
SPLINE
  5
2D7
100
AcDbEntity
  8
ALL_ASSEMBLY_MEMBERS
100
AcDbSpline
 62
7
  6
CONTINUOUS
 70
0
 71
3
 72
12
 73
8
 74
0
 42
0.0000001
 43
0.0000001
 44
0.0000000001
 40
0.0
 40
0.0
 40
0.0
 40
0.0
 40
0.2332525184
 40
0.4820607175
 40
0.6100857883
 40
0.7395042505
 40
1.0
 40
1.0
 40
1.0
 40
1.0
 10
7.6635065359
 20
5.4290776601
 30
0.0
 10
7.663090456
 20
5.4281273113
 30
0.0
 10
7.6621869135
 20
5.4261813144
 30
0.0
 10
7.6608415148
 20
5.4238194956
 30
0.0
 10
7.6595759409
 20
5.4219557536
 30
0.0
 10
7.6581718351
 20
5.4201282338
 30
0.0
 10
7.6569989844
 20
5.4188444863
 30
0.0
 10
7.6561731664
 20
5.4180318323
 30
0.0
  0
SPLINE
  5
2D8
100
AcDbEntity
  8
ALL_ASSEMBLY_MEMBERS
100
AcDbSpline
 62
7
  6
CONTINUOUS
 70
0
 71
3
 72
9
 73
5
 74
0
 42
0.0000001
 43
0.0000001
 44
0.0000000001
 40
0.0
 40
0.0
 40
0.0
 40
0.0
 40
0.2513199691
 40
1.0
 40
1.0
 40
1.0
 40
1.0
 10
7.6386265269
 20
5.4270008608
 30
0.0
 10
7.6381960977
 20
5.4262605176
 30
0.0
 10
7.636372082
 20
5.4233797426
 30
0.0
 10
7.6341526707
 20
5.4207582999
 30
0.0
 10
7.6323487302
 20
5.4189543939
 30
0.0
  0
SPLINE
  5
2D9
100
AcDbEntity
  8
ALL_ASSEMBLY_MEMBERS
100
AcDbSpline
 62
7
  6
CONTINUOUS
 70
0
 71
3
 72
9
 73
5
 74
0
 42
0.0000001
 43
0.0000001
 44
0.0000000001
 40
0.0
 40
0.0
 40
0.0
 40
0.0
 40
0.4999948241
 40
1.0
 40
1.0
 40
1.0
 40
1.0
 10
7.6561731664
 20
5.4180318323
 30
0.0
 10
7.6549267055
 20
5.4155924948
 30
0.0
 10
7.6520218977
 20
5.4109150842
 30
0.0
 10
7.6484280419
 20
5.4067491867
 30
0.0
 10
7.6464909027
 20
5.4048122215
 30
0.0
  0
SPLINE
  5
2DA
100
AcDbEntity
  8
ALL_ASSEMBLY_MEMBERS
100
AcDbSpline
 62
7
  6
CONTINUOUS
 70
0
 71
3
 72
9
 73
5
 74
0
 42
0.0000001
 43
0.0000001
 44
0.0000000001
 40
0.0
 40
0.0
 40
0.0
 40
0.0
 40
0.5000050999
 40
1.0
 40
1.0
 40
1.0
 40
1.0
 10
3.295861451
 20
5.4048123523
 30
0.0
 10
3.2939243333
 20
5.4067492983
 30
0.0
 10
3.2903305146
 20
5.4109151525
 30
0.0
 10
3.2874257397
 20
5.4155925173
 30
0.0
 10
3.2861792962
 20
5.4180318323
 30
0.0
  0
SPLINE
  5
2DB
100
AcDbEntity
  8
ALL_ASSEMBLY_MEMBERS
100
AcDbSpline
 62
7
  6
CONTINUOUS
 70
0
 71
3
 72
23
 73
19
 74
0
 42
0.0000001
 43
0.0000001
 44
0.0000000001
 40
0.0
 40
0.0
 40
0.0
 40
0.0
 40
0.06250338
 40
0.1250341103
 40
0.1875147023
 40
0.2499914663
 40
0.312455893
 40
0.3749167871
 40
0.4373813329
 40
0.4998548504
 40
0.5623395585
 40
0.6248358162
 40
0.687346534
 40
0.7498654194
 40
0.8123831019
 40
0.8749212507
 40
0.9374906551
 40
1.0
 40
1.0
 40
1.0
 40
1.0
 10
3.7237495352
 20
5.0711737708
 30
0.0
 10
3.7237504771
 20
5.0691521983
 30
0.0
 10
3.7234505831
 20
5.0651011675
 30
0.0
 10
3.7220771648
 20
5.0591693915
 30
0.0
 10
3.7197760282
 20
5.0535297715
 30
0.0
 10
3.7165833946
 20
5.0483440226
 30
0.0
 10
3.7125720939
 20
5.0437619713
 30
0.0
 10
3.7078514654
 20
5.0399155116
 30
0.0
 10
3.7025582775
 20
5.0369061735
 30
0.0
 10
3.6968462506
 20
5.0347991138
 30
0.0
 10
3.6908736887
 20
5.0336216849
 30
0.0
 10
3.6847923827
 20
5.0333661284
 30
0.0
 10
3.6787393911
 20
5.0339966891
 30
0.0
 10
3.6728332324
 20
5.0354586163
 30
0.0
 10
3.6671705197
 20
5.0376814043
 30
0.0
 10
3.6618286503
 20
5.0405925837
 30
0.0
 10
3.6568715333
 20
5.0441149854
 30
0.0
 10
3.6538519093
 20
5.046821784
 30
0.0
 10
3.6524223602
 20
5.0482514431
 30
0.0
  0
SPLINE
  5
2DC
100
AcDbEntity
  8
ALL_ASSEMBLY_MEMBERS
100
AcDbSpline
 62
7
  6
CONTINUOUS
 70
0
 71
3
 72
16
 73
12
 74
0
 42
0.0000001
 43
0.0000001
 44
0.0000000001
 40
0.0
 40
0.0
 40
0.0
 40
0.0
 40
0.0729106882
 40
0.1143666958
 40
0.1595884767
 40
0.2618685654
 40
0.3802080496
 40
0.5141230361
 40
0.6626895466
 40
0.8248877987
 40
1.0
 40
1.0
 40
1.0
 40
1.0
 10
3.2706850072
 20
5.4380318323
 30
0.0
 10
3.2709848597
 20
5.438031837
 30
0.0
 10
3.2714560519
 20
5.4379377585
 30
0.0
 10
3.2720646151
 20
5.4376916643
 30
0.0
 10
3.2727509737
 20
5.4373237842
 30
0.0
 10
3.27363769
 20
5.4366761781
 30
0.0
 10
3.2746969114
 20
5.4356700953
 30
0.0
 10
3.275770196
 20
5.4344155509
 30
0.0
 10
3.2768304288
 20
5.432922686
 30
0.0
 10
3.2778476427
 20
5.4312001859
 30
0.0
 10
3.2784510572
 20
5.4299488694
 30
0.0
 10
3.2787367104
 20
5.429287778
 30
0.0
  0
SPLINE
  5
2DD
100
AcDbEntity
  8
ALL_ASSEMBLY_MEMBERS
100
AcDbSpline
 62
7
  6
CONTINUOUS
 70
0
 71
3
 72
16
 73
12
 74
0
 42
0.0000001
 43
0.0000001
 44
0.0000000001
 40
0.0
 40
0.0
 40
0.0
 40
0.0
 40
0.124023276
 40
0.1862879434
 40
0.2485586886
 40
0.3730369544
 40
0.4978412945
 40
0.6229851695
 40
0.748432731
 40
0.8742665863
 40
1.0
 40
1.0
 40
1.0
 40
1.0
 10
3.2706850072
 20
5.4380318323
 30
0.0
 10
3.2719728937
 20
5.4380318323
 30
0.0
 10
3.2739141791
 20
5.4382277424
 30
0.0
 10
3.2764191945
 20
5.4388621385
 30
0.0
 10
3.2788536819
 20
5.4397452028
 30
0.0
 10
3.2817181508
 20
5.4412979718
 30
0.0
 10
3.2847234611
 20
5.4438035156
 30
0.0
 10
3.2871922843
 20
5.4468523393
 30
0.0
 10
3.2890261526
 20
5.4503330168
 30
0.0
 10
3.2901518721
 20
5.4541070926
 30
0.0
 10
3.2904076656
 20
5.4567261874
 30
0.0
 10
3.2904076655
 20
5.4580318323
 30
0.0
  0
SPLINE
  5
2DE
100
AcDbEntity
  8
ALL_ASSEMBLY_MEMBERS
100
AcDbSpline
 62
7
  6
CONTINUOUS
 70
0
 71
3
 72
19
 73
15
 74
0
 42
0.0000001
 43
0.0000001
 44
0.0000000001
 40
0.0
 40
0.0
 40
0.0
 40
0.0
 40
0.0207515488
 40
0.045415724
 40
0.075511991
 40
0.1117551219
 40
0.1544026029
 40
0.203498226
 40
0.2589231471
 40
0.3204544889
 40
0.4607781309
 40
0.6224814895
 40
0.8033491403
 40
1.0
 40
1.0
 40
1.0
 40
1.0
 10
3.2904076655
 20
5.4580318323
 30
0.0
 10
3.2905434487
 20
5.4580318365
 30
0.0
 10
3.2908412634
 20
5.457965016
 30
0.0
 10
3.2912699554
 20
5.4577101352
 30
0.0
 10
3.2917123961
 20
5.4573075905
 30
0.0
 10
3.2921699407
 20
5.4567586375
 30
0.0
 10
3.2926420663
 20
5.4560658179
 30
0.0
 10
3.2931256991
 20
5.4552323819
 30
0.0
 10
3.2936177989
 20
5.4542631781
 30
0.0
 10
3.2943112776
 20
5.4527287044
 30
0.0
 10
3.2951641979
 20
5.4505058829
 30
0.0
 10
3.296124095
 20
5.4474940469
 30
0.0
 10
3.2970245716
 20
5.4440812903
 30
0.0
 10
3.2975527014
 20
5.4416674136
 30
0.0
 10
3.2978039613
 20
5.4404054426
 30
0.0
  0
SPLINE
  5
2DF
100
AcDbEntity
  8
ALL_ASSEMBLY_MEMBERS
100
AcDbSpline
 62
7
  6
CONTINUOUS
 70
0
 71
3
 72
20
 73
16
 74
0
 42
0.0000001
 43
0.0000001
 44
0.0000000001
 40
0.0
 40
0.0
 40
0.0
 40
0.0
 40
0.0628244955
 40
0.1261202705
 40
0.1897656911
 40
0.2536916884
 40
0.3177154585
 40
0.3816459265
 40
0.4453120018
 40
0.5085986594
 40
0.5714542031
 40
0.633867783
 40
0.6958600754
 40
0.7574851594
 40
1.0
 40
1.0
 40
1.0
 40
1.0
 10
3.7049130511
 20
5.0711652699
 30
0.0
 10
3.7050004075
 20
5.0700600384
 30
0.0
 10
3.705007793
 20
5.0678233715
 30
0.0
 10
3.7044512406
 20
5.0645035035
 30
0.0
 10
3.7032732652
 20
5.06132433
 30
0.0
 10
3.7014649946
 20
5.0584376444
 30
0.0
 10
3.6990787923
 20
5.0559978018
 30
0.0
 10
3.6962316956
 20
5.0541265278
 30
0.0
 10
3.6930767864
 20
5.0528836648
 30
0.0
 10
3.6897662186
 20
5.0522647071
 30
0.0
 10
3.6864244702
 20
5.0522201185
 30
0.0
 10
3.683140694
 20
5.0526794069
 30
0.0
 10
3.6799706363
 20
5.0535677895
 30
0.0
 10
3.67399051
 20
5.0560380403
 30
0.0
 10
3.6695906474
 20
5.0593672986
 30
0.0
 10
3.6665644713
 20
5.0623935542
 30
0.0
  0
SPLINE
  5
2E0
100
AcDbEntity
  8
ALL_ASSEMBLY_MEMBERS
100
AcDbSpline
 62
7
  6
CONTINUOUS
 70
0
 71
3
 72
15
 73
11
 74
0
 42
0.0000001
 43
0.0000001
 44
0.0000000001
 40
0.0
 40
0.0
 40
0.0
 40
0.0
 40
0.1429411537
 40
0.2856162313
 40
0.425105685
 40
0.5588289268
 40
0.6841865161
 40
0.7998170766
 40
0.9053037719
 40
1.0
 40
1.0
 40
1.0
 40
1.0
 10
3.2788472602
 20
5.4290630297
 30
0.0
 10
3.2799241543
 20
5.4292290333
 30
0.0
 10
3.2820621906
 20
5.4296582542
 30
0.0
 10
3.2851703392
 20
5.4305939272
 30
0.0
 10
3.2880975584
 20
5.4318260531
 30
0.0
 10
3.2907756805
 20
5.4332695289
 30
0.0
 10
3.2931586507
 20
5.4348529001
 30
0.0
 10
3.2951756172
 20
5.4365719234
 30
0.0
 10
3.2967461293
 20
5.4384100604
 30
0.0
 10
3.2975222576
 20
5.4397377281
 30
0.0
 10
3.2978126538
 20
5.4403985911
 30
0.0
  0
SPLINE
  5
2E1
100
AcDbEntity
  8
ALL_ASSEMBLY_MEMBERS
100
AcDbSpline
 62
7
  6
CONTINUOUS
 70
0
 71
3
 72
16
 73
12
 74
0
 42
0.0000001
 43
0.0000001
 44
0.0000000001
 40
0.0
 40
0.0
 40
0.0
 40
0.0
 40
0.1240232733
 40
0.1862879398
 40
0.2485586842
 40
0.3730369492
 40
0.4978412896
 40
0.6229851656
 40
0.7484327284
 40
0.8742665852
 40
1.0
 40
1.0
 40
1.0
 40
1.0
 10
3.7341674772
 20
5.4380318323
 30
0.0
 10
3.7328795908
 20
5.4380318323
 30
0.0
 10
3.7309383055
 20
5.4382277424
 30
0.0
 10
3.7284332901
 20
5.4388621385
 30
0.0
 10
3.7259988028
 20
5.4397452028
 30
0.0
 10
3.7231343339
 20
5.4412979718
 30
0.0
 10
3.7201290236
 20
5.4438035156
 30
0.0
 10
3.7176602004
 20
5.4468523393
 30
0.0
 10
3.7158263321
 20
5.4503330168
 30
0.0
 10
3.7147006125
 20
5.4541070926
 30
0.0
 10
3.7144448189
 20
5.4567261874
 30
0.0
 10
3.7144448189
 20
5.4580318323
 30
0.0
  0
SPLINE
  5
2E2
100
AcDbEntity
  8
ALL_ASSEMBLY_MEMBERS
100
AcDbSpline
 62
7
  6
CONTINUOUS
 70
0
 71
3
 72
11
 73
7
 74
0
 42
0.0000001
 43
0.0000001
 44
0.0000000001
 40
0.0
 40
0.0
 40
0.0
 40
0.0
 40
0.2173477129
 40
0.4575371496
 40
0.7194577629
 40
1.0
 40
1.0
 40
1.0
 40
1.0
 10
3.2978126538
 20
5.4403985911
 30
0.0
 10
3.2981808859
 20
5.4394021655
 30
0.0
 10
3.2989576766
 20
5.4373051774
 30
0.0
 10
3.3002516045
 20
5.4340348587
 30
0.0
 10
3.3018064162
 20
5.4305384279
 30
0.0
 10
3.3030356333
 20
5.4281855021
 30
0.0
 10
3.3037260196
 20
5.4270008382
 30
0.0
  0
SPLINE
  5
2E3
100
AcDbEntity
  8
ALL_ASSEMBLY_MEMBERS
100
AcDbSpline
 62
7
  6
CONTINUOUS
 70
0
 71
3
 72
19
 73
15
 74
0
 42
0.0000001
 43
0.0000001
 44
0.0000000001
 40
0.0
 40
0.0
 40
0.0
 40
0.0
 40
0.0868906256
 40
0.1730886579
 40
0.3391494788
 40
0.4930867668
 40
0.6318742161
 40
0.7532851217
 40
0.8069319146
 40
0.8555612661
 40
0.8990277836
 40
0.9373351708
 40
0.9707538558
 40
1.0
 40
1.0
 40
1.0
 40
1.0
 10
3.7237495352
 20
5.4180318323
 30
0.0
 10
3.7237493845
 20
5.4187245335
 30
0.0
 10
3.7238021483
 20
5.4201049797
 30
0.0
 10
3.724100523
 20
5.4227940528
 30
0.0
 10
3.7248040115
 20
5.4259670885
 30
0.0
 10
3.7260747779
 20
5.4294078144
 30
0.0
 10
3.7276098857
 20
5.4323402924
 30
0.0
 10
3.7290490811
 20
5.4343975448
 30
0.0
 10
3.7302309135
 20
5.4357351467
 30
0.0
 10
3.7310715842
 20
5.4365394811
 30
0.0
 10
3.731891453
 20
5.4371819418
 30
0.0
 10
3.7326818109
 20
5.4376557803
 30
0.0
 10
3.7334340758
 20
5.4379537678
 30
0.0
 10
3.7339343239
 20
5.438031849
 30
0.0
 10
3.7341674772
 20
5.4380318323
 30
0.0
  0
SPLINE
  5
2E4
100
AcDbEntity
  8
ALL_ASSEMBLY_MEMBERS
100
AcDbSpline
 62
7
  6
CONTINUOUS
 70
0
 71
3
 72
24
 73
20
 74
0
 42
0.0000001
 43
0.0000001
 44
0.0000000001
 40
0.0
 40
0.0
 40
0.0
 40
0.0
 40
0.1801584393
 40
0.3549237554
 40
0.5186970554
 40
0.5948524457
 40
0.6662847479
 40
0.7323291117
 40
0.7923386191
 40
0.8456845984
 40
0.8917883077
 40
0.9119675891
 40
0.9301681441
 40
0.946371461
 40
0.9605829611
 40
0.9728492524
 40
0.9833012257
 40
0.9922001623
 40
1.0
 40
1.0
 40
1.0
 40
1.0
 10
3.7049135102
 20
5.4180318323
 30
0.0
 10
3.7049130915
 20
5.4205624612
 30
0.0
 10
3.7050682271
 20
5.4255494249
 30
0.0
 10
3.7057442849
 20
5.4328082572
 30
0.0
 10
3.7066469953
 20
5.4385675419
 30
0.0
 10
3.7075421459
 20
5.4428492775
 30
0.0
 10
3.7082578902
 20
5.445764183
 30
0.0
 10
3.7090200552
 20
5.4484321687
 30
0.0
 10
3.7098122196
 20
5.450825312
 30
0.0
 10
3.7106185338
 20
5.4529159973
 30
0.0
 10
3.7113156269
 20
5.4544467249
 30
0.0
 10
3.7118748026
 20
5.4554938703
 30
0.0
 10
3.7122691918
 20
5.4561518141
 30
0.0
 10
3.712655594
 20
5.4567154995
 30
0.0
 10
3.7130324573
 20
5.4571827726
 30
0.0
 10
3.7133986948
 20
5.4575518359
 30
0.0
 10
3.7137542914
 20
5.4578212741
 30
0.0
 10
3.7140999609
 20
5.4579896572
 30
0.0
 10
3.7143352571
 20
5.4580318575
 30
0.0
 10
3.7144448189
 20
5.4580318323
 30
0.0
  0
SPLINE
  5
2E5
100
AcDbEntity
  8
ALL_ASSEMBLY_MEMBERS
100
AcDbSpline
 62
7
  6
CONTINUOUS
 70
0
 71
3
 72
13
 73
9
 74
0
 42
0.0000001
 43
0.0000001
 44
0.0000000001
 40
0.0
 40
0.0
 40
0.0
 40
0.0
 40
0.1306279998
 40
0.261070924
 40
0.3906894591
 40
0.518853921
 40
0.7674401846
 40
1.0
 40
1.0
 40
1.0
 40
1.0
 10
3.2861792962
 20
5.4180318323
 30
0.0
 10
3.2857577007
 20
5.4184465223
 30
0.0
 10
3.2849376132
 20
5.4192985731
 30
0.0
 10
3.2837835001
 20
5.4206400154
 30
0.0
 10
3.2827166455
 20
5.422038102
 30
0.0
 10
3.2814376434
 20
5.4239418702
 30
0.0
 10
3.2800792017
 20
5.4263476013
 30
0.0
 10
3.2791589079
 20
5.4283233235
 30
0.0
 10
3.2787367104
 20
5.429287778
 30
0.0
  0
SPLINE
  5
2E6
100
AcDbEntity
  8
ALL_ASSEMBLY_MEMBERS
100
AcDbSpline
 62
7
  6
CONTINUOUS
 70
0
 71
3
 72
9
 73
5
 74
0
 42
0.0000001
 43
0.0000001
 44
0.0000000001
 40
0.0
 40
0.0
 40
0.0
 40
0.0
 40
0.2491881181
 40
1.0
 40
1.0
 40
1.0
 40
1.0
 10
3.310003622
 20
5.4189545232
 30
0.0
 10
3.309403318
 20
5.4195548161
 30
0.0
 10
3.3070620196
 20
5.4220292909
 30
0.0
 10
3.3050116245
 20
5.4247894733
 30
0.0
 10
3.3037259847
 20
5.4270008203
 30
0.0
  0
ENDSEC
  0
SECTION
  2
OBJECTS
  0
DICTIONARY
  5
C
100
AcDbDictionary
280
0
281
1
  3
ACAD_GROUP
350
D
  3
ACAD_MLINESTYLE
350
17
  3
ACAD_LAYOUT
350
1A
  3
ACAD_PLOTSETTINGS
350
19
  3
ACAD_PLOTSTYLENAME
350
E
  0
DICTIONARY
  5
D
102
{ACAD_REACTORS
330
C
102
}
100
AcDbDictionary
280
0
281
1
  0
ACDBDICTIONARYWDFLT
  5
E
102
{ACAD_REACTORS
330
C
102
}
100
AcDbDictionary
281
1
  3
Normal
350
F
100
AcDbDictionaryWithDefault
340
F
  0
DICTIONARY
  5
17
102
{ACAD_REACTORS
330
C
102
}
100
AcDbDictionary
280
0
281
1
  3
Standard
350
18
  0
DICTIONARY
  5
19
102
{ACAD_REACTORS
330
C
102
}
100
AcDbDictionary
281
1
  0
DICTIONARY
  5
1A
102
{ACAD_REACTORS
330
C
102
}
100
AcDbDictionary
281
1
  3
Model
350
2E7
  3
Layout1
350
2E8
  0
ACDBPLACEHOLDER
  5
F
102
{ACAD_REACTORS
330
E
102
}
  0
MLINESTYLE
  5
18
102
{ACAD_REACTORS
330
17
102
}
100
AcDbMlineStyle
  2
STANDARD
 70
0
  3

 62
256
 51
90.0
 52
90.0
 71
2
 49
0.5
 62
256
  6
BYLAYER
 49
-0.5
 62
256
  6
BYLAYER
  0
LAYOUT
  5
2E7
102
{ACAD_REACTORS
330
1A
102
}
100
AcDbPlotSettings
  1

  2
none_device
  4
ANSI_A_(11.00_x_8.50_Inches)
  6

 40
0.0
 41
0.0
 42
0.0
 43
0.0
 44
279.4
 45
215.9
 46
0.0
 47
0.0
 48
0.0
 49
0.0
140
0.0
141
0.0
142
1.0
143
1.0
 70
1024
 72
0
 73
0
 74
0
  7

 75
0
147
1.0
148
0.0
149
0.0
100
AcDbLayout
  1
Model
 70
0
 71
0
 10
0.0
 20
0.0
 11
11.0
 21
8.5
 12
0.0
 22
0.0
 32
0.0
 14
0.0
 24
0.0
 34
0.0
 15
0.0
 25
0.0
 35
0.0
146
0.0
 13
0.0
 23
0.0
 33
0.0
 16
1.0
 26
0.0
 36
0.0
 17
0.0
 27
1.0
 37
0.0
 76
0
330
21D
345
0
346
0
  0
LAYOUT
  5
2E8
102
{ACAD_REACTORS
330
1A
102
}
100
AcDbPlotSettings
  1

  2
none_device
  4
ANSI_A_(11.00_x_8.50_Inches)
  6

 40
0.0
 41
0.0
 42
0.0
 43
0.0
 44
279.4
 45
215.9
 46
0.0
 47
0.0
 48
0.0
 49
0.0
140
0.0
141
0.0
142
1.0
143
1.0
 70
0
 72
0
 73
0
 74
0
  7

 75
0
147
1.0
148
0.0
149
0.0
100
AcDbLayout
  1
Layout1
 70
0
 71
1
 10
0.0
 20
0.0
 11
11.0
 21
8.5
 12
0.0
 22
0.0
 32
0.0
 14
0.0
 24
0.0
 34
0.0
 15
0.0
 25
0.0
 35
0.0
146
0.0
 13
0.0
 23
0.0
 33
0.0
 16
1.0
 26
0.0
 36
0.0
 17
0.0
 27
1.0
 37
0.0
 76
0
330
21E
345
0
346
0
  0
ENDSEC
  0
EOF
