999
DXF file: E:\BT Custom\CADOUTPUT\_TOP.dxf
999
Pro/ENGINEER 2018400 by Parametric Technology Corporation
  0
SECTION
  2
HEADER
  9
$ACADVER
  1
AC1018
  9
$DWGCODEPAGE
  3
ANSI_1252
  9
$EXTMAX
 10
22.0
 20
17.0
 30
0.0
  9
$EXTMIN
 10
0.0
 20
0.0
 30
0.0
  9
$LIMMIN
 10
0.0
 20
0.0
  9
$LIMMAX
 10
22.0
 20
17.0
  9
$VIEWCTR
 10
11.0
 20
8.5
  9
$VIEWSIZE
 40
17.0
  9
$CLAYER
  8
0
  9
$LTSCALE
 40
1.21
  9
$CELTYPE
  6
BYLAYER
  9
$DIMSCALE
 40
1.0
  9
$DIMASZ
 40
0.1
  9
$DIMEXO
 40
0.0625
  9
$DIMDLI
 40
0.836
  9
$DIMEXE
 40
0.125
  9
$DIMCEN
 40
0.198
  9
$DIMLFAC
 40
1.0
  9
$DIMBLK
  1
_FILLED
  9
$DIMALT
 70
1
  9
$DIMALTD
 70
2
  9
$DIMALTTD
 70
2
  9
$DIMALTF
 40
25.4
  9
$DIMTXT
 40
0.08
  9
$DIMTOL
 70
1
  9
$DIMLIM
 70
0
  9
$DIMTFAC
 40
1.0
  9
$DIMTP
 40
0.001
  9
$DIMTM
 40
0.001
  9
$DIMGAP
 40
0.09
  9
$DIMDSEP
 70
46
  9
$AUNITS
 70
0
  9
$PDMODE
 70
3
  9
$PDSIZE
 40
0.06
  9
$HANDSEED
  5
329
  9
$TILEMODE
 70
1
  9
$MEASUREMENT
 70
0
  9
$INSUNITS
 70
1
  0
ENDSEC
  0
SECTION
  2
CLASSES
  0
CLASS
  1
ACDBDICTIONARYWDFLT
  2
AcDbDictionaryWithDefault
  3
AutoCAD 2000
 90
0
 91
1
280
0
281
0
  0
CLASS
  1
ACDBPLACEHOLDER
  2
AcDbPlaceHolder
  3
AutoCAD 2000
 90
0
 91
1
280
0
281
0
  0
CLASS
  1
LAYOUT
  2
AcDbLayout
  3
AutoCAD 2000
 90
0
 91
0
280
0
281
0
  0
ENDSEC
  0
SECTION
  2
TABLES
  0
TABLE
  2
VPORT
  5
8
100
AcDbSymbolTable
 70
2
  0
VPORT
  5
1F4
100
AcDbSymbolTableRecord
100
AcDbViewportTableRecord
  2
*ACTIVE
 70
0
 10
0.0
 20
0.0
 11
1.0
 21
1.0
 12
11.0
 22
8.5
 13
0.0
 23
0.0
 14
1.0
 24
1.0
 15
0.0
 25
0.0
 16
0.0
 26
0.0
 36
1.0
 17
0.0
 27
0.0
 37
0.0
 40
17.0
 41
1.2941176471
 42
50.0
 43
0.0
 44
0.0
 50
0.0
 51
0.0
 71
0
 72
100
 73
1
 74
1
 75
0
 76
0
 77
0
 78
0
  0
ENDTAB
  0
TABLE
  2
LTYPE
  5
5
100
AcDbSymbolTable
 70
6
  0
LTYPE
  5
14
100
AcDbSymbolTableRecord
100
AcDbLinetypeTableRecord
  2
BYBLOCK
 70
0
  3

 72
65
 73
0
 40
0.0
  0
LTYPE
  5
15
100
AcDbSymbolTableRecord
100
AcDbLinetypeTableRecord
  2
BYLAYER
 70
0
  3

 72
65
 73
0
 40
0.0
  0
LTYPE
  5
16
100
AcDbSymbolTableRecord
100
AcDbLinetypeTableRecord
  2
CONTINUOUS
 70
64
  3
Solid line
 72
65
 73
0
 40
0.0
  0
LTYPE
  5
1F5
100
AcDbSymbolTableRecord
100
AcDbLinetypeTableRecord
  2
CENTER
 70
64
  3
____ _ ____ _ ____ _ ____ _ ____ _ ____ _ ____
 72
65
 73
4
 40
0.6
 49
0.375
 74
0
 49
-0.075
 74
0
 49
0.075
 74
0
 49
-0.075
 74
0
  0
LTYPE
  5
1F6
100
AcDbSymbolTableRecord
100
AcDbLinetypeTableRecord
  2
HIDDEN
 70
64
  3
- - - - - - - - - - - - - - - - - - - -
 72
65
 73
2
 40
0.2
 49
0.1
 74
0
 49
-0.1
 74
0
  0
LTYPE
  5
1F7
100
AcDbSymbolTableRecord
100
AcDbLinetypeTableRecord
  2
PHANTOM
 70
64
  3
_____ _ _ _____ _ _ _____ _ _ _____
 72
65
 73
6
 40
0.8
 49
0.45
 74
0
 49
-0.05
 74
0
 49
0.1
 74
0
 49
-0.05
 74
0
 49
0.1
 74
0
 49
-0.05
 74
0
  0
LTYPE
  5
1F8
100
AcDbSymbolTableRecord
100
AcDbLinetypeTableRecord
  2
DOT
 70
64
  3
. . . . . . . . . . . . . . . . . . . .
 72
65
 73
2
 40
0.2
 49
0.1
 74
0
 49
-0.1
 74
0
  0
LTYPE
  5
1F9
100
AcDbSymbolTableRecord
100
AcDbLinetypeTableRecord
  2
DASHED
 70
64
  3
- - - - - - - - - - - - - - - - - - - -
 72
65
 73
2
 40
0.2
 49
0.1
 74
0
 49
-0.1
 74
0
  0
ENDTAB
  0
TABLE
  2
LAYER
  5
2
100
AcDbSymbolTable
 70
36
  0
LAYER
  5
10
100
AcDbSymbolTableRecord
100
AcDbLayerTableRecord
  2
0
 70
0
 62
7
  6
CONTINUOUS
370
-3
390
F
  0
LAYER
  5
1FA
100
AcDbSymbolTableRecord
100
AcDbLayerTableRecord
  2
DEFAULT_1
 70
0
 62
7
  6
CENTER
370
-3
390
F
  0
LAYER
  5
1FB
100
AcDbSymbolTableRecord
100
AcDbLayerTableRecord
  2
DEFAULT_2
 70
0
 62
8
  6
HIDDEN
370
-3
390
F
  0
LAYER
  5
1FC
100
AcDbSymbolTableRecord
100
AcDbLayerTableRecord
  2
DEFAULT_3
 70
0
 62
7
  6
PHANTOM
370
-3
390
F
  0
LAYER
  5
1FD
100
AcDbSymbolTableRecord
100
AcDbLayerTableRecord
  2
ALL_FEATURES
 70
0
 62
7
  6
CONTINUOUS
370
-3
390
F
  0
LAYER
  5
1FE
100
AcDbSymbolTableRecord
100
AcDbLayerTableRecord
  2
AXES_FEATURES
 70
0
 62
7
  6
CONTINUOUS
370
-3
390
F
  0
LAYER
  5
1FF
100
AcDbSymbolTableRecord
100
AcDbLayerTableRecord
  2
DEFAULT_COORDINATE_SYSTEM
 70
0
 62
7
  6
CONTINUOUS
370
-3
390
F
  0
LAYER
  5
200
100
AcDbSymbolTableRecord
100
AcDbLayerTableRecord
  2
DEFAULT_DATUM_AXES
 70
0
 62
7
  6
CONTINUOUS
370
-3
390
F
  0
LAYER
  5
201
100
AcDbSymbolTableRecord
100
AcDbLayerTableRecord
  2
DEFAULT_DATUM_PLANES
 70
0
 62
7
  6
CONTINUOUS
370
-3
390
F
  0
LAYER
  5
202
100
AcDbSymbolTableRecord
100
AcDbLayerTableRecord
  2
DIMENSIONS
 70
0
 62
7
  6
CONTINUOUS
370
-3
390
F
  0
ENDTAB
  0
TABLE
  2
STYLE
  5
3
100
AcDbSymbolTable
 70
1
  0
STYLE
  5
11
100
AcDbSymbolTableRecord
100
AcDbTextStyleTableRecord
  2
STANDARD
 70
0
 40
0.0
 41
0.8
 50
0.0
 71
0
 42
0.2
  3
txt
  4

  0
STYLE
  5
203
100
AcDbSymbolTableRecord
100
AcDbTextStyleTableRecord
  2
TEXTSTYLE_1
 70
0
 40
0.0
 41
0.8
 50
0.0
 71
0
 42
0.2
  3
gdt
  4

  0
ENDTAB
  0
TABLE
  2
VIEW
  5
6
100
AcDbSymbolTable
 70
0
  0
ENDTAB
  0
TABLE
  2
UCS
  5
7
100
AcDbSymbolTable
 70
0
  0
ENDTAB
  0
TABLE
  2
APPID
  5
9
100
AcDbSymbolTable
 70
1
  0
APPID
  5
204
100
AcDbSymbolTableRecord
100
AcDbRegAppTableRecord
  2
ACAD
 70
0
  0
ENDTAB
  0
TABLE
  2
BLOCK_RECORD
  5
1
100
AcDbSymbolTable
 70
0
  0
BLOCK_RECORD
  5
205
100
AcDbSymbolTableRecord
100
AcDbBlockTableRecord
  2
*Model_Space
  0
BLOCK_RECORD
  5
206
100
AcDbSymbolTableRecord
100
AcDbBlockTableRecord
  2
*Paper_Space
  0
BLOCK_RECORD
  5
207
100
AcDbSymbolTableRecord
100
AcDbBlockTableRecord
  2
_FILLED
  0
ENDTAB
  0
TABLE
  2
DIMSTYLE
  5
A
100
AcDbSymbolTable
 70
1
100
AcDbDimStyleTable
 71
0
  0
DIMSTYLE
105
208
100
AcDbSymbolTableRecord
100
AcDbDimStyleTableRecord
  2
STANDARD
 70
0
  3

  4

 40
1.0
 41
0.1
 42
0.0625
 43
0.38
 44
0.125
 45
0.0
 46
0.0
 47
0.001
 48
0.001
140
0.08
141
0.09
142
0.0
143
25.4
144
1.0
145
0.0
146
1.0
147
0.09
 71
1.0
 72
0.0
 73
1
 74
1
 75
0
 76
0
 77
0
 78
4
 79
1
170
1
171
2
172
0
173
0
174
0
175
0
176
0
177
0
178
0
270
2
179
3
271
3
272
3
273
2
274
2
275
0
280
0
281
0
282
0
283
1
284
4
285
0
286
0
287
3
288
0
340
11
278
46
341
207
342
207
343
207
344
207
  0
ENDTAB
  0
ENDSEC
  0
SECTION
  2
BLOCKS
  0
BLOCK
  5
20
100
AcDbEntity
  8
0
100
AcDbBlockBegin
  2
*Model_Space
 70
0
 10
0.0
 20
0.0
 30
0.0
  3
*Model_Space
  1

  0
ENDBLK
  5
21
100
AcDbEntity
  8
0
100
AcDbBlockEnd
  0
BLOCK
  5
1C
100
AcDbEntity
  8
0
100
AcDbBlockBegin
  2
*Paper_Space
 70
0
 10
0.0
 20
0.0
 30
0.0
  3
*Paper_Space
  1

  0
ENDBLK
  5
1D
100
AcDbEntity
  8
0
100
AcDbBlockEnd
  0
BLOCK
  5
209
100
AcDbEntity
  8
0
100
AcDbBlockBegin
  2
_FILLED
 70
64
 10
0.0
 20
0.0
  3
_FILLED
  1

  0
SOLID
  5
20A
100
AcDbEntity
  8
0
  6
BYBLOCK
 62
0
100
AcDbTrace
 10
0.0
 20
0.0
 11
-1.0
 21
0.2
 12
-1.0
 22
-0.2
 13
-1.0
 23
-0.2
  0
ENDBLK
  5
20B
100
AcDbEntity
  8
0
  6
BYBLOCK
 62
0
100
AcDbBlockEnd
  0
ENDSEC
  0
SECTION
  2
ENTITIES
  0
LINE
  5
20C
100
AcDbEntity
  8
0
100
AcDbLine
 62
7
  6
CONTINUOUS
 10
-0.2101816617
 20
11.0853318604
 11
-0.2101816617
 21
11.2413318604
  0
LINE
  5
20D
100
AcDbEntity
  8
0
100
AcDbLine
 62
9
  6
CONTINUOUS
 10
-0.1701816617
 20
11.0453318604
 11
-0.1701816617
 21
11.2813318604
  0
LINE
  5
20E
100
AcDbEntity
  8
0
100
AcDbLine
 62
7
  6
CONTINUOUS
 10
-0.1101816617
 20
12.2233318604
 11
-0.1101816617
 21
11.2813318604
  0
LINE
  5
20F
100
AcDbEntity
  8
0
100
AcDbLine
 62
7
  6
CONTINUOUS
 10
-0.1101816617
 20
11.0453318604
 11
-0.1101816617
 21
10.1033318604
  0
LINE
  5
210
100
AcDbEntity
  8
0
100
AcDbLine
 62
9
  6
CONTINUOUS
 10
-0.0701816617
 20
11.0453318604
 11
-0.0701816617
 21
10.0633318604
  0
LINE
  5
211
100
AcDbEntity
  8
0
100
AcDbLine
 62
9
  6
CONTINUOUS
 10
-0.0701816617
 20
11.2813318604
 11
-0.0701816617
 21
12.2633318604
  0
LINE
  5
212
100
AcDbEntity
  8
0
100
AcDbLine
 62
7
  6
CONTINUOUS
 10
1.9405911614
 20
11.2953646471
 11
1.9405923573
 21
11.2953683502
  0
LWPOLYLINE
  5
213
100
AcDbEntity
  8
0
100
AcDbPolyline
 62
7
  6
CONTINUOUS
 90
5
 70
0
 10
1.9407167775
 20
11.2957347881
 10
1.9407248455
 20
11.2957568782
 10
1.9407187335
 20
11.2957453886
 10
1.940539032
 20
11.2953488325
 10
1.9401186737
 20
11.2945424639
  0
LINE
  5
214
100
AcDbEntity
  8
0
100
AcDbLine
 62
7
  6
CONTINUOUS
 10
1.9401186737
 20
11.2945424639
 11
1.9393905825
 21
11.2933474704
  0
LWPOLYLINE
  5
215
100
AcDbEntity
  8
0
100
AcDbPolyline
 62
7
  6
CONTINUOUS
 90
12
 70
0
 10
1.9393905825
 20
11.2933474704
 10
1.9383224121
 20
11.2918616475
 10
1.9368636584
 20
11.2901566645
 10
1.9349012262
 20
11.2882598767
 10
1.9324898347
 20
11.2863725519
 10
1.9298640656
 20
11.2847390587
 10
1.9271539476
 20
11.2834280577
 10
1.9244806087
 20
11.2824593825
 10
1.9219583076
 20
11.2818185867
 10
1.9197130218
 20
11.2814670089
 10
1.9178615242
 20
11.2813391061
 10
1.9173303938
 20
11.2813318833
  0
LINE
  5
216
100
AcDbEntity
  8
0
100
AcDbLine
 62
9
  6
CONTINUOUS
 10
2.9368183383
 20
11.0453318604
 11
2.9368183383
 21
11.2813318604
  0
LINE
  5
217
100
AcDbEntity
  8
0
100
AcDbLine
 62
7
  6
CONTINUOUS
 10
2.9768183383
 20
11.0853318604
 11
2.9768183383
 21
11.2413318604
  0
LINE
  5
218
100
AcDbEntity
  8
0
100
AcDbLine
 62
9
  6
CONTINUOUS
 10
3.5098183383
 20
10.0633318604
 11
3.5098183383
 21
12.2633318604
  0
LINE
  5
219
100
AcDbEntity
  8
0
100
AcDbLine
 62
7
  6
CONTINUOUS
 10
3.5498183383
 20
10.1033318604
 11
3.5498183383
 21
12.2233318604
  0
LINE
  5
21A
100
AcDbEntity
  8
0
100
AcDbLine
 62
7
  6
CONTINUOUS
 10
1.9405655157
 20
11.0312593
 11
1.9406206769
 21
11.0311409704
  0
LINE
  5
21B
100
AcDbEntity
  8
0
100
AcDbLine
 62
7
  6
CONTINUOUS
 10
4.7748183383
 20
12.3633318604
 11
4.7748183383
 21
9.9633318604
  0
LINE
  5
21C
100
AcDbEntity
  8
0
100
AcDbLine
 62
9
  6
CONTINUOUS
 10
4.8148183383
 20
9.9233318604
 11
4.8148183383
 21
12.4033318604
  0
LINE
  5
21D
100
AcDbEntity
  8
0
100
AcDbLine
 62
7
  6
CONTINUOUS
 10
4.9698183383
 20
2.5623318604
 11
4.9698183383
 21
12.4423318604
  0
LINE
  5
21E
100
AcDbEntity
  8
0
100
AcDbLine
 62
9
  6
CONTINUOUS
 10
5.0098183383
 20
2.5623318604
 11
5.0098183383
 21
12.4823318604
  0
LINE
  5
21F
100
AcDbEntity
  8
0
100
AcDbLine
 62
9
  6
CONTINUOUS
 10
5.0498183383
 20
2.4823318604
 11
5.0498183383
 21
2.5223318604
  0
LINE
  5
220
100
AcDbEntity
  8
0
100
AcDbLine
 62
7
  6
CONTINUOUS
 10
7.6498183383
 20
2.4823318604
 11
5.0498183383
 21
2.4823318604
  0
LINE
  5
221
100
AcDbEntity
  8
0
100
AcDbLine
 62
9
  6
CONTINUOUS
 10
7.6498183383
 20
2.5223318604
 11
5.0498183383
 21
2.5223318604
  0
LINE
  5
222
100
AcDbEntity
  8
0
100
AcDbLine
 62
9
  6
CONTINUOUS
 10
7.7298183383
 20
2.5623318604
 11
7.6898183383
 21
2.5623318604
  0
LINE
  5
223
100
AcDbEntity
  8
0
100
AcDbLine
 62
9
  6
CONTINUOUS
 10
4.9698183383
 20
2.5623318604
 11
5.0098183383
 21
2.5623318604
  0
LINE
  5
224
100
AcDbEntity
  8
0
100
AcDbLine
 62
9
  6
CONTINUOUS
 10
7.6498183383
 20
2.4823318604
 11
7.6498183383
 21
2.5223318604
  0
LINE
  5
225
100
AcDbEntity
  8
0
100
AcDbLine
 62
9
  6
CONTINUOUS
 10
7.6898183383
 20
2.5623318604
 11
7.6898183383
 21
12.4823318604
  0
LINE
  5
226
100
AcDbEntity
  8
0
100
AcDbLine
 62
7
  6
CONTINUOUS
 10
7.7298183383
 20
12.4423318604
 11
7.7298183383
 21
2.5623318604
  0
LINE
  5
227
100
AcDbEntity
  8
0
100
AcDbLine
 62
9
  6
CONTINUOUS
 10
7.8848183383
 20
9.9233318604
 11
7.8848183383
 21
12.4033318604
  0
LINE
  5
228
100
AcDbEntity
  8
0
100
AcDbLine
 62
7
  6
CONTINUOUS
 10
7.9248183383
 20
9.9633318604
 11
7.9248183383
 21
12.3633318604
  0
LINE
  5
229
100
AcDbEntity
  8
0
100
AcDbLine
 62
7
  6
CONTINUOUS
 10
19.9148183383
 20
4.7153419223
 11
20.7848183383
 21
4.7153419223
  0
LINE
  5
22A
100
AcDbEntity
  8
0
100
AcDbLine
 62
9
  6
CONTINUOUS
 10
19.9148183383
 20
4.7189140462
 11
20.7848183383
 21
4.7189140462
  0
LINE
  5
22B
100
AcDbEntity
  8
0
100
AcDbLine
 62
7
  6
CONTINUOUS
 10
19.9663183383
 20
4.7368746684
 11
20.7333183383
 21
4.7368746684
  0
LINE
  5
22C
100
AcDbEntity
  8
0
100
AcDbLine
 62
9
  6
CONTINUOUS
 10
19.9663183383
 20
4.7404467923
 11
20.7333183383
 21
4.7404467923
  0
LINE
  5
22D
100
AcDbEntity
  8
0
100
AcDbLine
 62
7
  6
CONTINUOUS
 10
9.1498183383
 20
12.2233318604
 11
9.1498183383
 21
10.1033318604
  0
LINE
  5
22E
100
AcDbEntity
  8
0
100
AcDbLine
 62
9
  6
CONTINUOUS
 10
9.1898183383
 20
10.0633318604
 11
9.1898183383
 21
12.2633318604
  0
LINE
  5
22F
100
AcDbEntity
  8
0
100
AcDbLine
 62
7
  6
CONTINUOUS
 10
10.7595180029
 20
11.0321212569
 11
10.7602460941
 21
11.0333162504
  0
LWPOLYLINE
  5
230
100
AcDbEntity
  8
0
100
AcDbPolyline
 62
7
  6
CONTINUOUS
 90
12
 70
0
 10
10.7602460941
 20
11.0333162504
 10
10.7613142645
 20
11.0348020733
 10
10.7627730182
 20
11.0365070563
 10
10.7647354504
 20
11.0384038441
 10
10.7671468418
 20
11.0402911689
 10
10.769772611
 20
11.0419246621
 10
10.772482729
 20
11.0432356631
 10
10.7751560678
 20
11.0442043383
 10
10.7776783689
 20
11.0448451341
 10
10.7799236548
 20
11.0451967119
 10
10.7817751524
 20
11.0453246147
 10
10.7823062827
 20
11.0453318375
  0
LINE
  5
231
100
AcDbEntity
  8
0
100
AcDbLine
 62
9
  6
CONTINUOUS
 10
20.7333183383
 20
5.4352491022
 11
19.9663183383
 21
5.4352491022
  0
LINE
  5
232
100
AcDbEntity
  8
0
100
AcDbLine
 62
7
  6
CONTINUOUS
 10
19.9663183383
 20
5.4493374228
 11
20.7333183383
 21
5.4493374228
  0
LINE
  5
233
100
AcDbEntity
  8
0
100
AcDbLine
 62
9
  6
CONTINUOUS
 10
20.7848183383
 20
5.4696376005
 11
19.9148183383
 21
5.4696376005
  0
LINE
  5
234
100
AcDbEntity
  8
0
100
AcDbLine
 62
9
  6
CONTINUOUS
 10
20.7848183383
 20
5.483725921
 11
19.9148183383
 21
5.483725921
  0
LINE
  5
235
100
AcDbEntity
  8
0
100
AcDbLine
 62
7
  6
CONTINUOUS
 10
9.7228183383
 20
11.2413318604
 11
9.7228183383
 21
11.0853318604
  0
LINE
  5
236
100
AcDbEntity
  8
0
100
AcDbLine
 62
9
  6
CONTINUOUS
 10
9.7628183383
 20
11.2813318604
 11
9.7628183383
 21
11.0453318604
  0
LINE
  5
237
100
AcDbEntity
  8
0
100
AcDbLine
 62
7
  6
CONTINUOUS
 10
10.7590455152
 20
11.0312990737
 11
10.7590443192
 21
11.0312953706
  0
LWPOLYLINE
  5
238
100
AcDbEntity
  8
0
100
AcDbPolyline
 62
7
  6
CONTINUOUS
 90
5
 70
0
 10
10.758919899
 20
11.0309289327
 10
10.758911831
 20
11.0309068427
 10
10.7589179431
 20
11.0309183322
 10
10.7590976446
 20
11.0313148883
 10
10.7595180029
 20
11.0321212569
  0
LINE
  5
239
100
AcDbEntity
  8
0
100
AcDbLine
 62
9
  6
CONTINUOUS
 10
12.7698183383
 20
10.0633318604
 11
12.7698183383
 21
11.0453318604
  0
LINE
  5
23A
100
AcDbEntity
  8
0
100
AcDbLine
 62
9
  6
CONTINUOUS
 10
12.7698183383
 20
11.2813318604
 11
12.7698183383
 21
12.2633318604
  0
LINE
  5
23B
100
AcDbEntity
  8
0
100
AcDbLine
 62
7
  6
CONTINUOUS
 10
10.7590711609
 20
11.2954044208
 11
10.7590159996
 21
11.2955227504
  0
LINE
  5
23C
100
AcDbEntity
  8
0
100
AcDbLine
 62
7
  6
CONTINUOUS
 10
12.8098183383
 20
10.1033318604
 11
12.8098183383
 21
11.0453318604
  0
LINE
  5
23D
100
AcDbEntity
  8
0
100
AcDbLine
 62
7
  6
CONTINUOUS
 10
12.8098183383
 20
11.2813318604
 11
12.8098183383
 21
12.2233318604
  0
LINE
  5
23E
100
AcDbEntity
  8
0
100
AcDbLine
 62
9
  6
CONTINUOUS
 10
12.8698183383
 20
11.0453318604
 11
12.8698183383
 21
11.2813318604
  0
LINE
  5
23F
100
AcDbEntity
  8
0
100
AcDbLine
 62
7
  6
CONTINUOUS
 10
12.9098183383
 20
11.2413318604
 11
12.9098183383
 21
11.0853318604
  0
LINE
  5
240
100
AcDbEntity
  8
0
100
AcDbLine
 62
7
  6
CONTINUOUS
 10
15.7595180029
 20
11.0321212569
 11
15.7602460941
 21
11.0333162504
  0
LWPOLYLINE
  5
241
100
AcDbEntity
  8
0
100
AcDbPolyline
 62
7
  6
CONTINUOUS
 90
12
 70
0
 10
15.7602460941
 20
11.0333162504
 10
15.7613142645
 20
11.0348020733
 10
15.7627730182
 20
11.0365070563
 10
15.7647354504
 20
11.0384038441
 10
15.7671468418
 20
11.0402911689
 10
15.769772611
 20
11.0419246621
 10
15.772482729
 20
11.0432356631
 10
15.7751560678
 20
11.0442043383
 10
15.7776783689
 20
11.0448451341
 10
15.7799236548
 20
11.0451967119
 10
15.7817751524
 20
11.0453246147
 10
15.7823062827
 20
11.0453318375
  0
LINE
  5
242
100
AcDbEntity
  8
0
100
AcDbLine
 62
7
  6
CONTINUOUS
 10
18.3948183383
 20
9.9133318604
 11
19.8498183383
 21
9.9133318604
  0
LINE
  5
243
100
AcDbEntity
  8
0
100
AcDbLine
 62
7
  6
CONTINUOUS
 10
20.8498183383
 20
9.9133318604
 11
22.3048183383
 21
9.9133318604
  0
LINE
  5
244
100
AcDbEntity
  8
0
100
AcDbLine
 62
7
  6
CONTINUOUS
 10
4.8148183383
 20
9.9233318604
 11
4.9698183383
 21
9.9233318604
  0
LINE
  5
245
100
AcDbEntity
  8
0
100
AcDbLine
 62
7
  6
CONTINUOUS
 10
7.7298183383
 20
9.9233318604
 11
7.8848183383
 21
9.9233318604
  0
LINE
  5
246
100
AcDbEntity
  8
0
100
AcDbLine
 62
9
  6
CONTINUOUS
 10
4.7748183383
 20
9.9633318604
 11
4.9698183383
 21
9.9633318604
  0
LINE
  5
247
100
AcDbEntity
  8
0
100
AcDbLine
 62
9
  6
CONTINUOUS
 10
7.7298183383
 20
9.9633318604
 11
7.9248183383
 21
9.9633318604
  0
LINE
  5
248
100
AcDbEntity
  8
0
100
AcDbLine
 62
7
  6
CONTINUOUS
 10
14.1498183383
 20
12.2233318604
 11
14.1498183383
 21
10.1033318604
  0
LINE
  5
249
100
AcDbEntity
  8
0
100
AcDbLine
 62
9
  6
CONTINUOUS
 10
14.1898183383
 20
10.0633318604
 11
14.1898183383
 21
12.2633318604
  0
LINE
  5
24A
100
AcDbEntity
  8
0
100
AcDbLine
 62
7
  6
CONTINUOUS
 10
15.7590455152
 20
11.0312990737
 11
15.7590443192
 21
11.0312953706
  0
LWPOLYLINE
  5
24B
100
AcDbEntity
  8
0
100
AcDbPolyline
 62
7
  6
CONTINUOUS
 90
5
 70
0
 10
15.758919899
 20
11.0309289327
 10
15.758911831
 20
11.0309068427
 10
15.7589179431
 20
11.0309183322
 10
15.7590976446
 20
11.0313148883
 10
15.7595180029
 20
11.0321212569
  0
LINE
  5
24C
100
AcDbEntity
  8
0
100
AcDbLine
 62
7
  6
CONTINUOUS
 10
-0.0701816617
 20
10.0633318604
 11
3.5098183383
 21
10.0633318604
  0
LINE
  5
24D
100
AcDbEntity
  8
0
100
AcDbLine
 62
7
  6
CONTINUOUS
 10
9.1898183383
 20
10.0633318604
 11
12.7698183383
 21
10.0633318604
  0
LINE
  5
24E
100
AcDbEntity
  8
0
100
AcDbLine
 62
7
  6
CONTINUOUS
 10
14.1898183383
 20
10.0633318604
 11
17.7698183383
 21
10.0633318604
  0
LINE
  5
24F
100
AcDbEntity
  8
0
100
AcDbLine
 62
9
  6
CONTINUOUS
 10
-0.1101816617
 20
10.1033318604
 11
3.5498183383
 21
10.1033318604
  0
LINE
  5
250
100
AcDbEntity
  8
0
100
AcDbLine
 62
9
  6
CONTINUOUS
 10
9.1498183383
 20
10.1033318604
 11
12.8098183383
 21
10.1033318604
  0
LINE
  5
251
100
AcDbEntity
  8
0
100
AcDbLine
 62
9
  6
CONTINUOUS
 10
14.1498183383
 20
10.1033318604
 11
17.8098183383
 21
10.1033318604
  0
LINE
  5
252
100
AcDbEntity
  8
0
100
AcDbLine
 62
7
  6
CONTINUOUS
 10
14.7228183383
 20
11.2413318604
 11
14.7228183383
 21
11.0853318604
  0
LINE
  5
253
100
AcDbEntity
  8
0
100
AcDbLine
 62
9
  6
CONTINUOUS
 10
14.7628183383
 20
11.2813318604
 11
14.7628183383
 21
11.0453318604
  0
LINE
  5
254
100
AcDbEntity
  8
0
100
AcDbLine
 62
9
  6
CONTINUOUS
 10
19.9148183383
 20
10.9345648512
 11
20.7848183383
 21
10.9345648512
  0
LINE
  5
255
100
AcDbEntity
  8
0
100
AcDbLine
 62
7
  6
CONTINUOUS
 10
19.9148183383
 20
10.9369044067
 11
20.7848183383
 21
10.9369044067
  0
LINE
  5
256
100
AcDbEntity
  8
0
100
AcDbLine
 62
9
  6
CONTINUOUS
 10
1.9649733
 20
11.0053318604
 11
2.6780951171
 21
11.0053318604
  0
LINE
  5
257
100
AcDbEntity
  8
0
100
AcDbLine
 62
9
  6
CONTINUOUS
 10
10.0215418467
 20
11.0053318604
 11
10.7346636385
 21
11.0053318604
  0
LINE
  5
258
100
AcDbEntity
  8
0
100
AcDbLine
 62
9
  6
CONTINUOUS
 10
15.0215418467
 20
11.0053318604
 11
15.7346636385
 21
11.0053318604
  0
LINE
  5
259
100
AcDbEntity
  8
0
100
AcDbLine
 62
7
  6
CONTINUOUS
 10
-0.1701816617
 20
11.0453318604
 11
2.9368183383
 21
11.0453318604
  0
LINE
  5
25A
100
AcDbEntity
  8
0
100
AcDbLine
 62
7
  6
CONTINUOUS
 10
9.7628183383
 20
11.0453318604
 11
12.8698183383
 21
11.0453318604
  0
LINE
  5
25B
100
AcDbEntity
  8
0
100
AcDbLine
 62
7
  6
CONTINUOUS
 10
14.7628183383
 20
11.0453318604
 11
17.8698183383
 21
11.0453318604
  0
LINE
  5
25C
100
AcDbEntity
  8
0
100
AcDbLine
 62
9
  6
CONTINUOUS
 10
-0.2101816617
 20
11.0853318604
 11
2.9768183383
 21
11.0853318604
  0
LINE
  5
25D
100
AcDbEntity
  8
0
100
AcDbLine
 62
9
  6
CONTINUOUS
 10
9.7228183383
 20
11.0853318604
 11
12.9098183383
 21
11.0853318604
  0
LINE
  5
25E
100
AcDbEntity
  8
0
100
AcDbLine
 62
9
  6
CONTINUOUS
 10
14.7228183383
 20
11.0853318604
 11
17.9098183383
 21
11.0853318604
  0
LINE
  5
25F
100
AcDbEntity
  8
0
100
AcDbLine
 62
9
  6
CONTINUOUS
 10
17.9098183383
 20
11.2413318604
 11
14.7228183383
 21
11.2413318604
  0
LINE
  5
260
100
AcDbEntity
  8
0
100
AcDbLine
 62
9
  6
CONTINUOUS
 10
12.9098183383
 20
11.2413318604
 11
9.7228183383
 21
11.2413318604
  0
LINE
  5
261
100
AcDbEntity
  8
0
100
AcDbLine
 62
9
  6
CONTINUOUS
 10
-0.2101816617
 20
11.2413318604
 11
2.9768183383
 21
11.2413318604
  0
LINE
  5
262
100
AcDbEntity
  8
0
100
AcDbLine
 62
7
  6
CONTINUOUS
 10
17.8698183383
 20
11.2813318604
 11
14.7628183383
 21
11.2813318604
  0
LINE
  5
263
100
AcDbEntity
  8
0
100
AcDbLine
 62
7
  6
CONTINUOUS
 10
12.8698183383
 20
11.2813318604
 11
9.7628183383
 21
11.2813318604
  0
LINE
  5
264
100
AcDbEntity
  8
0
100
AcDbLine
 62
7
  6
CONTINUOUS
 10
2.9368183383
 20
11.2813318604
 11
-0.1701816617
 21
11.2813318604
  0
LINE
  5
265
100
AcDbEntity
  8
0
100
AcDbLine
 62
9
  6
CONTINUOUS
 10
15.7346633766
 20
11.3213318604
 11
15.0215415594
 21
11.3213318604
  0
LINE
  5
266
100
AcDbEntity
  8
0
100
AcDbLine
 62
9
  6
CONTINUOUS
 10
10.7346633766
 20
11.3213318604
 11
10.0215415594
 21
11.3213318604
  0
LINE
  5
267
100
AcDbEntity
  8
0
100
AcDbLine
 62
9
  6
CONTINUOUS
 10
2.6780948299
 20
11.3213318604
 11
1.964973038
 21
11.3213318604
  0
LWPOLYLINE
  5
268
100
AcDbEntity
  8
0
100
AcDbPolyline
 62
7
  6
CONTINUOUS
 90
14
 70
0
 10
1.9173327439
 20
11.0453318508
 10
1.9178615191
 20
11.0453246654
 10
1.9196943544
 20
11.0451988316
 10
1.9219149156
 20
11.0448539014
 10
1.9244348378
 20
11.0442181922
 10
1.9271644102
 20
11.0432310764
 10
1.9299866022
 20
11.0418566692
 10
1.9326953138
 20
11.0401459908
 10
1.9350700726
 20
11.0382549015
 10
1.9369686261
 20
11.0363938684
 10
1.9384019104
 20
11.0346993216
 10
1.9394483973
 20
11.0332276147
 10
1.9401539445
 20
11.0320576366
 10
1.9405647801
 20
11.0312608781
  0
LWPOLYLINE
  5
269
100
AcDbEntity
  8
0
100
AcDbPolyline
 62
7
  6
CONTINUOUS
 90
14
 70
0
 10
10.7823039327
 20
11.28133187
 10
10.7817751574
 20
11.2813390554
 10
10.7799423222
 20
11.2814648892
 10
10.777721761
 20
11.2818098195
 10
10.7752018388
 20
11.2824455286
 10
10.7724722664
 20
11.2834326444
 10
10.7696500744
 20
11.2848070516
 10
10.7669413628
 20
11.28651773
 10
10.764566604
 20
11.2884088193
 10
10.7626680505
 20
11.2902698524
 10
10.7612347661
 20
11.2919643992
 10
10.7601882792
 20
11.2934361061
 10
10.7594827321
 20
11.2946060842
 10
10.7590718965
 20
11.2954028427
  0
LWPOLYLINE
  5
26A
100
AcDbEntity
  8
0
100
AcDbPolyline
 62
7
  6
CONTINUOUS
 90
14
 70
0
 10
15.7823039327
 20
11.28133187
 10
15.7817751574
 20
11.2813390554
 10
15.7799423222
 20
11.2814648892
 10
15.777721761
 20
11.2818098195
 10
15.7752018388
 20
11.2824455286
 10
15.7724722664
 20
11.2834326444
 10
15.7696500744
 20
11.2848070516
 10
15.7669413628
 20
11.28651773
 10
15.764566604
 20
11.2884088193
 10
15.7626680505
 20
11.2902698524
 10
15.7612347661
 20
11.2919643992
 10
15.7601882792
 20
11.2934361061
 10
15.7594827321
 20
11.2946060842
 10
15.7590718965
 20
11.2954028427
  0
LINE
  5
26B
100
AcDbEntity
  8
0
100
AcDbLine
 62
9
  6
CONTINUOUS
 10
-0.1101816617
 20
12.2233318604
 11
3.5498183383
 21
12.2233318604
  0
LINE
  5
26C
100
AcDbEntity
  8
0
100
AcDbLine
 62
9
  6
CONTINUOUS
 10
9.1498183383
 20
12.2233318604
 11
12.8098183383
 21
12.2233318604
  0
LINE
  5
26D
100
AcDbEntity
  8
0
100
AcDbLine
 62
9
  6
CONTINUOUS
 10
14.1498183383
 20
12.2233318604
 11
17.8098183383
 21
12.2233318604
  0
LINE
  5
26E
100
AcDbEntity
  8
0
100
AcDbLine
 62
7
  6
CONTINUOUS
 10
17.7698183383
 20
12.2633318604
 11
14.1898183383
 21
12.2633318604
  0
LINE
  5
26F
100
AcDbEntity
  8
0
100
AcDbLine
 62
7
  6
CONTINUOUS
 10
12.7698183383
 20
12.2633318604
 11
9.1898183383
 21
12.2633318604
  0
LINE
  5
270
100
AcDbEntity
  8
0
100
AcDbLine
 62
7
  6
CONTINUOUS
 10
3.5098183383
 20
12.2633318604
 11
-0.0701816617
 21
12.2633318604
  0
LINE
  5
271
100
AcDbEntity
  8
0
100
AcDbLine
 62
9
  6
CONTINUOUS
 10
4.9698183383
 20
12.3633318604
 11
4.7748183383
 21
12.3633318604
  0
LINE
  5
272
100
AcDbEntity
  8
0
100
AcDbLine
 62
9
  6
CONTINUOUS
 10
7.7298183383
 20
12.3633318604
 11
7.9248183383
 21
12.3633318604
  0
LINE
  5
273
100
AcDbEntity
  8
0
100
AcDbLine
 62
7
  6
CONTINUOUS
 10
7.8848183383
 20
12.4033318604
 11
7.7298183383
 21
12.4033318604
  0
LINE
  5
274
100
AcDbEntity
  8
0
100
AcDbLine
 62
7
  6
CONTINUOUS
 10
4.9698183383
 20
12.4033318604
 11
4.8148183383
 21
12.4033318604
  0
LINE
  5
275
100
AcDbEntity
  8
0
100
AcDbLine
 62
7
  6
CONTINUOUS
 10
22.3048183383
 20
12.4133318604
 11
18.3948183383
 21
12.4133318604
  0
LINE
  5
276
100
AcDbEntity
  8
0
100
AcDbLine
 62
9
  6
CONTINUOUS
 10
4.9698183383
 20
12.4423318604
 11
7.7298183383
 21
12.4423318604
  0
LINE
  5
277
100
AcDbEntity
  8
0
100
AcDbLine
 62
7
  6
CONTINUOUS
 10
7.6898183383
 20
12.4823318604
 11
5.0098183383
 21
12.4823318604
  0
LINE
  5
278
100
AcDbEntity
  8
0
100
AcDbLine
 62
7
  6
CONTINUOUS
 10
15.7590711609
 20
11.2954044208
 11
15.7590159996
 21
11.2955227504
  0
LINE
  5
279
100
AcDbEntity
  8
0
100
AcDbLine
 62
9
  6
CONTINUOUS
 10
17.7698183383
 20
10.0633318604
 11
17.7698183383
 21
11.0453318604
  0
LINE
  5
27A
100
AcDbEntity
  8
0
100
AcDbLine
 62
9
  6
CONTINUOUS
 10
17.7698183383
 20
11.2813318604
 11
17.7698183383
 21
12.2633318604
  0
LINE
  5
27B
100
AcDbEntity
  8
0
100
AcDbLine
 62
7
  6
CONTINUOUS
 10
17.8098183383
 20
10.1033318604
 11
17.8098183383
 21
11.0453318604
  0
LINE
  5
27C
100
AcDbEntity
  8
0
100
AcDbLine
 62
7
  6
CONTINUOUS
 10
17.8098183383
 20
11.2813318604
 11
17.8098183383
 21
12.2233318604
  0
LINE
  5
27D
100
AcDbEntity
  8
0
100
AcDbLine
 62
9
  6
CONTINUOUS
 10
17.8698183383
 20
11.0453318604
 11
17.8698183383
 21
11.2813318604
  0
LINE
  5
27E
100
AcDbEntity
  8
0
100
AcDbLine
 62
7
  6
CONTINUOUS
 10
17.9098183383
 20
11.2413318604
 11
17.9098183383
 21
11.0853318604
  0
LINE
  5
27F
100
AcDbEntity
  8
0
100
AcDbLine
 62
7
  6
CONTINUOUS
 10
18.3948183383
 20
12.4133318604
 11
18.3948183383
 21
9.9133318604
  0
LINE
  5
280
100
AcDbEntity
  8
0
100
AcDbLine
 62
7
  6
CONTINUOUS
 10
20.8466141966
 20
10.9332233424
 11
20.8481761898
 21
10.9366245533
  0
LINE
  5
281
100
AcDbEntity
  8
0
100
AcDbLine
 62
7
  6
CONTINUOUS
 10
20.845563653
 20
10.9309691784
 11
20.8466141966
 21
10.9332233424
  0
LWPOLYLINE
  5
282
100
AcDbEntity
  8
0
100
AcDbPolyline
 62
7
  6
CONTINUOUS
 90
10
 70
0
 10
20.8655221919
 20
10.9794672303
 10
20.8667943706
 20
10.9830758429
 10
20.8680671618
 20
10.986769118
 10
20.8693379299
 20
10.9905434528
 10
20.8706030258
 20
10.9943943545
 10
20.8718586721
 20
10.998315742
 10
20.8731016275
 20
11.002301287
 10
20.8743293973
 20
11.0063461081
 10
20.875539111
 20
11.0104456597
 10
20.8767278657
 20
11.0145944588
  0
LWPOLYLINE
  5
283
100
AcDbEntity
  8
0
100
AcDbPolyline
 62
7
  6
CONTINUOUS
 90
11
 70
0
 10
20.8537874866
 20
10.9493893861
 10
20.8548135938
 20
10.9518216605
 10
20.8558868844
 20
10.9544021733
 10
20.8569993525
 20
10.9571184207
 10
20.8581441685
 20
10.9599575681
 10
20.8593215435
 20
10.9629244729
 10
20.8605269467
 20
10.9660159757
 10
20.8617540219
 20
10.9692226736
 10
20.8629973567
 20
10.972534752
 10
20.8642548551
 20
10.9759510226
 10
20.8655221919
 20
10.9794672303
  0
LINE
  5
284
100
AcDbEntity
  8
0
100
AcDbLine
 62
7
  6
CONTINUOUS
 10
20.8518949065
 20
10.9449833752
 11
20.8537874866
 21
10.9493893861
  0
LINE
  5
285
100
AcDbEntity
  8
0
100
AcDbLine
 62
7
  6
CONTINUOUS
 10
20.8502356106
 20
10.9412082901
 11
20.8518949065
 21
10.9449833752
  0
LWPOLYLINE
  5
286
100
AcDbEntity
  8
0
100
AcDbPolyline
 62
7
  6
CONTINUOUS
 90
3
 70
0
 10
20.8481761898
 20
10.9366245533
 10
20.8488121002
 20
10.9380277817
 10
20.8502356106
 20
10.9412082901
  0
LINE
  5
287
100
AcDbEntity
  8
0
100
AcDbLine
 62
7
  6
CONTINUOUS
 10
19.8498183383
 20
4.7674743667
 11
19.8498183383
 21
10.8847719624
  0
LINE
  5
288
100
AcDbEntity
  8
0
100
AcDbLine
 62
9
  6
CONTINUOUS
 10
19.8598183383
 20
5.4275051561
 11
19.8598183383
 21
4.7610464906
  0
LINE
  5
289
100
AcDbEntity
  8
0
100
AcDbLine
 62
7
  6
CONTINUOUS
 10
19.8623183383
 20
11.1633318604
 11
19.8623183383
 21
10.9155723483
  0
LINE
  5
28A
100
AcDbEntity
  8
0
100
AcDbLine
 62
7
  6
CONTINUOUS
 10
19.8863183383
 20
4.8004977794
 11
19.8863183383
 21
5.3880538673
  0
LINE
  5
28B
100
AcDbEntity
  8
0
100
AcDbLine
 62
9
  6
CONTINUOUS
 10
19.8963183383
 20
5.3816259912
 11
19.8963183383
 21
4.7940699033
  0
LINE
  5
28C
100
AcDbEntity
  8
0
100
AcDbLine
 62
9
  6
CONTINUOUS
 10
19.9148183383
 20
4.7189140462
 11
19.9148183383
 21
4.7153419223
  0
LINE
  5
28D
100
AcDbEntity
  8
0
100
AcDbLine
 62
9
  6
CONTINUOUS
 10
19.9148183383
 20
5.4696376005
 11
19.9148183383
 21
10.9369044067
  0
LINE
  5
28E
100
AcDbEntity
  8
0
100
AcDbLine
 62
9
  6
CONTINUOUS
 10
19.9663183383
 20
4.7404467923
 11
19.9663183383
 21
4.7368746684
  0
LINE
  5
28F
100
AcDbEntity
  8
0
100
AcDbLine
 62
9
  6
CONTINUOUS
 10
19.9663183383
 20
5.4352491022
 11
19.9663183383
 21
5.4493374228
  0
LINE
  5
290
100
AcDbEntity
  8
0
100
AcDbLine
 62
7
  6
CONTINUOUS
 10
20.8767278657
 20
11.0145944588
 11
20.8772775683
 21
11.0165560453
  0
LINE
  5
291
100
AcDbEntity
  8
0
100
AcDbLine
 62
9
  6
CONTINUOUS
 10
20.7333183383
 20
4.7404467923
 11
20.7333183383
 21
4.7368746684
  0
LINE
  5
292
100
AcDbEntity
  8
0
100
AcDbLine
 62
9
  6
CONTINUOUS
 10
20.7333183383
 20
5.4352491022
 11
20.7333183383
 21
5.4493374228
  0
LINE
  5
293
100
AcDbEntity
  8
0
100
AcDbLine
 62
9
  6
CONTINUOUS
 10
20.7848183383
 20
4.7189140462
 11
20.7848183383
 21
4.7153419223
  0
LINE
  5
294
100
AcDbEntity
  8
0
100
AcDbLine
 62
9
  6
CONTINUOUS
 10
20.7848183383
 20
10.9369044067
 11
20.7848183383
 21
5.4696376005
  0
LINE
  5
295
100
AcDbEntity
  8
0
100
AcDbLine
 62
9
  6
CONTINUOUS
 10
20.8033183383
 20
4.7940699033
 11
20.8033183383
 21
5.3816259912
  0
LINE
  5
296
100
AcDbEntity
  8
0
100
AcDbLine
 62
7
  6
CONTINUOUS
 10
20.8133183383
 20
5.3880538673
 11
20.8133183383
 21
4.8004977794
  0
LINE
  5
297
100
AcDbEntity
  8
0
100
AcDbLine
 62
7
  6
CONTINUOUS
 10
20.8373183383
 20
11.1633318604
 11
20.8373183383
 21
10.9155715054
  0
LINE
  5
298
100
AcDbEntity
  8
0
100
AcDbLine
 62
9
  6
CONTINUOUS
 10
20.8398183383
 20
4.7610464906
 11
20.8398183383
 21
5.4275051561
  0
LINE
  5
299
100
AcDbEntity
  8
0
100
AcDbLine
 62
7
  6
CONTINUOUS
 10
20.8498183383
 20
4.7674743667
 11
20.8498183383
 21
10.8847719624
  0
LINE
  5
29A
100
AcDbEntity
  8
0
100
AcDbLine
 62
7
  6
CONTINUOUS
 10
22.3048183383
 20
9.9133318604
 11
22.3048183383
 21
12.4133318604
  0
ARC
  5
29B
100
AcDbEntity
  8
0
100
AcDbCircle
 62
7
  6
CONTINUOUS
 10
7.6498183383
 20
2.5623318604
 40
0.08
100
AcDbArc
 50
270.0
 51
360.0
  0
ARC
  5
29C
100
AcDbEntity
  8
0
100
AcDbCircle
 62
7
  6
CONTINUOUS
 10
5.0498183383
 20
2.5623318604
 40
0.08
100
AcDbArc
 50
180.0
 51
270.0
  0
ARC
  5
29D
100
AcDbEntity
  8
0
100
AcDbCircle
 62
9
  6
CONTINUOUS
 10
7.6498183383
 20
2.5623318604
 40
0.04
100
AcDbArc
 50
270.0
 51
360.0
  0
ARC
  5
29E
100
AcDbEntity
  8
0
100
AcDbCircle
 62
9
  6
CONTINUOUS
 10
5.0498183383
 20
2.5623318604
 40
0.04
100
AcDbArc
 50
180.0
 51
270.0
  0
ARC
  5
29F
100
AcDbEntity
  8
0
100
AcDbCircle
 62
7
  6
CONTINUOUS
 10
2.3498183383
 20
11.1633318604
 40
0.43
100
AcDbArc
 50
197.9027542172
 51
340.3564314207
  0
ARC
  5
2A0
100
AcDbEntity
  8
0
100
AcDbCircle
 62
7
  6
CONTINUOUS
 10
2.3498183383
 20
11.1633318604
 40
0.43
100
AcDbArc
 50
19.6435685793
 51
162.0661161709
  0
ARC
  5
2A1
100
AcDbEntity
  8
0
100
AcDbCircle
 62
9
  6
CONTINUOUS
 10
2.321534102
 20
11.1633294042
 40
0.3899988128
100
AcDbArc
 50
203.8988643942
 51
336.1011482885
  0
ARC
  5
2A2
100
AcDbEntity
  8
0
100
AcDbCircle
 62
9
  6
CONTINUOUS
 10
2.321534054
 20
11.1633343472
 40
0.3899987733
100
AcDbArc
 50
23.8988618428
 51
156.1011524479
  0
ARC
  5
2A3
100
AcDbEntity
  8
0
100
AcDbCircle
 62
7
  6
CONTINUOUS
 10
-0.0701816617
 20
10.1033318604
 40
0.04
100
AcDbArc
 50
180.0
 51
270.0
  0
ARC
  5
2A4
100
AcDbEntity
  8
0
100
AcDbCircle
 62
7
  6
CONTINUOUS
 10
3.5098183383
 20
10.1033318604
 40
0.04
100
AcDbArc
 50
270.0
 51
360.0
  0
ARC
  5
2A5
100
AcDbEntity
  8
0
100
AcDbCircle
 62
7
  6
CONTINUOUS
 10
2.9368183383
 20
11.0853318604
 40
0.04
100
AcDbArc
 50
270.0
 51
360.0
  0
ARC
  5
2A6
100
AcDbEntity
  8
0
100
AcDbCircle
 62
7
  6
CONTINUOUS
 10
-0.1701816617
 20
11.0853318604
 40
0.04
100
AcDbArc
 50
180.0
 51
270.0
  0
ARC
  5
2A7
100
AcDbEntity
  8
0
100
AcDbCircle
 62
7
  6
CONTINUOUS
 10
4.8148183383
 20
9.9633318604
 40
0.04
100
AcDbArc
 50
180.0
 51
270.0
  0
ARC
  5
2A8
100
AcDbEntity
  8
0
100
AcDbCircle
 62
7
  6
CONTINUOUS
 10
2.7924627391
 20
11.0053318604
 40
0.0399997458
100
AcDbArc
 50
89.996870176
 51
160.3552341
  0
ARC
  5
2A9
100
AcDbEntity
  8
0
100
AcDbCircle
 62
7
  6
CONTINUOUS
 10
3.5098183383
 20
12.2233318604
 40
0.04
100
AcDbArc
 50
0.0
 51
90.0
  0
ARC
  5
2AA
100
AcDbEntity
  8
0
100
AcDbCircle
 62
7
  6
CONTINUOUS
 10
-0.0701816617
 20
12.2233318604
 40
0.04
100
AcDbArc
 50
90.0
 51
180.0
  0
ARC
  5
2AB
100
AcDbEntity
  8
0
100
AcDbCircle
 62
7
  6
CONTINUOUS
 10
2.9368183383
 20
11.2413318604
 40
0.04
100
AcDbArc
 50
0.0
 51
90.0
  0
ARC
  5
2AC
100
AcDbEntity
  8
0
100
AcDbCircle
 62
7
  6
CONTINUOUS
 10
-0.1701816617
 20
11.2413318604
 40
0.04
100
AcDbArc
 50
90.0
 51
180.0
  0
ARC
  5
2AD
100
AcDbEntity
  8
0
100
AcDbCircle
 62
7
  6
CONTINUOUS
 10
4.8148183383
 20
12.3633318604
 40
0.04
100
AcDbArc
 50
90.0
 51
180.0
  0
ARC
  5
2AE
100
AcDbEntity
  8
0
100
AcDbCircle
 62
7
  6
CONTINUOUS
 10
2.7924666924
 20
11.3213287733
 40
0.0399984565
100
AcDbArc
 50
199.6386977676
 51
269.9974670328
  0
ARC
  5
2AF
100
AcDbEntity
  8
0
100
AcDbCircle
 62
9
  6
CONTINUOUS
 10
1.9138093792
 20
11.3185987508
 40
0.0384260043
100
AcDbArc
 50
319.4068169644
 51
320.0618021158
  0
ARC
  5
2B0
100
AcDbEntity
  8
0
100
AcDbCircle
 62
9
  6
CONTINUOUS
 10
1.9139061817
 20
11.3185158214
 40
0.0382985366
100
AcDbArc
 50
318.7971813392
 51
319.406793751
  0
ARC
  5
2B1
100
AcDbEntity
  8
0
100
AcDbCircle
 62
7
  6
CONTINUOUS
 10
7.8848183383
 20
9.9633318604
 40
0.04
100
AcDbArc
 50
270.0
 51
360.0
  0
ARC
  5
2B2
100
AcDbEntity
  8
0
100
AcDbCircle
 62
7
  6
CONTINUOUS
 10
9.1898183383
 20
10.1033318604
 40
0.04
100
AcDbArc
 50
180.0
 51
270.0
  0
ARC
  5
2B3
100
AcDbEntity
  8
0
100
AcDbCircle
 62
7
  6
CONTINUOUS
 10
9.7628183383
 20
11.0853318604
 40
0.04
100
AcDbArc
 50
180.0
 51
270.0
  0
ARC
  5
2B4
100
AcDbEntity
  8
0
100
AcDbCircle
 62
7
  6
CONTINUOUS
 10
9.9071699842
 20
11.0053349475
 40
0.0399984565
100
AcDbArc
 50
19.6386977676
 51
90.0
  0
ARC
  5
2B5
100
AcDbEntity
  8
0
100
AcDbCircle
 62
7
  6
CONTINUOUS
 10
7.8848183383
 20
12.3633318604
 40
0.04
100
AcDbArc
 50
0.0
 51
90.0
  0
ARC
  5
2B6
100
AcDbEntity
  8
0
100
AcDbCircle
 62
7
  6
CONTINUOUS
 10
9.1898183383
 20
12.2233318604
 40
0.04
100
AcDbArc
 50
90.0
 51
180.0
  0
ARC
  5
2B7
100
AcDbEntity
  8
0
100
AcDbCircle
 62
7
  6
CONTINUOUS
 10
5.0098183383
 20
12.4423318604
 40
0.04
100
AcDbArc
 50
90.0
 51
180.0
  0
ARC
  5
2B8
100
AcDbEntity
  8
0
100
AcDbCircle
 62
7
  6
CONTINUOUS
 10
7.6898183383
 20
12.4423318604
 40
0.04
100
AcDbArc
 50
0.0
 51
90.0
  0
ARC
  5
2B9
100
AcDbEntity
  8
0
100
AcDbCircle
 62
7
  6
CONTINUOUS
 10
9.7628183383
 20
11.2413318604
 40
0.04
100
AcDbArc
 50
90.0
 51
180.0
  0
ARC
  5
2BA
100
AcDbEntity
  8
0
100
AcDbCircle
 62
7
  6
CONTINUOUS
 10
9.9071739374
 20
11.3213318604
 40
0.0399997458
100
AcDbArc
 50
269.996870176
 51
340.3552341
  0
ARC
  5
2BB
100
AcDbEntity
  8
0
100
AcDbCircle
 62
9
  6
CONTINUOUS
 10
10.3781026435
 20
11.1633295689
 40
0.3899989399
100
AcDbArc
 50
203.89888683
 51
336.1011249738
  0
ARC
  5
2BC
100
AcDbEntity
  8
0
100
AcDbCircle
 62
9
  6
CONTINUOUS
 10
10.655007709
 20
11.0648858119
 40
0.1093249015
100
AcDbArc
 50
341.8962010687
 51
342.1062282228
  0
ARC
  5
2BD
100
AcDbEntity
  8
0
100
AcDbCircle
 62
7
  6
CONTINUOUS
 10
14.1898183383
 20
10.1033318604
 40
0.04
100
AcDbArc
 50
180.0
 51
270.0
  0
ARC
  5
2BE
100
AcDbEntity
  8
0
100
AcDbCircle
 62
7
  6
CONTINUOUS
 10
14.7628183383
 20
11.0853318604
 40
0.04
100
AcDbArc
 50
180.0
 51
270.0
  0
ARC
  5
2BF
100
AcDbEntity
  8
0
100
AcDbCircle
 62
7
  6
CONTINUOUS
 10
12.7698183383
 20
10.1033318604
 40
0.04
100
AcDbArc
 50
270.0
 51
360.0
  0
ARC
  5
2C0
100
AcDbEntity
  8
0
100
AcDbCircle
 62
7
  6
CONTINUOUS
 10
12.8698183383
 20
11.0853318604
 40
0.04
100
AcDbArc
 50
270.0
 51
360.0
  0
ARC
  5
2C1
100
AcDbEntity
  8
0
100
AcDbCircle
 62
7
  6
CONTINUOUS
 10
14.9071699842
 20
11.0053349475
 40
0.0399984565
100
AcDbArc
 50
19.6386977676
 51
89.9974670328
  0
ARC
  5
2C2
100
AcDbEntity
  8
0
100
AcDbCircle
 62
9
  6
CONTINUOUS
 10
10.7858059144
 20
11.008084186
 40
0.0383972448
100
AcDbArc
 50
139.0921807069
 51
139.7141541779
  0
ARC
  5
2C3
100
AcDbEntity
  8
0
100
AcDbCircle
 62
7
  6
CONTINUOUS
 10
10.3498183383
 20
11.1633318604
 40
0.43
100
AcDbArc
 50
199.6437136923
 51
342.0667162588
  0
ARC
  5
2C4
100
AcDbEntity
  8
0
100
AcDbCircle
 62
7
  6
CONTINUOUS
 10
10.3498183383
 20
11.1633318604
 40
0.43
100
AcDbArc
 50
17.90273867
 51
160.3562863077
  0
ARC
  5
2C5
100
AcDbEntity
  8
0
100
AcDbCircle
 62
9
  6
CONTINUOUS
 10
10.378102588
 20
11.1633341214
 40
0.3899989594
100
AcDbArc
 50
23.8988914198
 51
156.1011228709
  0
ARC
  5
2C6
100
AcDbEntity
  8
0
100
AcDbCircle
 62
7
  6
CONTINUOUS
 10
14.1898183383
 20
12.2233318604
 40
0.04
100
AcDbArc
 50
90.0
 51
180.0
  0
ARC
  5
2C7
100
AcDbEntity
  8
0
100
AcDbCircle
 62
7
  6
CONTINUOUS
 10
14.7628183383
 20
11.2413318604
 40
0.04
100
AcDbArc
 50
90.0
 51
180.0
  0
ARC
  5
2C8
100
AcDbEntity
  8
0
100
AcDbCircle
 62
7
  6
CONTINUOUS
 10
12.7698183383
 20
12.2233318604
 40
0.04
100
AcDbArc
 50
0.0
 51
90.0
  0
ARC
  5
2C9
100
AcDbEntity
  8
0
100
AcDbCircle
 62
7
  6
CONTINUOUS
 10
12.8698183383
 20
11.2413318604
 40
0.04
100
AcDbArc
 50
0.0
 51
90.0
  0
ARC
  5
2CA
100
AcDbEntity
  8
0
100
AcDbCircle
 62
7
  6
CONTINUOUS
 10
14.9071739374
 20
11.3213318604
 40
0.0399997458
100
AcDbArc
 50
269.996870176
 51
340.3552341
  0
ARC
  5
2CB
100
AcDbEntity
  8
0
100
AcDbCircle
 62
9
  6
CONTINUOUS
 10
15.3781026434
 20
11.1633294105
 40
0.3899988214
100
AcDbArc
 50
203.8988655575
 51
336.1011462531
  0
ARC
  5
2CC
100
AcDbEntity
  8
0
100
AcDbCircle
 62
7
  6
CONTINUOUS
 10
17.7698183383
 20
10.1033318604
 40
0.04
100
AcDbArc
 50
270.0
 51
360.0
  0
ARC
  5
2CD
100
AcDbEntity
  8
0
100
AcDbCircle
 62
7
  6
CONTINUOUS
 10
17.8698183383
 20
11.0853318604
 40
0.04
100
AcDbArc
 50
270.0
 51
360.0
  0
ARC
  5
2CE
100
AcDbEntity
  8
0
100
AcDbCircle
 62
9
  6
CONTINUOUS
 10
15.7858272974
 20
11.00806497
 40
0.0384260042
100
AcDbArc
 50
139.4068169641
 51
140.0618021162
  0
ARC
  5
2CF
100
AcDbEntity
  8
0
100
AcDbCircle
 62
9
  6
CONTINUOUS
 10
15.7857304948
 20
11.0081478994
 40
0.0382985365
100
AcDbArc
 50
138.7971813388
 51
139.4067937514
  0
ARC
  5
2D0
100
AcDbEntity
  8
0
100
AcDbCircle
 62
7
  6
CONTINUOUS
 10
15.3498183383
 20
11.1633318604
 40
0.43
100
AcDbArc
 50
17.9032458045
 51
160.4340129008
  0
ARC
  5
2D1
100
AcDbEntity
  8
0
100
AcDbCircle
 62
7
  6
CONTINUOUS
 10
15.3498183383
 20
11.1633318604
 40
0.43
100
AcDbArc
 50
199.5659870992
 51
342.0659290496
  0
ARC
  5
2D2
100
AcDbEntity
  8
0
100
AcDbCircle
 62
9
  6
CONTINUOUS
 10
15.378102588
 20
11.1633343388
 40
0.3899987819
100
AcDbArc
 50
23.8988622202
 51
156.1011520705
  0
ARC
  5
2D3
100
AcDbEntity
  8
0
100
AcDbCircle
 62
7
  6
CONTINUOUS
 10
17.7698183383
 20
12.2233318604
 40
0.04
100
AcDbArc
 50
0.0
 51
90.0
  0
ARC
  5
2D4
100
AcDbEntity
  8
0
100
AcDbCircle
 62
7
  6
CONTINUOUS
 10
17.8698183383
 20
11.2413318604
 40
0.04
100
AcDbArc
 50
0.0
 51
90.0
  0
ARC
  5
2D5
100
AcDbEntity
  8
0
100
AcDbCircle
 62
7
  6
CONTINUOUS
 10
20.3498183383
 20
11.1633318604
 40
0.5475
100
AcDbArc
 50
333.041186286
 51
206.9588274055
  0
ARC
  5
2D6
100
AcDbEntity
  8
0
100
AcDbCircle
 62
9
  6
CONTINUOUS
 10
20.3498183383
 20
11.1633318604
 40
0.5175
100
AcDbArc
 50
340.4332804638
 51
199.5667195362
  0
ARC
  5
2D7
100
AcDbEntity
  8
0
100
AcDbCircle
 62
7
  6
CONTINUOUS
 10
20.3498183383
 20
11.1633318604
 40
0.4875
100
AcDbArc
 50
0.0
 51
180.0
  0
SPLINE
  5
2D8
100
AcDbEntity
  8
0
100
AcDbSpline
 62
7
  6
CONTINUOUS
 70
0
 71
3
 72
23
 73
19
 74
0
 42
0.0000001
 43
0.0000001
 44
0.0000000001
 40
0.0
 40
0.0
 40
0.0
 40
0.0
 40
0.0567252977
 40
0.085167768
 40
0.1136897317
 40
0.1710455435
 40
0.2290153614
 40
0.2582987512
 40
0.2877999498
 40
0.3475026491
 40
0.4082625348
 40
0.470153673
 40
0.5332047242
 40
0.5973971587
 40
0.6626662708
 40
0.7289043435
 40
0.8635681598
 40
1.0
 40
1.0
 40
1.0
 40
1.0
 10
19.8863183383
 20
4.8004977794
 30
0.0
 10
19.8863183383
 20
4.7983580179
 30
0.0
 10
19.8865211845
 20
4.7951406495
 30
0.0
 10
19.8871910997
 20
4.790902787
 30
0.0
 10
19.8881271909
 20
4.786690673
 30
0.0
 10
19.8897923542
 20
4.7815113976
 30
0.0
 10
19.8920752569
 20
4.7765426737
 30
0.0
 10
19.8942522977
 20
4.7727119059
 30
0.0
 10
19.8966770216
 20
4.7689548008
 30
0.0
 10
19.9001355921
 20
4.7644632156
 30
0.0
 10
19.9048896178
 20
4.7594755606
 30
0.0
 10
19.9102137878
 20
4.7549060939
 30
0.0
 10
19.9160537921
 20
4.7507900886
 30
0.0
 10
19.9223531174
 20
4.7471581089
 30
0.0
 10
19.9290531208
 20
4.7440369929
 30
0.0
 10
19.9384865549
 20
4.7405700897
 30
0.0
 10
19.9509296554
 20
4.7376529495
 30
0.0
 10
19.9611719289
 20
4.7368746684
 30
0.0
 10
19.9663183383
 20
4.7368746684
 30
0.0
  0
SPLINE
  5
2D9
100
AcDbEntity
  8
0
100
AcDbSpline
 62
7
  6
CONTINUOUS
 70
0
 71
3
 72
23
 73
19
 74
0
 42
0.0000001
 43
0.0000001
 44
0.0000000001
 40
0.0
 40
0.0
 40
0.0
 40
0.0
 40
0.1364322742
 40
0.2710962527
 40
0.337334335
 40
0.4026034104
 40
0.4667957638
 40
0.5298467014
 40
0.5917376989
 40
0.6524974371
 40
0.7121999943
 40
0.7417011282
 40
0.7709844652
 40
0.8289542125
 40
0.8863100157
 40
0.9148319962
 40
0.9432745226
 40
1.0
 40
1.0
 40
1.0
 40
1.0
 10
20.7333183383
 20
4.7368746684
 30
0.0
 10
20.738464764
 20
4.7368746684
 30
0.0
 10
20.7487070603
 20
4.7376529534
 30
0.0
 10
20.7611501813
 20
4.740570107
 30
0.0
 10
20.7705836176
 20
4.7440370189
 30
0.0
 10
20.777283615
 20
4.747158138
 30
0.0
 10
20.7835829302
 20
4.7507901179
 30
0.0
 10
20.7894229216
 20
4.7549061195
 30
0.0
 10
20.7947470777
 20
4.7594755789
 30
0.0
 10
20.7995010908
 20
4.7644632234
 30
0.0
 10
20.8029596524
 20
4.7689547984
 30
0.0
 10
20.8053843724
 20
4.7727118943
 30
0.0
 10
20.8075614097
 20
4.7765426559
 30
0.0
 10
20.8098443129
 20
4.7815113741
 30
0.0
 10
20.8115094777
 20
4.7866906464
 30
0.0
 10
20.8124455726
 20
4.7909027621
 30
0.0
 10
20.8131154905
 20
4.7951406339
 30
0.0
 10
20.8133183383
 20
4.7983580111
 30
0.0
 10
20.8133183383
 20
4.8004977794
 30
0.0
  0
SPLINE
  5
2DA
100
AcDbEntity
  8
0
100
AcDbSpline
 62
7
  6
CONTINUOUS
 70
0
 71
3
 72
20
 73
16
 74
0
 42
0.0000001
 43
0.0000001
 44
0.0000000001
 40
0.0
 40
0.0
 40
0.0
 40
0.0
 40
0.1356159928
 40
0.2695549494
 40
0.3354944967
 40
0.4005237686
 40
0.5273785141
 40
0.5892734867
 40
0.6501350927
 40
0.7100398598
 40
0.7691009798
 40
0.8274595884
 40
0.8852781815
 40
0.9427310597
 40
1.0
 40
1.0
 40
1.0
 40
1.0
 10
20.7848183383
 20
10.9369044067
 30
0.0
 10
20.7889890741
 20
10.9369044067
 30
0.0
 10
20.7972922719
 20
10.9362705772
 30
0.0
 10
20.8073792905
 20
10.9338950615
 30
0.0
 10
20.8150304012
 20
10.9310701642
 30
0.0
 10
20.8222182238
 20
10.9277068895
 30
0.0
 10
20.828843388
 20
10.9234837437
 30
0.0
 10
20.8346638139
 20
10.9184630668
 30
0.0
 10
20.8385364426
 20
10.9143795106
 30
0.0
 10
20.8419059996
 20
10.9099807823
 30
0.0
 10
20.8447322173
 20
10.9053033067
 30
0.0
 10
20.8469770776
 20
10.9003903222
 30
0.0
 10
20.8486074286
 20
10.8952916262
 30
0.0
 10
20.8495970064
 20
10.8900653086
 30
0.0
 10
20.8498183383
 20
10.886533212
 30
0.0
 10
20.8498183383
 20
10.8847719624
 30
0.0
  0
SPLINE
  5
2DB
100
AcDbEntity
  8
0
100
AcDbSpline
 62
7
  6
CONTINUOUS
 70
0
 71
3
 72
20
 73
16
 74
0
 42
0.0000001
 43
0.0000001
 44
0.0000000001
 40
0.0
 40
0.0
 40
0.0
 40
0.0
 40
0.0572687018
 40
0.1147214952
 40
0.1725400965
 40
0.2308987982
 40
0.2899600714
 40
0.3498650216
 40
0.4107268164
 40
0.4726219692
 40
0.5994769604
 40
0.6645062769
 40
0.7304458102
 40
0.8643845588
 40
1.0
 40
1.0
 40
1.0
 40
1.0
 10
19.8498183383
 20
10.8847719624
 30
0.0
 10
19.8498183383
 20
10.8865332047
 30
0.0
 10
19.8500396687
 20
10.8900652912
 30
0.0
 10
19.851029241
 20
10.8952916
 30
0.0
 10
19.8526595889
 20
10.9003902975
 30
0.0
 10
19.8549044499
 20
10.9053032904
 30
0.0
 10
19.8577306734
 20
10.9099807781
 30
0.0
 10
19.8611002407
 20
10.9143795189
 30
0.0
 10
19.8649728827
 20
10.9184630861
 30
0.0
 10
19.870793326
 20
10.9234837718
 30
0.0
 10
19.8774185063
 20
10.9277069198
 30
0.0
 10
19.8846063397
 20
10.9310701914
 30
0.0
 10
19.892257448
 20
10.9338950795
 30
0.0
 10
19.9023444452
 20
10.9362705813
 30
0.0
 10
19.9106476194
 20
10.9369044067
 30
0.0
 10
19.9148183383
 20
10.9369044067
 30
0.0
  0
SPLINE
  5
2DC
100
AcDbEntity
  8
0
100
AcDbSpline
 62
7
  6
CONTINUOUS
 70
0
 71
3
 72
20
 73
16
 74
0
 42
0.0000001
 43
0.0000001
 44
0.0000000001
 40
0.0
 40
0.0
 40
0.0
 40
0.0
 40
0.1356159928
 40
0.2695549494
 40
0.3354944967
 40
0.4005237686
 40
0.5273785141
 40
0.5892734867
 40
0.6501350927
 40
0.7100398598
 40
0.7691009798
 40
0.8274595884
 40
0.8852781815
 40
0.9427310597
 40
1.0
 40
1.0
 40
1.0
 40
1.0
 10
19.9148183383
 20
4.7153419223
 30
0.0
 10
19.9106476025
 20
4.7153419223
 30
0.0
 10
19.9023444046
 20
4.7159757519
 30
0.0
 10
19.8922573861
 20
4.7183512675
 30
0.0
 10
19.8846062754
 20
4.7211761648
 30
0.0
 10
19.8774184527
 20
4.7245394395
 30
0.0
 10
19.8707932885
 20
4.7287625854
 30
0.0
 10
19.8649728627
 20
4.7337832623
 30
0.0
 10
19.861100234
 20
4.7378668185
 30
0.0
 10
19.857730677
 20
4.7422655468
 30
0.0
 10
19.8549044592
 20
4.7469430224
 30
0.0
 10
19.852659599
 20
4.7518560069
 30
0.0
 10
19.8510292479
 20
4.7569547029
 30
0.0
 10
19.8500396702
 20
4.7621810205
 30
0.0
 10
19.8498183383
 20
4.7657131171
 30
0.0
 10
19.8498183383
 20
4.7674743667
 30
0.0
  0
SPLINE
  5
2DD
100
AcDbEntity
  8
0
100
AcDbSpline
 62
7
  6
CONTINUOUS
 70
0
 71
3
 72
20
 73
16
 74
0
 42
0.0000001
 43
0.0000001
 44
0.0000000001
 40
0.0
 40
0.0
 40
0.0
 40
0.0
 40
0.0572687018
 40
0.1147214952
 40
0.1725400965
 40
0.2308987982
 40
0.2899600714
 40
0.3498650216
 40
0.4107268164
 40
0.4726219692
 40
0.5994769604
 40
0.6645062769
 40
0.7304458102
 40
0.8643845588
 40
1.0
 40
1.0
 40
1.0
 40
1.0
 10
20.8498183383
 20
4.7674743667
 30
0.0
 10
20.8498183383
 20
4.7657131244
 30
0.0
 10
20.8495970078
 20
4.7621810378
 30
0.0
 10
20.8486074355
 20
4.7569547291
 30
0.0
 10
20.8469770876
 20
4.7518560315
 30
0.0
 10
20.8447322267
 20
4.7469430387
 30
0.0
 10
20.8419060031
 20
4.742265551
 30
0.0
 10
20.8385364359
 20
4.7378668101
 30
0.0
 10
20.8346637939
 20
4.733783243
 30
0.0
 10
20.8288433505
 20
4.7287625573
 30
0.0
 10
20.8222181703
 20
4.7245394093
 30
0.0
 10
20.8150303368
 20
4.7211761377
 30
0.0
 10
20.8073792285
 20
4.7183512495
 30
0.0
 10
20.7972922314
 20
4.7159757478
 30
0.0
 10
20.7889890571
 20
4.7153419223
 30
0.0
 10
20.7848183383
 20
4.7153419223
 30
0.0
  0
SPLINE
  5
2DE
100
AcDbEntity
  8
0
100
AcDbSpline
 62
7
  6
CONTINUOUS
 70
0
 71
3
 72
51
 73
47
 74
0
 42
0.0000001
 43
0.0000001
 44
0.0000000001
 40
0.0
 40
0.0
 40
0.0
 40
0.0
 40
0.0136809524
 40
0.0274240112
 40
0.041243607
 40
0.0551534846
 40
0.0691664764
 40
0.0832944221
 40
0.097548051
 40
0.1119368922
 40
0.1264692162
 40
0.1411519794
 40
0.1559907881
 40
0.1709898601
 40
0.2014710385
 40
0.2326100853
 40
0.2643920895
 40
0.2967824046
 40
0.3297285093
 40
0.3631622282
 40
0.3970021463
 40
0.4311561307
 40
0.465523999
 40
0.5000001584
 40
0.5344763155
 40
0.5688441772
 40
0.60299815
 40
0.6368380526
 40
0.6702717526
 40
0.7032178345
 40
0.7356081241
 40
0.7673901014
 40
0.7985291195
 40
0.8290102687
 40
0.8440093265
 40
0.8588481212
 40
0.8735308706
 40
0.8880631813
 40
0.9024520099
 40
0.916705627
 40
0.9308335617
 40
0.9448465435
 40
0.9587564123
 40
0.9725760004
 40
0.9863190526
 40
1.0
 40
1.0
 40
1.0
 40
1.0
 10
20.8353975056
 20
10.9175322508
 30
0.0
 10
20.8344045183
 20
10.9232361104
 30
0.0
 10
20.8320833224
 20
10.9346148952
 30
0.0
 10
20.8276217893
 20
10.9514981622
 30
0.0
 10
20.8221847372
 20
10.9681953436
 30
0.0
 10
20.8157857087
 20
10.9846702208
 30
0.0
 10
20.808440338
 20
11.0008886479
 30
0.0
 10
20.8001661884
 20
11.0168173052
 30
0.0
 10
20.7909824716
 20
11.0324240012
 30
0.0
 10
20.7809102373
 20
11.0476777399
 30
0.0
 10
20.7699720543
 20
11.0625487068
 30
0.0
 10
20.7581919422
 20
11.0770080252
 30
0.0
 10
20.7455950081
 20
11.0910283659
 30
0.0
 10
20.7276525306
 20
11.1091961554
 30
0.0
 10
20.7032853849
 20
11.1306607138
 30
0.0
 10
20.6714079603
 20
11.1541113975
 30
0.0
 10
20.6369888587
 20
11.1752282637
 30
0.0
 10
20.6003049191
 20
11.1938551741
 30
0.0
 10
20.5616466095
 20
11.209856141
 30
0.0
 10
20.5213192593
 20
11.2231131167
 30
0.0
 10
20.4796406424
 20
11.2335279784
 30
0.0
 10
20.4369390633
 20
11.2410233187
 30
0.0
 10
20.3935508865
 20
11.245543083
 30
0.0
 10
20.3498180176
 20
11.2470534034
 30
0.0
 10
20.3060851533
 20
11.2455430356
 30
0.0
 10
20.2626969891
 20
11.2410232347
 30
0.0
 10
20.219995432
 20
11.2335278503
 30
0.0
 10
20.1783168455
 20
11.2231129483
 30
0.0
 10
20.1379895299
 20
11.2098559447
 30
0.0
 10
20.0993312638
 20
11.1938549465
 30
0.0
 10
20.0626473726
 20
11.1752280115
 30
0.0
 10
20.0282283191
 20
11.1541111326
 30
0.0
 10
19.9963509484
 20
11.1306604362
 30
0.0
 10
19.9719838474
 20
11.1091958734
 30
0.0
 10
19.9540414039
 20
11.0910280845
 30
0.0
 10
19.9414444938
 20
11.0770077463
 30
0.0
 10
19.9296644084
 20
11.0625484284
 30
0.0
 10
19.9187262483
 20
11.0476774657
 30
0.0
 10
19.9086540357
 20
11.0324237317
 30
0.0
 10
19.8994703421
 20
11.0168170394
 30
0.0
 10
19.8911962123
 20
11.0008883876
 30
0.0
 10
19.8838508601
 20
10.9846699659
 30
0.0
 10
19.8774518506
 20
10.9681950933
 30
0.0
 10
19.8720148151
 20
10.9514979169
 30
0.0
 10
19.8675532975
 20
10.9346146542
 30
0.0
 10
19.8652321122
 20
10.9232358722
 30
0.0
 10
19.8642391298
 20
10.917532014
 30
0.0
  0
SPLINE
  5
2DF
100
AcDbEntity
  8
0
100
AcDbSpline
 62
7
  6
CONTINUOUS
 70
0
 71
3
 72
22
 73
18
 74
0
 42
0.0000001
 43
0.0000001
 44
0.0000000001
 40
0.0
 40
0.0
 40
0.0
 40
0.0
 40
0.0540389047
 40
0.1084409952
 40
0.1635450645
 40
0.2196547145
 40
0.2481781318
 40
0.2770410258
 40
0.3358443353
 40
0.3962074445
 40
0.4581835095
 40
0.5217620111
 40
0.5868738553
 40
0.7210521696
 40
0.7898635962
 40
0.8594817888
 40
1.0
 40
1.0
 40
1.0
 40
1.0
 10
20.8133183383
 20
5.3880538673
 30
0.0
 10
20.8133183383
 20
5.3900602423
 30
0.0
 10
20.8130590672
 20
5.3940911703
 30
0.0
 10
20.8118978412
 20
5.4000670548
 30
0.0
 10
20.8099763372
 20
5.4059244836
 30
0.0
 10
20.8077693332
 20
5.4106343457
 30
0.0
 10
20.8056565779
 20
5.4142825593
 30
0.0
 10
20.8032853028
 20
5.4178887698
 30
0.0
 10
20.7998853124
 20
5.4222219146
 30
0.0
 10
20.7951925796
 20
5.4270556682
 30
0.0
 10
20.7899066586
 20
5.4315118762
 30
0.0
 10
20.7840784009
 20
5.4355484297
 30
0.0
 10
20.7755787233
 20
5.4403663421
 30
0.0
 10
20.7663049818
 20
5.4441306665
 30
0.0
 10
20.7565344998
 20
5.4468026451
 30
0.0
 10
20.7463547572
 20
5.4487524766
 30
0.0
 10
20.7385355466
 20
5.4493374228
 30
0.0
 10
20.7333183383
 20
5.4493374228
 30
0.0
  0
SPLINE
  5
2E0
100
AcDbEntity
  8
0
100
AcDbSpline
 62
9
  6
CONTINUOUS
 70
0
 71
3
 72
51
 73
47
 74
0
 42
0.0000001
 43
0.0000001
 44
0.0000000001
 40
0.0
 40
0.0
 40
0.0
 40
0.0
 40
0.0134438816
 40
0.0269616902
 40
0.0405698023
 40
0.0542837725
 40
0.0681178941
 40
0.0820851396
 40
0.0961970655
 40
0.1104637268
 40
0.1248936537
 40
0.1394937791
 40
0.1542694622
 40
0.1692245061
 40
0.1996724423
 40
0.2308458442
 40
0.2627222737
 40
0.2952589272
 40
0.3283950147
 40
0.3620542567
 40
0.3961474557
 40
0.4305751147
 40
0.4652300258
 40
0.4999998441
 40
0.5347696646
 40
0.5694245824
 40
0.6038522525
 40
0.6379454666
 40
0.6716047273
 40
0.7047408369
 40
0.7372775152
 40
0.7691539714
 40
0.8003274014
 40
0.8307753661
 40
0.8457304242
 40
0.8605061212
 40
0.8751062602
 40
0.8895362001
 40
0.9038028739
 40
0.9179148114
 40
0.9318820678
 40
0.9457161994
 40
0.9594301785
 40
0.9730382982
 40
0.9865561133
 40
1.0
 40
1.0
 40
1.0
 40
1.0
 10
19.864398692
 20
10.9177120205
 30
0.0
 10
19.8653992914
 20
10.9232785226
 30
0.0
 10
19.8677297744
 20
10.9343866247
 30
0.0
 10
19.8721858183
 20
10.9508710511
 30
0.0
 10
19.8776018119
 20
10.967185679
 30
0.0
 10
19.8839665503
 20
10.9832968567
 30
0.0
 10
19.8912669385
 20
10.9991724664
 30
0.0
 10
19.8994882509
 20
11.0147804937
 30
0.0
 10
19.9086137648
 20
11.030089629
 30
0.0
 10
19.9186248677
 20
11.0450692447
 30
0.0
 10
19.9295014672
 20
11.0596892584
 30
0.0
 10
19.941221417
 20
11.0739203875
 30
0.0
 10
19.9537613571
 20
11.0877344872
 30
0.0
 10
19.9716450684
 20
11.1056647891
 30
0.0
 10
19.9959536075
 20
11.1268771428
 30
0.0
 10
20.0277727224
 20
11.1500790608
 30
0.0
 10
20.0621649684
 20
11.1710035937
 30
0.0
 10
20.0988531975
 20
11.1894842994
 30
0.0
 10
20.1375445917
 20
11.2053759859
 30
0.0
 10
20.1779300233
 20
11.2185531091
 30
0.0
 10
20.2196871304
 20
11.2289117021
 30
0.0
 10
20.2624826669
 20
11.236369856
 30
0.0
 10
20.3059751414
 20
11.240868487
 30
0.0
 10
20.3498174796
 20
11.2423720245
 30
0.0
 10
20.3936598246
 20
11.2408686045
 30
0.0
 10
20.4371523196
 20
11.2363700902
 30
0.0
 10
20.4799478901
 20
11.228912051
 30
0.0
 10
20.5217050444
 20
11.2185535701
 30
0.0
 10
20.5620905361
 20
11.2053765553
 30
0.0
 10
20.6007820026
 20
11.1894849727
 30
0.0
 10
20.637470316
 20
11.1710043654
 30
0.0
 10
20.6718626573
 20
11.1500799251
 30
0.0
 10
20.7036818779
 20
11.1268780928
 30
0.0
 10
20.7279905137
 20
11.1056658047
 30
0.0
 10
20.7458743069
 20
11.0877355509
 30
0.0
 10
20.7584143102
 20
11.073921485
 30
0.0
 10
20.7701343251
 20
11.0596903874
 30
0.0
 10
20.7810109915
 20
11.045070403
 30
0.0
 10
20.7910221629
 20
11.0300908143
 30
0.0
 10
20.8001477468
 20
11.0147817036
 30
0.0
 10
20.8083691306
 20
10.9991736984
 30
0.0
 10
20.8156695915
 20
10.9832981085
 30
0.0
 10
20.8220344036
 20
10.9671869479
 30
0.0
 10
20.8274504719
 20
10.9508723347
 30
0.0
 10
20.8319065913
 20
10.9343879203
 30
0.0
 10
20.8342371253
 20
10.9232798239
 30
0.0
 10
20.8352377502
 20
10.9177133243
 30
0.0
  0
SPLINE
  5
2E1
100
AcDbEntity
  8
0
100
AcDbSpline
 62
7
  6
CONTINUOUS
 70
0
 71
3
 72
51
 73
47
 74
0
 42
0.0000001
 43
0.0000001
 44
0.0000000001
 40
0.0
 40
0.0
 40
0.0
 40
0.0
 40
0.0134435443
 40
0.0269599832
 40
0.0405658262
 40
0.0542767711
 40
0.0681072808
 40
0.0820704879
 40
0.0961780886
 40
0.1104402863
 40
0.1248657508
 40
0.1394615328
 40
0.1542331051
 40
0.1691843705
 40
0.1996260327
 40
0.2307953544
 40
0.2626702325
 40
0.2952079867
 40
0.3283477749
 40
0.3620131295
 40
0.3961145153
 40
0.430552016
 40
0.4652179075
 40
0.4999992999
 40
0.5347807024
 40
0.5694466242
 40
0.6038841746
 40
0.6379856284
 40
0.6716510677
 40
0.7047909552
 40
0.7373288208
 40
0.7692038194
 40
0.8003732675
 40
0.830815058
 40
0.8457663869
 40
0.8605380216
 40
0.8751338644
 40
0.8895593875
 40
0.9038216411
 40
0.9179292943
 40
0.9318925501
 40
0.9457231041
 40
0.9594340885
 40
0.9730399657
 40
0.9865564331
 40
1.0
 40
1.0
 40
1.0
 40
1.0
 10
20.8329849307
 20
10.9290468685
 30
0.0
 10
20.8320118014
 20
10.9346004113
 30
0.0
 10
20.8297362756
 20
10.9456835332
 30
0.0
 10
20.8253621353
 20
10.9621338001
 30
0.0
 10
20.8200276577
 20
10.9784166833
 30
0.0
 10
20.813743993
 20
10.9944984414
 30
0.0
 10
20.8065241093
 20
11.0103468531
 30
0.0
 10
20.7983826244
 20
11.0259297969
 30
0.0
 10
20.7893362212
 20
11.0412158842
 30
0.0
 10
20.7794034099
 20
11.056174368
 30
0.0
 10
20.7686042237
 20
11.0707750657
 30
0.0
 10
20.7569607828
 20
11.0849886126
 30
0.0
 10
20.7444963783
 20
11.0987867401
 30
0.0
 10
20.7267123829
 20
11.1166979333
 30
0.0
 10
20.7025256449
 20
11.1378901115
 30
0.0
 10
20.6708481904
 20
11.1610723798
 30
0.0
 10
20.6365935948
 20
11.1819814147
 30
0.0
 10
20.6000392203
 20
11.2004501278
 30
0.0
 10
20.5614782028
 20
11.2163327578
 30
0.0
 10
20.5212200816
 20
11.2295032377
 30
0.0
 10
20.4795877171
 20
11.2398571735
 30
0.0
 10
20.436914932
 20
11.2473123133
 30
0.0
 10
20.3935438391
 20
11.2518093206
 30
0.0
 10
20.3498221778
 20
11.2533124712
 30
0.0
 10
20.3061004857
 20
11.2518098474
 30
0.0
 10
20.2627293006
 20
11.2473133628
 30
0.0
 10
20.2200563629
 20
11.2398587374
 30
0.0
 10
20.1784237863
 20
11.2295053034
 30
0.0
 10
20.1381653955
 20
11.2163353091
 30
0.0
 10
20.0996040528
 20
11.2004531444
 30
0.0
 10
20.0630493001
 20
11.1819848726
 30
0.0
 10
20.0287942762
 20
11.1610762517
 30
0.0
 10
19.9971163469
 20
11.1378943668
 30
0.0
 10
19.9729291751
 20
11.1167024822
 30
0.0
 10
19.9551448118
 20
11.0987915042
 30
0.0
 10
19.9426801237
 20
11.0849935274
 30
0.0
 10
19.9310363906
 20
11.0707801214
 30
0.0
 10
19.9202369043
 20
11.0561795544
 30
0.0
 10
19.9103037855
 20
11.0412211908
 30
0.0
 10
19.9012570679
 20
11.0259352131
 30
0.0
 10
19.8931152626
 20
11.0103523679
 30
0.0
 10
19.885895053
 20
10.9945040438
 30
0.0
 10
19.8796110574
 20
10.9784223619
 30
0.0
 10
19.8742762449
 20
10.9621395434
 30
0.0
 10
19.869901766
 20
10.9456893297
 30
0.0
 10
19.8676260116
 20
10.9346062328
 30
0.0
 10
19.8666527678
 20
10.9290527005
 30
0.0
  0
SPLINE
  5
2E2
100
AcDbEntity
  8
0
100
AcDbSpline
 62
9
  6
CONTINUOUS
 70
0
 71
3
 72
49
 73
45
 74
0
 42
0.0000001
 43
0.0000001
 44
0.0000000001
 40
0.0
 40
0.0
 40
0.0
 40
0.0
 40
0.0135006101
 40
0.0270250126
 40
0.0405939722
 40
0.0542303056
 40
0.0679546997
 40
0.0817867288
 40
0.0957446165
 40
0.1098448283
 40
0.124101994
 40
0.1385287944
 40
0.167921013
 40
0.1980928855
 40
0.2290709814
 40
0.2608500406
 40
0.2933955245
 40
0.3266468236
 40
0.3605207546
 40
0.394915332
 40
0.4297135118
 40
0.4647869945
 40
0.5
 40
0.5352130055
 40
0.5702864882
 40
0.605084668
 40
0.6394792454
 40
0.6733531764
 40
0.7066044755
 40
0.7391499594
 40
0.7709290186
 40
0.8019071145
 40
0.832078987
 40
0.8614712056
 40
0.875898006
 40
0.8901551717
 40
0.9042553835
 40
0.9182132712
 40
0.9320453003
 40
0.9457696944
 40
0.9594060278
 40
0.9729749874
 40
0.9864993899
 40
1.0
 40
1.0
 40
1.0
 40
1.0
 10
20.8373183383
 20
11.0112607484
 30
0.0
 10
20.8373183383
 20
11.0173717586
 30
0.0
 10
20.8369258332
 20
11.0296081568
 30
0.0
 10
20.8351620993
 20
11.0479099933
 30
0.0
 10
20.8322270579
 20
11.0661237384
 30
0.0
 10
20.8281283348
 20
11.0842038144
 30
0.0
 10
20.8228758869
 20
11.1021069765
 30
0.0
 10
20.8164827432
 20
11.1197897411
 30
0.0
 10
20.8089645789
 20
11.1372094244
 30
0.0
 10
20.8003398626
 20
11.1543238466
 30
0.0
 10
20.7906293585
 20
11.1710922997
 30
0.0
 10
20.7761797684
 20
11.1930669942
 30
0.0
 10
20.7554608302
 20
11.2194724174
 30
0.0
 10
20.7268647572
 20
11.2489279679
 30
0.0
 10
20.6946530073
 20
11.2760833057
 30
0.0
 10
20.659139476
 20
11.3006798929
 30
0.0
 10
20.620665607
 20
11.322487362
 30
0.0
 10
20.5796006732
 20
11.3413000569
 30
0.0
 10
20.5363380313
 20
11.3569409185
 30
0.0
 10
20.4912915897
 20
11.3692620993
 30
0.0
 10
20.4448922325
 20
11.378147225
 30
0.0
 10
20.3975836797
 20
11.3835122257
 30
0.0
 10
20.3498183383
 20
11.3853061603
 30
0.0
 10
20.3020529969
 20
11.3835122257
 30
0.0
 10
20.254744444
 20
11.378147225
 30
0.0
 10
20.2083450868
 20
11.3692620993
 30
0.0
 10
20.1632986452
 20
11.3569409185
 30
0.0
 10
20.1200360034
 20
11.3413000569
 30
0.0
 10
20.0789710695
 20
11.322487362
 30
0.0
 10
20.0404972006
 20
11.3006798929
 30
0.0
 10
20.0049836693
 20
11.2760833057
 30
0.0
 10
19.9727719194
 20
11.2489279679
 30
0.0
 10
19.9441758463
 20
11.2194724174
 30
0.0
 10
19.9234569082
 20
11.1930669942
 30
0.0
 10
19.909007318
 20
11.1710922997
 30
0.0
 10
19.899296814
 20
11.1543238466
 30
0.0
 10
19.8906720977
 20
11.1372094244
 30
0.0
 10
19.8831539334
 20
11.1197897411
 30
0.0
 10
19.8767607897
 20
11.1021069765
 30
0.0
 10
19.8715083417
 20
11.0842038144
 30
0.0
 10
19.8674096187
 20
11.0661237384
 30
0.0
 10
19.8644745773
 20
11.0479099933
 30
0.0
 10
19.8627108433
 20
11.0296081568
 30
0.0
 10
19.8623183383
 20
11.0173717586
 30
0.0
 10
19.8623183383
 20
11.0112607484
 30
0.0
  0
LINE
  5
2E3
100
AcDbEntity
  8
0
100
AcDbLine
 62
9
  6
CONTINUOUS
 10
15.7590443254
 20
11.0312953888
 11
15.7589847942
 21
11.0311115639
  0
LINE
  5
2E4
100
AcDbEntity
  8
0
100
AcDbLine
 62
9
  6
CONTINUOUS
 10
15.7589847942
 20
11.0311115639
 11
15.7589204955
 21
11.0309142519
  0
SPLINE
  5
2E5
100
AcDbEntity
  8
0
100
AcDbSpline
 62
9
  6
CONTINUOUS
 70
0
 71
3
 72
16
 73
12
 74
0
 42
0.0000001
 43
0.0000001
 44
0.0000000001
 40
0.0
 40
0.0
 40
0.0
 40
0.0
 40
0.145214826
 40
0.2843320365
 40
0.4170659809
 40
0.4811580252
 40
0.5438077174
 40
0.664576642
 40
0.7794233914
 40
0.8904135238
 40
1.0
 40
1.0
 40
1.0
 40
1.0
 10
15.7589204955
 20
11.0309142519
 30
0.0
 10
15.7585814602
 20
11.0298772483
 30
0.0
 10
15.7578867931
 20
11.0278565682
 30
0.0
 10
15.7567473455
 20
11.0249364984
 30
0.0
 10
15.7557064682
 20
11.0226353375
 30
0.0
 10
15.7548164833
 20
11.0209004333
 30
0.0
 10
15.7539089903
 20
11.0192770055
 30
0.0
 10
15.7526995232
 20
11.0173866069
 30
0.0
 10
15.7510706689
 20
11.0153472477
 30
0.0
 10
15.7492583327
 20
11.013586127
 30
0.0
 10
15.74791654
 20
11.0126021906
 30
0.0
 10
15.7472187835
 20
11.0121651308
 30
0.0
  0
LINE
  5
2E6
100
AcDbEntity
  8
0
100
AcDbLine
 62
9
  6
CONTINUOUS
 10
1.9405923511
 20
11.295368332
 11
1.9406518824
 21
11.2955521569
  0
LINE
  5
2E7
100
AcDbEntity
  8
0
100
AcDbLine
 62
9
  6
CONTINUOUS
 10
1.9406518824
 20
11.2955521569
 11
1.9407161811
 21
11.2957494689
  0
SPLINE
  5
2E8
100
AcDbEntity
  8
0
100
AcDbSpline
 62
9
  6
CONTINUOUS
 70
0
 71
3
 72
16
 73
12
 74
0
 42
0.0000001
 43
0.0000001
 44
0.0000000001
 40
0.0
 40
0.0
 40
0.0
 40
0.0
 40
0.145214826
 40
0.2843320365
 40
0.4170659809
 40
0.4811580252
 40
0.5438077174
 40
0.664576642
 40
0.7794233914
 40
0.8904135238
 40
1.0
 40
1.0
 40
1.0
 40
1.0
 10
1.9407161811
 20
11.2957494689
 30
0.0
 10
1.9410552163
 20
11.2967864725
 30
0.0
 10
1.9417498834
 20
11.2988071526
 30
0.0
 10
1.9428893311
 20
11.3017272224
 30
0.0
 10
1.9439302084
 20
11.3040283833
 30
0.0
 10
1.9448201932
 20
11.3057632875
 30
0.0
 10
1.9457276863
 20
11.3073867153
 30
0.0
 10
1.9469371533
 20
11.3092771139
 30
0.0
 10
1.9485660076
 20
11.3113164731
 30
0.0
 10
1.9503783438
 20
11.3130775938
 30
0.0
 10
1.9517201366
 20
11.3140615302
 30
0.0
 10
1.952417893
 20
11.31449859
 30
0.0
  0
SPLINE
  5
2E9
100
AcDbEntity
  8
0
100
AcDbSpline
 62
9
  6
CONTINUOUS
 70
0
 71
3
 72
21
 73
17
 74
0
 42
0.0000001
 43
0.0000001
 44
0.0000000001
 40
0.0
 40
0.0
 40
0.0
 40
0.0
 40
0.0540389833
 40
0.1084432633
 40
0.1635481563
 40
0.2196594385
 40
0.2770239661
 40
0.3358286763
 40
0.3961932623
 40
0.4581709094
 40
0.5217510682
 40
0.5868645768
 40
0.721046157
 40
0.7898596381
 40
0.8594788277
 40
1.0
 40
1.0
 40
1.0
 40
1.0
 10
20.8033183383
 20
5.3816259912
 30
0.0
 10
20.8033183383
 20
5.3833815312
 30
0.0
 10
20.8030914499
 20
5.3869085953
 30
0.0
 10
20.8020754627
 20
5.3921374229
 30
0.0
 10
20.8003939592
 20
5.3972629053
 30
0.0
 10
20.798064835
 20
5.4022337432
 30
0.0
 10
20.7951117683
 20
5.4070022546
 30
0.0
 10
20.7915645841
 20
5.411522812
 30
0.0
 10
20.7874582864
 20
5.4157526245
 30
0.0
 10
20.7828331444
 20
5.4196517478
 30
0.0
 10
20.777733389
 20
5.4231837556
 30
0.0
 10
20.7702961517
 20
5.4273994124
 30
0.0
 10
20.7621816004
 20
5.430693205
 30
0.0
 10
20.7536324221
 20
5.4330311582
 30
0.0
 10
20.7447251684
 20
5.4347372917
 30
0.0
 10
20.737883386
 20
5.4352491022
 30
0.0
 10
20.7333183383
 20
5.4352491022
 30
0.0
  0
SPLINE
  5
2EA
100
AcDbEntity
  8
0
100
AcDbSpline
 62
9
  6
CONTINUOUS
 70
0
 71
3
 72
21
 73
17
 74
0
 42
0.0000001
 43
0.0000001
 44
0.0000000001
 40
0.0
 40
0.0
 40
0.0
 40
0.0
 40
0.1405211722
 40
0.2101403618
 40
0.278953843
 40
0.4131354232
 40
0.4782489317
 40
0.5418290905
 40
0.6038067377
 40
0.6641713236
 40
0.7229760338
 40
0.7803405614
 40
0.8364518436
 40
0.8915567367
 40
0.9459610166
 40
1.0
 40
1.0
 40
1.0
 40
1.0
 10
20.7333183383
 20
4.7404467923
 30
0.0
 10
20.737883386
 20
4.7404467923
 30
0.0
 10
20.7447251684
 20
4.7409586028
 30
0.0
 10
20.7536324221
 20
4.7426647364
 30
0.0
 10
20.7621816004
 20
4.7450026896
 30
0.0
 10
20.7702961517
 20
4.7482964822
 30
0.0
 10
20.777733389
 20
4.752512139
 30
0.0
 10
20.7828331444
 20
4.7560441467
 30
0.0
 10
20.7874582864
 20
4.7599432701
 30
0.0
 10
20.7915645841
 20
4.7641730825
 30
0.0
 10
20.7951117683
 20
4.76869364
 30
0.0
 10
20.798064835
 20
4.7734621514
 30
0.0
 10
20.8003939592
 20
4.7784329892
 30
0.0
 10
20.8020754627
 20
4.7835584716
 30
0.0
 10
20.8030914499
 20
4.7887872993
 30
0.0
 10
20.8033183383
 20
4.7923143633
 30
0.0
 10
20.8033183383
 20
4.7940699033
 30
0.0
  0
SPLINE
  5
2EB
100
AcDbEntity
  8
0
100
AcDbSpline
 62
9
  6
CONTINUOUS
 70
0
 71
3
 72
21
 73
17
 74
0
 42
0.0000001
 43
0.0000001
 44
0.0000000001
 40
0.0
 40
0.0
 40
0.0
 40
0.0
 40
0.0540389833
 40
0.1084432633
 40
0.1635481563
 40
0.2196594385
 40
0.2770239661
 40
0.3358286763
 40
0.3961932623
 40
0.4581709094
 40
0.5217510682
 40
0.5868645768
 40
0.721046157
 40
0.7898596381
 40
0.8594788277
 40
1.0
 40
1.0
 40
1.0
 40
1.0
 10
19.8963183383
 20
4.7940699033
 30
0.0
 10
19.8963183383
 20
4.7923143633
 30
0.0
 10
19.8965452266
 20
4.7887872993
 30
0.0
 10
19.8975612138
 20
4.7835584716
 30
0.0
 10
19.8992427174
 20
4.7784329892
 30
0.0
 10
19.9015718416
 20
4.7734621514
 30
0.0
 10
19.9045249082
 20
4.76869364
 30
0.0
 10
19.9080720925
 20
4.7641730825
 30
0.0
 10
19.9121783902
 20
4.7599432701
 30
0.0
 10
19.9168035321
 20
4.7560441467
 30
0.0
 10
19.9219032876
 20
4.752512139
 30
0.0
 10
19.9293405249
 20
4.7482964822
 30
0.0
 10
19.9374550761
 20
4.7450026896
 30
0.0
 10
19.9460042545
 20
4.7426647364
 30
0.0
 10
19.9549115081
 20
4.7409586028
 30
0.0
 10
19.9617532906
 20
4.7404467923
 30
0.0
 10
19.9663183383
 20
4.7404467923
 30
0.0
  0
SPLINE
  5
2EC
100
AcDbEntity
  8
0
100
AcDbSpline
 62
9
  6
CONTINUOUS
 70
0
 71
3
 72
21
 73
17
 74
0
 42
0.0000001
 43
0.0000001
 44
0.0000000001
 40
0.0
 40
0.0
 40
0.0
 40
0.0
 40
0.1405211722
 40
0.2101403618
 40
0.278953843
 40
0.4131354232
 40
0.4782489317
 40
0.5418290905
 40
0.6038067377
 40
0.6641713236
 40
0.7229760338
 40
0.7803405614
 40
0.8364518436
 40
0.8915567367
 40
0.9459610166
 40
1.0
 40
1.0
 40
1.0
 40
1.0
 10
19.9663183383
 20
5.4352491022
 30
0.0
 10
19.9617532906
 20
5.4352491022
 30
0.0
 10
19.9549115081
 20
5.4347372917
 30
0.0
 10
19.9460042545
 20
5.4330311582
 30
0.0
 10
19.9374550761
 20
5.430693205
 30
0.0
 10
19.9293405249
 20
5.4273994124
 30
0.0
 10
19.9219032876
 20
5.4231837556
 30
0.0
 10
19.9168035321
 20
5.4196517479
 30
0.0
 10
19.9121783902
 20
5.4157526245
 30
0.0
 10
19.9080720925
 20
5.411522812
 30
0.0
 10
19.9045249082
 20
5.4070022546
 30
0.0
 10
19.9015718416
 20
5.4022337432
 30
0.0
 10
19.8992427174
 20
5.3972629053
 30
0.0
 10
19.8975612138
 20
5.3921374229
 30
0.0
 10
19.8965452266
 20
5.3869085953
 30
0.0
 10
19.8963183383
 20
5.3833815312
 30
0.0
 10
19.8963183383
 20
5.3816259912
 30
0.0
  0
SPLINE
  5
2ED
100
AcDbEntity
  8
0
100
AcDbSpline
 62
9
  6
CONTINUOUS
 70
0
 71
3
 72
16
 73
12
 74
0
 42
0.0000001
 43
0.0000001
 44
0.0000000001
 40
0.0
 40
0.0
 40
0.0
 40
0.0
 40
0.1499359263
 40
0.2965208159
 40
0.4367331396
 40
0.5681394376
 40
0.6892990468
 40
0.8001542149
 40
0.9024174938
 40
0.95155123
 40
1.0
 40
1.0
 40
1.0
 40
1.0
 10
20.8033183383
 20
4.7940699033
 30
0.0
 10
20.8039699602
 20
4.7940699033
 30
0.0
 10
20.8052601728
 20
4.7941506115
 30
0.0
 10
20.8071290473
 20
4.7945108042
 30
0.0
 10
20.8088562516
 20
4.7950965423
 30
0.0
 10
20.8103775887
 20
4.7958872377
 30
0.0
 10
20.8116369662
 20
4.7968566109
 30
0.0
 10
20.8125858317
 20
4.7979730538
 30
0.0
 10
20.8130887503
 20
4.7990136169
 30
0.0
 10
20.8132855295
 20
4.7998624091
 30
0.0
 10
20.8133183383
 20
4.8002872209
 30
0.0
 10
20.8133183383
 20
4.8004977794
 30
0.0
  0
SPLINE
  5
2EE
100
AcDbEntity
  8
0
100
AcDbSpline
 62
9
  6
CONTINUOUS
 70
0
 71
3
 72
16
 73
12
 74
0
 42
0.0000001
 43
0.0000001
 44
0.0000000001
 40
0.0
 40
0.0
 40
0.0
 40
0.0
 40
0.1499359263
 40
0.2965208159
 40
0.4367331396
 40
0.5681394376
 40
0.6892990468
 40
0.8001542149
 40
0.9024174938
 40
0.95155123
 40
1.0
 40
1.0
 40
1.0
 40
1.0
 10
19.8963183383
 20
4.7940699033
 30
0.0
 10
19.8956667163
 20
4.7940699033
 30
0.0
 10
19.8943765038
 20
4.7941506115
 30
0.0
 10
19.8925076293
 20
4.7945108042
 30
0.0
 10
19.8907804249
 20
4.7950965423
 30
0.0
 10
19.8892590879
 20
4.7958872377
 30
0.0
 10
19.8879997104
 20
4.7968566109
 30
0.0
 10
19.8870508449
 20
4.7979730538
 30
0.0
 10
19.8865479263
 20
4.7990136169
 30
0.0
 10
19.8863511471
 20
4.7998624091
 30
0.0
 10
19.8863183383
 20
4.8002872209
 30
0.0
 10
19.8863183383
 20
4.8004977794
 30
0.0
  0
SPLINE
  5
2EF
100
AcDbEntity
  8
0
100
AcDbSpline
 62
9
  6
CONTINUOUS
 70
0
 71
3
 72
16
 73
12
 74
0
 42
0.0000001
 43
0.0000001
 44
0.0000000001
 40
0.0
 40
0.0
 40
0.0
 40
0.0
 40
0.1499359263
 40
0.2965208159
 40
0.4367331396
 40
0.5681394376
 40
0.6892990468
 40
0.8001542149
 40
0.9024174938
 40
0.95155123
 40
1.0
 40
1.0
 40
1.0
 40
1.0
 10
19.8963183383
 20
5.3816259912
 30
0.0
 10
19.8956667163
 20
5.3816259912
 30
0.0
 10
19.8943765038
 20
5.3817066993
 30
0.0
 10
19.8925076293
 20
5.3820668921
 30
0.0
 10
19.8907804249
 20
5.3826526302
 30
0.0
 10
19.8892590879
 20
5.3834433255
 30
0.0
 10
19.8879997104
 20
5.3844126988
 30
0.0
 10
19.8870508449
 20
5.3855291417
 30
0.0
 10
19.8865479263
 20
5.3865697048
 30
0.0
 10
19.8863511471
 20
5.387418497
 30
0.0
 10
19.8863183383
 20
5.3878433088
 30
0.0
 10
19.8863183383
 20
5.3880538673
 30
0.0
  0
SPLINE
  5
2F0
100
AcDbEntity
  8
0
100
AcDbSpline
 62
9
  6
CONTINUOUS
 70
0
 71
3
 72
16
 73
12
 74
0
 42
0.0000001
 43
0.0000001
 44
0.0000000001
 40
0.0
 40
0.0
 40
0.0
 40
0.0
 40
0.1499359263
 40
0.2965208159
 40
0.4367331396
 40
0.5681394376
 40
0.6892990468
 40
0.8001542149
 40
0.9024174938
 40
0.95155123
 40
1.0
 40
1.0
 40
1.0
 40
1.0
 10
20.8033183383
 20
5.3816259912
 30
0.0
 10
20.8039699602
 20
5.3816259912
 30
0.0
 10
20.8052601728
 20
5.3817066993
 30
0.0
 10
20.8071290473
 20
5.3820668921
 30
0.0
 10
20.8088562516
 20
5.3826526302
 30
0.0
 10
20.8103775887
 20
5.3834433255
 30
0.0
 10
20.8116369662
 20
5.3844126988
 30
0.0
 10
20.8125858317
 20
5.3855291417
 30
0.0
 10
20.8130887503
 20
5.3865697048
 30
0.0
 10
20.8132855295
 20
5.387418497
 30
0.0
 10
20.8133183383
 20
5.3878433088
 30
0.0
 10
20.8133183383
 20
5.3880538673
 30
0.0
  0
SPLINE
  5
2F1
100
AcDbEntity
  8
0
100
AcDbSpline
 62
9
  6
CONTINUOUS
 70
0
 71
3
 72
16
 73
12
 74
0
 42
0.0000001
 43
0.0000001
 44
0.0000000001
 40
0.0
 40
0.0
 40
0.0
 40
0.0
 40
0.145214826
 40
0.2843320365
 40
0.4170659809
 40
0.4811580252
 40
0.5438077174
 40
0.664576642
 40
0.7794233914
 40
0.8904135238
 40
1.0
 40
1.0
 40
1.0
 40
1.0
 10
10.7589204955
 20
11.0309142519
 30
0.0
 10
10.7585814602
 20
11.0298772483
 30
0.0
 10
10.7578867931
 20
11.0278565682
 30
0.0
 10
10.7567473455
 20
11.0249364984
 30
0.0
 10
10.7557064682
 20
11.0226353375
 30
0.0
 10
10.7548164833
 20
11.0209004333
 30
0.0
 10
10.7539089903
 20
11.0192770055
 30
0.0
 10
10.7526995232
 20
11.0173866069
 30
0.0
 10
10.7510706689
 20
11.0153472477
 30
0.0
 10
10.7492583327
 20
11.013586127
 30
0.0
 10
10.74791654
 20
11.0126021906
 30
0.0
 10
10.7472187835
 20
11.0121651308
 30
0.0
  0
SPLINE
  5
2F2
100
AcDbEntity
  8
0
100
AcDbSpline
 62
9
  6
CONTINUOUS
 70
0
 71
3
 72
21
 73
17
 74
0
 42
0.0000001
 43
0.0000001
 44
0.0000000001
 40
0.0
 40
0.0
 40
0.0
 40
0.0
 40
0.1405220478
 40
0.2101410161
 40
0.2789543092
 40
0.4131356838
 40
0.4782490759
 40
0.5418290916
 40
0.6038066037
 40
0.6641710918
 40
0.7229757449
 40
0.7803401779
 40
0.8364513197
 40
0.8915560546
 40
0.945960626
 40
1.0
 40
1.0
 40
1.0
 40
1.0
 10
20.7848183383
 20
10.9345648512
 30
0.0
 10
20.7890573376
 20
10.9345648511
 30
0.0
 10
20.7954104414
 20
10.9340895949
 30
0.0
 10
20.8036814747
 20
10.9325053168
 30
0.0
 10
20.8116199785
 20
10.9303343617
 30
0.0
 10
20.819154903
 20
10.9272758419
 30
0.0
 10
20.8260608956
 20
10.9233613084
 30
0.0
 10
20.8307963725
 20
10.920081593
 30
0.0
 10
20.8350911389
 20
10.9164609864
 30
0.0
 10
20.838904125
 20
10.9125333112
 30
0.0
 10
20.8421979358
 20
10.9083356579
 30
0.0
 10
20.8449400683
 20
10.9039077643
 30
0.0
 10
20.8471028237
 20
10.8992919983
 30
0.0
 10
20.8486642293
 20
10.8945326251
 30
0.0
 10
20.8496076491
 20
10.8896772696
 30
0.0
 10
20.8498183383
 20
10.8864021184
 30
0.0
 10
20.8498183383
 20
10.8847719624
 30
0.0
  0
SPLINE
  5
2F3
100
AcDbEntity
  8
0
100
AcDbSpline
 62
9
  6
CONTINUOUS
 70
0
 71
3
 72
21
 73
17
 74
0
 42
0.0000001
 43
0.0000001
 44
0.0000000001
 40
0.0
 40
0.0
 40
0.0
 40
0.0
 40
0.054039374
 40
0.1084439454
 40
0.1635486803
 40
0.2196598221
 40
0.2770242551
 40
0.3358289082
 40
0.3961933963
 40
0.4581709084
 40
0.5217509241
 40
0.5868643162
 40
0.7210456908
 40
0.7898589839
 40
0.8594779522
 40
1.0
 40
1.0
 40
1.0
 40
1.0
 10
20.8498183383
 20
5.4339330322
 30
0.0
 10
20.8498183383
 20
5.4355631883
 30
0.0
 10
20.8496076491
 20
5.4388383394
 30
0.0
 10
20.8486642293
 20
5.443693695
 30
0.0
 10
20.8471028237
 20
5.4484530682
 30
0.0
 10
20.8449400683
 20
5.4530688341
 30
0.0
 10
20.8421979358
 20
5.4574967277
 30
0.0
 10
20.838904125
 20
5.461694381
 30
0.0
 10
20.8350911389
 20
5.4656220563
 30
0.0
 10
20.8307963725
 20
5.4692426629
 30
0.0
 10
20.8260608956
 20
5.4725223782
 30
0.0
 10
20.819154903
 20
5.4764369117
 30
0.0
 10
20.8116199785
 20
5.4794954316
 30
0.0
 10
20.8036814747
 20
5.4816663867
 30
0.0
 10
20.7954104414
 20
5.4832506648
 30
0.0
 10
20.7890573376
 20
5.483725921
 30
0.0
 10
20.7848183383
 20
5.483725921
 30
0.0
  0
SPLINE
  5
2F4
100
AcDbEntity
  8
0
100
AcDbSpline
 62
9
  6
CONTINUOUS
 70
0
 71
3
 72
21
 73
17
 74
0
 42
0.0000001
 43
0.0000001
 44
0.0000000001
 40
0.0
 40
0.0
 40
0.0
 40
0.0
 40
0.054039374
 40
0.1084439454
 40
0.1635486803
 40
0.2196598221
 40
0.2770242551
 40
0.3358289082
 40
0.3961933963
 40
0.4581709084
 40
0.5217509241
 40
0.5868643162
 40
0.7210456908
 40
0.7898589839
 40
0.8594779522
 40
1.0
 40
1.0
 40
1.0
 40
1.0
 10
19.8498183383
 20
10.8847719624
 30
0.0
 10
19.8498183383
 20
10.8864021184
 30
0.0
 10
19.8500290275
 20
10.8896772696
 30
0.0
 10
19.8509724473
 20
10.8945326251
 30
0.0
 10
19.8525338528
 20
10.8992919983
 30
0.0
 10
19.8546966083
 20
10.9039077643
 30
0.0
 10
19.8574387408
 20
10.9083356579
 30
0.0
 10
19.8607325515
 20
10.9125333112
 30
0.0
 10
19.8645455377
 20
10.9164609864
 30
0.0
 10
19.8688403041
 20
10.920081593
 30
0.0
 10
19.873575781
 20
10.9233613084
 30
0.0
 10
19.8804817736
 20
10.9272758419
 30
0.0
 10
19.8880166981
 20
10.9303343617
 30
0.0
 10
19.8959552019
 20
10.9325053168
 30
0.0
 10
19.9042262352
 20
10.9340895949
 30
0.0
 10
19.910579339
 20
10.9345648511
 30
0.0
 10
19.9148183383
 20
10.9345648512
 30
0.0
  0
SPLINE
  5
2F5
100
AcDbEntity
  8
0
100
AcDbSpline
 62
9
  6
CONTINUOUS
 70
0
 71
3
 72
21
 73
17
 74
0
 42
0.0000001
 43
0.0000001
 44
0.0000000001
 40
0.0
 40
0.0
 40
0.0
 40
0.0
 40
0.1405220478
 40
0.2101410161
 40
0.2789543092
 40
0.4131356838
 40
0.4782490759
 40
0.5418290916
 40
0.6038066037
 40
0.6641710918
 40
0.7229757449
 40
0.7803401779
 40
0.8364513197
 40
0.8915560546
 40
0.945960626
 40
1.0
 40
1.0
 40
1.0
 40
1.0
 10
19.9148183383
 20
5.483725921
 30
0.0
 10
19.910579339
 20
5.483725921
 30
0.0
 10
19.9042262352
 20
5.4832506648
 30
0.0
 10
19.8959552019
 20
5.4816663867
 30
0.0
 10
19.8880166981
 20
5.4794954316
 30
0.0
 10
19.8804817736
 20
5.4764369117
 30
0.0
 10
19.873575781
 20
5.4725223782
 30
0.0
 10
19.8688403041
 20
5.4692426629
 30
0.0
 10
19.8645455377
 20
5.4656220563
 30
0.0
 10
19.8607325515
 20
5.461694381
 30
0.0
 10
19.8574387408
 20
5.4574967277
 30
0.0
 10
19.8546966083
 20
5.4530688341
 30
0.0
 10
19.8525338528
 20
5.4484530682
 30
0.0
 10
19.8509724473
 20
5.443693695
 30
0.0
 10
19.8500290275
 20
5.4388383394
 30
0.0
 10
19.8498183383
 20
5.4355631883
 30
0.0
 10
19.8498183383
 20
5.4339330322
 30
0.0
  0
SPLINE
  5
2F6
100
AcDbEntity
  8
0
100
AcDbSpline
 62
9
  6
CONTINUOUS
 70
0
 71
3
 72
21
 73
17
 74
0
 42
0.0000001
 43
0.0000001
 44
0.0000000001
 40
0.0
 40
0.0
 40
0.0
 40
0.0
 40
0.0540383147
 40
0.1084418043
 40
0.1635466401
 40
0.2196580828
 40
0.277023079
 40
0.3358282945
 40
0.3961931782
 40
0.4581709115
 40
0.5217511611
 40
0.5868650073
 40
0.721047799
 40
0.7898615253
 40
0.8594806966
 40
1.0
 40
1.0
 40
1.0
 40
1.0
 10
20.8398183383
 20
5.4275051561
 30
0.0
 10
20.8398183383
 20
5.4288844919
 30
0.0
 10
20.839640079
 20
5.4316557198
 30
0.0
 10
20.8388418135
 20
5.4357640466
 30
0.0
 10
20.8375206568
 20
5.4397912007
 30
0.0
 10
20.8356906313
 20
5.443696876
 30
0.0
 10
20.8333703578
 20
5.4474435933
 30
0.0
 10
20.8305832691
 20
5.4509954894
 30
0.0
 10
20.8273568782
 20
5.4543189316
 30
0.0
 10
20.8237228288
 20
5.4573825366
 30
0.0
 10
20.8197158671
 20
5.4601576928
 30
0.0
 10
20.8138722854
 20
5.4634700126
 30
0.0
 10
20.8074965196
 20
5.4660580001
 30
0.0
 10
20.80077927
 20
5.4678949642
 30
0.0
 10
20.7937807511
 20
5.4692354712
 30
0.0
 10
20.7884051138
 20
5.4696376005
 30
0.0
 10
20.7848183383
 20
5.4696376005
 30
0.0
  0
SPLINE
  5
2F7
100
AcDbEntity
  8
0
100
AcDbSpline
 62
9
  6
CONTINUOUS
 70
0
 71
3
 72
16
 73
12
 74
0
 42
0.0000001
 43
0.0000001
 44
0.0000000001
 40
0.0
 40
0.0
 40
0.0
 40
0.0
 40
0.1499359137
 40
0.2965207911
 40
0.4367331031
 40
0.5681393902
 40
0.6892989886
 40
0.8001541501
 40
0.9024174118
 40
0.9515511933
 40
1.0
 40
1.0
 40
1.0
 40
1.0
 10
20.8398183383
 20
5.4275051561
 30
0.0
 10
20.8404699602
 20
5.4275051561
 30
0.0
 10
20.8417601728
 20
5.4275858642
 30
0.0
 10
20.8436290473
 20
5.427946057
 30
0.0
 10
20.8453562516
 20
5.4285317951
 30
0.0
 10
20.8468775887
 20
5.4293224905
 30
0.0
 10
20.8481369663
 20
5.4302918637
 30
0.0
 10
20.8490858316
 20
5.4314083066
 30
0.0
 10
20.8495887505
 20
5.4324488698
 30
0.0
 10
20.8497855295
 20
5.4332976625
 30
0.0
 10
20.8498183383
 20
5.4337224747
 30
0.0
 10
20.8498183383
 20
5.4339330333
 30
0.0
  0
SPLINE
  5
2F8
100
AcDbEntity
  8
0
100
AcDbSpline
 62
9
  6
CONTINUOUS
 70
0
 71
3
 72
19
 73
15
 74
0
 42
0.0000001
 43
0.0000001
 44
0.0000000001
 40
0.0
 40
0.0
 40
0.0
 40
0.0
 40
0.1449117364
 40
0.2870762984
 40
0.4240282249
 40
0.5538522023
 40
0.615789802
 40
0.6756404838
 40
0.733456362
 40
0.7893775384
 40
0.8436361382
 40
0.8965491692
 40
0.9485219365
 40
1.0
 40
1.0
 40
1.0
 40
1.0
 10
15.0215415696
 20
11.3213318604
 30
0.0
 10
15.0215415796
 20
11.3187243223
 30
0.0
 10
15.021898127
 20
11.3135513663
 30
0.0
 10
15.0234887355
 20
11.3060629916
 30
0.0
 10
15.0260751573
 20
11.2991436875
 30
0.0
 10
15.0290338678
 20
11.2939837883
 30
0.0
 10
15.0318167865
 20
11.2904047392
 30
0.0
 10
15.0340466766
 20
11.2880575198
 30
0.0
 10
15.0364303086
 20
11.2860292845
 30
0.0
 10
15.0389455461
 20
11.2843399885
 30
0.0
 10
15.0415685287
 20
11.2830069574
 30
0.0
 10
15.0442742839
 20
11.2820440003
 30
0.0
 10
15.047035518
 20
11.2814619685
 30
0.0
 10
15.0488995459
 20
11.2813318604
 30
0.0
 10
15.0498258408
 20
11.2813318604
 30
0.0
  0
SPLINE
  5
2F9
100
AcDbEntity
  8
0
100
AcDbSpline
 62
9
  6
CONTINUOUS
 70
0
 71
3
 72
37
 73
33
 74
0
 42
0.0000001
 43
0.0000001
 44
0.0000000001
 40
0.0
 40
0.0
 40
0.0
 40
0.0
 40
0.1312231559
 40
0.2020927058
 40
0.2764674231
 40
0.3541728811
 40
0.4347921341
 40
0.4759589488
 40
0.5175075992
 40
0.5592417916
 40
0.6009224073
 40
0.6828886025
 40
0.7224341333
 40
0.7604554168
 40
0.7964895653
 40
0.8300871663
 40
0.8608296784
 40
0.8883644333
 40
0.912445138
 40
0.9329405514
 40
0.9418508386
 40
0.9498897628
 40
0.9570915218
 40
0.9635042531
 40
0.9691983264
 40
0.9742668853
 40
0.9788293028
 40
0.9830417834
 40
0.9870884568
 40
0.9911595811
 40
0.9954210487
 40
1.0
 40
1.0
 40
1.0
 40
1.0
 10
15.0215416794
 20
11.3213318604
 30
0.0
 10
15.0183548917
 20
11.3197505712
 30
0.0
 10
15.0133507315
 20
11.3175044778
 30
0.0
 10
15.0063616145
 20
11.3147945189
 30
0.0
 10
15.0006518064
 20
11.312807492
 30
0.0
 10
14.9946244079
 20
11.3109409635
 30
0.0
 10
14.9894052519
 20
11.309518524
 30
0.0
 10
14.9851040133
 20
11.3084654145
 30
0.0
 10
14.9818135228
 20
11.3077190557
 30
0.0
 10
14.9784966913
 20
11.3070280549
 30
0.0
 10
14.9740908861
 20
11.3061957641
 30
0.0
 10
14.9697217071
 20
11.3054911524
 30
0.0
 10
14.9654315408
 20
11.3049407867
 30
0.0
 10
14.9623685845
 20
11.3046164067
 30
0.0
 10
14.9594590327
 20
11.304383046
 30
0.0
 10
14.9567409553
 20
11.3042437925
 30
0.0
 10
14.9542499891
 20
11.304200272
 30
0.0
 10
14.9520170396
 20
11.3042539195
 30
0.0
 10
14.9500666752
 20
11.3044016906
 30
0.0
 10
14.9486299402
 20
11.3046115282
 30
0.0
 10
14.9476387986
 20
11.304833062
 30
0.0
 10
14.947008736
 20
11.3050127696
 30
0.0
 10
14.9464564746
 20
11.30521361
 30
0.0
 10
14.945981594
 20
11.3054358585
 30
0.0
 10
14.9455830836
 20
11.3056788942
 30
0.0
 10
14.9452594483
 20
11.3059418407
 30
0.0
 10
14.9450094366
 20
11.3062244498
 30
0.0
 10
14.9448328815
 20
11.3065267961
 30
0.0
 10
14.94472991
 20
11.3068477022
 30
0.0
 10
14.9446993301
 20
11.307184441
 30
0.0
 10
14.9447374077
 20
11.3075343267
 30
0.0
 10
14.9448032099
 20
11.3077659006
 30
0.0
 10
14.9448449211
 20
11.3078828214
 30
0.0
  0
SPLINE
  5
2FA
100
AcDbEntity
  8
0
100
AcDbSpline
 62
9
  6
CONTINUOUS
 70
0
 71
3
 72
19
 73
15
 74
0
 42
0.0000001
 43
0.0000001
 44
0.0000000001
 40
0.0
 40
0.0
 40
0.0
 40
0.0
 40
0.1449115817
 40
0.2870759493
 40
0.4240276821
 40
0.5538515133
 40
0.6157890733
 40
0.675639745
 40
0.7334556477
 40
0.7893768871
 40
0.8436355903
 40
0.896548766
 40
0.9485217174
 40
1.0
 40
1.0
 40
1.0
 40
1.0
 10
15.7346633879
 20
11.3213318604
 30
0.0
 10
15.7346633879
 20
11.318724323
 30
0.0
 10
15.7350199175
 20
11.3135513675
 30
0.0
 10
15.7366105064
 20
11.3060629918
 30
0.0
 10
15.7391969162
 20
11.2991436865
 30
0.0
 10
15.7421556233
 20
11.2939837872
 30
0.0
 10
15.7449385432
 20
11.2904047387
 30
0.0
 10
15.7471684365
 20
11.2880575192
 30
0.0
 10
15.7495520738
 20
11.2860292838
 30
0.0
 10
15.7520673185
 20
11.284339988
 30
0.0
 10
15.7546903102
 20
11.283006957
 30
0.0
 10
15.7573960762
 20
11.282044
 30
0.0
 10
15.7601573228
 20
11.2814619683
 30
0.0
 10
15.7620213595
 20
11.2813318604
 30
0.0
 10
15.7629476592
 20
11.2813318604
 30
0.0
  0
SPLINE
  5
2FB
100
AcDbEntity
  8
0
100
AcDbSpline
 62
9
  6
CONTINUOUS
 70
0
 71
3
 72
15
 73
11
 74
0
 42
0.0000001
 43
0.0000001
 44
0.0000000001
 40
0.0
 40
0.0
 40
0.0
 40
0.0
 40
0.1093878675
 40
0.2202264204
 40
0.3350354987
 40
0.4558034995
 40
0.5825349217
 40
0.7153481393
 40
0.8546251508
 40
1.0
 40
1.0
 40
1.0
 40
1.0
 10
15.7472189594
 20
11.3144983211
 30
0.0
 10
15.747922811
 20
11.3140573588
 30
0.0
 10
15.749276569
 20
11.3130641729
 30
0.0
 10
15.7511025017
 20
11.3112825325
 30
0.0
 10
15.7527417261
 20
11.3092177529
 30
0.0
 10
15.7542201492
 20
11.3068933206
 30
0.0
 10
15.7555713149
 20
11.3043385205
 30
0.0
 10
15.7568117424
 20
11.3015741133
 30
0.0
 10
15.757956277
 20
11.2986169984
 30
0.0
 10
15.7586544706
 20
11.2965709999
 30
0.0
 10
15.7589952828
 20
11.2955211097
 30
0.0
  0
SPLINE
  5
2FC
100
AcDbEntity
  8
0
100
AcDbSpline
 62
9
  6
CONTINUOUS
 70
0
 71
3
 72
12
 73
8
 74
0
 42
0.0000001
 43
0.0000001
 44
0.0000000001
 40
0.0
 40
0.0
 40
0.0
 40
0.0
 40
0.25420361
 40
0.5060905697
 40
0.6309762892
 40
0.7549891369
 40
1.0
 40
1.0
 40
1.0
 40
1.0
 10
15.7472189077
 20
11.314498311
 30
0.0
 10
15.7475133431
 20
11.3125912011
 30
0.0
 10
15.7483474275
 20
11.3088279849
 30
0.0
 10
15.7499970899
 20
11.3043153728
 30
0.0
 10
15.7516592192
 20
11.3008933134
 30
0.0
 10
15.7535253627
 20
11.2976390662
 30
0.0
 10
15.7551707713
 20
11.2953567511
 30
0.0
 10
15.75636478
 20
11.2939306905
 30
0.0
  0
SPLINE
  5
2FD
100
AcDbEntity
  8
0
100
AcDbSpline
 62
9
  6
CONTINUOUS
 70
0
 71
3
 72
15
 73
11
 74
0
 42
0.0000001
 43
0.0000001
 44
0.0000000001
 40
0.0
 40
0.0
 40
0.0
 40
0.0
 40
0.1293955298
 40
0.2572677387
 40
0.3836756474
 40
0.5087415731
 40
0.6326502546
 40
0.7556343084
 40
0.8779852292
 40
1.0
 40
1.0
 40
1.0
 40
1.0
 10
15.75636478
 20
11.2939306905
 30
0.0
 10
15.7571892633
 20
11.2929459713
 30
0.0
 10
15.7589278432
 20
11.2910686669
 30
0.0
 10
15.7617940247
 20
11.2885512759
 30
0.0
 10
15.764874729
 20
11.2863740561
 30
0.0
 10
15.7681377237
 20
11.2845602954
 30
0.0
 10
15.7715491293
 20
11.2831291756
 30
0.0
 10
15.775073538
 20
11.2820957946
 30
0.0
 10
15.7786734186
 20
11.2814714025
 30
0.0
 10
15.7811011368
 20
11.2813320624
 30
0.0
 10
15.7823121866
 20
11.2813320716
 30
0.0
  0
SPLINE
  5
2FE
100
AcDbEntity
  8
0
100
AcDbSpline
 62
9
  6
CONTINUOUS
 70
0
 71
3
 72
11
 73
7
 74
0
 42
0.0000001
 43
0.0000001
 44
0.0000000001
 40
0.0
 40
0.0
 40
0.0
 40
0.0
 40
0.2235312718
 40
0.4662376372
 40
0.7257523901
 40
1.0
 40
1.0
 40
1.0
 40
1.0
 10
15.7472189077
 20
11.314498311
 30
0.0
 10
15.7463138181
 20
11.3150604629
 30
0.0
 10
15.7444024372
 20
11.3161951676
 30
0.0
 10
15.7413785935
 20
11.3178759778
 30
0.0
 10
15.7381049442
 20
11.3196029941
 30
0.0
 10
15.7358341894
 20
11.3207506409
 30
0.0
 10
15.7346633143
 20
11.3213318604
 30
0.0
  0
SPLINE
  5
2FF
100
AcDbEntity
  8
0
100
AcDbSpline
 62
9
  6
CONTINUOUS
 70
0
 71
3
 72
12
 73
8
 74
0
 42
0.0000001
 43
0.0000001
 44
0.0000000001
 40
0.0
 40
0.0
 40
0.0
 40
0.0
 40
0.2542035025
 40
0.5060904438
 40
0.6309761793
 40
0.7549890559
 40
1.0
 40
1.0
 40
1.0
 40
1.0
 10
15.7472187835
 20
11.0121651308
 30
0.0
 10
15.7475132151
 20
11.0140722567
 30
0.0
 10
15.748347293
 20
11.0178355061
 30
0.0
 10
15.7499969505
 20
11.0223481618
 30
0.0
 10
15.7516590784
 20
11.0257702573
 30
0.0
 10
15.7535252225
 20
11.0290245413
 30
0.0
 10
15.7551706336
 20
11.0313068845
 30
0.0
 10
15.7563646451
 20
11.0327329639
 30
0.0
  0
SPLINE
  5
300
100
AcDbEntity
  8
0
100
AcDbSpline
 62
9
  6
CONTINUOUS
 70
0
 71
3
 72
13
 73
9
 74
0
 42
0.0000001
 43
0.0000001
 44
0.0000000001
 40
0.0
 40
0.0
 40
0.0
 40
0.0
 40
0.2565126093
 40
0.5078810088
 40
0.6320393409
 40
0.7553029719
 40
0.8778710974
 40
1.0
 40
1.0
 40
1.0
 40
1.0
 10
15.756915346
 20
11.0333761593
 30
0.0
 10
15.7583960501
 20
11.035067376
 30
0.0
 10
15.7616312141
 20
11.0381646279
 30
0.0
 10
15.7663021613
 20
11.0412058389
 30
0.0
 10
15.7702777238
 20
11.0430367615
 30
0.0
 10
15.7733466074
 20
11.0440997049
 30
0.0
 10
15.7764881501
 20
11.0448483432
 30
0.0
 10
15.778617642
 20
11.0451341665
 30
0.0
 10
15.779684184
 20
11.0452227694
 30
0.0
  0
SPLINE
  5
301
100
AcDbEntity
  8
0
100
AcDbSpline
 62
9
  6
CONTINUOUS
 70
0
 71
3
 72
16
 73
12
 74
0
 42
0.0000001
 43
0.0000001
 44
0.0000000001
 40
0.0
 40
0.0
 40
0.0
 40
0.0
 40
0.1499359263
 40
0.2965208159
 40
0.4367331396
 40
0.5681394376
 40
0.6892990468
 40
0.8001542149
 40
0.9024174938
 40
0.95155123
 40
1.0
 40
1.0
 40
1.0
 40
1.0
 10
20.8398183383
 20
4.7610464906
 30
0.0
 10
20.8404699602
 20
4.7610464906
 30
0.0
 10
20.8417601728
 20
4.7611271987
 30
0.0
 10
20.8436290473
 20
4.7614873915
 30
0.0
 10
20.8453562516
 20
4.7620731296
 30
0.0
 10
20.8468775887
 20
4.7628638249
 30
0.0
 10
20.8481369662
 20
4.7638331982
 30
0.0
 10
20.8490858317
 20
4.7649496411
 30
0.0
 10
20.8495887503
 20
4.7659902042
 30
0.0
 10
20.8497855295
 20
4.7668389964
 30
0.0
 10
20.8498183383
 20
4.7672638082
 30
0.0
 10
20.8498183383
 20
4.7674743667
 30
0.0
  0
SPLINE
  5
302
100
AcDbEntity
  8
0
100
AcDbSpline
 62
9
  6
CONTINUOUS
 70
0
 71
3
 72
19
 73
15
 74
0
 42
0.0000001
 43
0.0000001
 44
0.0000000001
 40
0.0
 40
0.0
 40
0.0
 40
0.0
 40
0.1449115179
 40
0.2870758048
 40
0.4240274576
 40
0.5538512286
 40
0.6157887722
 40
0.6756394397
 40
0.7334553529
 40
0.7893766183
 40
0.8436353639
 40
0.8965485986
 40
0.9485216258
 40
1.0
 40
1.0
 40
1.0
 40
1.0
 10
15.7346636495
 20
11.0053318604
 30
0.0
 10
15.7346636454
 20
11.0079393976
 30
0.0
 10
15.7350201676
 20
11.0131123529
 30
0.0
 10
15.7366107483
 20
11.020600729
 30
0.0
 10
15.7391971532
 20
11.0275200347
 30
0.0
 10
15.742155859
 20
11.032679934
 30
0.0
 10
15.7449387793
 20
11.0362589824
 30
0.0
 10
15.7471686739
 20
11.0386062019
 30
0.0
 10
15.7495523135
 20
11.0406344372
 30
0.0
 10
15.7520675611
 20
11.0423237331
 30
0.0
 10
15.7546905565
 20
11.043656764
 30
0.0
 10
15.757396327
 20
11.0446197209
 30
0.0
 10
15.7601575787
 20
11.0452017525
 30
0.0
 10
15.7620216191
 20
11.0453318604
 30
0.0
 10
15.7629479207
 20
11.0453318604
 30
0.0
  0
SPLINE
  5
303
100
AcDbEntity
  8
0
100
AcDbSpline
 62
9
  6
CONTINUOUS
 70
0
 71
3
 72
11
 73
7
 74
0
 42
0.0000001
 43
0.0000001
 44
0.0000000001
 40
0.0
 40
0.0
 40
0.0
 40
0.0
 40
0.2742485203
 40
0.5337637999
 40
0.7764699813
 40
1.0
 40
1.0
 40
1.0
 40
1.0
 10
15.7346635788
 20
11.0053318604
 30
0.0
 10
15.7358344243
 20
11.0059130628
 30
0.0
 10
15.7381051253
 20
11.0070606653
 30
0.0
 10
15.741378696
 20
11.0087876102
 30
0.0
 10
15.7444024603
 20
11.0104683444
 30
0.0
 10
15.7463137924
 20
11.0116029901
 30
0.0
 10
15.7472188535
 20
11.0121651172
 30
0.0
  0
SPLINE
  5
304
100
AcDbEntity
  8
0
100
AcDbSpline
 62
9
  6
CONTINUOUS
 70
0
 71
3
 72
19
 73
15
 74
0
 42
0.0000001
 43
0.0000001
 44
0.0000000001
 40
0.0
 40
0.0
 40
0.0
 40
0.0
 40
0.1449115824
 40
0.2870759504
 40
0.4240276837
 40
0.5538515154
 40
0.6157890755
 40
0.6756397472
 40
0.7334556498
 40
0.789376889
 40
0.8436355919
 40
0.8965487672
 40
0.9485217178
 40
1.0
 40
1.0
 40
1.0
 40
1.0
 10
15.0215418311
 20
11.0053318604
 30
0.0
 10
15.0215418311
 20
11.0079393979
 30
0.0
 10
15.0218983607
 20
11.0131123534
 30
0.0
 10
15.0234889496
 20
11.0206007291
 30
0.0
 10
15.0260753595
 20
11.0275200344
 30
0.0
 10
15.0290340666
 20
11.0326799337
 30
0.0
 10
15.0318169865
 20
11.0362589822
 30
0.0
 10
15.0340468798
 20
11.0386062017
 30
0.0
 10
15.0364305172
 20
11.040634437
 30
0.0
 10
15.0389457618
 20
11.0423237329
 30
0.0
 10
15.0415687535
 20
11.0436567639
 30
0.0
 10
15.0442745195
 20
11.0446197208
 30
0.0
 10
15.0470357661
 20
11.0452017525
 30
0.0
 10
15.0488998027
 20
11.0453318604
 30
0.0
 10
15.0498261024
 20
11.0453318604
 30
0.0
  0
SPLINE
  5
305
100
AcDbEntity
  8
0
100
AcDbSpline
 62
9
  6
CONTINUOUS
 70
0
 71
3
 72
39
 73
35
 74
0
 42
0.0000001
 43
0.0000001
 44
0.0000000001
 40
0.0
 40
0.0
 40
0.0
 40
0.0
 40
0.0045810864
 40
0.0088430439
 40
0.0129138055
 40
0.0169603608
 40
0.0211731467
 40
0.0257356316
 40
0.030803343
 40
0.0364962556
 40
0.0429085863
 40
0.0501110519
 40
0.0581507454
 40
0.0670608334
 40
0.0875548611
 40
0.1116361767
 40
0.1391703722
 40
0.1699120047
 40
0.2035093534
 40
0.2395426355
 40
0.2775623212
 40
0.317107705
 40
0.3990707551
 40
0.4407507664
 40
0.4824844414
 40
0.5240315288
 40
0.5651966802
 40
0.6058304242
 40
0.645816828
 40
0.7235198827
 40
0.7978916535
 40
0.8687595156
 40
0.9361144125
 40
1.0
 40
1.0
 40
1.0
 40
1.0
 10
14.9448447206
 20
11.0187810485
 30
0.0
 10
14.9448029799
 20
11.0188980245
 30
0.0
 10
14.944737097
 20
11.0191296545
 30
0.0
 10
14.944698884
 20
11.0194796001
 30
0.0
 10
14.9447294087
 20
11.0198163637
 30
0.0
 10
14.9448324546
 20
11.0201372599
 30
0.0
 10
14.9450091064
 20
11.0204395691
 30
0.0
 10
14.9452591539
 20
11.0207221402
 30
0.0
 10
14.9455827477
 20
11.0209850732
 30
0.0
 10
14.9459812124
 20
11.0212280907
 30
0.0
 10
14.9464560984
 20
11.0214503164
 30
0.0
 10
14.9470084223
 20
11.0216511284
 30
0.0
 10
14.9476385524
 20
11.0218308048
 30
0.0
 10
14.9486297237
 20
11.0220522607
 30
0.0
 10
14.9500664906
 20
11.0222620116
 30
0.0
 10
14.9520168792
 20
11.022409833
 30
0.0
 10
14.9542498834
 20
11.0224634576
 30
0.0
 10
14.9567408853
 20
11.022419855
 30
0.0
 10
14.9594589975
 20
11.0222805865
 30
0.0
 10
14.9623685836
 20
11.0220473783
 30
0.0
 10
14.9654315871
 20
11.0217230766
 30
0.0
 10
14.9697216605
 20
11.0211719917
 30
0.0
 10
14.9740911971
 20
11.0204692384
 30
0.0
 10
14.9784966639
 20
11.019634962
 30
0.0
 10
14.9818137907
 20
11.0189452452
 30
0.0
 10
14.9851044721
 20
11.0181996409
 30
0.0
 10
14.9883523953
 20
11.0174027076
 30
0.0
 10
14.9915454279
 20
11.0165616457
 30
0.0
 10
14.9956773187
 20
11.0153982213
 30
0.0
 10
15.0006517971
 20
11.0138555151
 30
0.0
 10
15.006361801
 20
11.0118696735
 30
0.0
 10
15.0117368531
 20
11.0097854059
 30
0.0
 10
15.0167726379
 20
11.0076226727
 30
0.0
 10
15.0199904079
 20
11.0061018473
 30
0.0
 10
15.0215418802
 20
11.0053318604
 30
0.0
  0
SPLINE
  5
306
100
AcDbEntity
  8
0
100
AcDbSpline
 62
9
  6
CONTINUOUS
 70
0
 71
3
 72
21
 73
17
 74
0
 42
0.0000001
 43
0.0000001
 44
0.0000000001
 40
0.0
 40
0.0
 40
0.0
 40
0.0
 40
0.1405193033
 40
0.2101384747
 40
0.2789522009
 40
0.4131349926
 40
0.4782488388
 40
0.5418290885
 40
0.6038068218
 40
0.6641717054
 40
0.7229769209
 40
0.7803419171
 40
0.8364533598
 40
0.8915581957
 40
0.9459616852
 40
1.0
 40
1.0
 40
1.0
 40
1.0
 10
20.7848183383
 20
4.7189140462
 30
0.0
 10
20.7884051138
 20
4.7189140462
 30
0.0
 10
20.7937807511
 20
4.7193161755
 30
0.0
 10
20.80077927
 20
4.7206566826
 30
0.0
 10
20.8074965195
 20
4.7224936467
 30
0.0
 10
20.8138722854
 20
4.7250816342
 30
0.0
 10
20.8197158671
 20
4.7283939539
 30
0.0
 10
20.8237228288
 20
4.7311691102
 30
0.0
 10
20.8273568782
 20
4.7342327151
 30
0.0
 10
20.8305832691
 20
4.7375561573
 30
0.0
 10
20.8333703578
 20
4.7411080535
 30
0.0
 10
20.8356906313
 20
4.7448547708
 30
0.0
 10
20.8375206568
 20
4.748760446
 30
0.0
 10
20.8388418135
 20
4.7527876002
 30
0.0
 10
20.839640079
 20
4.756895927
 30
0.0
 10
20.8398183383
 20
4.7596671548
 30
0.0
 10
20.8398183383
 20
4.7610464906
 30
0.0
  0
SPLINE
  5
307
100
AcDbEntity
  8
0
100
AcDbSpline
 62
9
  6
CONTINUOUS
 70
0
 71
3
 72
21
 73
17
 74
0
 42
0.0000001
 43
0.0000001
 44
0.0000000001
 40
0.0
 40
0.0
 40
0.0
 40
0.0
 40
0.0540383147
 40
0.1084418043
 40
0.1635466401
 40
0.2196580828
 40
0.277023079
 40
0.3358282945
 40
0.3961931782
 40
0.4581709115
 40
0.5217511611
 40
0.5868650073
 40
0.721047799
 40
0.7898615253
 40
0.8594806966
 40
1.0
 40
1.0
 40
1.0
 40
1.0
 10
19.8598183383
 20
4.7610464906
 30
0.0
 10
19.8598183383
 20
4.7596671548
 30
0.0
 10
19.8599965976
 20
4.756895927
 30
0.0
 10
19.860794863
 20
4.7527876002
 30
0.0
 10
19.8621160198
 20
4.748760446
 30
0.0
 10
19.8639460452
 20
4.7448547708
 30
0.0
 10
19.8662663188
 20
4.7411080535
 30
0.0
 10
19.8690534075
 20
4.7375561573
 30
0.0
 10
19.8722797984
 20
4.7342327151
 30
0.0
 10
19.8759138477
 20
4.7311691102
 30
0.0
 10
19.8799208094
 20
4.7283939539
 30
0.0
 10
19.8857643912
 20
4.7250816342
 30
0.0
 10
19.892140157
 20
4.7224936467
 30
0.0
 10
19.8988574066
 20
4.7206566826
 30
0.0
 10
19.9058559255
 20
4.7193161755
 30
0.0
 10
19.9112315628
 20
4.7189140462
 30
0.0
 10
19.9148183383
 20
4.7189140462
 30
0.0
  0
SPLINE
  5
308
100
AcDbEntity
  8
0
100
AcDbSpline
 62
9
  6
CONTINUOUS
 70
0
 71
3
 72
16
 73
12
 74
0
 42
0.0000001
 43
0.0000001
 44
0.0000000001
 40
0.0
 40
0.0
 40
0.0
 40
0.0
 40
0.1499359388
 40
0.2965208407
 40
0.4367331762
 40
0.5681394851
 40
0.6892991051
 40
0.8001542796
 40
0.9024175757
 40
0.9515512667
 40
1.0
 40
1.0
 40
1.0
 40
1.0
 10
19.8598183383
 20
4.7610464906
 30
0.0
 10
19.8591667163
 20
4.7610464906
 30
0.0
 10
19.8578765038
 20
4.7611271987
 30
0.0
 10
19.8560076293
 20
4.7614873915
 30
0.0
 10
19.8542804249
 20
4.7620731296
 30
0.0
 10
19.8527590879
 20
4.7628638249
 30
0.0
 10
19.8514997104
 20
4.7638331982
 30
0.0
 10
19.8505508448
 20
4.764949641
 30
0.0
 10
19.8500479265
 20
4.7659902041
 30
0.0
 10
19.849851147
 20
4.7668389959
 30
0.0
 10
19.8498183383
 20
4.7672638073
 30
0.0
 10
19.8498183383
 20
4.7674743656
 30
0.0
  0
SPLINE
  5
309
100
AcDbEntity
  8
0
100
AcDbSpline
 62
9
  6
CONTINUOUS
 70
0
 71
3
 72
16
 73
12
 74
0
 42
0.0000001
 43
0.0000001
 44
0.0000000001
 40
0.0
 40
0.0
 40
0.0
 40
0.0
 40
0.1499359263
 40
0.2965208159
 40
0.4367331396
 40
0.5681394376
 40
0.6892990468
 40
0.8001542149
 40
0.9024174938
 40
0.95155123
 40
1.0
 40
1.0
 40
1.0
 40
1.0
 10
19.8598183383
 20
5.4275051561
 30
0.0
 10
19.8591667163
 20
5.4275051561
 30
0.0
 10
19.8578765038
 20
5.4275858642
 30
0.0
 10
19.8560076293
 20
5.427946057
 30
0.0
 10
19.8542804249
 20
5.4285317951
 30
0.0
 10
19.8527590879
 20
5.4293224905
 30
0.0
 10
19.8514997104
 20
5.4302918637
 30
0.0
 10
19.8505508449
 20
5.4314083066
 30
0.0
 10
19.8500479263
 20
5.4324488697
 30
0.0
 10
19.8498511471
 20
5.4332976619
 30
0.0
 10
19.8498183383
 20
5.4337224737
 30
0.0
 10
19.8498183383
 20
5.4339330322
 30
0.0
  0
SPLINE
  5
30A
100
AcDbEntity
  8
0
100
AcDbSpline
 62
9
  6
CONTINUOUS
 70
0
 71
3
 72
21
 73
17
 74
0
 42
0.0000001
 43
0.0000001
 44
0.0000000001
 40
0.0
 40
0.0
 40
0.0
 40
0.0
 40
0.1405193033
 40
0.2101384747
 40
0.2789522009
 40
0.4131349926
 40
0.4782488388
 40
0.5418290885
 40
0.6038068218
 40
0.6641717054
 40
0.7229769209
 40
0.7803419171
 40
0.8364533598
 40
0.8915581957
 40
0.9459616852
 40
1.0
 40
1.0
 40
1.0
 40
1.0
 10
19.9148183383
 20
5.4696376005
 30
0.0
 10
19.9112315628
 20
5.4696376005
 30
0.0
 10
19.9058559255
 20
5.4692354712
 30
0.0
 10
19.8988574066
 20
5.4678949642
 30
0.0
 10
19.892140157
 20
5.4660580001
 30
0.0
 10
19.8857643912
 20
5.4634700126
 30
0.0
 10
19.8799208094
 20
5.4601576928
 30
0.0
 10
19.8759138477
 20
5.4573825366
 30
0.0
 10
19.8722797984
 20
5.4543189316
 30
0.0
 10
19.8690534075
 20
5.4509954894
 30
0.0
 10
19.8662663188
 20
5.4474435933
 30
0.0
 10
19.8639460452
 20
5.443696876
 30
0.0
 10
19.8621160198
 20
5.4397912007
 30
0.0
 10
19.860794863
 20
5.4357640466
 30
0.0
 10
19.8599965976
 20
5.4316557198
 30
0.0
 10
19.8598183383
 20
5.4288844919
 30
0.0
 10
19.8598183383
 20
5.4275051561
 30
0.0
  0
SPLINE
  5
30B
100
AcDbEntity
  8
0
100
AcDbSpline
 62
9
  6
CONTINUOUS
 70
0
 71
3
 72
13
 73
9
 74
0
 42
0.0000001
 43
0.0000001
 44
0.0000000001
 40
0.0
 40
0.0
 40
0.0
 40
0.0
 40
0.2488843696
 40
0.3743074477
 40
0.5
 40
0.6256925523
 40
0.7511156304
 40
1.0
 40
1.0
 40
1.0
 40
1.0
 10
20.210392726
 20
10.9370997706
 30
0.0
 10
20.2331298676
 20
10.9422694901
 30
0.0
 10
20.2678116883
 20
10.9480850819
 30
0.0
 10
20.3145102001
 20
10.9519660017
 30
0.0
 10
20.3498183383
 20
10.9529411804
 30
0.0
 10
20.3851264764
 20
10.9519660017
 30
0.0
 10
20.4318249882
 20
10.9480850819
 30
0.0
 10
20.466506809
 20
10.9422694901
 30
0.0
 10
20.4892439506
 20
10.9370997706
 30
0.0
  0
SPLINE
  5
30C
100
AcDbEntity
  8
0
100
AcDbSpline
 62
9
  6
CONTINUOUS
 70
0
 71
3
 72
19
 73
15
 74
0
 42
0.0000001
 43
0.0000001
 44
0.0000000001
 40
0.0
 40
0.0
 40
0.0
 40
0.0
 40
0.1449117364
 40
0.2870762984
 40
0.4240282249
 40
0.5538522023
 40
0.615789802
 40
0.6756404838
 40
0.733456362
 40
0.7893775384
 40
0.8436361382
 40
0.8965491692
 40
0.9485219365
 40
1.0
 40
1.0
 40
1.0
 40
1.0
 10
2.678095107
 20
11.0053318604
 30
0.0
 10
2.678095097
 20
11.0079393985
 30
0.0
 10
2.6777385495
 20
11.0131123545
 30
0.0
 10
2.676147941
 20
11.0206007292
 30
0.0
 10
2.6735615192
 20
11.0275200334
 30
0.0
 10
2.6706028088
 20
11.0326799325
 30
0.0
 10
2.66781989
 20
11.0362589816
 30
0.0
 10
2.6655899999
 20
11.038606201
 30
0.0
 10
2.6632063679
 20
11.0406344363
 30
0.0
 10
2.6606911305
 20
11.0423237323
 30
0.0
 10
2.6580681479
 20
11.0436567634
 30
0.0
 10
2.6553623927
 20
11.0446197205
 30
0.0
 10
2.6526011586
 20
11.0452017524
 30
0.0
 10
2.6507371307
 20
11.0453318604
 30
0.0
 10
2.6498108357
 20
11.0453318604
 30
0.0
  0
SPLINE
  5
30D
100
AcDbEntity
  8
0
100
AcDbSpline
 62
9
  6
CONTINUOUS
 70
0
 71
3
 72
37
 73
33
 74
0
 42
0.0000001
 43
0.0000001
 44
0.0000000001
 40
0.0
 40
0.0
 40
0.0
 40
0.0
 40
0.1312231559
 40
0.2020927058
 40
0.2764674231
 40
0.3541728811
 40
0.4347921341
 40
0.4759589488
 40
0.5175075992
 40
0.5592417916
 40
0.6009224073
 40
0.6828886025
 40
0.7224341333
 40
0.7604554168
 40
0.7964895653
 40
0.8300871663
 40
0.8608296784
 40
0.8883644333
 40
0.912445138
 40
0.9329405514
 40
0.9418508386
 40
0.9498897628
 40
0.9570915218
 40
0.9635042531
 40
0.9691983264
 40
0.9742668853
 40
0.9788293028
 40
0.9830417834
 40
0.9870884568
 40
0.9911595811
 40
0.9954210487
 40
1.0
 40
1.0
 40
1.0
 40
1.0
 10
2.6780949972
 20
11.0053318604
 30
0.0
 10
2.6812817848
 20
11.0069131496
 30
0.0
 10
2.6862859451
 20
11.009159243
 30
0.0
 10
2.6932750621
 20
11.0118692019
 30
0.0
 10
2.6989848702
 20
11.0138562288
 30
0.0
 10
2.7050122686
 20
11.0157227573
 30
0.0
 10
2.7102314246
 20
11.0171451968
 30
0.0
 10
2.7145326632
 20
11.0181983064
 30
0.0
 10
2.7178231538
 20
11.0189446651
 30
0.0
 10
2.7211399853
 20
11.0196356659
 30
0.0
 10
2.7255457904
 20
11.0204679567
 30
0.0
 10
2.7299149695
 20
11.0211725684
 30
0.0
 10
2.7342051358
 20
11.0217229341
 30
0.0
 10
2.7372680921
 20
11.0220473141
 30
0.0
 10
2.7401776439
 20
11.0222806749
 30
0.0
 10
2.7428957213
 20
11.0224199283
 30
0.0
 10
2.7453866875
 20
11.0224634489
 30
0.0
 10
2.747619637
 20
11.0224098013
 30
0.0
 10
2.7495700014
 20
11.0222620302
 30
0.0
 10
2.7510067364
 20
11.0220521926
 30
0.0
 10
2.751997878
 20
11.0218306588
 30
0.0
 10
2.7526279405
 20
11.0216509512
 30
0.0
 10
2.7531802019
 20
11.0214501108
 30
0.0
 10
2.7536550826
 20
11.0212278623
 30
0.0
 10
2.7540535929
 20
11.0209848266
 30
0.0
 10
2.7543772282
 20
11.0207218801
 30
0.0
 10
2.75462724
 20
11.020439271
 30
0.0
 10
2.754803795
 20
11.0201369247
 30
0.0
 10
2.7549067666
 20
11.0198160186
 30
0.0
 10
2.7549373465
 20
11.0194792798
 30
0.0
 10
2.7548992689
 20
11.0191293941
 30
0.0
 10
2.7548334666
 20
11.0188978202
 30
0.0
 10
2.7547917555
 20
11.0187808994
 30
0.0
  0
SPLINE
  5
30E
100
AcDbEntity
  8
0
100
AcDbSpline
 62
9
  6
CONTINUOUS
 70
0
 71
3
 72
19
 73
15
 74
0
 42
0.0000001
 43
0.0000001
 44
0.0000000001
 40
0.0
 40
0.0
 40
0.0
 40
0.0
 40
0.1449115817
 40
0.2870759493
 40
0.4240276821
 40
0.5538515133
 40
0.6157890733
 40
0.675639745
 40
0.7334556477
 40
0.7893768871
 40
0.8436355903
 40
0.896548766
 40
0.9485217174
 40
1.0
 40
1.0
 40
1.0
 40
1.0
 10
1.9649732887
 20
11.0053318604
 30
0.0
 10
1.9649732887
 20
11.0079393978
 30
0.0
 10
1.9646167591
 20
11.0131123533
 30
0.0
 10
1.9630261702
 20
11.020600729
 30
0.0
 10
1.9604397604
 20
11.0275200343
 30
0.0
 10
1.9574810532
 20
11.0326799336
 30
0.0
 10
1.9546981334
 20
11.0362589821
 30
0.0
 10
1.95246824
 20
11.0386062017
 30
0.0
 10
1.9500846027
 20
11.040634437
 30
0.0
 10
1.9475693581
 20
11.0423237328
 30
0.0
 10
1.9449463664
 20
11.0436567638
 30
0.0
 10
1.9422406003
 20
11.0446197208
 30
0.0
 10
1.9394793538
 20
11.0452017525
 30
0.0
 10
1.9376153171
 20
11.0453318604
 30
0.0
 10
1.9366890174
 20
11.0453318604
 30
0.0
  0
SPLINE
  5
30F
100
AcDbEntity
  8
0
100
AcDbSpline
 62
9
  6
CONTINUOUS
 70
0
 71
3
 72
15
 73
11
 74
0
 42
0.0000001
 43
0.0000001
 44
0.0000000001
 40
0.0
 40
0.0
 40
0.0
 40
0.0
 40
0.1093878675
 40
0.2202264204
 40
0.3350354987
 40
0.4558034995
 40
0.5825349217
 40
0.7153481393
 40
0.8546251508
 40
1.0
 40
1.0
 40
1.0
 40
1.0
 10
1.9524177171
 20
11.0121653997
 30
0.0
 10
1.9517138656
 20
11.012606362
 30
0.0
 10
1.9503601075
 20
11.0135995479
 30
0.0
 10
1.9485341749
 20
11.0153811884
 30
0.0
 10
1.9468949505
 20
11.0174459679
 30
0.0
 10
1.9454165274
 20
11.0197704002
 30
0.0
 10
1.9440653616
 20
11.0223252003
 30
0.0
 10
1.9428249341
 20
11.0250896075
 30
0.0
 10
1.9416803995
 20
11.0280467224
 30
0.0
 10
1.940982206
 20
11.0300927209
 30
0.0
 10
1.9406413937
 20
11.0311426111
 30
0.0
  0
SPLINE
  5
310
100
AcDbEntity
  8
0
100
AcDbSpline
 62
9
  6
CONTINUOUS
 70
0
 71
3
 72
12
 73
8
 74
0
 42
0.0000001
 43
0.0000001
 44
0.0000000001
 40
0.0
 40
0.0
 40
0.0
 40
0.0
 40
0.25420361
 40
0.5060905697
 40
0.6309762892
 40
0.7549891369
 40
1.0
 40
1.0
 40
1.0
 40
1.0
 10
1.9524177689
 20
11.0121654099
 30
0.0
 10
1.9521233335
 20
11.0140725197
 30
0.0
 10
1.951289249
 20
11.0178357359
 30
0.0
 10
1.9496395867
 20
11.022348348
 30
0.0
 10
1.9479774574
 20
11.0257704074
 30
0.0
 10
1.9461113139
 20
11.0290246546
 30
0.0
 10
1.9444659053
 20
11.0313069697
 30
0.0
 10
1.9432718965
 20
11.0327330303
 30
0.0
  0
SPLINE
  5
311
100
AcDbEntity
  8
0
100
AcDbSpline
 62
9
  6
CONTINUOUS
 70
0
 71
3
 72
15
 73
11
 74
0
 42
0.0000001
 43
0.0000001
 44
0.0000000001
 40
0.0
 40
0.0
 40
0.0
 40
0.0
 40
0.1293955298
 40
0.2572677387
 40
0.3836756474
 40
0.5087415731
 40
0.6326502546
 40
0.7556343084
 40
0.8779852292
 40
1.0
 40
1.0
 40
1.0
 40
1.0
 10
1.9432718965
 20
11.0327330303
 30
0.0
 10
1.9424474132
 20
11.0337177495
 30
0.0
 10
1.9407088334
 20
11.0355950539
 30
0.0
 10
1.9378426518
 20
11.0381124449
 30
0.0
 10
1.9347619476
 20
11.0402896647
 30
0.0
 10
1.9314989528
 20
11.0421034254
 30
0.0
 10
1.9280875472
 20
11.0435345452
 30
0.0
 10
1.9245631385
 20
11.0445679262
 30
0.0
 10
1.9209632579
 20
11.0451923183
 30
0.0
 10
1.9185355397
 20
11.0453316584
 30
0.0
 10
1.91732449
 20
11.0453316492
 30
0.0
  0
SPLINE
  5
312
100
AcDbEntity
  8
0
100
AcDbSpline
 62
9
  6
CONTINUOUS
 70
0
 71
3
 72
11
 73
7
 74
0
 42
0.0000001
 43
0.0000001
 44
0.0000000001
 40
0.0
 40
0.0
 40
0.0
 40
0.0
 40
0.2235312718
 40
0.4662376372
 40
0.7257523901
 40
1.0
 40
1.0
 40
1.0
 40
1.0
 10
1.9524177689
 20
11.0121654099
 30
0.0
 10
1.9533228585
 20
11.0116032579
 30
0.0
 10
1.9552342394
 20
11.0104685532
 30
0.0
 10
1.958258083
 20
11.008787743
 30
0.0
 10
1.9615317324
 20
11.0070607267
 30
0.0
 10
1.9638024872
 20
11.0059130799
 30
0.0
 10
1.9649733623
 20
11.0053318604
 30
0.0
  0
SPLINE
  5
313
100
AcDbEntity
  8
0
100
AcDbSpline
 62
9
  6
CONTINUOUS
 70
0
 71
3
 72
12
 73
8
 74
0
 42
0.0000001
 43
0.0000001
 44
0.0000000001
 40
0.0
 40
0.0
 40
0.0
 40
0.0
 40
0.2542035025
 40
0.5060904438
 40
0.6309761793
 40
0.7549890559
 40
1.0
 40
1.0
 40
1.0
 40
1.0
 10
1.952417893
 20
11.31449859
 30
0.0
 10
1.9521234614
 20
11.3125914641
 30
0.0
 10
1.9512893836
 20
11.3088282147
 30
0.0
 10
1.9496397261
 20
11.304315559
 30
0.0
 10
1.9479775982
 20
11.3008934635
 30
0.0
 10
1.9461114541
 20
11.2976391795
 30
0.0
 10
1.9444660429
 20
11.2953568364
 30
0.0
 10
1.9432720315
 20
11.2939307569
 30
0.0
  0
SPLINE
  5
314
100
AcDbEntity
  8
0
100
AcDbSpline
 62
9
  6
CONTINUOUS
 70
0
 71
3
 72
13
 73
9
 74
0
 42
0.0000001
 43
0.0000001
 44
0.0000000001
 40
0.0
 40
0.0
 40
0.0
 40
0.0
 40
0.2565126093
 40
0.5078810088
 40
0.6320393409
 40
0.7553029719
 40
0.8778710974
 40
1.0
 40
1.0
 40
1.0
 40
1.0
 10
1.9427213305
 20
11.2932875615
 30
0.0
 10
1.9412406265
 20
11.2915963448
 30
0.0
 10
1.9380054625
 20
11.2884990929
 30
0.0
 10
1.9333345152
 20
11.2854578819
 30
0.0
 10
1.9293589527
 20
11.2836269593
 30
0.0
 10
1.9262900691
 20
11.2825640159
 30
0.0
 10
1.9231485265
 20
11.2818153776
 30
0.0
 10
1.9210190345
 20
11.2815295543
 30
0.0
 10
1.9199524926
 20
11.2814409514
 30
0.0
  0
SPLINE
  5
315
100
AcDbEntity
  8
0
100
AcDbSpline
 62
9
  6
CONTINUOUS
 70
0
 71
3
 72
19
 73
15
 74
0
 42
0.0000001
 43
0.0000001
 44
0.0000000001
 40
0.0
 40
0.0
 40
0.0
 40
0.0
 40
0.1449115179
 40
0.2870758048
 40
0.4240274576
 40
0.5538512286
 40
0.6157887722
 40
0.6756394397
 40
0.7334553529
 40
0.7893766183
 40
0.8436353639
 40
0.8965485986
 40
0.9485216258
 40
1.0
 40
1.0
 40
1.0
 40
1.0
 10
1.9649730271
 20
11.3213318604
 30
0.0
 10
1.9649730312
 20
11.3187243232
 30
0.0
 10
1.964616509
 20
11.313551368
 30
0.0
 10
1.9630259283
 20
11.3060629919
 30
0.0
 10
1.9604395234
 20
11.2991436861
 30
0.0
 10
1.9574808176
 20
11.2939837868
 30
0.0
 10
1.9546978973
 20
11.2904047384
 30
0.0
 10
1.9524680026
 20
11.2880575189
 30
0.0
 10
1.9500843631
 20
11.2860292836
 30
0.0
 10
1.9475691155
 20
11.2843399877
 30
0.0
 10
1.94494612
 20
11.2830069568
 30
0.0
 10
1.9422403495
 20
11.2820439999
 30
0.0
 10
1.9394790978
 20
11.2814619683
 30
0.0
 10
1.9376150575
 20
11.2813318604
 30
0.0
 10
1.9366887558
 20
11.2813318604
 30
0.0
  0
SPLINE
  5
316
100
AcDbEntity
  8
0
100
AcDbSpline
 62
9
  6
CONTINUOUS
 70
0
 71
3
 72
11
 73
7
 74
0
 42
0.0000001
 43
0.0000001
 44
0.0000000001
 40
0.0
 40
0.0
 40
0.0
 40
0.0
 40
0.2742485203
 40
0.5337637999
 40
0.7764699813
 40
1.0
 40
1.0
 40
1.0
 40
1.0
 10
1.9649730977
 20
11.3213318604
 30
0.0
 10
1.9638022522
 20
11.320750658
 30
0.0
 10
1.9615315513
 20
11.3196030555
 30
0.0
 10
1.9582579806
 20
11.3178761106
 30
0.0
 10
1.9552342163
 20
11.3161953764
 30
0.0
 10
1.9533228842
 20
11.3150607307
 30
0.0
 10
1.9524178231
 20
11.3144986036
 30
0.0
  0
SPLINE
  5
317
100
AcDbEntity
  8
0
100
AcDbSpline
 62
9
  6
CONTINUOUS
 70
0
 71
3
 72
19
 73
15
 74
0
 42
0.0000001
 43
0.0000001
 44
0.0000000001
 40
0.0
 40
0.0
 40
0.0
 40
0.0
 40
0.1449115824
 40
0.2870759504
 40
0.4240276837
 40
0.5538515154
 40
0.6157890755
 40
0.6756397472
 40
0.7334556498
 40
0.789376889
 40
0.8436355919
 40
0.8965487672
 40
0.9485217178
 40
1.0
 40
1.0
 40
1.0
 40
1.0
 10
2.6780948454
 20
11.3213318604
 30
0.0
 10
2.6780948454
 20
11.3187243229
 30
0.0
 10
2.6777383158
 20
11.3135513674
 30
0.0
 10
2.6761477269
 20
11.3060629917
 30
0.0
 10
2.6735613171
 20
11.2991436864
 30
0.0
 10
2.6706026099
 20
11.2939837871
 30
0.0
 10
2.6678196901
 20
11.2904047386
 30
0.0
 10
2.6655897967
 20
11.2880575191
 30
0.0
 10
2.6632061594
 20
11.2860292838
 30
0.0
 10
2.6606909147
 20
11.2843399879
 30
0.0
 10
2.6580679231
 20
11.2830069569
 30
0.0
 10
2.655362157
 20
11.282044
 30
0.0
 10
2.6526009105
 20
11.2814619683
 30
0.0
 10
2.6507368738
 20
11.2813318604
 30
0.0
 10
2.6498105742
 20
11.2813318604
 30
0.0
  0
SPLINE
  5
318
100
AcDbEntity
  8
0
100
AcDbSpline
 62
9
  6
CONTINUOUS
 70
0
 71
3
 72
39
 73
35
 74
0
 42
0.0000001
 43
0.0000001
 44
0.0000000001
 40
0.0
 40
0.0
 40
0.0
 40
0.0
 40
0.0045810864
 40
0.0088430439
 40
0.0129138055
 40
0.0169603608
 40
0.0211731467
 40
0.0257356316
 40
0.030803343
 40
0.0364962556
 40
0.0429085863
 40
0.0501110519
 40
0.0581507454
 40
0.0670608334
 40
0.0875548611
 40
0.1116361767
 40
0.1391703722
 40
0.1699120047
 40
0.2035093534
 40
0.2395426355
 40
0.2775623212
 40
0.317107705
 40
0.3990707551
 40
0.4407507664
 40
0.4824844414
 40
0.5240315288
 40
0.5651966802
 40
0.6058304242
 40
0.645816828
 40
0.7235198827
 40
0.7978916535
 40
0.8687595156
 40
0.9361144125
 40
1.0
 40
1.0
 40
1.0
 40
1.0
 10
2.7547919559
 20
11.3078826723
 30
0.0
 10
2.7548336967
 20
11.3077656963
 30
0.0
 10
2.7548995795
 20
11.3075340663
 30
0.0
 10
2.7549377926
 20
11.3071841207
 30
0.0
 10
2.7549072678
 20
11.3068473571
 30
0.0
 10
2.754804222
 20
11.3065264609
 30
0.0
 10
2.7546275701
 20
11.3062241517
 30
0.0
 10
2.7543775227
 20
11.3059415806
 30
0.0
 10
2.7540539289
 20
11.3056786476
 30
0.0
 10
2.7536554642
 20
11.3054356301
 30
0.0
 10
2.7531805782
 20
11.3052134044
 30
0.0
 10
2.7526282543
 20
11.3050125924
 30
0.0
 10
2.7519981242
 20
11.304832916
 30
0.0
 10
2.7510069528
 20
11.3046114601
 30
0.0
 10
2.749570186
 20
11.3044017092
 30
0.0
 10
2.7476197974
 20
11.3042538878
 30
0.0
 10
2.7453867932
 20
11.3042002632
 30
0.0
 10
2.7428957913
 20
11.3042438658
 30
0.0
 10
2.7401776791
 20
11.3043831344
 30
0.0
 10
2.737268093
 20
11.3046163425
 30
0.0
 10
2.7342050894
 20
11.3049406442
 30
0.0
 10
2.7299150161
 20
11.3054917291
 30
0.0
 10
2.7255454795
 20
11.3061944824
 30
0.0
 10
2.7211400126
 20
11.3070287588
 30
0.0
 10
2.7178228859
 20
11.3077184756
 30
0.0
 10
2.7145322045
 20
11.3084640799
 30
0.0
 10
2.7112842813
 20
11.3092610132
 30
0.0
 10
2.7080912487
 20
11.3101020751
 30
0.0
 10
2.7039593579
 20
11.3112654995
 30
0.0
 10
2.6989848795
 20
11.3128082057
 30
0.0
 10
2.6932748755
 20
11.3147940474
 30
0.0
 10
2.6878998235
 20
11.3168783149
 30
0.0
 10
2.6828640387
 20
11.3190410482
 30
0.0
 10
2.6796462687
 20
11.3205618735
 30
0.0
 10
2.6780947964
 20
11.3213318604
 30
0.0
  0
SPLINE
  5
319
100
AcDbEntity
  8
0
100
AcDbSpline
 62
9
  6
CONTINUOUS
 70
0
 71
3
 72
39
 73
35
 74
0
 42
0.0000001
 43
0.0000001
 44
0.0000000001
 40
0.0
 40
0.0
 40
0.0
 40
0.0
 40
0.0045810864
 40
0.0088430439
 40
0.0129138055
 40
0.0169603608
 40
0.0211731467
 40
0.0257356316
 40
0.030803343
 40
0.0364962556
 40
0.0429085863
 40
0.0501110519
 40
0.0581507454
 40
0.0670608334
 40
0.0875548611
 40
0.1116361767
 40
0.1391703722
 40
0.1699120047
 40
0.2035093534
 40
0.2395426355
 40
0.2775623212
 40
0.317107705
 40
0.3990707551
 40
0.4407507664
 40
0.4824844414
 40
0.5240315288
 40
0.5651966802
 40
0.6058304242
 40
0.645816828
 40
0.7235198827
 40
0.7978916535
 40
0.8687595156
 40
0.9361144125
 40
1.0
 40
1.0
 40
1.0
 40
1.0
 10
9.9448447206
 20
11.0187810485
 30
0.0
 10
9.9448029799
 20
11.0188980245
 30
0.0
 10
9.944737097
 20
11.0191296545
 30
0.0
 10
9.944698884
 20
11.0194796001
 30
0.0
 10
9.9447294087
 20
11.0198163637
 30
0.0
 10
9.9448324546
 20
11.0201372599
 30
0.0
 10
9.9450091064
 20
11.0204395691
 30
0.0
 10
9.9452591539
 20
11.0207221402
 30
0.0
 10
9.9455827477
 20
11.0209850732
 30
0.0
 10
9.9459812124
 20
11.0212280907
 30
0.0
 10
9.9464560984
 20
11.0214503164
 30
0.0
 10
9.9470084223
 20
11.0216511284
 30
0.0
 10
9.9476385524
 20
11.0218308048
 30
0.0
 10
9.9486297237
 20
11.0220522607
 30
0.0
 10
9.9500664906
 20
11.0222620116
 30
0.0
 10
9.9520168792
 20
11.022409833
 30
0.0
 10
9.9542498834
 20
11.0224634576
 30
0.0
 10
9.9567408853
 20
11.022419855
 30
0.0
 10
9.9594589975
 20
11.0222805865
 30
0.0
 10
9.9623685836
 20
11.0220473783
 30
0.0
 10
9.9654315871
 20
11.0217230766
 30
0.0
 10
9.9697216605
 20
11.0211719917
 30
0.0
 10
9.9740911971
 20
11.0204692384
 30
0.0
 10
9.9784966639
 20
11.019634962
 30
0.0
 10
9.9818137907
 20
11.0189452452
 30
0.0
 10
9.9851044721
 20
11.0181996409
 30
0.0
 10
9.9883523953
 20
11.0174027076
 30
0.0
 10
9.9915454279
 20
11.0165616457
 30
0.0
 10
9.9956773187
 20
11.0153982213
 30
0.0
 10
10.0006517971
 20
11.0138555151
 30
0.0
 10
10.006361801
 20
11.0118696735
 30
0.0
 10
10.0117368531
 20
11.0097854059
 30
0.0
 10
10.0167726379
 20
11.0076226727
 30
0.0
 10
10.0199904079
 20
11.0061018473
 30
0.0
 10
10.0215418802
 20
11.0053318604
 30
0.0
  0
SPLINE
  5
31A
100
AcDbEntity
  8
0
100
AcDbSpline
 62
9
  6
CONTINUOUS
 70
0
 71
3
 72
19
 73
15
 74
0
 42
0.0000001
 43
0.0000001
 44
0.0000000001
 40
0.0
 40
0.0
 40
0.0
 40
0.0
 40
0.1449115824
 40
0.2870759504
 40
0.4240276837
 40
0.5538515154
 40
0.6157890755
 40
0.6756397472
 40
0.7334556498
 40
0.789376889
 40
0.8436355919
 40
0.8965487672
 40
0.9485217178
 40
1.0
 40
1.0
 40
1.0
 40
1.0
 10
10.0215418311
 20
11.0053318604
 30
0.0
 10
10.0215418311
 20
11.0079393979
 30
0.0
 10
10.0218983607
 20
11.0131123534
 30
0.0
 10
10.0234889496
 20
11.0206007291
 30
0.0
 10
10.0260753595
 20
11.0275200344
 30
0.0
 10
10.0290340666
 20
11.0326799337
 30
0.0
 10
10.0318169865
 20
11.0362589822
 30
0.0
 10
10.0340468798
 20
11.0386062017
 30
0.0
 10
10.0364305172
 20
11.040634437
 30
0.0
 10
10.0389457618
 20
11.0423237329
 30
0.0
 10
10.0415687535
 20
11.0436567639
 30
0.0
 10
10.0442745195
 20
11.0446197208
 30
0.0
 10
10.0470357661
 20
11.0452017525
 30
0.0
 10
10.0488998027
 20
11.0453318604
 30
0.0
 10
10.0498261024
 20
11.0453318604
 30
0.0
  0
SPLINE
  5
31B
100
AcDbEntity
  8
0
100
AcDbSpline
 62
9
  6
CONTINUOUS
 70
0
 71
3
 72
11
 73
7
 74
0
 42
0.0000001
 43
0.0000001
 44
0.0000000001
 40
0.0
 40
0.0
 40
0.0
 40
0.0
 40
0.2742485203
 40
0.5337637999
 40
0.7764699813
 40
1.0
 40
1.0
 40
1.0
 40
1.0
 10
10.7346635788
 20
11.0053318604
 30
0.0
 10
10.7358344243
 20
11.0059130628
 30
0.0
 10
10.7381051253
 20
11.0070606653
 30
0.0
 10
10.741378696
 20
11.0087876102
 30
0.0
 10
10.7444024603
 20
11.0104683444
 30
0.0
 10
10.7463137924
 20
11.0116029901
 30
0.0
 10
10.7472188535
 20
11.0121651172
 30
0.0
  0
SPLINE
  5
31C
100
AcDbEntity
  8
0
100
AcDbSpline
 62
9
  6
CONTINUOUS
 70
0
 71
3
 72
19
 73
15
 74
0
 42
0.0000001
 43
0.0000001
 44
0.0000000001
 40
0.0
 40
0.0
 40
0.0
 40
0.0
 40
0.1449115179
 40
0.2870758048
 40
0.4240274576
 40
0.5538512286
 40
0.6157887722
 40
0.6756394397
 40
0.7334553529
 40
0.7893766183
 40
0.8436353639
 40
0.8965485986
 40
0.9485216258
 40
1.0
 40
1.0
 40
1.0
 40
1.0
 10
10.7346636495
 20
11.0053318604
 30
0.0
 10
10.7346636454
 20
11.0079393976
 30
0.0
 10
10.7350201676
 20
11.0131123529
 30
0.0
 10
10.7366107483
 20
11.020600729
 30
0.0
 10
10.7391971532
 20
11.0275200347
 30
0.0
 10
10.742155859
 20
11.032679934
 30
0.0
 10
10.7449387793
 20
11.0362589824
 30
0.0
 10
10.7471686739
 20
11.0386062019
 30
0.0
 10
10.7495523135
 20
11.0406344372
 30
0.0
 10
10.7520675611
 20
11.0423237331
 30
0.0
 10
10.7546905565
 20
11.043656764
 30
0.0
 10
10.757396327
 20
11.0446197209
 30
0.0
 10
10.7601575787
 20
11.0452017525
 30
0.0
 10
10.7620216191
 20
11.0453318604
 30
0.0
 10
10.7629479207
 20
11.0453318604
 30
0.0
  0
SPLINE
  5
31D
100
AcDbEntity
  8
0
100
AcDbSpline
 62
9
  6
CONTINUOUS
 70
0
 71
3
 72
19
 73
15
 74
0
 42
0.0000001
 43
0.0000001
 44
0.0000000001
 40
0.0
 40
0.0
 40
0.0
 40
0.0
 40
0.1449117364
 40
0.2870762984
 40
0.4240282249
 40
0.5538522023
 40
0.615789802
 40
0.6756404838
 40
0.733456362
 40
0.7893775384
 40
0.8436361382
 40
0.8965491692
 40
0.9485219365
 40
1.0
 40
1.0
 40
1.0
 40
1.0
 10
10.0215415696
 20
11.3213318604
 30
0.0
 10
10.0215415796
 20
11.3187243223
 30
0.0
 10
10.021898127
 20
11.3135513663
 30
0.0
 10
10.0234887355
 20
11.3060629916
 30
0.0
 10
10.0260751573
 20
11.2991436875
 30
0.0
 10
10.0290338678
 20
11.2939837883
 30
0.0
 10
10.0318167865
 20
11.2904047392
 30
0.0
 10
10.0340466766
 20
11.2880575198
 30
0.0
 10
10.0364303086
 20
11.2860292845
 30
0.0
 10
10.0389455461
 20
11.2843399885
 30
0.0
 10
10.0415685287
 20
11.2830069574
 30
0.0
 10
10.0442742839
 20
11.2820440003
 30
0.0
 10
10.047035518
 20
11.2814619685
 30
0.0
 10
10.0488995459
 20
11.2813318604
 30
0.0
 10
10.0498258408
 20
11.2813318604
 30
0.0
  0
SPLINE
  5
31E
100
AcDbEntity
  8
0
100
AcDbSpline
 62
9
  6
CONTINUOUS
 70
0
 71
3
 72
12
 73
8
 74
0
 42
0.0000001
 43
0.0000001
 44
0.0000000001
 40
0.0
 40
0.0
 40
0.0
 40
0.0
 40
0.2542672228
 40
0.5061826843
 40
0.6310665718
 40
0.7550647621
 40
1.0
 40
1.0
 40
1.0
 40
1.0
 10
10.7472187835
 20
11.0121651308
 30
0.0
 10
10.7475163087
 20
11.0140922947
 30
0.0
 10
10.7483617328
 20
11.0178945193
 30
0.0
 10
10.7500382525
 20
11.0224508913
 30
0.0
 10
10.7517286628
 20
11.0259027687
 30
0.0
 10
10.7536267767
 20
11.0291822631
 30
0.0
 10
10.7553008186
 20
11.0314789834
 30
0.0
 10
10.7565154176
 20
11.0329118964
 30
0.0
  0
SPLINE
  5
31F
100
AcDbEntity
  8
0
100
AcDbSpline
 62
9
  6
CONTINUOUS
 70
0
 71
3
 72
13
 73
9
 74
0
 42
0.0000001
 43
0.0000001
 44
0.0000000001
 40
0.0
 40
0.0
 40
0.0
 40
0.0
 40
0.2565503634
 40
0.507943234
 40
0.6321030894
 40
0.7553561425
 40
0.8779018643
 40
1.0
 40
1.0
 40
1.0
 40
1.0
 10
10.756786655
 20
11.0332283898
 30
0.0
 10
10.7582594006
 20
11.0349280924
 30
0.0
 10
10.7614799105
 20
11.0380436827
 30
0.0
 10
10.7661362681
 20
11.0411118418
 30
0.0
 10
10.7701030714
 20
11.0429658276
 30
0.0
 10
10.7731666805
 20
11.0440466729
 30
0.0
 10
10.7763044617
 20
11.0448136424
 30
0.0
 10
10.7784325787
 20
11.0451119371
 30
0.0
 10
10.7794987139
 20
11.0452067937
 30
0.0
  0
SPLINE
  5
320
100
AcDbEntity
  8
0
100
AcDbSpline
 62
9
  6
CONTINUOUS
 70
0
 71
3
 72
37
 73
33
 74
0
 42
0.0000001
 43
0.0000001
 44
0.0000000001
 40
0.0
 40
0.0
 40
0.0
 40
0.0
 40
0.1312231559
 40
0.2020927058
 40
0.2764674231
 40
0.3541728811
 40
0.4347921341
 40
0.4759589488
 40
0.5175075992
 40
0.5592417916
 40
0.6009224073
 40
0.6828886025
 40
0.7224341333
 40
0.7604554168
 40
0.7964895653
 40
0.8300871663
 40
0.8608296784
 40
0.8883644333
 40
0.912445138
 40
0.9329405514
 40
0.9418508386
 40
0.9498897628
 40
0.9570915218
 40
0.9635042531
 40
0.9691983264
 40
0.9742668853
 40
0.9788293028
 40
0.9830417834
 40
0.9870884568
 40
0.9911595811
 40
0.9954210487
 40
1.0
 40
1.0
 40
1.0
 40
1.0
 10
10.0215416794
 20
11.3213318604
 30
0.0
 10
10.0183548917
 20
11.3197505712
 30
0.0
 10
10.0133507315
 20
11.3175044778
 30
0.0
 10
10.0063616145
 20
11.3147945189
 30
0.0
 10
10.0006518064
 20
11.312807492
 30
0.0
 10
9.9946244079
 20
11.3109409635
 30
0.0
 10
9.9894052519
 20
11.309518524
 30
0.0
 10
9.9851040133
 20
11.3084654145
 30
0.0
 10
9.9818135228
 20
11.3077190557
 30
0.0
 10
9.9784966913
 20
11.3070280549
 30
0.0
 10
9.9740908861
 20
11.3061957641
 30
0.0
 10
9.9697217071
 20
11.3054911524
 30
0.0
 10
9.9654315408
 20
11.3049407867
 30
0.0
 10
9.9623685845
 20
11.3046164067
 30
0.0
 10
9.9594590327
 20
11.304383046
 30
0.0
 10
9.9567409553
 20
11.3042437925
 30
0.0
 10
9.9542499891
 20
11.304200272
 30
0.0
 10
9.9520170396
 20
11.3042539195
 30
0.0
 10
9.9500666752
 20
11.3044016906
 30
0.0
 10
9.9486299402
 20
11.3046115282
 30
0.0
 10
9.9476387986
 20
11.304833062
 30
0.0
 10
9.947008736
 20
11.3050127696
 30
0.0
 10
9.9464564746
 20
11.30521361
 30
0.0
 10
9.945981594
 20
11.3054358585
 30
0.0
 10
9.9455830836
 20
11.3056788942
 30
0.0
 10
9.9452594483
 20
11.3059418407
 30
0.0
 10
9.9450094366
 20
11.3062244498
 30
0.0
 10
9.9448328815
 20
11.3065267961
 30
0.0
 10
9.94472991
 20
11.3068477022
 30
0.0
 10
9.9446993301
 20
11.307184441
 30
0.0
 10
9.9447374077
 20
11.3075343267
 30
0.0
 10
9.9448032099
 20
11.3077659006
 30
0.0
 10
9.9448449211
 20
11.3078828214
 30
0.0
  0
SPLINE
  5
321
100
AcDbEntity
  8
0
100
AcDbSpline
 62
9
  6
CONTINUOUS
 70
0
 71
3
 72
19
 73
15
 74
0
 42
0.0000001
 43
0.0000001
 44
0.0000000001
 40
0.0
 40
0.0
 40
0.0
 40
0.0
 40
0.1449115817
 40
0.2870759493
 40
0.4240276821
 40
0.5538515133
 40
0.6157890733
 40
0.675639745
 40
0.7334556477
 40
0.7893768871
 40
0.8436355903
 40
0.896548766
 40
0.9485217174
 40
1.0
 40
1.0
 40
1.0
 40
1.0
 10
10.7346633879
 20
11.3213318604
 30
0.0
 10
10.7346633879
 20
11.318724323
 30
0.0
 10
10.7350199175
 20
11.3135513675
 30
0.0
 10
10.7366105064
 20
11.3060629918
 30
0.0
 10
10.7391969162
 20
11.2991436865
 30
0.0
 10
10.7421556233
 20
11.2939837872
 30
0.0
 10
10.7449385432
 20
11.2904047387
 30
0.0
 10
10.7471684365
 20
11.2880575192
 30
0.0
 10
10.7495520738
 20
11.2860292838
 30
0.0
 10
10.7520673185
 20
11.284339988
 30
0.0
 10
10.7546903102
 20
11.283006957
 30
0.0
 10
10.7573960762
 20
11.282044
 30
0.0
 10
10.7601573228
 20
11.2814619683
 30
0.0
 10
10.7620213595
 20
11.2813318604
 30
0.0
 10
10.7629476592
 20
11.2813318604
 30
0.0
  0
SPLINE
  5
322
100
AcDbEntity
  8
0
100
AcDbSpline
 62
9
  6
CONTINUOUS
 70
0
 71
3
 72
11
 73
7
 74
0
 42
0.0000001
 43
0.0000001
 44
0.0000000001
 40
0.0
 40
0.0
 40
0.0
 40
0.0
 40
0.2235312718
 40
0.4662376372
 40
0.7257523901
 40
1.0
 40
1.0
 40
1.0
 40
1.0
 10
10.7472189077
 20
11.314498311
 30
0.0
 10
10.7463138181
 20
11.3150604629
 30
0.0
 10
10.7444024372
 20
11.3161951676
 30
0.0
 10
10.7413785935
 20
11.3178759778
 30
0.0
 10
10.7381049442
 20
11.3196029941
 30
0.0
 10
10.7358341894
 20
11.3207506409
 30
0.0
 10
10.7346633143
 20
11.3213318604
 30
0.0
  0
SPLINE
  5
323
100
AcDbEntity
  8
0
100
AcDbSpline
 62
9
  6
CONTINUOUS
 70
0
 71
3
 72
12
 73
8
 74
0
 42
0.0000001
 43
0.0000001
 44
0.0000000001
 40
0.0
 40
0.0
 40
0.0
 40
0.0
 40
0.2543612308
 40
0.5063187526
 40
0.6311999527
 40
0.7551753727
 40
1.0
 40
1.0
 40
1.0
 40
1.0
 10
10.7472189077
 20
11.314498311
 30
0.0
 10
10.7475209614
 20
11.3125418556
 30
0.0
 10
10.7483830916
 20
11.3086826833
 30
0.0
 10
10.7500992455
 20
11.3040625889
 30
0.0
 10
10.7518313871
 20
11.3005674991
 30
0.0
 10
10.7537766559
 20
11.2972516163
 30
0.0
 10
10.7554928804
 20
11.2949343539
 30
0.0
 10
10.7567378278
 20
11.2934918883
 30
0.0
  0
SPLINE
  5
324
100
AcDbEntity
  8
0
100
AcDbSpline
 62
9
  6
CONTINUOUS
 70
0
 71
3
 72
15
 73
11
 74
0
 42
0.0000001
 43
0.0000001
 44
0.0000000001
 40
0.0
 40
0.0
 40
0.0
 40
0.0
 40
0.1292805427
 40
0.2570688932
 40
0.3834292803
 40
0.5084860376
 40
0.6324219955
 40
0.7554608689
 40
0.8778979628
 40
1.0
 40
1.0
 40
1.0
 40
1.0
 10
10.7567378278
 20
11.2934918883
 30
0.0
 10
10.75756002
 20
11.2925392505
 30
0.0
 10
10.7592896289
 20
11.2907242023
 30
0.0
 10
10.7621294135
 20
11.2882928231
 30
0.0
 10
10.7651724578
 20
11.2861917289
 30
0.0
 10
10.7683880974
 20
11.2844426041
 30
0.0
 10
10.7717441273
 20
11.2830632891
 30
0.0
 10
10.7752070361
 20
11.2820676314
 30
0.0
 10
10.7787412538
 20
11.2814662911
 30
0.0
 10
10.7811236807
 20
11.2813320625
 30
0.0
 10
10.7823121866
 20
11.2813320716
 30
0.0
  0
SPLINE
  5
325
100
AcDbEntity
  8
0
100
AcDbSpline
 62
7
  6
CONTINUOUS
 70
0
 71
3
 72
22
 73
18
 74
0
 42
0.0000001
 43
0.0000001
 44
0.0000000001
 40
0.0
 40
0.0
 40
0.0
 40
0.0
 40
0.1405182112
 40
0.2101364038
 40
0.2789478304
 40
0.4131261447
 40
0.4782379889
 40
0.5418164905
 40
0.6037925555
 40
0.6641556647
 40
0.7229589742
 40
0.7518218682
 40
0.7803452855
 40
0.8364549355
 40
0.8915590048
 40
0.9459610953
 40
1.0
 40
1.0
 40
1.0
 40
1.0
 10
19.9663183383
 20
5.4493374228
 30
0.0
 10
19.9611011299
 20
5.4493374228
 30
0.0
 10
19.9532819194
 20
5.4487524766
 30
0.0
 10
19.9431021767
 20
5.4468026451
 30
0.0
 10
19.9333316948
 20
5.4441306665
 30
0.0
 10
19.9240579533
 20
5.4403663421
 30
0.0
 10
19.9155582757
 20
5.4355484297
 30
0.0
 10
19.909730018
 20
5.4315118762
 30
0.0
 10
19.9044440969
 20
5.4270556682
 30
0.0
 10
19.8997513641
 20
5.4222219146
 30
0.0
 10
19.8963513738
 20
5.4178887698
 30
0.0
 10
19.8939800986
 20
5.4142825593
 30
0.0
 10
19.8918673433
 20
5.4106343457
 30
0.0
 10
19.8896603394
 20
5.4059244836
 30
0.0
 10
19.8877388353
 20
5.4000670548
 30
0.0
 10
19.8865776094
 20
5.3940911703
 30
0.0
 10
19.8863183383
 20
5.3900602423
 30
0.0
 10
19.8863183383
 20
5.3880538673
 30
0.0
  0
SPLINE
  5
326
100
AcDbEntity
  8
0
100
AcDbSpline
 62
9
  6
CONTINUOUS
 70
0
 71
3
 72
15
 73
11
 74
0
 42
0.0000001
 43
0.0000001
 44
0.0000000001
 40
0.0
 40
0.0
 40
0.0
 40
0.0
 40
0.1093878675
 40
0.2202264204
 40
0.3350354987
 40
0.4558034995
 40
0.5825349217
 40
0.7153481393
 40
0.8546251508
 40
1.0
 40
1.0
 40
1.0
 40
1.0
 10
10.7472189594
 20
11.3144983211
 30
0.0
 10
10.747922811
 20
11.3140573588
 30
0.0
 10
10.749276569
 20
11.3130641729
 30
0.0
 10
10.7511025017
 20
11.3112825325
 30
0.0
 10
10.7527417261
 20
11.3092177529
 30
0.0
 10
10.7542201492
 20
11.3068933206
 30
0.0
 10
10.7555713149
 20
11.3043385205
 30
0.0
 10
10.7568117424
 20
11.3015741133
 30
0.0
 10
10.757956277
 20
11.2986169984
 30
0.0
 10
10.7586544706
 20
11.2965709999
 30
0.0
 10
10.7589952828
 20
11.2955211097
 30
0.0
  0
ENDSEC
  0
SECTION
  2
OBJECTS
  0
DICTIONARY
  5
C
100
AcDbDictionary
280
0
281
1
  3
ACAD_GROUP
350
D
  3
ACAD_MLINESTYLE
350
17
  3
ACAD_LAYOUT
350
1A
  3
ACAD_PLOTSETTINGS
350
19
  3
ACAD_PLOTSTYLENAME
350
E
  0
DICTIONARY
  5
D
102
{ACAD_REACTORS
330
C
102
}
100
AcDbDictionary
280
0
281
1
  0
ACDBDICTIONARYWDFLT
  5
E
102
{ACAD_REACTORS
330
C
102
}
100
AcDbDictionary
281
1
  3
Normal
350
F
100
AcDbDictionaryWithDefault
340
F
  0
DICTIONARY
  5
17
102
{ACAD_REACTORS
330
C
102
}
100
AcDbDictionary
280
0
281
1
  3
Standard
350
18
  0
DICTIONARY
  5
19
102
{ACAD_REACTORS
330
C
102
}
100
AcDbDictionary
281
1
  0
DICTIONARY
  5
1A
102
{ACAD_REACTORS
330
C
102
}
100
AcDbDictionary
281
1
  3
Model
350
327
  3
Layout1
350
328
  0
ACDBPLACEHOLDER
  5
F
102
{ACAD_REACTORS
330
E
102
}
  0
MLINESTYLE
  5
18
102
{ACAD_REACTORS
330
17
102
}
100
AcDbMlineStyle
  2
STANDARD
 70
0
  3

 62
256
 51
90.0
 52
90.0
 71
2
 49
0.5
 62
256
  6
BYLAYER
 49
-0.5
 62
256
  6
BYLAYER
  0
LAYOUT
  5
327
102
{ACAD_REACTORS
330
1A
102
}
100
AcDbPlotSettings
  1

  2
none_device
  4
ANSI_C_(22.00_x_17.00_Inches)
  6

 40
0.0
 41
0.0
 42
0.0
 43
0.0
 44
558.8
 45
431.8
 46
0.0
 47
0.0
 48
0.0
 49
0.0
140
0.0
141
0.0
142
1.0
143
1.0
 70
1024
 72
0
 73
0
 74
0
  7

 75
0
147
1.0
148
0.0
149
0.0
100
AcDbLayout
  1
Model
 70
0
 71
0
 10
0.0
 20
0.0
 11
22.0
 21
17.0
 12
0.0
 22
0.0
 32
0.0
 14
0.0
 24
0.0
 34
0.0
 15
0.0
 25
0.0
 35
0.0
146
0.0
 13
0.0
 23
0.0
 33
0.0
 16
1.0
 26
0.0
 36
0.0
 17
0.0
 27
1.0
 37
0.0
 76
0
330
205
345
0
346
0
  0
LAYOUT
  5
328
102
{ACAD_REACTORS
330
1A
102
}
100
AcDbPlotSettings
  1

  2
none_device
  4
ANSI_C_(22.00_x_17.00_Inches)
  6

 40
0.0
 41
0.0
 42
0.0
 43
0.0
 44
558.8
 45
431.8
 46
0.0
 47
0.0
 48
0.0
 49
0.0
140
0.0
141
0.0
142
1.0
143
1.0
 70
0
 72
0
 73
0
 74
0
  7

 75
0
147
1.0
148
0.0
149
0.0
100
AcDbLayout
  1
Layout1
 70
0
 71
1
 10
0.0
 20
0.0
 11
22.0
 21
17.0
 12
0.0
 22
0.0
 32
0.0
 14
0.0
 24
0.0
 34
0.0
 15
0.0
 25
0.0
 35
0.0
146
0.0
 13
0.0
 23
0.0
 33
0.0
 16
1.0
 26
0.0
 36
0.0
 17
0.0
 27
1.0
 37
0.0
 76
0
330
206
345
0
346
0
  0
ENDSEC
  0
EOF
