ISO-10303-21;
HEADER;
FILE_DESCRIPTION((''),'2;1');
FILE_NAME('3-255','2021-01-01T11:42:04',('jinson.thomas'),(''),
'CREO PARAMETRIC BY PTC INC, 2018400','CREO PARAMETRIC BY PTC INC, 2018400','');
FILE_SCHEMA(('CONFIG_CONTROL_DESIGN'));
ENDSEC;
DATA;
#2=CARTESIAN_POINT('',(0.E0,3.75E-1,0.E0));
#3=DIRECTION('',(0.E0,1.E0,0.E0));
#4=DIRECTION('',(0.E0,0.E0,1.E0));
#5=AXIS2_PLACEMENT_3D('',#2,#3,#4);
#7=CARTESIAN_POINT('',(0.E0,3.75E-1,0.E0));
#8=DIRECTION('',(0.E0,-1.E0,0.E0));
#9=DIRECTION('',(0.E0,0.E0,1.E0));
#10=AXIS2_PLACEMENT_3D('',#7,#8,#9);
#12=CARTESIAN_POINT('',(0.E0,0.E0,0.E0));
#13=DIRECTION('',(0.E0,1.E0,0.E0));
#14=DIRECTION('',(0.E0,0.E0,1.E0));
#15=AXIS2_PLACEMENT_3D('',#12,#13,#14);
#17=DIRECTION('',(0.E0,1.E0,0.E0));
#18=VECTOR('',#17,3.75E-1);
#19=CARTESIAN_POINT('',(0.E0,0.E0,1.1875E0));
#20=LINE('',#19,#18);
#21=DIRECTION('',(0.E0,1.E0,0.E0));
#22=VECTOR('',#21,3.75E-1);
#23=CARTESIAN_POINT('',(0.E0,0.E0,-1.1875E0));
#24=LINE('',#23,#22);
#25=CARTESIAN_POINT('',(0.E0,0.E0,0.E0));
#26=DIRECTION('',(0.E0,-1.E0,0.E0));
#27=DIRECTION('',(0.E0,0.E0,1.E0));
#28=AXIS2_PLACEMENT_3D('',#25,#26,#27);
#30=CARTESIAN_POINT('',(0.E0,1.483E0,0.E0));
#31=DIRECTION('',(0.E0,-1.E0,0.E0));
#32=DIRECTION('',(0.E0,0.E0,1.E0));
#33=AXIS2_PLACEMENT_3D('',#30,#31,#32);
#35=CARTESIAN_POINT('',(0.E0,3.75E-1,0.E0));
#36=DIRECTION('',(0.E0,-1.E0,0.E0));
#37=DIRECTION('',(0.E0,0.E0,1.E0));
#38=AXIS2_PLACEMENT_3D('',#35,#36,#37);
#40=CARTESIAN_POINT('',(0.E0,1.483E0,0.E0));
#41=DIRECTION('',(0.E0,1.E0,0.E0));
#42=DIRECTION('',(1.E0,0.E0,0.E0));
#43=AXIS2_PLACEMENT_3D('',#40,#41,#42);
#45=CARTESIAN_POINT('',(0.E0,1.483E0,0.E0));
#46=DIRECTION('',(0.E0,1.E0,0.E0));
#47=DIRECTION('',(-1.E0,0.E0,0.E0));
#48=AXIS2_PLACEMENT_3D('',#45,#46,#47);
#50=CARTESIAN_POINT('',(0.E0,1.483E0,0.E0));
#51=DIRECTION('',(0.E0,1.E0,0.E0));
#52=DIRECTION('',(0.E0,0.E0,1.E0));
#53=AXIS2_PLACEMENT_3D('',#50,#51,#52);
#55=DIRECTION('',(0.E0,1.E0,0.E0));
#56=VECTOR('',#55,1.108E0);
#57=CARTESIAN_POINT('',(0.E0,3.75E-1,-6.5625E-1));
#58=LINE('',#57,#56);
#59=CARTESIAN_POINT('',(0.E0,3.75E-1,0.E0));
#60=DIRECTION('',(0.E0,-1.E0,0.E0));
#61=DIRECTION('',(0.E0,0.E0,-1.E0));
#62=AXIS2_PLACEMENT_3D('',#59,#60,#61);
#64=DIRECTION('',(0.E0,1.E0,0.E0));
#65=VECTOR('',#64,1.108E0);
#66=CARTESIAN_POINT('',(0.E0,3.75E-1,6.5625E-1));
#67=LINE('',#66,#65);
#68=DIRECTION('',(0.E0,1.E0,0.E0));
#69=VECTOR('',#68,2.E-2);
#70=CARTESIAN_POINT('',(2.E-1,1.483E0,0.E0));
#71=LINE('',#70,#69);
#72=CARTESIAN_POINT('',(0.E0,1.503E0,0.E0));
#73=DIRECTION('',(0.E0,1.E0,0.E0));
#74=DIRECTION('',(1.E0,0.E0,0.E0));
#75=AXIS2_PLACEMENT_3D('',#72,#73,#74);
#77=CARTESIAN_POINT('',(0.E0,1.503E0,0.E0));
#78=DIRECTION('',(0.E0,1.E0,0.E0));
#79=DIRECTION('',(-1.E0,0.E0,0.E0));
#80=AXIS2_PLACEMENT_3D('',#77,#78,#79);
#82=CARTESIAN_POINT('',(0.E0,1.503E0,0.E0));
#83=DIRECTION('',(0.E0,1.E0,0.E0));
#84=DIRECTION('',(0.E0,0.E0,-1.E0));
#85=AXIS2_PLACEMENT_3D('',#82,#83,#84);
#87=DIRECTION('',(7.054908517570E-13,1.E0,0.E0));
#88=VECTOR('',#87,1.09E0);
#89=CARTESIAN_POINT('',(0.E0,1.503E0,-6.56E-1));
#90=LINE('',#89,#88);
#91=DIRECTION('',(-7.056429627474E-13,1.E0,0.E0));
#92=VECTOR('',#91,1.09E0);
#93=CARTESIAN_POINT('',(0.E0,1.503E0,6.56E-1));
#94=LINE('',#93,#92);
#95=CARTESIAN_POINT('',(0.E0,1.503E0,0.E0));
#96=DIRECTION('',(0.E0,-1.E0,0.E0));
#97=DIRECTION('',(0.E0,0.E0,-1.E0));
#98=AXIS2_PLACEMENT_3D('',#95,#96,#97);
#100=CARTESIAN_POINT('',(6.064948474637E-1,1.963E0,2.5E-1));
#101=CARTESIAN_POINT('',(6.064948474637E-1,1.973957864023E0,2.5E-1));
#102=CARTESIAN_POINT('',(6.070912733454E-1,1.996024879714E0,2.485610931775E-1));
#103=CARTESIAN_POINT('',(6.097951239554E-1,2.029069193236E0,2.418983518573E-1));
#104=CARTESIAN_POINT('',(6.141243677600E-1,2.061177650504E0,2.307719387017E-1));
#105=CARTESIAN_POINT('',(6.198637589585E-1,2.092142534476E0,2.149948113941E-1));
#106=CARTESIAN_POINT('',(6.264261225755E-1,2.120486058772E0,1.951939487925E-1));
#107=CARTESIAN_POINT('',(6.334271801550E-1,2.146224558166E0,1.712980981973E-1));
#108=CARTESIAN_POINT('',(6.402450524632E-1,2.168421964855E0,1.439225223227E-1));
#109=CARTESIAN_POINT('',(6.462741634503E-1,2.186394870950E0,1.139770876114E-1));
#110=CARTESIAN_POINT('',(6.510397480096E-1,2.199751963859E0,8.263731034364E-2));
#111=CARTESIAN_POINT('',(6.543679069879E-1,2.208710029546E0,5.006912437252E-2));
#112=CARTESIAN_POINT('',(6.560720052167E-1,2.213189777900E0,1.665468881269E-2));
#113=CARTESIAN_POINT('',(6.560723492307E-1,2.213190678084E0,
-1.664096310161E-2));
#114=CARTESIAN_POINT('',(6.543690204510E-1,2.208712969529E0,
-5.005333708133E-2));
#115=CARTESIAN_POINT('',(6.510424653512E-1,2.199759370589E0,
-8.261571379057E-2));
#116=CARTESIAN_POINT('',(6.462769699800E-1,2.186403083841E0,
-1.139624860141E-1));
#117=CARTESIAN_POINT('',(6.402452075988E-1,2.168422620397E0,
-1.439224411759E-1));
#118=CARTESIAN_POINT('',(6.334269290635E-1,2.146223653754E0,
-1.712988565204E-1));
#119=CARTESIAN_POINT('',(6.264267701324E-1,2.120488321452E0,
-1.951917448936E-1));
#120=CARTESIAN_POINT('',(6.198652180273E-1,2.092149539557E0,
-2.149906350107E-1));
#121=CARTESIAN_POINT('',(6.141247687071E-1,2.061180532183E0,
-2.307709315469E-1));
#122=CARTESIAN_POINT('',(6.097953113282E-1,2.029071039395E0,
-2.418978749290E-1));
#123=CARTESIAN_POINT('',(6.070912665803E-1,1.996025198637E0,
-2.485611148076E-1));
#124=CARTESIAN_POINT('',(6.064948474637E-1,1.973957896768E0,-2.5E-1));
#125=CARTESIAN_POINT('',(6.064948474637E-1,1.963E0,-2.5E-1));
#127=CARTESIAN_POINT('',(6.064948474637E-1,1.963E0,-2.5E-1));
#128=CARTESIAN_POINT('',(6.064948474637E-1,1.952047465902E0,-2.5E-1));
#129=CARTESIAN_POINT('',(6.070906718220E-1,1.929988705499E0,
-2.485625433853E-1));
#130=CARTESIAN_POINT('',(6.097932850303E-1,1.896947840151E0,
-2.419029436202E-1));
#131=CARTESIAN_POINT('',(6.141218005191E-1,1.864838052774E0,
-2.307787456713E-1));
#132=CARTESIAN_POINT('',(6.198612543715E-1,1.833869243305E0,
-2.150020234535E-1));
#133=CARTESIAN_POINT('',(6.264235420767E-1,1.805524188223E0,
-1.952021654825E-1));
#134=CARTESIAN_POINT('',(6.334242714786E-1,1.779785447909E0,
-1.713086996474E-1));
#135=CARTESIAN_POINT('',(6.402429354235E-1,1.757584407260E0,
-1.439324936282E-1));
#136=CARTESIAN_POINT('',(6.462750887365E-1,1.739602314894E0,
-1.139732229467E-1));
#137=CARTESIAN_POINT('',(6.510414448817E-1,1.726243399223E0,
-8.262416166700E-2));
#138=CARTESIAN_POINT('',(6.543687577154E-1,1.717287719380E0,
-5.005797071978E-2));
#139=CARTESIAN_POINT('',(6.560724645834E-1,1.712809019447E0,
-1.663961396378E-2));
#140=CARTESIAN_POINT('',(6.560719057809E-1,1.712810482167E0,1.665783224346E-2));
#141=CARTESIAN_POINT('',(6.543678152940E-1,1.717290216127E0,5.006991272741E-2));
#142=CARTESIAN_POINT('',(6.510396962324E-1,1.726248176505E0,8.263779947449E-2));
#143=CARTESIAN_POINT('',(6.462739533374E-1,1.739605725208E0,1.139783605742E-1));
#144=CARTESIAN_POINT('',(6.402445804509E-1,1.757579469211E0,1.439246901100E-1));
#145=CARTESIAN_POINT('',(6.334263815076E-1,1.779778167211E0,1.713010763656E-1));
#146=CARTESIAN_POINT('',(6.264250095541E-1,1.805518182043E0,1.951976014746E-1));
#147=CARTESIAN_POINT('',(6.198615575606E-1,1.833867504792E0,2.150012246923E-1));
#148=CARTESIAN_POINT('',(6.141218980871E-1,1.864837630676E0,2.307784693276E-1));
#149=CARTESIAN_POINT('',(6.097936073884E-1,1.896944897138E0,2.419021344201E-1));
#150=CARTESIAN_POINT('',(6.070906586291E-1,1.929988181350E0,2.485625811766E-1));
#151=CARTESIAN_POINT('',(6.064948474637E-1,1.952047262402E0,2.5E-1));
#152=CARTESIAN_POINT('',(6.064948474637E-1,1.963E0,2.5E-1));
#154=DIRECTION('',(1.E0,2.199030911446E-12,0.E0));
#155=VECTOR('',#154,2.369755152536E0);
#156=CARTESIAN_POINT('',(6.064948474637E-1,1.963E0,2.5E-1));
#157=LINE('',#156,#155);
#158=DIRECTION('',(1.E0,-2.199218310220E-12,0.E0));
#159=VECTOR('',#158,2.369755152536E0);
#160=CARTESIAN_POINT('',(6.064948474637E-1,1.963E0,-2.5E-1));
#161=LINE('',#160,#159);
#162=CARTESIAN_POINT('',(3.00625E0,1.963E0,0.E0));
#163=DIRECTION('',(1.E0,0.E0,0.E0));
#164=DIRECTION('',(0.E0,0.E0,1.E0));
#165=AXIS2_PLACEMENT_3D('',#162,#163,#164);
#167=CARTESIAN_POINT('',(2.97625E0,1.963E0,0.E0));
#168=DIRECTION('',(1.E0,0.E0,0.E0));
#169=DIRECTION('',(0.E0,0.E0,1.E0));
#170=AXIS2_PLACEMENT_3D('',#167,#168,#169);
#172=CARTESIAN_POINT('',(2.97625E0,1.963E0,2.2E-1));
#173=DIRECTION('',(0.E0,-1.E0,0.E0));
#174=DIRECTION('',(1.E0,0.E0,0.E0));
#175=AXIS2_PLACEMENT_3D('',#172,#173,#174);
#177=CARTESIAN_POINT('',(3.00625E0,1.963E0,0.E0));
#178=DIRECTION('',(1.E0,0.E0,0.E0));
#179=DIRECTION('',(0.E0,0.E0,-1.E0));
#180=AXIS2_PLACEMENT_3D('',#177,#178,#179);
#182=CARTESIAN_POINT('',(2.97625E0,1.963E0,0.E0));
#183=DIRECTION('',(1.E0,0.E0,0.E0));
#184=DIRECTION('',(0.E0,0.E0,-1.E0));
#185=AXIS2_PLACEMENT_3D('',#182,#183,#184);
#187=CARTESIAN_POINT('',(2.97625E0,1.963E0,-2.2E-1));
#188=DIRECTION('',(0.E0,1.E0,0.E0));
#189=DIRECTION('',(1.E0,0.E0,0.E0));
#190=AXIS2_PLACEMENT_3D('',#187,#188,#189);
#192=CARTESIAN_POINT('',(0.E0,2.623E0,0.E0));
#193=DIRECTION('',(0.E0,1.E0,0.E0));
#194=DIRECTION('',(0.E0,0.E0,1.E0));
#195=AXIS2_PLACEMENT_3D('',#192,#193,#194);
#197=CARTESIAN_POINT('',(0.E0,2.593E0,0.E0));
#198=DIRECTION('',(0.E0,1.E0,0.E0));
#199=DIRECTION('',(0.E0,0.E0,1.E0));
#200=AXIS2_PLACEMENT_3D('',#197,#198,#199);
#202=CARTESIAN_POINT('',(0.E0,2.593E0,6.26E-1));
#203=DIRECTION('',(1.E0,0.E0,0.E0));
#204=DIRECTION('',(0.E0,1.E0,0.E0));
#205=AXIS2_PLACEMENT_3D('',#202,#203,#204);
#207=CARTESIAN_POINT('',(0.E0,2.623E0,0.E0));
#208=DIRECTION('',(0.E0,1.E0,0.E0));
#209=DIRECTION('',(0.E0,0.E0,-1.E0));
#210=AXIS2_PLACEMENT_3D('',#207,#208,#209);
#212=CARTESIAN_POINT('',(0.E0,2.593E0,0.E0));
#213=DIRECTION('',(0.E0,1.E0,0.E0));
#214=DIRECTION('',(0.E0,0.E0,-1.E0));
#215=AXIS2_PLACEMENT_3D('',#212,#213,#214);
#217=CARTESIAN_POINT('',(0.E0,2.593E0,-6.26E-1));
#218=DIRECTION('',(-1.E0,0.E0,0.E0));
#219=DIRECTION('',(0.E0,1.E0,0.E0));
#220=AXIS2_PLACEMENT_3D('',#217,#218,#219);
#222=DIRECTION('',(0.E0,1.E0,0.E0));
#223=VECTOR('',#222,2.E-2);
#224=CARTESIAN_POINT('',(-2.E-1,1.483E0,0.E0));
#225=LINE('',#224,#223);
#226=CARTESIAN_POINT('',(0.E0,3.75E-1,1.1875E0));
#227=CARTESIAN_POINT('',(0.E0,3.75E-1,-1.1875E0));
#228=VERTEX_POINT('',#226);
#229=VERTEX_POINT('',#227);
#230=CARTESIAN_POINT('',(3.00625E0,1.963E0,2.2E-1));
#231=CARTESIAN_POINT('',(3.00625E0,1.963E0,-2.2E-1));
#232=VERTEX_POINT('',#230);
#233=VERTEX_POINT('',#231);
#234=CARTESIAN_POINT('',(2.97625E0,1.963E0,2.5E-1));
#235=CARTESIAN_POINT('',(2.97625E0,1.963E0,-2.5E-1));
#236=VERTEX_POINT('',#234);
#237=VERTEX_POINT('',#235);
#238=CARTESIAN_POINT('',(0.E0,2.623E0,-6.26E-1));
#239=CARTESIAN_POINT('',(0.E0,2.623E0,6.26E-1));
#240=VERTEX_POINT('',#238);
#241=VERTEX_POINT('',#239);
#242=CARTESIAN_POINT('',(0.E0,2.593E0,-6.56E-1));
#243=CARTESIAN_POINT('',(0.E0,2.593E0,6.56E-1));
#244=VERTEX_POINT('',#242);
#245=VERTEX_POINT('',#243);
#246=VERTEX_POINT('',#100);
#247=VERTEX_POINT('',#125);
#248=CARTESIAN_POINT('',(0.E0,3.75E-1,6.5625E-1));
#249=CARTESIAN_POINT('',(0.E0,3.75E-1,-6.5625E-1));
#250=VERTEX_POINT('',#248);
#251=VERTEX_POINT('',#249);
#252=CARTESIAN_POINT('',(0.E0,0.E0,1.1875E0));
#253=CARTESIAN_POINT('',(0.E0,0.E0,-1.1875E0));
#254=VERTEX_POINT('',#252);
#255=VERTEX_POINT('',#253);
#256=CARTESIAN_POINT('',(0.E0,1.503E0,-6.56E-1));
#257=CARTESIAN_POINT('',(0.E0,1.503E0,6.56E-1));
#258=VERTEX_POINT('',#256);
#259=VERTEX_POINT('',#257);
#260=CARTESIAN_POINT('',(0.E0,1.483E0,6.5625E-1));
#261=CARTESIAN_POINT('',(0.E0,1.483E0,-6.5625E-1));
#262=VERTEX_POINT('',#260);
#263=VERTEX_POINT('',#261);
#264=CARTESIAN_POINT('',(2.E-1,1.503E0,0.E0));
#265=CARTESIAN_POINT('',(-2.E-1,1.503E0,0.E0));
#266=VERTEX_POINT('',#264);
#267=VERTEX_POINT('',#265);
#268=CARTESIAN_POINT('',(2.E-1,1.483E0,0.E0));
#269=CARTESIAN_POINT('',(-2.E-1,1.483E0,0.E0));
#270=VERTEX_POINT('',#268);
#271=VERTEX_POINT('',#269);
#272=CARTESIAN_POINT('',(0.E0,3.75E-1,0.E0));
#273=DIRECTION('',(0.E0,-1.E0,0.E0));
#274=DIRECTION('',(0.E0,0.E0,-1.E0));
#275=AXIS2_PLACEMENT_3D('',#272,#273,#274);
#276=PLANE('',#275);
#278=ORIENTED_EDGE('',*,*,#277,.F.);
#280=ORIENTED_EDGE('',*,*,#279,.T.);
#281=EDGE_LOOP('',(#278,#280));
#282=FACE_OUTER_BOUND('',#281,.F.);
#284=ORIENTED_EDGE('',*,*,#283,.F.);
#286=ORIENTED_EDGE('',*,*,#285,.F.);
#287=EDGE_LOOP('',(#284,#286));
#288=FACE_BOUND('',#287,.F.);
#289=ADVANCED_FACE('',(#282,#288),#276,.F.);
#290=CARTESIAN_POINT('',(0.E0,3.9375E-1,0.E0));
#291=DIRECTION('',(0.E0,-1.E0,0.E0));
#292=DIRECTION('',(0.E0,0.E0,-1.E0));
#293=AXIS2_PLACEMENT_3D('',#290,#291,#292);
#294=CYLINDRICAL_SURFACE('',#293,1.1875E0);
#296=ORIENTED_EDGE('',*,*,#295,.F.);
#298=ORIENTED_EDGE('',*,*,#297,.T.);
#299=ORIENTED_EDGE('',*,*,#277,.T.);
#301=ORIENTED_EDGE('',*,*,#300,.F.);
#302=EDGE_LOOP('',(#296,#298,#299,#301));
#303=FACE_OUTER_BOUND('',#302,.F.);
#304=ADVANCED_FACE('',(#303),#294,.T.);
#305=CARTESIAN_POINT('',(0.E0,0.E0,0.E0));
#306=DIRECTION('',(0.E0,-1.E0,0.E0));
#307=DIRECTION('',(0.E0,0.E0,-1.E0));
#308=AXIS2_PLACEMENT_3D('',#305,#306,#307);
#309=PLANE('',#308);
#310=ORIENTED_EDGE('',*,*,#295,.T.);
#312=ORIENTED_EDGE('',*,*,#311,.F.);
#313=EDGE_LOOP('',(#310,#312));
#314=FACE_OUTER_BOUND('',#313,.F.);
#315=ADVANCED_FACE('',(#314),#309,.T.);
#316=CARTESIAN_POINT('',(0.E0,3.9375E-1,0.E0));
#317=DIRECTION('',(0.E0,-1.E0,0.E0));
#318=DIRECTION('',(0.E0,0.E0,-1.E0));
#319=AXIS2_PLACEMENT_3D('',#316,#317,#318);
#320=CYLINDRICAL_SURFACE('',#319,1.1875E0);
#321=ORIENTED_EDGE('',*,*,#311,.T.);
#322=ORIENTED_EDGE('',*,*,#300,.T.);
#323=ORIENTED_EDGE('',*,*,#279,.F.);
#324=ORIENTED_EDGE('',*,*,#297,.F.);
#325=EDGE_LOOP('',(#321,#322,#323,#324));
#326=FACE_OUTER_BOUND('',#325,.F.);
#327=ADVANCED_FACE('',(#326),#320,.T.);
#328=CARTESIAN_POINT('',(0.E0,1.5415E0,0.E0));
#329=DIRECTION('',(0.E0,-1.E0,0.E0));
#330=DIRECTION('',(0.E0,0.E0,-1.E0));
#331=AXIS2_PLACEMENT_3D('',#328,#329,#330);
#332=CYLINDRICAL_SURFACE('',#331,6.5625E-1);
#334=ORIENTED_EDGE('',*,*,#333,.F.);
#336=ORIENTED_EDGE('',*,*,#335,.F.);
#337=ORIENTED_EDGE('',*,*,#283,.T.);
#339=ORIENTED_EDGE('',*,*,#338,.T.);
#340=EDGE_LOOP('',(#334,#336,#337,#339));
#341=FACE_OUTER_BOUND('',#340,.F.);
#342=ADVANCED_FACE('',(#341),#332,.T.);
#343=CARTESIAN_POINT('',(0.E0,1.483E0,0.E0));
#344=DIRECTION('',(0.E0,-1.E0,0.E0));
#345=DIRECTION('',(0.E0,0.E0,-1.E0));
#346=AXIS2_PLACEMENT_3D('',#343,#344,#345);
#347=PLANE('',#346);
#348=ORIENTED_EDGE('',*,*,#333,.T.);
#350=ORIENTED_EDGE('',*,*,#349,.F.);
#351=EDGE_LOOP('',(#348,#350));
#352=FACE_OUTER_BOUND('',#351,.F.);
#354=ORIENTED_EDGE('',*,*,#353,.T.);
#356=ORIENTED_EDGE('',*,*,#355,.T.);
#357=EDGE_LOOP('',(#354,#356));
#358=FACE_BOUND('',#357,.F.);
#359=ADVANCED_FACE('',(#352,#358),#347,.F.);
#360=CARTESIAN_POINT('',(0.E0,1.5415E0,0.E0));
#361=DIRECTION('',(0.E0,-1.E0,0.E0));
#362=DIRECTION('',(0.E0,0.E0,-1.E0));
#363=AXIS2_PLACEMENT_3D('',#360,#361,#362);
#364=CYLINDRICAL_SURFACE('',#363,6.5625E-1);
#365=ORIENTED_EDGE('',*,*,#349,.T.);
#366=ORIENTED_EDGE('',*,*,#338,.F.);
#367=ORIENTED_EDGE('',*,*,#285,.T.);
#368=ORIENTED_EDGE('',*,*,#335,.T.);
#369=EDGE_LOOP('',(#365,#366,#367,#368));
#370=FACE_OUTER_BOUND('',#369,.F.);
#371=ADVANCED_FACE('',(#370),#364,.T.);
#372=CARTESIAN_POINT('',(0.E0,1.483E0,0.E0));
#373=DIRECTION('',(0.E0,1.E0,0.E0));
#374=DIRECTION('',(1.E0,0.E0,0.E0));
#375=AXIS2_PLACEMENT_3D('',#372,#373,#374);
#376=CYLINDRICAL_SURFACE('',#375,2.E-1);
#378=ORIENTED_EDGE('',*,*,#377,.T.);
#380=ORIENTED_EDGE('',*,*,#379,.F.);
#381=ORIENTED_EDGE('',*,*,#353,.F.);
#383=ORIENTED_EDGE('',*,*,#382,.T.);
#384=EDGE_LOOP('',(#378,#380,#381,#383));
#385=FACE_OUTER_BOUND('',#384,.F.);
#386=ADVANCED_FACE('',(#385),#376,.T.);
#387=CARTESIAN_POINT('',(0.E0,1.503E0,0.E0));
#388=DIRECTION('',(0.E0,-1.E0,0.E0));
#389=DIRECTION('',(0.E0,0.E0,1.E0));
#390=AXIS2_PLACEMENT_3D('',#387,#388,#389);
#391=PLANE('',#390);
#393=ORIENTED_EDGE('',*,*,#392,.T.);
#395=ORIENTED_EDGE('',*,*,#394,.F.);
#396=EDGE_LOOP('',(#393,#395));
#397=FACE_OUTER_BOUND('',#396,.F.);
#398=ORIENTED_EDGE('',*,*,#377,.F.);
#400=ORIENTED_EDGE('',*,*,#399,.F.);
#401=EDGE_LOOP('',(#398,#400));
#402=FACE_BOUND('',#401,.F.);
#403=ADVANCED_FACE('',(#397,#402),#391,.T.);
#404=CARTESIAN_POINT('',(0.E0,2.679E0,0.E0));
#405=DIRECTION('',(0.E0,-1.E0,0.E0));
#406=DIRECTION('',(0.E0,0.E0,1.E0));
#407=AXIS2_PLACEMENT_3D('',#404,#405,#406);
#408=CYLINDRICAL_SURFACE('',#407,6.56E-1);
#409=ORIENTED_EDGE('',*,*,#392,.F.);
#411=ORIENTED_EDGE('',*,*,#410,.T.);
#413=ORIENTED_EDGE('',*,*,#412,.T.);
#415=ORIENTED_EDGE('',*,*,#414,.F.);
#416=EDGE_LOOP('',(#409,#411,#413,#415));
#417=FACE_OUTER_BOUND('',#416,.F.);
#418=ADVANCED_FACE('',(#417),#408,.T.);
#419=CARTESIAN_POINT('',(0.E0,2.679E0,0.E0));
#420=DIRECTION('',(0.E0,-1.E0,0.E0));
#421=DIRECTION('',(0.E0,0.E0,1.E0));
#422=AXIS2_PLACEMENT_3D('',#419,#420,#421);
#423=CYLINDRICAL_SURFACE('',#422,6.56E-1);
#424=ORIENTED_EDGE('',*,*,#414,.T.);
#426=ORIENTED_EDGE('',*,*,#425,.T.);
#427=ORIENTED_EDGE('',*,*,#410,.F.);
#428=ORIENTED_EDGE('',*,*,#394,.T.);
#429=EDGE_LOOP('',(#424,#426,#427,#428));
#430=FACE_OUTER_BOUND('',#429,.F.);
#432=ORIENTED_EDGE('',*,*,#431,.F.);
#434=ORIENTED_EDGE('',*,*,#433,.F.);
#435=EDGE_LOOP('',(#432,#434));
#436=FACE_BOUND('',#435,.F.);
#437=ADVANCED_FACE('',(#430,#436),#423,.T.);
#438=CARTESIAN_POINT('',(3.13625E0,1.963E0,0.E0));
#439=DIRECTION('',(-1.E0,0.E0,0.E0));
#440=DIRECTION('',(0.E0,0.E0,-1.E0));
#441=AXIS2_PLACEMENT_3D('',#438,#439,#440);
#442=CYLINDRICAL_SURFACE('',#441,2.5E-1);
#443=ORIENTED_EDGE('',*,*,#431,.T.);
#445=ORIENTED_EDGE('',*,*,#444,.T.);
#447=ORIENTED_EDGE('',*,*,#446,.T.);
#449=ORIENTED_EDGE('',*,*,#448,.F.);
#450=EDGE_LOOP('',(#443,#445,#447,#449));
#451=FACE_OUTER_BOUND('',#450,.F.);
#452=ADVANCED_FACE('',(#451),#442,.T.);
#453=CARTESIAN_POINT('',(3.13625E0,1.963E0,0.E0));
#454=DIRECTION('',(-1.E0,0.E0,0.E0));
#455=DIRECTION('',(0.E0,0.E0,-1.E0));
#456=AXIS2_PLACEMENT_3D('',#453,#454,#455);
#457=CYLINDRICAL_SURFACE('',#456,2.5E-1);
#458=ORIENTED_EDGE('',*,*,#433,.T.);
#459=ORIENTED_EDGE('',*,*,#448,.T.);
#461=ORIENTED_EDGE('',*,*,#460,.T.);
#462=ORIENTED_EDGE('',*,*,#444,.F.);
#463=EDGE_LOOP('',(#458,#459,#461,#462));
#464=FACE_OUTER_BOUND('',#463,.F.);
#465=ADVANCED_FACE('',(#464),#457,.T.);
#466=CARTESIAN_POINT('',(2.97625E0,1.963E0,0.E0));
#467=DIRECTION('',(-1.E0,0.E0,0.E0));
#468=DIRECTION('',(0.E0,2.508073340530E-2,9.996854289284E-1));
#469=AXIS2_PLACEMENT_3D('',#466,#467,#468);
#470=TOROIDAL_SURFACE('',#469,2.2E-1,3.E-2);
#472=ORIENTED_EDGE('',*,*,#471,.T.);
#474=ORIENTED_EDGE('',*,*,#473,.T.);
#475=ORIENTED_EDGE('',*,*,#460,.F.);
#477=ORIENTED_EDGE('',*,*,#476,.F.);
#478=EDGE_LOOP('',(#472,#474,#475,#477));
#479=FACE_OUTER_BOUND('',#478,.F.);
#480=ADVANCED_FACE('',(#479),#470,.T.);
#481=CARTESIAN_POINT('',(3.00625E0,1.963E0,0.E0));
#482=DIRECTION('',(-1.E0,0.E0,0.E0));
#483=DIRECTION('',(0.E0,0.E0,-1.E0));
#484=AXIS2_PLACEMENT_3D('',#481,#482,#483);
#485=PLANE('',#484);
#486=ORIENTED_EDGE('',*,*,#471,.F.);
#488=ORIENTED_EDGE('',*,*,#487,.F.);
#489=EDGE_LOOP('',(#486,#488));
#490=FACE_OUTER_BOUND('',#489,.F.);
#491=ADVANCED_FACE('',(#490),#485,.F.);
#492=CARTESIAN_POINT('',(2.97625E0,1.963E0,0.E0));
#493=DIRECTION('',(-1.E0,0.E0,0.E0));
#494=DIRECTION('',(0.E0,-2.508073340530E-2,-9.996854289284E-1));
#495=AXIS2_PLACEMENT_3D('',#492,#493,#494);
#496=TOROIDAL_SURFACE('',#495,2.2E-1,3.E-2);
#497=ORIENTED_EDGE('',*,*,#487,.T.);
#498=ORIENTED_EDGE('',*,*,#476,.T.);
#499=ORIENTED_EDGE('',*,*,#446,.F.);
#500=ORIENTED_EDGE('',*,*,#473,.F.);
#501=EDGE_LOOP('',(#497,#498,#499,#500));
#502=FACE_OUTER_BOUND('',#501,.F.);
#503=ADVANCED_FACE('',(#502),#496,.T.);
#504=CARTESIAN_POINT('',(0.E0,2.593E0,0.E0));
#505=DIRECTION('',(0.E0,-1.E0,0.E0));
#506=DIRECTION('',(-7.217829153849E-3,0.E0,9.999739511319E-1));
#507=AXIS2_PLACEMENT_3D('',#504,#505,#506);
#508=TOROIDAL_SURFACE('',#507,6.26E-1,3.E-2);
#510=ORIENTED_EDGE('',*,*,#509,.T.);
#512=ORIENTED_EDGE('',*,*,#511,.T.);
#513=ORIENTED_EDGE('',*,*,#425,.F.);
#515=ORIENTED_EDGE('',*,*,#514,.F.);
#516=EDGE_LOOP('',(#510,#512,#513,#515));
#517=FACE_OUTER_BOUND('',#516,.F.);
#518=ADVANCED_FACE('',(#517),#508,.T.);
#519=CARTESIAN_POINT('',(0.E0,2.623E0,0.E0));
#520=DIRECTION('',(0.E0,-1.E0,0.E0));
#521=DIRECTION('',(0.E0,0.E0,1.E0));
#522=AXIS2_PLACEMENT_3D('',#519,#520,#521);
#523=PLANE('',#522);
#525=ORIENTED_EDGE('',*,*,#524,.F.);
#526=ORIENTED_EDGE('',*,*,#509,.F.);
#527=EDGE_LOOP('',(#525,#526));
#528=FACE_OUTER_BOUND('',#527,.F.);
#529=ADVANCED_FACE('',(#528),#523,.F.);
#530=CARTESIAN_POINT('',(0.E0,2.593E0,0.E0));
#531=DIRECTION('',(0.E0,-1.E0,0.E0));
#532=DIRECTION('',(7.217829153849E-3,0.E0,-9.999739511319E-1));
#533=AXIS2_PLACEMENT_3D('',#530,#531,#532);
#534=TOROIDAL_SURFACE('',#533,6.26E-1,3.E-2);
#535=ORIENTED_EDGE('',*,*,#524,.T.);
#536=ORIENTED_EDGE('',*,*,#514,.T.);
#537=ORIENTED_EDGE('',*,*,#412,.F.);
#538=ORIENTED_EDGE('',*,*,#511,.F.);
#539=EDGE_LOOP('',(#535,#536,#537,#538));
#540=FACE_OUTER_BOUND('',#539,.F.);
#541=ADVANCED_FACE('',(#540),#534,.T.);
#542=CARTESIAN_POINT('',(0.E0,1.483E0,0.E0));
#543=DIRECTION('',(0.E0,1.E0,0.E0));
#544=DIRECTION('',(1.E0,0.E0,0.E0));
#545=AXIS2_PLACEMENT_3D('',#542,#543,#544);
#546=CYLINDRICAL_SURFACE('',#545,2.E-1);
#547=ORIENTED_EDGE('',*,*,#399,.T.);
#548=ORIENTED_EDGE('',*,*,#382,.F.);
#549=ORIENTED_EDGE('',*,*,#355,.F.);
#550=ORIENTED_EDGE('',*,*,#379,.T.);
#551=EDGE_LOOP('',(#547,#548,#549,#550));
#552=FACE_OUTER_BOUND('',#551,.F.);
#553=ADVANCED_FACE('',(#552),#546,.T.);
#554=CLOSED_SHELL('',(#289,#304,#315,#327,#342,#359,#371,#386,#403,#418,#437,
#452,#465,#480,#491,#503,#518,#529,#541,#553));
#555=MANIFOLD_SOLID_BREP('',#554);
#556=DIMENSIONAL_EXPONENTS(1.E0,0.E0,0.E0,0.E0,0.E0,0.E0,0.E0);
#558=LENGTH_MEASURE_WITH_UNIT(LENGTH_MEASURE(2.54E1),#557);
#559=(CONVERSION_BASED_UNIT('INCH',#558)LENGTH_UNIT()NAMED_UNIT(#556));
#560=DIMENSIONAL_EXPONENTS(0.E0,0.E0,0.E0,0.E0,0.E0,0.E0,0.E0);
#562=PLANE_ANGLE_MEASURE_WITH_UNIT(PLANE_ANGLE_MEASURE(1.745329251994E-2),#561);
#563=(CONVERSION_BASED_UNIT('DEGREE',#562)NAMED_UNIT(*)PLANE_ANGLE_UNIT());
#565=UNCERTAINTY_MEASURE_WITH_UNIT(LENGTH_MEASURE(2.167654158768E-4),#559,
'closure',
'Maximum model space distance between geometric entities at asserted connectivities');
#566=(GEOMETRIC_REPRESENTATION_CONTEXT(3)GLOBAL_UNCERTAINTY_ASSIGNED_CONTEXT((
#565))GLOBAL_UNIT_ASSIGNED_CONTEXT((#559,#563,#564))REPRESENTATION_CONTEXT
('ID1','3'));
#568=APPLICATION_CONTEXT(
'CONFIGURATION CONTROLLED 3D DESIGNS OF MECHANICAL PARTS AND ASSEMBLIES');
#569=APPLICATION_PROTOCOL_DEFINITION('international standard',
'config_control_design',1994,#568);
#570=DESIGN_CONTEXT('',#568,'design');
#571=MECHANICAL_CONTEXT('',#568,'mechanical');
#572=PRODUCT('3-255','3-255','NOT SPECIFIED',(#571));
#573=PRODUCT_DEFINITION_FORMATION_WITH_SPECIFIED_SOURCE('1','LAST_VERSION',#572,
.MADE.);
#577=PRODUCT_CATEGORY('part','');
#578=PRODUCT_RELATED_PRODUCT_CATEGORY('detail','',(#572));
#579=PRODUCT_CATEGORY_RELATIONSHIP('','',#577,#578);
#580=SECURITY_CLASSIFICATION_LEVEL('unclassified');
#581=SECURITY_CLASSIFICATION('','',#580);
#582=CC_DESIGN_SECURITY_CLASSIFICATION(#581,(#573));
#583=APPROVAL_STATUS('approved');
#584=APPROVAL(#583,'');
#585=CC_DESIGN_APPROVAL(#584,(#581,#573,#574));
#586=CALENDAR_DATE(121,1,1);
#587=COORDINATED_UNIVERSAL_TIME_OFFSET(5,30,.AHEAD.);
#588=LOCAL_TIME(11,42,4.E0,#587);
#589=DATE_AND_TIME(#586,#588);
#590=APPROVAL_DATE_TIME(#589,#584);
#591=DATE_TIME_ROLE('creation_date');
#592=CC_DESIGN_DATE_AND_TIME_ASSIGNMENT(#589,#591,(#574));
#593=DATE_TIME_ROLE('classification_date');
#594=CC_DESIGN_DATE_AND_TIME_ASSIGNMENT(#589,#593,(#581));
#595=PERSON('UNSPECIFIED','UNSPECIFIED',$,$,$,$);
#596=ORGANIZATION('UNSPECIFIED','UNSPECIFIED','UNSPECIFIED');
#597=PERSON_AND_ORGANIZATION(#595,#596);
#598=APPROVAL_ROLE('approver');
#599=APPROVAL_PERSON_ORGANIZATION(#597,#584,#598);
#600=PERSON_AND_ORGANIZATION_ROLE('creator');
#601=CC_DESIGN_PERSON_AND_ORGANIZATION_ASSIGNMENT(#597,#600,(#573,#574));
#602=PERSON_AND_ORGANIZATION_ROLE('design_supplier');
#603=CC_DESIGN_PERSON_AND_ORGANIZATION_ASSIGNMENT(#597,#602,(#573));
#604=PERSON_AND_ORGANIZATION_ROLE('classification_officer');
#605=CC_DESIGN_PERSON_AND_ORGANIZATION_ASSIGNMENT(#597,#604,(#581));
#606=PERSON_AND_ORGANIZATION_ROLE('design_owner');
#607=CC_DESIGN_PERSON_AND_ORGANIZATION_ASSIGNMENT(#597,#606,(#572));
#6=CIRCLE('',#5,1.1875E0);
#11=CIRCLE('',#10,1.1875E0);
#16=CIRCLE('',#15,1.1875E0);
#29=CIRCLE('',#28,1.1875E0);
#34=CIRCLE('',#33,6.5625E-1);
#39=CIRCLE('',#38,6.5625E-1);
#44=CIRCLE('',#43,2.E-1);
#49=CIRCLE('',#48,2.E-1);
#54=CIRCLE('',#53,6.5625E-1);
#63=CIRCLE('',#62,6.5625E-1);
#76=CIRCLE('',#75,2.E-1);
#81=CIRCLE('',#80,2.E-1);
#86=CIRCLE('',#85,6.56E-1);
#99=CIRCLE('',#98,6.56E-1);
#126=B_SPLINE_CURVE_WITH_KNOTS('',3,(#100,#101,#102,#103,#104,#105,#106,#107,
#108,#109,#110,#111,#112,#113,#114,#115,#116,#117,#118,#119,#120,#121,#122,#123,
#124,#125),.UNSPECIFIED.,.F.,.F.,(4,1,1,1,1,1,1,1,1,1,1,1,1,1,1,1,1,1,1,1,1,1,1,
4),(0.E0,4.347826086957E-2,8.695652173913E-2,1.304347826087E-1,
1.739130434783E-1,2.173913043478E-1,2.608695652174E-1,3.043478260870E-1,
3.478260869565E-1,3.913043478261E-1,4.347826086957E-1,4.782608695652E-1,
5.217391304348E-1,5.652173913043E-1,6.086956521739E-1,6.521739130435E-1,
6.956521739130E-1,7.391304347826E-1,7.826086956522E-1,8.260869565217E-1,
8.695652173913E-1,9.130434782609E-1,9.565217391304E-1,1.E0),.UNSPECIFIED.);
#153=B_SPLINE_CURVE_WITH_KNOTS('',3,(#127,#128,#129,#130,#131,#132,#133,#134,
#135,#136,#137,#138,#139,#140,#141,#142,#143,#144,#145,#146,#147,#148,#149,#150,
#151,#152),.UNSPECIFIED.,.F.,.F.,(4,1,1,1,1,1,1,1,1,1,1,1,1,1,1,1,1,1,1,1,1,1,1,
4),(0.E0,4.347826086957E-2,8.695652173913E-2,1.304347826087E-1,
1.739130434783E-1,2.173913043478E-1,2.608695652174E-1,3.043478260870E-1,
3.478260869565E-1,3.913043478261E-1,4.347826086957E-1,4.782608695652E-1,
5.217391304348E-1,5.652173913043E-1,6.086956521739E-1,6.521739130435E-1,
6.956521739130E-1,7.391304347826E-1,7.826086956522E-1,8.260869565217E-1,
8.695652173913E-1,9.130434782609E-1,9.565217391304E-1,1.E0),.UNSPECIFIED.);
#166=CIRCLE('',#165,2.2E-1);
#171=CIRCLE('',#170,2.5E-1);
#176=CIRCLE('',#175,3.E-2);
#181=CIRCLE('',#180,2.2E-1);
#186=CIRCLE('',#185,2.5E-1);
#191=CIRCLE('',#190,3.E-2);
#196=CIRCLE('',#195,6.26E-1);
#201=CIRCLE('',#200,6.56E-1);
#206=CIRCLE('',#205,3.E-2);
#211=CIRCLE('',#210,6.26E-1);
#216=CIRCLE('',#215,6.56E-1);
#221=CIRCLE('',#220,3.E-2);
#277=EDGE_CURVE('',#228,#229,#6,.T.);
#279=EDGE_CURVE('',#228,#229,#11,.T.);
#283=EDGE_CURVE('',#250,#251,#39,.T.);
#285=EDGE_CURVE('',#251,#250,#63,.T.);
#295=EDGE_CURVE('',#254,#255,#16,.T.);
#297=EDGE_CURVE('',#254,#228,#20,.T.);
#300=EDGE_CURVE('',#255,#229,#24,.T.);
#311=EDGE_CURVE('',#254,#255,#29,.T.);
#333=EDGE_CURVE('',#262,#263,#34,.T.);
#335=EDGE_CURVE('',#250,#262,#67,.T.);
#338=EDGE_CURVE('',#251,#263,#58,.T.);
#349=EDGE_CURVE('',#262,#263,#54,.T.);
#353=EDGE_CURVE('',#270,#271,#44,.T.);
#355=EDGE_CURVE('',#271,#270,#49,.T.);
#377=EDGE_CURVE('',#266,#267,#76,.T.);
#379=EDGE_CURVE('',#271,#267,#225,.T.);
#382=EDGE_CURVE('',#270,#266,#71,.T.);
#392=EDGE_CURVE('',#258,#259,#86,.T.);
#394=EDGE_CURVE('',#258,#259,#99,.T.);
#399=EDGE_CURVE('',#267,#266,#81,.T.);
#410=EDGE_CURVE('',#258,#244,#90,.T.);
#412=EDGE_CURVE('',#244,#245,#216,.T.);
#414=EDGE_CURVE('',#259,#245,#94,.T.);
#425=EDGE_CURVE('',#245,#244,#201,.T.);
#431=EDGE_CURVE('',#246,#247,#126,.T.);
#433=EDGE_CURVE('',#247,#246,#153,.T.);
#444=EDGE_CURVE('',#247,#237,#161,.T.);
#446=EDGE_CURVE('',#237,#236,#186,.T.);
#448=EDGE_CURVE('',#246,#236,#157,.T.);
#460=EDGE_CURVE('',#236,#237,#171,.T.);
#471=EDGE_CURVE('',#232,#233,#166,.T.);
#473=EDGE_CURVE('',#233,#237,#191,.T.);
#476=EDGE_CURVE('',#232,#236,#176,.T.);
#487=EDGE_CURVE('',#233,#232,#181,.T.);
#509=EDGE_CURVE('',#241,#240,#196,.T.);
#511=EDGE_CURVE('',#240,#244,#221,.T.);
#514=EDGE_CURVE('',#241,#245,#206,.T.);
#524=EDGE_CURVE('',#240,#241,#211,.T.);
#557=(LENGTH_UNIT()NAMED_UNIT(*)SI_UNIT(.MILLI.,.METRE.));
#561=(NAMED_UNIT(*)PLANE_ANGLE_UNIT()SI_UNIT($,.RADIAN.));
#564=(NAMED_UNIT(*)SI_UNIT($,.STERADIAN.)SOLID_ANGLE_UNIT());
#567=ADVANCED_BREP_SHAPE_REPRESENTATION('',(#555),#566);
#574=PRODUCT_DEFINITION('design','',#573,#570);
#575=PRODUCT_DEFINITION_SHAPE('','SHAPE FOR 3-255.',#574);
#576=SHAPE_DEFINITION_REPRESENTATION(#575,#567);
ENDSEC;
END-ISO-10303-21;
