999
DXF file: 3-2551_RIGHT.dxf
999
Pro/ENGINEER 2018400 by Parametric Technology Corporation
  0
SECTION
  2
HEADER
  9
$ACADVER
  1
AC1027
  9
$DWGCODEPAGE
  3
ANSI_1252
  9
$EXTMAX
 10
11.0
 20
8.5
 30
0.0
  9
$EXTMIN
 10
0.0
 20
0.0
 30
0.0
  9
$LIMMIN
 10
0.0
 20
0.0
  9
$LIMMAX
 10
11.0
 20
8.5
  9
$VIEWCTR
 10
5.5
 20
4.25
  9
$VIEWSIZE
 40
8.5
  9
$CLAYER
  8
0
  9
$LTSCALE
 40
0.605
  9
$CELTYPE
  6
BYLAYER
  9
$DIMSCALE
 40
1.0
  9
$DIMASZ
 40
0.1
  9
$DIMEXO
 40
0.0625
  9
$DIMDLI
 40
0.418
  9
$DIMEXE
 40
0.125
  9
$DIMCEN
 40
0.099
  9
$DIMLFAC
 40
1.0
  9
$DIMBLK
  1
_FILLED
  9
$DIMALT
 70
1
  9
$DIMALTD
 70
2
  9
$DIMALTTD
 70
2
  9
$DIMALTF
 40
25.4
  9
$DIMTXT
 40
0.08
  9
$DIMTOL
 70
1
  9
$DIMLIM
 70
0
  9
$DIMTFAC
 40
1.0
  9
$DIMTP
 40
0.001
  9
$DIMTM
 40
0.001
  9
$DIMGAP
 40
0.09
  9
$DIMDSEP
 70
46
  9
$AUNITS
 70
0
  9
$PDMODE
 70
3
  9
$PDSIZE
 40
0.3125
  9
$HANDSEED
  5
2B0
  9
$TILEMODE
 70
1
  9
$MEASUREMENT
 70
0
  9
$INSUNITS
 70
1
  0
ENDSEC
  0
SECTION
  2
CLASSES
  0
CLASS
  1
ACDBDICTIONARYWDFLT
  2
AcDbDictionaryWithDefault
  3
AutoCAD 2000
 90
0
 91
1
280
0
281
0
  0
CLASS
  1
ACDBPLACEHOLDER
  2
AcDbPlaceHolder
  3
AutoCAD 2000
 90
0
 91
1
280
0
281
0
  0
CLASS
  1
LAYOUT
  2
AcDbLayout
  3
AutoCAD 2000
 90
0
 91
0
280
0
281
0
  0
ENDSEC
  0
SECTION
  2
TABLES
  0
TABLE
  2
VPORT
  5
8
100
AcDbSymbolTable
 70
2
  0
VPORT
  5
1F4
100
AcDbSymbolTableRecord
100
AcDbViewportTableRecord
  2
*ACTIVE
 70
0
 10
0.0
 20
0.0
 11
1.0
 21
1.0
 12
5.5
 22
4.25
 13
0.0
 23
0.0
 14
1.0
 24
1.0
 15
0.0
 25
0.0
 16
0.0
 26
0.0
 36
1.0
 17
0.0
 27
0.0
 37
0.0
 40
8.5
 41
1.2941176471
 42
50.0
 43
0.0
 44
0.0
 50
0.0
 51
0.0
 71
0
 72
100
 73
1
 74
1
 75
0
 76
0
 77
0
 78
0
  0
ENDTAB
  0
TABLE
  2
LTYPE
  5
5
100
AcDbSymbolTable
 70
6
  0
LTYPE
  5
14
100
AcDbSymbolTableRecord
100
AcDbLinetypeTableRecord
  2
BYBLOCK
 70
0
  3

 72
65
 73
0
 40
0.0
  0
LTYPE
  5
15
100
AcDbSymbolTableRecord
100
AcDbLinetypeTableRecord
  2
BYLAYER
 70
0
  3

 72
65
 73
0
 40
0.0
  0
LTYPE
  5
16
100
AcDbSymbolTableRecord
100
AcDbLinetypeTableRecord
  2
CONTINUOUS
 70
64
  3
Solid line
 72
65
 73
0
 40
0.0
  0
LTYPE
  5
1F5
100
AcDbSymbolTableRecord
100
AcDbLinetypeTableRecord
  2
CENTER
 70
64
  3
____ _ ____ _ ____ _ ____ _ ____ _ ____ _ ____
 72
65
 73
4
 40
0.6
 49
0.375
 74
0
 49
-0.075
 74
0
 49
0.075
 74
0
 49
-0.075
 74
0
  0
LTYPE
  5
1F6
100
AcDbSymbolTableRecord
100
AcDbLinetypeTableRecord
  2
HIDDEN
 70
64
  3
- - - - - - - - - - - - - - - - - - - -
 72
65
 73
2
 40
0.2
 49
0.1
 74
0
 49
-0.1
 74
0
  0
LTYPE
  5
1F7
100
AcDbSymbolTableRecord
100
AcDbLinetypeTableRecord
  2
PHANTOM
 70
64
  3
_____ _ _ _____ _ _ _____ _ _ _____
 72
65
 73
6
 40
0.8
 49
0.45
 74
0
 49
-0.05
 74
0
 49
0.1
 74
0
 49
-0.05
 74
0
 49
0.1
 74
0
 49
-0.05
 74
0
  0
LTYPE
  5
1F8
100
AcDbSymbolTableRecord
100
AcDbLinetypeTableRecord
  2
DOT
 70
64
  3
. . . . . . . . . . . . . . . . . . . .
 72
65
 73
2
 40
0.2
 49
0.1
 74
0
 49
-0.1
 74
0
  0
LTYPE
  5
1F9
100
AcDbSymbolTableRecord
100
AcDbLinetypeTableRecord
  2
DASHED
 70
64
  3
- - - - - - - - - - - - - - - - - - - -
 72
65
 73
2
 40
0.2
 49
0.1
 74
0
 49
-0.1
 74
0
  0
ENDTAB
  0
TABLE
  2
LAYER
  5
2
100
AcDbSymbolTable
 70
36
  0
LAYER
  5
10
100
AcDbSymbolTableRecord
100
AcDbLayerTableRecord
  2
0
 70
0
 62
7
  6
CONTINUOUS
370
-3
390
F
  0
LAYER
  5
1FA
100
AcDbSymbolTableRecord
100
AcDbLayerTableRecord
  2
DEFAULT_1
 70
0
 62
7
  6
CENTER
370
-3
390
F
  0
LAYER
  5
1FB
100
AcDbSymbolTableRecord
100
AcDbLayerTableRecord
  2
DEFAULT_2
 70
0
 62
8
  6
HIDDEN
370
-3
390
F
  0
LAYER
  5
1FC
100
AcDbSymbolTableRecord
100
AcDbLayerTableRecord
  2
DEFAULT_3
 70
0
 62
7
  6
PHANTOM
370
-3
390
F
  0
LAYER
  5
1FD
100
AcDbSymbolTableRecord
100
AcDbLayerTableRecord
  2
01___PRT_ALL_DTM_PLN
 70
0
 62
7
  6
CONTINUOUS
370
-3
390
F
  0
LAYER
  5
1FE
100
AcDbSymbolTableRecord
100
AcDbLayerTableRecord
  2
01___PRT_DEF_DTM_PLN
 70
0
 62
7
  6
CONTINUOUS
370
-3
390
F
  0
LAYER
  5
1FF
100
AcDbSymbolTableRecord
100
AcDbLayerTableRecord
  2
02___PRT_ALL_AXES
 70
0
 62
7
  6
CONTINUOUS
370
-3
390
F
  0
LAYER
  5
200
100
AcDbSymbolTableRecord
100
AcDbLayerTableRecord
  2
03___PRT_ALL_CURVES
 70
0
 62
7
  6
CONTINUOUS
370
-3
390
F
  0
LAYER
  5
201
100
AcDbSymbolTableRecord
100
AcDbLayerTableRecord
  2
04___PRT_ALL_DTM_PNT
 70
0
 62
7
  6
CONTINUOUS
370
-3
390
F
  0
LAYER
  5
202
100
AcDbSymbolTableRecord
100
AcDbLayerTableRecord
  2
05___PRT_ALL_DTM_CSYS
 70
0
 62
7
  6
CONTINUOUS
370
-3
390
F
  0
LAYER
  5
203
100
AcDbSymbolTableRecord
100
AcDbLayerTableRecord
  2
05___PRT_DEF_DTM_CSYS
 70
0
 62
7
  6
CONTINUOUS
370
-3
390
F
  0
LAYER
  5
204
100
AcDbSymbolTableRecord
100
AcDbLayerTableRecord
  2
06___PRT_ALL_SURFS
 70
0
 62
7
  6
CONTINUOUS
370
-3
390
F
  0
LAYER
  5
205
100
AcDbSymbolTableRecord
100
AcDbLayerTableRecord
  2
ALL_FEATURES
 70
0
 62
7
  6
CONTINUOUS
370
-3
390
F
  0
LAYER
  5
206
100
AcDbSymbolTableRecord
100
AcDbLayerTableRecord
  2
AXES_FEATURES
 70
0
 62
7
  6
CONTINUOUS
370
-3
390
F
  0
LAYER
  5
207
100
AcDbSymbolTableRecord
100
AcDbLayerTableRecord
  2
CHAMFER_FEATURES
 70
0
 62
7
  6
CONTINUOUS
370
-3
390
F
  0
LAYER
  5
208
100
AcDbSymbolTableRecord
100
AcDbLayerTableRecord
  2
CUT_FEATURES
 70
0
 62
7
  6
CONTINUOUS
370
-3
390
F
  0
LAYER
  5
209
100
AcDbSymbolTableRecord
100
AcDbLayerTableRecord
  2
DATUM_CURVES
 70
0
 62
7
  6
CONTINUOUS
370
-3
390
F
  0
LAYER
  5
20A
100
AcDbSymbolTableRecord
100
AcDbLayerTableRecord
  2
DATUM_PLANES
 70
0
 62
7
  6
CONTINUOUS
370
-3
390
F
  0
LAYER
  5
20B
100
AcDbSymbolTableRecord
100
AcDbLayerTableRecord
  2
DEFAULT_COORDINATE_SYSTEM
 70
0
 62
7
  6
CONTINUOUS
370
-3
390
F
  0
LAYER
  5
20C
100
AcDbSymbolTableRecord
100
AcDbLayerTableRecord
  2
DEFAULT_DATUM_AXES
 70
0
 62
7
  6
CONTINUOUS
370
-3
390
F
  0
LAYER
  5
20D
100
AcDbSymbolTableRecord
100
AcDbLayerTableRecord
  2
DEFAULT_DATUM_CURVES
 70
0
 62
7
  6
CONTINUOUS
370
-3
390
F
  0
LAYER
  5
20E
100
AcDbSymbolTableRecord
100
AcDbLayerTableRecord
  2
DEFAULT_DATUM_PLANES
 70
0
 62
7
  6
CONTINUOUS
370
-3
390
F
  0
LAYER
  5
20F
100
AcDbSymbolTableRecord
100
AcDbLayerTableRecord
  2
DEFAULT_SURFACES
 70
0
 62
7
  6
CONTINUOUS
370
-3
390
F
  0
LAYER
  5
210
100
AcDbSymbolTableRecord
100
AcDbLayerTableRecord
  2
DIMENSIONS
 70
0
 62
7
  6
CONTINUOUS
370
-3
390
F
  0
LAYER
  5
211
100
AcDbSymbolTableRecord
100
AcDbLayerTableRecord
  2
HOLE_FEATURES
 70
0
 62
7
  6
CONTINUOUS
370
-3
390
F
  0
LAYER
  5
212
100
AcDbSymbolTableRecord
100
AcDbLayerTableRecord
  2
NONE
 70
0
 62
7
  6
CONTINUOUS
370
-3
390
F
  0
LAYER
  5
213
100
AcDbSymbolTableRecord
100
AcDbLayerTableRecord
  2
PLATED_SURFACE_AREA
 70
0
 62
7
  6
CONTINUOUS
370
-3
390
F
  0
LAYER
  5
214
100
AcDbSymbolTableRecord
100
AcDbLayerTableRecord
  2
PROTRUSION_FEATURES
 70
0
 62
7
  6
CONTINUOUS
370
-3
390
F
  0
LAYER
  5
215
100
AcDbSymbolTableRecord
100
AcDbLayerTableRecord
  2
WETTED_SURFACES
 70
0
 62
7
  6
CONTINUOUS
370
-3
390
F
  0
LAYER
  5
216
100
AcDbSymbolTableRecord
100
AcDbLayerTableRecord
  2
XSEC_DATUMS
 70
0
 62
7
  6
CONTINUOUS
370
-3
390
F
  0
ENDTAB
  0
TABLE
  2
STYLE
  5
3
100
AcDbSymbolTable
 70
1
  0
STYLE
  5
11
100
AcDbSymbolTableRecord
100
AcDbTextStyleTableRecord
  2
STANDARD
 70
0
 40
0.0
 41
0.8
 50
0.0
 71
0
 42
0.2
  3
txt
  4

  0
STYLE
  5
217
100
AcDbSymbolTableRecord
100
AcDbTextStyleTableRecord
  2
TEXTSTYLE_1
 70
0
 40
0.0
 41
0.8
 50
0.0
 71
0
 42
0.2
  3
gdt
  4

  0
ENDTAB
  0
TABLE
  2
VIEW
  5
6
100
AcDbSymbolTable
 70
0
  0
ENDTAB
  0
TABLE
  2
UCS
  5
7
100
AcDbSymbolTable
 70
0
  0
ENDTAB
  0
TABLE
  2
APPID
  5
9
100
AcDbSymbolTable
 70
1
  0
APPID
  5
218
100
AcDbSymbolTableRecord
100
AcDbRegAppTableRecord
  2
ACAD
 70
0
  0
ENDTAB
  0
TABLE
  2
BLOCK_RECORD
  5
1
100
AcDbSymbolTable
 70
0
  0
BLOCK_RECORD
  5
219
100
AcDbSymbolTableRecord
100
AcDbBlockTableRecord
  2
*Model_Space
  0
BLOCK_RECORD
  5
21A
100
AcDbSymbolTableRecord
100
AcDbBlockTableRecord
  2
*Paper_Space
  0
BLOCK_RECORD
  5
21B
100
AcDbSymbolTableRecord
100
AcDbBlockTableRecord
  2
_FILLED
  0
ENDTAB
  0
TABLE
  2
DIMSTYLE
  5
A
100
AcDbSymbolTable
 70
1
100
AcDbDimStyleTable
 71
0
  0
DIMSTYLE
105
21C
100
AcDbSymbolTableRecord
100
AcDbDimStyleTableRecord
  2
STANDARD
 70
0
  3

  4

 40
1.0
 41
0.1
 42
0.0625
 43
0.38
 44
0.125
 45
0.0
 46
0.0
 47
0.001
 48
0.001
140
0.08
141
0.09
142
0.0
143
25.4
144
1.0
145
0.0
146
1.0
147
0.09
 71
1.0
 72
0.0
 73
1
 74
1
 75
0
 76
0
 77
0
 78
4
 79
1
170
1
171
2
172
0
173
0
174
0
175
0
176
0
177
0
178
0
270
2
179
3
271
3
272
3
273
2
274
2
275
0
280
0
281
0
282
0
283
1
284
4
285
0
286
0
287
3
288
0
340
11
278
46
341
21B
342
21B
343
21B
344
21B
  0
ENDTAB
  0
ENDSEC
  0
SECTION
  2
BLOCKS
  0
BLOCK
  5
20
100
AcDbEntity
  8
0
100
AcDbBlockBegin
  2
*Model_Space
 70
0
 10
0.0
 20
0.0
 30
0.0
  3
*Model_Space
  1

  0
ENDBLK
  5
21
100
AcDbEntity
  8
0
100
AcDbBlockEnd
  0
BLOCK
  5
1C
100
AcDbEntity
  8
0
100
AcDbBlockBegin
  2
*Paper_Space
 70
0
 10
0.0
 20
0.0
 30
0.0
  3
*Paper_Space
  1

  0
ENDBLK
  5
1D
100
AcDbEntity
  8
0
100
AcDbBlockEnd
  0
BLOCK
  5
21D
100
AcDbEntity
  8
0
100
AcDbBlockBegin
  2
_FILLED
 70
64
 10
0.0
 20
0.0
  3
_FILLED
  1

  0
SOLID
  5
21E
100
AcDbEntity
  8
0
  6
BYBLOCK
 62
0
100
AcDbTrace
 10
0.0
 20
0.0
 11
-1.0
 21
0.2
 12
-1.0
 22
-0.2
 13
-1.0
 23
-0.2
  0
ENDBLK
  5
21F
100
AcDbEntity
  8
0
  6
BYBLOCK
 62
0
100
AcDbBlockEnd
  0
ENDSEC
  0
SECTION
  2
ENTITIES
  0
MTEXT
  5
220
100
AcDbEntity
  8
0
100
AcDbMText
 62
2
  6
CONTINUOUS
  7
STANDARD
 71
3
 72
1
 10
3.6212008453
 20
1.2613961273
 30
0.0
 11
1.0
 21
0.0
 31
0.0
 73
2
 44
0.9
  1
SCALE  .500
 40
0.08
 41
0.704
  0
LINE
  5
221
100
AcDbEntity
  8
0
100
AcDbLine
 62
7
  6
CONTINUOUS
 10
0.0
 20
0.0
 11
0.0
 21
8.5
  0
LINE
  5
222
100
AcDbEntity
  8
0
100
AcDbLine
 62
7
  6
CONTINUOUS
 10
0.0
 20
0.0
 11
11.0
 21
0.0
  0
LINE
  5
223
100
AcDbEntity
  8
0
100
AcDbLine
 62
7
  6
CONTINUOUS
 10
0.0
 20
8.5
 11
11.0
 21
8.5
  0
LINE
  5
224
100
AcDbEntity
  8
0
100
AcDbLine
 62
7
  6
CONTINUOUS
 10
11.0
 20
0.0
 11
11.0
 21
8.5
  0
LINE
  5
225
100
AcDbEntity
  8
0
100
AcDbLine
 62
7
  6
CONTINUOUS
 10
2.9854144352
 20
4.0684188458
 11
2.9906186553
 21
4.11429209
  0
LINE
  5
226
100
AcDbEntity
  8
0
100
AcDbLine
 62
7
  6
CONTINUOUS
 10
3.6225772705
 20
3.9961341043
 11
3.6277814905
 21
4.0420073485
  0
LINE
  5
227
100
AcDbEntity
  8
0
100
AcDbLine
 62
7
  6
CONTINUOUS
 10
4.0012858753
 20
5.0210170806
 11
4.0012858753
 21
4.4897670806
  0
LINE
  5
228
100
AcDbEntity
  8
0
100
AcDbLine
 62
7
  6
CONTINUOUS
 10
2.9964257041
 20
4.0545894583
 11
3.608747883
 21
3.9851228354
  0
LINE
  5
229
100
AcDbEntity
  8
0
100
AcDbLine
 62
7
  6
CONTINUOUS
 10
2.9854144352
 20
4.0684188458
 11
3.6225772705
 21
3.9961341043
  0
LINE
  5
22A
100
AcDbEntity
  8
0
100
AcDbLine
 62
7
  6
CONTINUOUS
 10
2.9906186553
 20
4.11429209
 11
3.6277814905
 21
4.0420073485
  0
LINE
  5
22B
100
AcDbEntity
  8
0
100
AcDbLine
 62
7
  6
CONTINUOUS
 10
3.0021236104
 20
4.1253494694
 11
3.6190459108
 21
4.0553609726
  0
LINE
  5
22C
100
AcDbEntity
  8
02___PRT_ALL_AXES
100
AcDbLine
 62
7
  6
CONTINUOUS
 10
3.0527454128
 20
4.1740019385
 11
3.5806093601
 21
4.1141169187
  0
LINE
  5
22D
100
AcDbEntity
  8
ALL_FEATURES
100
AcDbLine
 62
7
  6
CONTINUOUS
 10
7.3112858753
 20
4.1928920806
 11
7.3037858753
 21
4.1928920806
  0
LINE
  5
22E
100
AcDbEntity
  8
02___PRT_ALL_AXES
100
AcDbLine
 62
7
  6
CONTINUOUS
 10
7.1637858753
 20
4.2278920806
 11
7.2037858753
 21
4.2278920806
  0
LINE
  5
22F
100
AcDbEntity
  8
ALL_FEATURES
100
AcDbLine
 62
7
  6
CONTINUOUS
 10
7.2637858753
 20
4.2278920806
 11
7.3037858753
 21
4.2278920806
  0
LINE
  5
230
100
AcDbEntity
  8
ALL_FEATURES
100
AcDbLine
 62
7
  6
CONTINUOUS
 10
7.1437858753
 20
4.3303920806
 11
7.1787858753
 21
4.3303920806
  0
LINE
  5
231
100
AcDbEntity
  8
02___PRT_ALL_AXES
100
AcDbLine
 62
7
  6
CONTINUOUS
 10
6.9287858753
 20
4.4228920806
 11
6.9647858753
 21
4.4228920806
  0
LINE
  5
232
100
AcDbEntity
  8
02___PRT_ALL_AXES
100
AcDbLine
 62
7
  6
CONTINUOUS
 10
7.0427858753
 20
4.4228920806
 11
7.0787858753
 21
4.4228920806
  0
LINE
  5
233
100
AcDbEntity
  8
02___PRT_ALL_AXES
100
AcDbLine
 62
7
  6
CONTINUOUS
 10
6.7937858753
 20
4.4396420806
 11
6.9287858753
 21
4.4396420806
  0
LINE
  5
234
100
AcDbEntity
  8
02___PRT_ALL_AXES
100
AcDbLine
 62
7
  6
CONTINUOUS
 10
6.0784378679
 20
4.4753920806
 11
6.9137858753
 21
4.4753920806
  0
LWPOLYLINE
  5
235
100
AcDbEntity
  8
0
100
AcDbPolyline
 62
7
  6
CONTINUOUS
 90
7
 70
0
 10
4.0012858753
 20
4.4897670806
 10
4.3690636554
 20
4.4897747966
 10
4.7368414348
 20
4.4897979448
 10
5.1046192134
 20
4.489836525
 10
5.4723969911
 20
4.4898905374
 10
5.8401747681
 20
4.4899599818
 10
6.0679075069
 20
4.4900125384
  0
LINE
  5
236
100
AcDbEntity
  8
0
100
AcDbLine
 62
7
  6
CONTINUOUS
 10
4.0012858753
 20
4.4897670806
 11
6.0679075074
 21
4.4900107191
  0
LINE
  5
237
100
AcDbEntity
  8
02___PRT_ALL_AXES
100
AcDbLine
 62
7
  6
CONTINUOUS
 10
5.4678471062
 20
4.5768920806
 11
5.4928471062
 21
4.5768920806
  0
LINE
  5
238
100
AcDbEntity
  8
02___PRT_ALL_AXES
100
AcDbLine
 62
7
  6
CONTINUOUS
 10
5.5527858753
 20
4.5768920806
 11
5.570713279
 21
4.5768920806
  0
LINE
  5
239
100
AcDbEntity
  8
02___PRT_ALL_AXES
100
AcDbLine
 62
7
  6
CONTINUOUS
 10
5.4624250839
 20
4.6053920806
 11
5.4628471062
 21
4.6053920806
  0
LINE
  5
23A
100
AcDbEntity
  8
02___PRT_ALL_AXES
100
AcDbLine
 62
7
  6
CONTINUOUS
 10
5.8888504363
 20
4.6128920806
 11
5.7721234536
 21
4.6128920806
  0
LINE
  5
23B
100
AcDbEntity
  8
02___PRT_ALL_AXES
100
AcDbLine
 62
7
  6
CONTINUOUS
 10
5.9487858753
 20
4.6503920806
 11
5.9352858753
 21
4.6503920806
  0
LINE
  5
23C
100
AcDbEntity
  8
0
100
AcDbLine
 62
7
  6
CONTINUOUS
 10
5.4579503025
 20
4.9026228498
 11
5.4579503007
 21
4.8089645579
  0
LINE
  5
23D
100
AcDbEntity
  8
0
100
AcDbLine
 62
7
  6
CONTINUOUS
 10
5.4579503004
 20
4.7018196041
 11
5.4579503025
 21
4.6081613113
  0
LINE
  5
23E
100
AcDbEntity
  8
0
100
AcDbLine
 62
7
  6
CONTINUOUS
 10
5.4624250839
 20
4.9053920806
 11
5.4624250839
 21
4.8226859056
  0
LINE
  5
23F
100
AcDbEntity
  8
0
100
AcDbLine
 62
7
  6
CONTINUOUS
 10
5.4624250839
 20
4.6880982555
 11
5.4624250839
 21
4.6053920806
  0
LINE
  5
240
100
AcDbEntity
  8
0
100
AcDbLine
 62
7
  6
CONTINUOUS
 10
5.4628471062
 20
4.9288920805
 11
5.4628471062
 21
4.8237571423
  0
LINE
  5
241
100
AcDbEntity
  8
0
100
AcDbLine
 62
7
  6
CONTINUOUS
 10
5.4628471062
 20
4.6870270188
 11
5.4628471062
 21
4.5818920807
  0
LINE
  5
242
100
AcDbEntity
  8
0
100
AcDbLine
 62
7
  6
CONTINUOUS
 10
5.4678471062
 20
4.9338920806
 11
5.4678471062
 21
4.8356014926
  0
LINE
  5
243
100
AcDbEntity
  8
0
100
AcDbLine
 62
7
  6
CONTINUOUS
 10
5.4678471062
 20
4.6751826685
 11
5.4678471062
 21
4.5768920806
  0
LINE
  5
244
100
AcDbEntity
  8
02___PRT_ALL_AXES
100
AcDbLine
 62
7
  6
CONTINUOUS
 10
5.9487858753
 20
4.8603920806
 11
5.9352858753
 21
4.8603920806
  0
LINE
  5
245
100
AcDbEntity
  8
02___PRT_ALL_AXES
100
AcDbLine
 62
7
  6
CONTINUOUS
 10
5.8888504363
 20
4.8978920806
 11
5.7721234536
 21
4.8978920806
  0
LINE
  5
246
100
AcDbEntity
  8
02___PRT_ALL_AXES
100
AcDbLine
 62
7
  6
CONTINUOUS
 10
5.4624250839
 20
4.9053920806
 11
5.4628471062
 21
4.9053920806
  0
LINE
  5
247
100
AcDbEntity
  8
02___PRT_ALL_AXES
100
AcDbLine
 62
7
  6
CONTINUOUS
 10
5.4678471062
 20
4.9338920806
 11
5.4928471062
 21
4.9338920806
  0
LINE
  5
248
100
AcDbEntity
  8
02___PRT_ALL_AXES
100
AcDbLine
 62
7
  6
CONTINUOUS
 10
5.5527858753
 20
4.9338920806
 11
5.570713279
 21
4.9338920806
  0
LINE
  5
249
100
AcDbEntity
  8
02___PRT_ALL_AXES
100
AcDbLine
 62
7
  6
CONTINUOUS
 10
5.4928471062
 20
4.9338920806
 11
5.4928471062
 21
4.8760601445
  0
LINE
  5
24A
100
AcDbEntity
  8
02___PRT_ALL_AXES
100
AcDbLine
 62
7
  6
CONTINUOUS
 10
5.4928471062
 20
4.5768920806
 11
5.4928471062
 21
4.6347240166
  0
LINE
  5
24B
100
AcDbEntity
  8
02___PRT_ALL_AXES
100
AcDbLine
 62
7
  6
CONTINUOUS
 10
5.5527858753
 20
4.9338920806
 11
5.5527858753
 21
4.9255236492
  0
LINE
  5
24C
100
AcDbEntity
  8
02___PRT_ALL_AXES
100
AcDbLine
 62
7
  6
CONTINUOUS
 10
5.5527858753
 20
4.5768920806
 11
5.5527858753
 21
4.5852605119
  0
LWPOLYLINE
  5
24D
100
AcDbEntity
  8
0
100
AcDbPolyline
 62
7
  6
CONTINUOUS
 90
7
 70
0
 10
4.0012858753
 20
5.0210170806
 10
4.3690636554
 20
5.0210093645
 10
4.7368414348
 20
5.0209862164
 10
5.1046192134
 20
5.0209476361
 10
5.4723969911
 20
5.0208936238
 10
5.8401747681
 20
5.0208241793
 10
6.0679075069
 20
5.0207716227
  0
LINE
  5
24E
100
AcDbEntity
  8
02___PRT_ALL_AXES
100
AcDbLine
 62
7
  6
CONTINUOUS
 10
6.0784378679
 20
5.0353920806
 11
6.9137858753
 21
5.0353920806
  0
LINE
  5
24F
100
AcDbEntity
  8
02___PRT_ALL_AXES
100
AcDbLine
 62
7
  6
CONTINUOUS
 10
6.7937858753
 20
5.0711420806
 11
6.9287858753
 21
5.0711420806
  0
LINE
  5
250
100
AcDbEntity
  8
02___PRT_ALL_AXES
100
AcDbLine
 62
7
  6
CONTINUOUS
 10
6.9287858753
 20
5.0878920806
 11
6.9647858753
 21
5.0878920806
  0
LINE
  5
251
100
AcDbEntity
  8
02___PRT_ALL_AXES
100
AcDbLine
 62
7
  6
CONTINUOUS
 10
7.0427858753
 20
5.0878920806
 11
7.0787858753
 21
5.0878920806
  0
LINE
  5
252
100
AcDbEntity
  8
0
100
AcDbLine
 62
7
  6
CONTINUOUS
 10
4.0012858753
 20
5.0210170806
 11
6.0679075074
 21
5.020773442
  0
LINE
  5
253
100
AcDbEntity
  8
ALL_FEATURES
100
AcDbLine
 62
7
  6
CONTINUOUS
 10
7.1437858753
 20
5.1803920806
 11
7.1787858753
 21
5.1803920806
  0
LINE
  5
254
100
AcDbEntity
  8
02___PRT_ALL_AXES
100
AcDbLine
 62
7
  6
CONTINUOUS
 10
7.1637858753
 20
5.2828920806
 11
7.2037858753
 21
5.2828920806
  0
LINE
  5
255
100
AcDbEntity
  8
ALL_FEATURES
100
AcDbLine
 62
7
  6
CONTINUOUS
 10
7.2637858753
 20
5.2828920806
 11
7.3037858753
 21
5.2828920806
  0
LINE
  5
256
100
AcDbEntity
  8
0
100
AcDbLine
 62
7
  6
CONTINUOUS
 10
5.8888514089
 20
4.6750771163
 11
5.8888504633
 21
4.6128920806
  0
LINE
  5
257
100
AcDbEntity
  8
0
100
AcDbLine
 62
7
  6
CONTINUOUS
 10
5.8888504634
 20
4.8978920806
 11
5.8888514249
 21
4.8357070132
  0
LINE
  5
258
100
AcDbEntity
  8
ALL_FEATURES
100
AcDbLine
 62
7
  6
CONTINUOUS
 10
7.3112858753
 20
5.3178920806
 11
7.3037858753
 21
5.3178920806
  0
LINE
  5
259
100
AcDbEntity
  8
0
100
AcDbLine
 62
7
  6
CONTINUOUS
 10
5.9279539694
 20
4.8663131078
 11
5.9279539706
 21
4.817909352
  0
LINE
  5
25A
100
AcDbEntity
  8
0
100
AcDbLine
 62
7
  6
CONTINUOUS
 10
5.9279539708
 20
4.6928747982
 11
5.9279539694
 21
4.6444710533
  0
LINE
  5
25B
100
AcDbEntity
  8
0
100
AcDbLine
 62
7
  6
CONTINUOUS
 10
5.9352858753
 20
4.6503920806
 11
5.9352858753
 21
4.8603920806
  0
LINE
  5
25C
100
AcDbEntity
  8
0
100
AcDbLine
 62
7
  6
CONTINUOUS
 10
5.9487858753
 20
4.8987894709
 11
5.9487858753
 21
4.6119946902
  0
LINE
  5
25D
100
AcDbEntity
  8
0
100
AcDbLine
 62
7
  6
CONTINUOUS
 10
5.9575131614
 20
4.6020760109
 11
5.9575131614
 21
4.9087081503
  0
LINE
  5
25E
100
AcDbEntity
  8
0
100
AcDbLine
 62
7
  6
CONTINUOUS
 10
6.0684631913
 20
4.484680865
 11
6.0684631913
 21
5.0261032961
  0
LINE
  5
25F
100
AcDbEntity
  8
0
100
AcDbLine
 62
7
  6
CONTINUOUS
 10
6.0784378679
 20
4.4753920806
 11
6.0784378679
 21
5.0353920806
  0
LINE
  5
260
100
AcDbEntity
  8
02___PRT_ALL_AXES
100
AcDbLine
 62
7
  6
CONTINUOUS
 10
6.7937858753
 20
4.4753920806
 11
6.7937858753
 21
4.4396446525
  0
LINE
  5
261
100
AcDbEntity
  8
02___PRT_ALL_AXES
100
AcDbLine
 62
7
  6
CONTINUOUS
 10
6.7937858753
 20
5.0353920806
 11
6.7937858753
 21
5.0711395086
  0
LINE
  5
262
100
AcDbEntity
  8
0
100
AcDbLine
 62
7
  6
CONTINUOUS
 10
6.9137858753
 20
5.0353920806
 11
6.9137858753
 21
4.4753920806
  0
LINE
  5
263
100
AcDbEntity
  8
02___PRT_ALL_AXES
100
AcDbLine
 62
7
  6
CONTINUOUS
 10
6.9287858753
 20
4.4228959765
 11
6.9287858753
 21
5.0878881846
  0
LINE
  5
264
100
AcDbEntity
  8
02___PRT_ALL_AXES
100
AcDbLine
 62
7
  6
CONTINUOUS
 10
6.9647858753
 20
4.4228920806
 11
6.9647858753
 21
5.0878920806
  0
LINE
  5
265
100
AcDbEntity
  8
02___PRT_ALL_AXES
100
AcDbLine
 62
7
  6
CONTINUOUS
 10
7.0427858753
 20
4.4228920806
 11
7.0427858753
 21
5.0878920806
  0
LINE
  5
266
100
AcDbEntity
  8
02___PRT_ALL_AXES
100
AcDbLine
 62
7
  6
CONTINUOUS
 10
7.0687858753
 20
4.4228920806
 11
7.0687858753
 21
4.2953920806
  0
LINE
  5
267
100
AcDbEntity
  8
02___PRT_ALL_AXES
100
AcDbLine
 62
7
  6
CONTINUOUS
 10
7.0687858753
 20
5.0878920806
 11
7.0687858753
 21
5.2153920806
  0
LINE
  5
268
100
AcDbEntity
  8
02___PRT_ALL_AXES
100
AcDbLine
 62
7
  6
CONTINUOUS
 10
7.0787858753
 20
4.4228959765
 11
7.0787858753
 21
5.0878881846
  0
LINE
  5
269
100
AcDbEntity
  8
ALL_FEATURES
100
AcDbLine
 62
7
  6
CONTINUOUS
 10
7.1437858753
 20
4.3303920806
 11
7.1437858753
 21
5.1803920806
  0
LINE
  5
26A
100
AcDbEntity
  8
02___PRT_ALL_AXES
100
AcDbLine
 62
7
  6
CONTINUOUS
 10
7.1637858753
 20
4.3303920806
 11
7.1637858753
 21
4.2278920806
  0
LINE
  5
26B
100
AcDbEntity
  8
02___PRT_ALL_AXES
100
AcDbLine
 62
7
  6
CONTINUOUS
 10
7.1637858753
 20
5.1803920806
 11
7.1637858753
 21
5.2828920806
  0
LINE
  5
26C
100
AcDbEntity
  8
ALL_FEATURES
100
AcDbLine
 62
7
  6
CONTINUOUS
 10
7.1787858753
 20
4.3128920806
 11
7.1787858753
 21
5.1978909876
  0
LINE
  5
26D
100
AcDbEntity
  8
02___PRT_ALL_AXES
100
AcDbLine
 62
7
  6
CONTINUOUS
 10
7.2037858753
 20
4.252690526
 11
7.2037858753
 21
4.2278920806
  0
LINE
  5
26E
100
AcDbEntity
  8
02___PRT_ALL_AXES
100
AcDbLine
 62
7
  6
CONTINUOUS
 10
7.2037858753
 20
5.2580936352
 11
7.2037858753
 21
5.2828920806
  0
LINE
  5
26F
100
AcDbEntity
  8
ALL_FEATURES
100
AcDbLine
 62
7
  6
CONTINUOUS
 10
7.2637858753
 20
4.2278920806
 11
7.2637858753
 21
5.2828920806
  0
LINE
  5
270
100
AcDbEntity
  8
02___PRT_ALL_AXES
100
AcDbLine
 62
7
  6
CONTINUOUS
 10
7.3037858753
 20
4.2278920806
 11
7.3037858753
 21
4.1303936243
  0
LINE
  5
271
100
AcDbEntity
  8
ALL_FEATURES
100
AcDbLine
 62
7
  6
CONTINUOUS
 10
7.3037858753
 20
4.2278920806
 11
7.3037858753
 21
5.2828920806
  0
LINE
  5
272
100
AcDbEntity
  8
02___PRT_ALL_AXES
100
AcDbLine
 62
7
  6
CONTINUOUS
 10
7.3037858753
 20
5.2828920806
 11
7.3037858753
 21
5.3803905368
  0
LINE
  5
273
100
AcDbEntity
  8
ALL_FEATURES
100
AcDbLine
 62
7
  6
CONTINUOUS
 10
7.3102858753
 20
5.2153920806
 11
7.3102858753
 21
4.2953920806
  0
LINE
  5
274
100
AcDbEntity
  8
ALL_FEATURES
100
AcDbLine
 62
7
  6
CONTINUOUS
 10
7.3112858753
 20
5.3178920806
 11
7.3112858753
 21
4.1928920806
  0
ARC
  5
275
100
AcDbEntity
  8
02___PRT_ALL_AXES
100
AcDbCircle
 62
7
  6
CONTINUOUS
 10
4.0012863205
 20
4.0663915821
 40
0.954625
100
AcDbArc
 50
90.0000267169
 51
173.527564239
  0
ARC
  5
276
100
AcDbEntity
  8
02___PRT_ALL_AXES
100
AcDbCircle
 62
7
  6
CONTINUOUS
 10
4.0012858753
 20
4.0663920806
 40
0.423375
100
AcDbArc
 50
90.0
 51
173.5275909559
  0
ARC
  5
277
100
AcDbEntity
  8
0
100
AcDbCircle
 62
7
  6
CONTINUOUS
 10
2.9980959688
 20
4.1802017993
 40
0.055
100
AcDbArc
 50
274.1995202417
 51
353.5275909559
  0
ARC
  5
278
100
AcDbEntity
  8
0
100
AcDbCircle
 62
7
  6
CONTINUOUS
 10
3.6352588041
 20
4.1079170578
 40
0.055
100
AcDbArc
 50
173.5275909559
 51
252.8556616701
  0
ARC
  5
279
100
AcDbEntity
  8
0
100
AcDbCircle
 62
7
  6
CONTINUOUS
 10
3.6153611624
 20
4.0434164078
 40
0.0125
100
AcDbArc
 50
353.5275909559
 51
72.8556617033
  0
ARC
  5
27A
100
AcDbEntity
  8
0
100
AcDbCircle
 62
7
  6
CONTINUOUS
 10
3.0030389834
 20
4.1128830307
 40
0.0125
100
AcDbArc
 50
94.1995202085
 51
173.5275909559
  0
ARC
  5
27B
100
AcDbEntity
  8
0
100
AcDbCircle
 62
7
  6
CONTINUOUS
 10
3.6101569423
 20
3.9975431635
 40
0.0125
100
AcDbArc
 50
263.5275909559
 51
353.5275909559
  0
ARC
  5
27C
100
AcDbEntity
  8
0
100
AcDbCircle
 62
7
  6
CONTINUOUS
 10
2.9978347634
 20
4.0670097865
 40
0.0125
100
AcDbArc
 50
173.5275909559
 51
263.5275909559
  0
ARC
  5
27D
100
AcDbEntity
  8
ALL_FEATURES
100
AcDbCircle
 62
7
  6
CONTINUOUS
 10
6.9772978162
 20
4.328398051
 40
0.1665
100
AcDbArc
 50
0.6861994637
 51
52.4439028905
  0
ARC
  5
27E
100
AcDbEntity
  8
02___PRT_ALL_AXES
100
AcDbCircle
 62
7
  6
CONTINUOUS
 10
5.9412860665
 20
4.4756128487
 40
0.1275
100
AcDbArc
 50
4.0784157059
 51
82.6880583707
  0
ARC
  5
27F
100
AcDbEntity
  8
02___PRT_ALL_AXES
100
AcDbCircle
 62
7
  6
CONTINUOUS
 10
7.0692141586
 20
4.1953929977
 40
0.1
100
AcDbArc
 50
18.9650193454
 51
90.2453889646
  0
ARC
  5
280
100
AcDbEntity
  8
02___PRT_ALL_AXES
100
AcDbCircle
 62
7
  6
CONTINUOUS
 10
7.3037546206
 20
4.2303920757
 40
0.1
100
AcDbArc
 50
181.4325409382
 51
270.0179076599
  0
ARC
  5
281
100
AcDbEntity
  8
ALL_FEATURES
100
AcDbCircle
 62
7
  6
CONTINUOUS
 10
7.2637858753
 20
4.3128920806
 40
0.085
100
AcDbArc
 50
180.0
 51
270.0
  0
ARC
  5
282
100
AcDbEntity
  8
02___PRT_ALL_AXES
100
AcDbCircle
 62
7
  6
CONTINUOUS
 10
7.0037858753
 20
4.4630791432
 40
0.056
100
AcDbArc
 50
225.8588345181
 51
314.1411654819
  0
ARC
  5
283
100
AcDbEntity
  8
0
100
AcDbCircle
 62
7
  6
CONTINUOUS
 10
5.8888504363
 20
4.6528920806
 40
0.04
100
AcDbArc
 50
270.0
 51
347.846802531
  0
ARC
  5
284
100
AcDbEntity
  8
02___PRT_ALL_AXES
100
AcDbCircle
 62
7
  6
CONTINUOUS
 10
5.5228164908
 20
4.5949706864
 40
0.035
100
AcDbArc
 50
211.0998839864
 51
328.9001160136
  0
ARC
  5
285
100
AcDbEntity
  8
ALL_FEATURES
100
AcDbCircle
 62
7
  6
CONTINUOUS
 10
7.2845358753
 20
4.2953920806
 40
0.02575
100
AcDbArc
 50
318.4117539154
 51
360.0
  0
ARC
  5
286
100
AcDbEntity
  8
0
100
AcDbCircle
 62
7
  6
CONTINUOUS
 10
6.9137858753
 20
4.4603920806
 40
0.015
100
AcDbArc
 50
0.0
 51
90.0
  0
ARC
  5
287
100
AcDbEntity
  8
0
100
AcDbCircle
 62
7
  6
CONTINUOUS
 10
5.9587858753
 20
4.6119946902
 40
0.01
100
AcDbArc
 50
180.0
 51
262.6880583707
  0
ARC
  5
288
100
AcDbEntity
  8
0
100
AcDbCircle
 62
7
  6
CONTINUOUS
 10
6.0784378679
 20
4.4853920806
 40
0.01
100
AcDbArc
 50
184.0784157059
 51
270.0
  0
ARC
  5
289
100
AcDbEntity
  8
0
100
AcDbCircle
 62
7
  6
CONTINUOUS
 10
5.9352858753
 20
4.6428920806
 40
0.0075
100
AcDbArc
 50
90.0
 51
167.846802531
  0
ARC
  5
28A
100
AcDbEntity
  8
0
100
AcDbCircle
 62
7
  6
CONTINUOUS
 10
5.4624250839
 20
4.6103920806
 40
0.005
100
AcDbArc
 50
206.4971851677
 51
270.0
  0
ARC
  5
28B
100
AcDbEntity
  8
0
100
AcDbCircle
 62
7
  6
CONTINUOUS
 10
5.4678471062
 20
4.5818920806
 40
0.005
100
AcDbArc
 50
180.0
 51
270.0
  0
ARC
  5
28C
100
AcDbEntity
  8
02___PRT_ALL_AXES
100
AcDbCircle
 62
7
  6
CONTINUOUS
 10
7.5594997757
 20
4.7567933849
 40
0.645
100
AcDbArc
 50
139.5344875733
 51
147.5830006233
  0
ARC
  5
28D
100
AcDbEntity
  8
02___PRT_ALL_AXES
100
AcDbCircle
 62
7
  6
CONTINUOUS
 10
7.5594997757
 20
4.7539907762
 40
0.645
100
AcDbArc
 50
212.4169993767
 51
220.4655124267
  0
ARC
  5
28E
100
AcDbEntity
  8
02___PRT_ALL_AXES
100
AcDbCircle
 62
7
  6
CONTINUOUS
 10
5.7532858753
 20
4.7553920806
 40
0.33
100
AcDbArc
 50
153.5028148323
 51
206.4971851677
  0
CIRCLE
  5
28F
100
AcDbEntity
  8
02___PRT_ALL_AXES
100
AcDbCircle
 62
7
  6
CONTINUOUS
 10
5.6427858753
 20
4.7553920806
 40
0.1925117109
  0
CIRCLE
  5
290
100
AcDbEntity
  8
02___PRT_ALL_AXES
100
AcDbCircle
 62
7
  6
CONTINUOUS
 10
5.6427858753
 20
4.7553920806
 40
0.1924460874
  0
ARC
  5
291
100
AcDbEntity
  8
ALL_FEATURES
100
AcDbCircle
 62
7
  6
CONTINUOUS
 10
6.9772978162
 20
5.1823861101
 40
0.1665
100
AcDbArc
 50
307.5560971095
 51
359.3138005363
  0
ARC
  5
292
100
AcDbEntity
  8
02___PRT_ALL_AXES
100
AcDbCircle
 62
7
  6
CONTINUOUS
 10
5.9412860665
 20
5.0351713124
 40
0.1275
100
AcDbArc
 50
277.3119416293
 51
355.9215842941
  0
CIRCLE
  5
293
100
AcDbEntity
  8
0
100
AcDbCircle
 62
7
  6
CONTINUOUS
 10
5.6427858753
 20
4.7553920806
 40
0.1240630411
  0
CIRCLE
  5
294
100
AcDbEntity
  8
0
100
AcDbCircle
 62
7
  6
CONTINUOUS
 10
5.6427858753
 20
4.7553920806
 40
0.1225
  0
CIRCLE
  5
295
100
AcDbEntity
  8
0
100
AcDbCircle
 62
7
  6
CONTINUOUS
 10
5.6427858753
 20
4.7553920806
 40
0.1125
  0
ARC
  5
296
100
AcDbEntity
  8
02___PRT_ALL_AXES
100
AcDbCircle
 62
7
  6
CONTINUOUS
 10
7.0692141586
 20
5.3153911634
 40
0.1
100
AcDbArc
 50
269.7546110354
 51
341.0349806546
  0
ARC
  5
297
100
AcDbEntity
  8
02___PRT_ALL_AXES
100
AcDbCircle
 62
7
  6
CONTINUOUS
 10
7.3037546206
 20
5.2803920854
 40
0.1
100
AcDbArc
 50
89.9820923401
 51
178.5674590618
  0
CIRCLE
  5
298
100
AcDbEntity
  8
02___PRT_ALL_AXES
100
AcDbCircle
 62
7
  6
CONTINUOUS
 10
5.6427858753
 20
4.7553920806
 40
0.0974679434
  0
ARC
  5
299
100
AcDbEntity
  8
ALL_FEATURES
100
AcDbCircle
 62
7
  6
CONTINUOUS
 10
7.2637858753
 20
5.1978920806
 40
0.085
100
AcDbArc
 50
90.0
 51
180.0
  0
ARC
  5
29A
100
AcDbEntity
  8
02___PRT_ALL_AXES
100
AcDbCircle
 62
7
  6
CONTINUOUS
 10
7.0037858753
 20
5.047705018
 40
0.056
100
AcDbArc
 50
45.8588345181
 51
134.1411654819
  0
ARC
  5
29B
100
AcDbEntity
  8
0
100
AcDbCircle
 62
7
  6
CONTINUOUS
 10
5.8888504363
 20
4.8578920806
 40
0.04
100
AcDbArc
 50
12.153197469
 51
90.0
  0
ARC
  5
29C
100
AcDbEntity
  8
02___PRT_ALL_AXES
100
AcDbCircle
 62
7
  6
CONTINUOUS
 10
5.5228164908
 20
4.9158134747
 40
0.035
100
AcDbArc
 50
31.0998839864
 51
148.9001160136
  0
ARC
  5
29D
100
AcDbEntity
  8
ALL_FEATURES
100
AcDbCircle
 62
7
  6
CONTINUOUS
 10
7.2845358753
 20
5.2153920806
 40
0.02575
100
AcDbArc
 50
0.0
 51
41.5882460846
  0
ARC
  5
29E
100
AcDbEntity
  8
0
100
AcDbCircle
 62
7
  6
CONTINUOUS
 10
6.9137858753
 20
5.0503920806
 40
0.015
100
AcDbArc
 50
270.0
 51
360.0
  0
ARC
  5
29F
100
AcDbEntity
  8
0
100
AcDbCircle
 62
7
  6
CONTINUOUS
 10
5.9587858753
 20
4.8987894709
 40
0.01
100
AcDbArc
 50
97.3119416293
 51
180.0
  0
ARC
  5
2A0
100
AcDbEntity
  8
0
100
AcDbCircle
 62
7
  6
CONTINUOUS
 10
6.0784378679
 20
5.0253920806
 40
0.01
100
AcDbArc
 50
90.0
 51
175.9215842941
  0
ARC
  5
2A1
100
AcDbEntity
  8
0
100
AcDbCircle
 62
7
  6
CONTINUOUS
 10
5.9352858753
 20
4.8678920806
 40
0.0075
100
AcDbArc
 50
192.153197469
 51
270.0
  0
ARC
  5
2A2
100
AcDbEntity
  8
0
100
AcDbCircle
 62
7
  6
CONTINUOUS
 10
5.4624250839
 20
4.9003920806
 40
0.005
100
AcDbArc
 50
90.0
 51
153.5028148323
  0
ARC
  5
2A3
100
AcDbEntity
  8
0
100
AcDbCircle
 62
7
  6
CONTINUOUS
 10
5.4678471062
 20
4.9288920806
 40
0.005
100
AcDbArc
 50
90.0
 51
180.0
  0
SPLINE
  5
2A4
100
AcDbEntity
  8
0
100
AcDbSpline
 62
7
  6
CONTINUOUS
 70
0
 71
3
 72
30
 73
26
 74
0
 42
0.0000001
 43
0.0000001
 44
0.0000000001
 40
0.0
 40
0.0
 40
0.0
 40
0.0
 40
0.0655200411
 40
0.1306676051
 40
0.1950345291
 40
0.2583586589
 40
0.3204707663
 40
0.3813331555
 40
0.4410839493
 40
0.5000530678
 40
0.5294142899
 40
0.5587905426
 40
0.5882764653
 40
0.6179651373
 40
0.6479381418
 40
0.6782812815
 40
0.7090499389
 40
0.7402613881
 40
0.7719174601
 40
0.8039715359
 40
0.8363474813
 40
0.8689616365
 40
0.9017233166
 40
0.9345291511
 40
1.0
 40
1.0
 40
1.0
 40
1.0
 10
5.8919209913
 20
4.7553920806
 30
0.0
 10
5.8919210026
 20
4.7584766509
 30
0.0
 10
5.8917252384
 20
4.7646300738
 30
0.0
 10
5.8908440513
 20
4.7737758316
 30
0.0
 10
5.8893708821
 20
4.7827413022
 30
0.0
 10
5.8873004018
 20
4.7914419497
 30
0.0
 10
5.8846194936
 20
4.7998026569
 30
0.0
 10
5.8813058253
 20
4.807753643
 30
0.0
 10
5.8773284342
 20
4.8152292977
 30
0.0
 10
5.8734143386
 20
4.8210174789
 30
0.0
 10
5.8699181028
 20
4.82532043
 30
0.0
 10
5.8671053079
 20
4.8283801733
 30
0.0
 10
5.8640927542
 20
4.8312659188
 30
0.0
 10
5.8608770517
 20
4.8339675111
 30
0.0
 10
5.8574580826
 20
4.8364757793
 30
0.0
 10
5.853836893
 20
4.8387783697
 30
0.0
 10
5.8500220165
 20
4.840867374
 30
0.0
 10
5.8460274678
 20
4.8427385209
 30
0.0
 10
5.8418699306
 20
4.8443840818
 30
0.0
 10
5.8375742719
 20
4.845808947
 30
0.0
 10
5.8331661361
 20
4.8470169353
 30
0.0
 10
5.8286721291
 20
4.8480155327
 30
0.0
 10
5.8241188806
 20
4.8488191896
 30
0.0
 10
5.8180045772
 20
4.8496482202
 30
0.0
 10
5.8133884379
 20
4.8500205898
 30
0.0
 10
5.8103101945
 20
4.8501777848
 30
0.0
  0
SPLINE
  5
2A5
100
AcDbEntity
  8
0
100
AcDbSpline
 62
7
  6
CONTINUOUS
 70
0
 71
3
 72
30
 73
26
 74
0
 42
0.0000001
 43
0.0000001
 44
0.0000000001
 40
0.0
 40
0.0
 40
0.0
 40
0.0
 40
0.0654705192
 40
0.0982766287
 40
0.1310383603
 40
0.1636523791
 40
0.1960283898
 40
0.2280825117
 40
0.259738452
 40
0.2909499465
 40
0.3217187135
 40
0.3520617064
 40
0.3820347487
 40
0.411723454
 40
0.4412092614
 40
0.4705855146
 40
0.4999467781
 40
0.5589158632
 40
0.6186666594
 40
0.6795290147
 40
0.7416411221
 40
0.8049651789
 40
0.8693321129
 40
0.9344799041
 40
1.0
 40
1.0
 40
1.0
 40
1.0
 10
5.8103104557
 20
4.660606383
 30
0.0
 10
5.8133886784
 20
4.6607635641
 30
0.0
 10
5.8180048053
 20
4.6611359646
 30
0.0
 10
5.8241190928
 20
4.6619650204
 30
0.0
 10
5.828672344
 20
4.6627686628
 30
0.0
 10
5.8331663418
 20
4.6637672632
 30
0.0
 10
5.8375744537
 20
4.6649752988
 30
0.0
 10
5.8418701163
 20
4.6664001219
 30
0.0
 10
5.84602763
 20
4.6680457182
 30
0.0
 10
5.8500221603
 20
4.6699168836
 30
0.0
 10
5.8538370483
 20
4.6720058526
 30
0.0
 10
5.8574582033
 20
4.674308484
 30
0.0
 10
5.8608771625
 20
4.676816744
 30
0.0
 10
5.8640928652
 20
4.6795183219
 30
0.0
 10
5.8671053933
 20
4.6824040778
 30
0.0
 10
5.8699181721
 20
4.6854638201
 30
0.0
 10
5.8734144001
 20
4.6897667648
 30
0.0
 10
5.8773284801
 20
4.6955549416
 30
0.0
 10
5.8813058578
 20
4.7030305822
 30
0.0
 10
5.8846195087
 20
4.7109815566
 30
0.0
 10
5.8873004108
 20
4.7193422432
 30
0.0
 10
5.8893708835
 20
4.7280428724
 30
0.0
 10
5.8908440531
 20
4.7370083337
 30
0.0
 10
5.8917252352
 20
4.7461540887
 30
0.0
 10
5.8919210009
 20
4.7523075134
 30
0.0
 10
5.8919209913
 20
4.7553920806
 30
0.0
  0
SPLINE
  5
2A6
100
AcDbEntity
  8
0
100
AcDbSpline
 62
7
  6
CONTINUOUS
 70
0
 71
3
 72
19
 73
15
 74
0
 42
0.0000001
 43
0.0000001
 44
0.0000000001
 40
0.0
 40
0.0
 40
0.0
 40
0.0
 40
0.0672415181
 40
0.134377916
 40
0.2012093111
 40
0.2675469861
 40
0.3332625342
 40
0.3982452717
 40
0.525608681
 40
0.649202863
 40
0.7689464637
 40
0.8275747021
 40
0.8855048011
 40
1.0
 40
1.0
 40
1.0
 40
1.0
 10
5.906241566
 20
4.7553920805
 30
0.0
 10
5.9062414851
 20
4.753536554
 30
0.0
 10
5.9061879855
 20
4.7498281884
 30
0.0
 10
5.9059499847
 20
4.7442802236
 30
0.0
 10
5.9055562925
 20
4.7387660739
 30
0.0
 10
5.9050083883
 20
4.7333045372
 30
0.0
 10
5.9043120549
 20
4.7279113502
 30
0.0
 10
5.9032018023
 20
4.7208764457
 30
0.0
 10
5.9014810562
 20
4.7123245763
 30
0.0
 10
5.8989201578
 20
4.7024160121
 30
0.0
 10
5.8964143833
 20
4.6944649254
 30
0.0
 10
5.894228205
 20
4.6883210576
 30
0.0
 10
5.891953063
 20
4.6823643836
 30
0.0
 10
5.8901165151
 20
4.6779735283
 30
0.0
 10
5.8888522185
 20
4.6750780268
 30
0.0
  0
SPLINE
  5
2A7
100
AcDbEntity
  8
0
100
AcDbSpline
 62
7
  6
CONTINUOUS
 70
0
 71
3
 72
19
 73
15
 74
0
 42
0.0000001
 43
0.0000001
 44
0.0000000001
 40
0.0
 40
0.0
 40
0.0
 40
0.0
 40
0.1144939335
 40
0.1724238906
 40
0.231051222
 40
0.3507939786
 40
0.4743883054
 40
0.601750171
 40
0.6667321864
 40
0.7324473958
 40
0.798786531
 40
0.8656201792
 40
0.9327580956
 40
1.0
 40
1.0
 40
1.0
 40
1.0
 10
5.8888522498
 20
4.8357060976
 30
0.0
 10
5.8901165165
 20
4.8328106225
 30
0.0
 10
5.8919529068
 20
4.8284197442
 30
0.0
 10
5.894227912
 20
4.822463091
 30
0.0
 10
5.8964141879
 20
4.8163193181
 30
0.0
 10
5.8989202377
 20
4.8083683676
 30
0.0
 10
5.9014811932
 20
4.7984598796
 30
0.0
 10
5.9032018235
 20
4.7899080514
 30
0.0
 10
5.904312103
 20
4.7828732281
 30
0.0
 10
5.9050084869
 20
4.7774800382
 30
0.0
 10
5.9055563513
 20
4.7720184057
 30
0.0
 10
5.9059500029
 20
4.766504111
 30
0.0
 10
5.9061879997
 20
4.7609560338
 30
0.0
 10
5.9062414911
 20
4.757247617
 30
0.0
 10
5.9062415625
 20
4.7553920805
 30
0.0
  0
SPLINE
  5
2A8
100
AcDbEntity
  8
0
100
AcDbSpline
 62
7
  6
CONTINUOUS
 70
0
 71
3
 72
21
 73
17
 74
0
 42
0.0000001
 43
0.0000001
 44
0.0000000001
 40
0.0
 40
0.0
 40
0.0
 40
0.0
 40
0.0450812594
 40
0.0922057521
 40
0.1416738568
 40
0.1937089462
 40
0.2484584205
 40
0.3059917547
 40
0.3662792165
 40
0.4292132834
 40
0.4946393048
 40
0.562335641
 40
0.7034363031
 40
0.8502806825
 40
0.9250108353
 40
1.0
 40
1.0
 40
1.0
 40
1.0
 10
5.9279539708
 20
4.6928747982
 30
0.0
 10
5.9277114829
 20
4.692240177
 30
0.0
 10
5.9271231679
 20
4.6909759593
 30
0.0
 10
5.9259820801
 20
4.6891656852
 30
0.0
 10
5.9245737944
 20
4.6874180139
 30
0.0
 10
5.922909092
 20
4.685747191
 30
0.0
 10
5.921001436
 20
4.6841631646
 30
0.0
 10
5.9188636145
 20
4.6826772736
 30
0.0
 10
5.9165112015
 20
4.6812990229
 30
0.0
 10
5.9139609607
 20
4.6800377648
 30
0.0
 10
5.9112305904
 20
4.678903616
 30
0.0
 10
5.907323282
 20
4.6775515504
 30
0.0
 10
5.9021152076
 20
4.6762391818
 30
0.0
 10
5.896697155
 20
4.6754523531
 30
0.0
 10
5.892238167
 20
4.675131659
 30
0.0
 10
5.8899814891
 20
4.6750774082
 30
0.0
 10
5.8888514089
 20
4.6750774167
 30
0.0
  0
SPLINE
  5
2A9
100
AcDbEntity
  8
0
100
AcDbSpline
 62
7
  6
CONTINUOUS
 70
0
 71
3
 72
21
 73
17
 74
0
 42
0.0000001
 43
0.0000001
 44
0.0000000001
 40
0.0
 40
0.0
 40
0.0
 40
0.0
 40
0.0450794916
 40
0.0922024862
 40
0.1416693891
 40
0.1937035773
 40
0.248452435
 40
0.3059854169
 40
0.3662727686
 40
0.4292069467
 40
0.4946332792
 40
0.5623301041
 40
0.7034322026
 40
0.8502784826
 40
0.9250097061
 40
1.0
 40
1.0
 40
1.0
 40
1.0
 10
5.9279539706
 20
4.817909352
 30
0.0
 10
5.9277114861
 20
4.818543922
 30
0.0
 10
5.9271231804
 20
4.819808039
 30
0.0
 10
5.925982119
 20
4.8216181667
 30
0.0
 10
5.9245738695
 20
4.823365702
 30
0.0
 10
5.9229092123
 20
4.8250364018
 30
0.0
 10
5.9210016094
 20
4.8266203197
 30
0.0
 10
5.9188638481
 20
4.8281061177
 30
0.0
 10
5.9165115012
 20
4.8294842923
 30
0.0
 10
5.9139613313
 20
4.8307454921
 30
0.0
 10
5.9112310357
 20
4.8318796014
 30
0.0
 10
5.9073238274
 20
4.8332316414
 30
0.0
 10
5.9021158827
 20
4.834544028
 30
0.0
 10
5.8966979591
 20
4.8353309399
 30
0.0
 10
5.892239065
 20
4.8356517411
 30
0.0
 10
5.8899824302
 20
4.8357060589
 30
0.0
 10
5.8888523703
 20
4.8357060871
 30
0.0
  0
SPLINE
  5
2AA
100
AcDbEntity
  8
0
100
AcDbSpline
 62
7
  6
CONTINUOUS
 70
0
 71
3
 72
20
 73
16
 74
0
 42
0.0000001
 43
0.0000001
 44
0.0000000001
 40
0.0
 40
0.0
 40
0.0
 40
0.0
 40
0.1193365859
 40
0.1794665656
 40
0.2399799386
 40
0.300947911
 40
0.3624252368
 40
0.4244346032
 40
0.4869656089
 40
0.549988554
 40
0.6134590363
 40
0.7414687808
 40
0.8058957121
 40
0.8705002409
 40
1.0
 40
1.0
 40
1.0
 40
1.0
 10
5.8888514249
 20
4.8357070132
 30
0.0
 10
5.8860663556
 20
4.8379757861
 30
0.0
 10
5.8816703772
 20
4.8411430645
 30
0.0
 10
5.8754696035
 20
4.8448535673
 30
0.0
 10
5.8706273676
 20
4.8473973646
 30
0.0
 10
5.8656204482
 20
4.8496969192
 30
0.0
 10
5.8604610457
 20
4.8517548049
 30
0.0
 10
5.8551640334
 20
4.8535763046
 30
0.0
 10
5.8497454623
 20
4.8551688094
 30
0.0
 10
5.8442213044
 20
4.8565391041
 30
0.0
 10
5.8367170229
 20
4.8580881218
 30
0.0
 10
5.8290914106
 20
4.8592279355
 30
0.0
 10
5.8213930456
 20
4.8600108544
 30
0.0
 10
5.8136303416
 20
4.8605734363
 30
0.0
 10
5.8077872812
 20
4.8607602539
 30
0.0
 10
5.8038892971
 20
4.860794209
 30
0.0
  0
LINE
  5
2AB
100
AcDbEntity
  8
0
100
AcDbLine
 62
7
  6
CONTINUOUS
 10
5.9279539706
 20
4.817909352
 11
5.9277874926
 21
4.7553920806
  0
LINE
  5
2AC
100
AcDbEntity
  8
0
100
AcDbLine
 62
7
  6
CONTINUOUS
 10
5.9277874926
 20
4.7553920806
 11
5.9279539708
 21
4.6928747982
  0
SPLINE
  5
2AD
100
AcDbEntity
  8
0
100
AcDbSpline
 62
7
  6
CONTINUOUS
 70
0
 71
3
 72
20
 73
16
 74
0
 42
0.0000001
 43
0.0000001
 44
0.0000000001
 40
0.0
 40
0.0
 40
0.0
 40
0.0
 40
0.1294995541
 40
0.194104208
 40
0.2585311361
 40
0.3865408844
 40
0.4500113674
 40
0.5130343004
 40
0.5755653096
 40
0.6375746699
 40
0.6990519907
 40
0.7600200159
 40
0.8205334621
 40
0.880663486
 40
1.0
 40
1.0
 40
1.0
 40
1.0
 10
5.8038891038
 20
4.6499899403
 30
0.0
 10
5.8077870887
 20
4.650023888
 30
0.0
 10
5.8136301566
 20
4.6502107159
 30
0.0
 10
5.8213928724
 20
4.6507732869
 30
0.0
 10
5.8290912549
 20
4.6515562052
 30
0.0
 10
5.8367168795
 20
4.6526960269
 30
0.0
 10
5.8442211758
 20
4.6542450379
 30
0.0
 10
5.8497453431
 20
4.655615335
 30
0.0
 10
5.8551639232
 20
4.6572078424
 30
0.0
 10
5.8604609476
 20
4.6590293364
 30
0.0
 10
5.8656203612
 20
4.6610872237
 30
0.0
 10
5.870627298
 20
4.6633867717
 30
0.0
 10
5.8754695529
 20
4.6659305649
 30
0.0
 10
5.8816703407
 20
4.6696410716
 30
0.0
 10
5.8860663295
 20
4.6728083492
 30
0.0
 10
5.8888514089
 20
4.6750771163
 30
0.0
  0
ENDSEC
  0
SECTION
  2
OBJECTS
  0
DICTIONARY
  5
C
100
AcDbDictionary
280
0
281
1
  3
ACAD_GROUP
350
D
  3
ACAD_MLINESTYLE
350
17
  3
ACAD_LAYOUT
350
1A
  3
ACAD_PLOTSETTINGS
350
19
  3
ACAD_PLOTSTYLENAME
350
E
  0
DICTIONARY
  5
D
102
{ACAD_REACTORS
330
C
102
}
100
AcDbDictionary
280
0
281
1
  0
ACDBDICTIONARYWDFLT
  5
E
102
{ACAD_REACTORS
330
C
102
}
100
AcDbDictionary
281
1
  3
Normal
350
F
100
AcDbDictionaryWithDefault
340
F
  0
DICTIONARY
  5
17
102
{ACAD_REACTORS
330
C
102
}
100
AcDbDictionary
280
0
281
1
  3
Standard
350
18
  0
DICTIONARY
  5
19
102
{ACAD_REACTORS
330
C
102
}
100
AcDbDictionary
281
1
  0
DICTIONARY
  5
1A
102
{ACAD_REACTORS
330
C
102
}
100
AcDbDictionary
281
1
  3
Model
350
2AE
  3
Layout1
350
2AF
  0
ACDBPLACEHOLDER
  5
F
102
{ACAD_REACTORS
330
E
102
}
  0
MLINESTYLE
  5
18
102
{ACAD_REACTORS
330
17
102
}
100
AcDbMlineStyle
  2
STANDARD
 70
0
  3

 62
256
 51
90.0
 52
90.0
 71
2
 49
0.5
 62
256
  6
BYLAYER
 49
-0.5
 62
256
  6
BYLAYER
  0
LAYOUT
  5
2AE
102
{ACAD_REACTORS
330
1A
102
}
100
AcDbPlotSettings
  1

  2
none_device
  4
ANSI_A_(11.00_x_8.50_Inches)
  6

 40
0.0
 41
0.0
 42
0.0
 43
0.0
 44
279.4
 45
215.9
 46
0.0
 47
0.0
 48
0.0
 49
0.0
140
0.0
141
0.0
142
1.0
143
1.0
 70
1024
 72
0
 73
0
 74
0
  7

 75
0
147
1.0
148
0.0
149
0.0
100
AcDbLayout
  1
Model
 70
0
 71
0
 10
0.0
 20
0.0
 11
11.0
 21
8.5
 12
0.0
 22
0.0
 32
0.0
 14
0.0
 24
0.0
 34
0.0
 15
0.0
 25
0.0
 35
0.0
146
0.0
 13
0.0
 23
0.0
 33
0.0
 16
1.0
 26
0.0
 36
0.0
 17
0.0
 27
1.0
 37
0.0
 76
0
330
219
345
0
346
0
  0
LAYOUT
  5
2AF
102
{ACAD_REACTORS
330
1A
102
}
100
AcDbPlotSettings
  1

  2
none_device
  4
ANSI_A_(11.00_x_8.50_Inches)
  6

 40
0.0
 41
0.0
 42
0.0
 43
0.0
 44
279.4
 45
215.9
 46
0.0
 47
0.0
 48
0.0
 49
0.0
140
0.0
141
0.0
142
1.0
143
1.0
 70
0
 72
0
 73
0
 74
0
  7

 75
0
147
1.0
148
0.0
149
0.0
100
AcDbLayout
  1
Layout1
 70
0
 71
1
 10
0.0
 20
0.0
 11
11.0
 21
8.5
 12
0.0
 22
0.0
 32
0.0
 14
0.0
 24
0.0
 34
0.0
 15
0.0
 25
0.0
 35
0.0
146
0.0
 13
0.0
 23
0.0
 33
0.0
 16
1.0
 26
0.0
 36
0.0
 17
0.0
 27
1.0
 37
0.0
 76
0
330
21A
345
0
346
0
  0
ENDSEC
  0
EOF
