999
DXF file: 3-2554tr_FRONT.dxf
999
Pro/ENGINEER 2018400 by Parametric Technology Corporation
  0
SECTION
  2
HEADER
  9
$ACADVER
  1
AC1027
  9
$DWGCODEPAGE
  3
ANSI_1252
  9
$EXTMAX
 10
11.0
 20
8.5
 30
0.0
  9
$EXTMIN
 10
0.0
 20
0.0
 30
0.0
  9
$LIMMIN
 10
0.0
 20
0.0
  9
$LIMMAX
 10
11.0
 20
8.5
  9
$VIEWCTR
 10
5.5
 20
4.25
  9
$VIEWSIZE
 40
8.5
  9
$CLAYER
  8
0
  9
$LTSCALE
 40
0.605
  9
$CELTYPE
  6
BYLAYER
  9
$DIMSCALE
 40
1.0
  9
$DIMASZ
 40
0.1
  9
$DIMEXO
 40
0.0625
  9
$DIMDLI
 40
0.418
  9
$DIMEXE
 40
0.125
  9
$DIMCEN
 40
0.099
  9
$DIMLFAC
 40
1.0
  9
$DIMBLK
  1
_FILLED
  9
$DIMALT
 70
1
  9
$DIMALTD
 70
2
  9
$DIMALTTD
 70
2
  9
$DIMALTF
 40
25.4
  9
$DIMTXT
 40
0.08
  9
$DIMTOL
 70
1
  9
$DIMLIM
 70
0
  9
$DIMTFAC
 40
1.0
  9
$DIMTP
 40
0.001
  9
$DIMTM
 40
0.001
  9
$DIMGAP
 40
0.09
  9
$DIMDSEP
 70
46
  9
$AUNITS
 70
0
  9
$PDMODE
 70
3
  9
$PDSIZE
 40
0.3125
  9
$HANDSEED
  5
4B0
  9
$TILEMODE
 70
1
  9
$MEASUREMENT
 70
0
  9
$INSUNITS
 70
1
  0
ENDSEC
  0
SECTION
  2
CLASSES
  0
CLASS
  1
ACDBDICTIONARYWDFLT
  2
AcDbDictionaryWithDefault
  3
AutoCAD 2000
 90
0
 91
1
280
0
281
0
  0
CLASS
  1
ACDBPLACEHOLDER
  2
AcDbPlaceHolder
  3
AutoCAD 2000
 90
0
 91
1
280
0
281
0
  0
CLASS
  1
LAYOUT
  2
AcDbLayout
  3
AutoCAD 2000
 90
0
 91
0
280
0
281
0
  0
ENDSEC
  0
SECTION
  2
TABLES
  0
TABLE
  2
VPORT
  5
8
100
AcDbSymbolTable
 70
2
  0
VPORT
  5
1F4
100
AcDbSymbolTableRecord
100
AcDbViewportTableRecord
  2
*ACTIVE
 70
0
 10
0.0
 20
0.0
 11
1.0
 21
1.0
 12
5.5
 22
4.25
 13
0.0
 23
0.0
 14
1.0
 24
1.0
 15
0.0
 25
0.0
 16
0.0
 26
0.0
 36
1.0
 17
0.0
 27
0.0
 37
0.0
 40
8.5
 41
1.2941176471
 42
50.0
 43
0.0
 44
0.0
 50
0.0
 51
0.0
 71
0
 72
100
 73
1
 74
1
 75
0
 76
0
 77
0
 78
0
  0
ENDTAB
  0
TABLE
  2
LTYPE
  5
5
100
AcDbSymbolTable
 70
6
  0
LTYPE
  5
14
100
AcDbSymbolTableRecord
100
AcDbLinetypeTableRecord
  2
BYBLOCK
 70
0
  3

 72
65
 73
0
 40
0.0
  0
LTYPE
  5
15
100
AcDbSymbolTableRecord
100
AcDbLinetypeTableRecord
  2
BYLAYER
 70
0
  3

 72
65
 73
0
 40
0.0
  0
LTYPE
  5
16
100
AcDbSymbolTableRecord
100
AcDbLinetypeTableRecord
  2
CONTINUOUS
 70
64
  3
Solid line
 72
65
 73
0
 40
0.0
  0
LTYPE
  5
1F5
100
AcDbSymbolTableRecord
100
AcDbLinetypeTableRecord
  2
CENTER
 70
64
  3
____ _ ____ _ ____ _ ____ _ ____ _ ____ _ ____
 72
65
 73
4
 40
0.6
 49
0.375
 74
0
 49
-0.075
 74
0
 49
0.075
 74
0
 49
-0.075
 74
0
  0
LTYPE
  5
1F6
100
AcDbSymbolTableRecord
100
AcDbLinetypeTableRecord
  2
HIDDEN
 70
64
  3
- - - - - - - - - - - - - - - - - - - -
 72
65
 73
2
 40
0.2
 49
0.1
 74
0
 49
-0.1
 74
0
  0
LTYPE
  5
1F7
100
AcDbSymbolTableRecord
100
AcDbLinetypeTableRecord
  2
PHANTOM
 70
64
  3
_____ _ _ _____ _ _ _____ _ _ _____
 72
65
 73
6
 40
0.8
 49
0.45
 74
0
 49
-0.05
 74
0
 49
0.1
 74
0
 49
-0.05
 74
0
 49
0.1
 74
0
 49
-0.05
 74
0
  0
LTYPE
  5
1F8
100
AcDbSymbolTableRecord
100
AcDbLinetypeTableRecord
  2
DOT
 70
64
  3
. . . . . . . . . . . . . . . . . . . .
 72
65
 73
2
 40
0.2
 49
0.1
 74
0
 49
-0.1
 74
0
  0
LTYPE
  5
1F9
100
AcDbSymbolTableRecord
100
AcDbLinetypeTableRecord
  2
DASHED
 70
64
  3
- - - - - - - - - - - - - - - - - - - -
 72
65
 73
2
 40
0.2
 49
0.1
 74
0
 49
-0.1
 74
0
  0
ENDTAB
  0
TABLE
  2
LAYER
  5
2
100
AcDbSymbolTable
 70
36
  0
LAYER
  5
10
100
AcDbSymbolTableRecord
100
AcDbLayerTableRecord
  2
0
 70
0
 62
7
  6
CONTINUOUS
370
-3
390
F
  0
LAYER
  5
1FA
100
AcDbSymbolTableRecord
100
AcDbLayerTableRecord
  2
DEFAULT_1
 70
0
 62
7
  6
CENTER
370
-3
390
F
  0
LAYER
  5
1FB
100
AcDbSymbolTableRecord
100
AcDbLayerTableRecord
  2
DEFAULT_2
 70
0
 62
8
  6
HIDDEN
370
-3
390
F
  0
LAYER
  5
1FC
100
AcDbSymbolTableRecord
100
AcDbLayerTableRecord
  2
DEFAULT_3
 70
0
 62
7
  6
PHANTOM
370
-3
390
F
  0
LAYER
  5
1FD
100
AcDbSymbolTableRecord
100
AcDbLayerTableRecord
  2
01___PRT_ALL_DTM_PLN
 70
0
 62
7
  6
CONTINUOUS
370
-3
390
F
  0
LAYER
  5
1FE
100
AcDbSymbolTableRecord
100
AcDbLayerTableRecord
  2
01___PRT_DEF_DTM_PLN
 70
0
 62
7
  6
CONTINUOUS
370
-3
390
F
  0
LAYER
  5
1FF
100
AcDbSymbolTableRecord
100
AcDbLayerTableRecord
  2
02___PRT_ALL_AXES
 70
0
 62
7
  6
CONTINUOUS
370
-3
390
F
  0
LAYER
  5
200
100
AcDbSymbolTableRecord
100
AcDbLayerTableRecord
  2
03___PRT_ALL_CURVES
 70
0
 62
7
  6
CONTINUOUS
370
-3
390
F
  0
LAYER
  5
201
100
AcDbSymbolTableRecord
100
AcDbLayerTableRecord
  2
04___PRT_ALL_DTM_PNT
 70
0
 62
7
  6
CONTINUOUS
370
-3
390
F
  0
LAYER
  5
202
100
AcDbSymbolTableRecord
100
AcDbLayerTableRecord
  2
05___PRT_ALL_DTM_CSYS
 70
0
 62
7
  6
CONTINUOUS
370
-3
390
F
  0
LAYER
  5
203
100
AcDbSymbolTableRecord
100
AcDbLayerTableRecord
  2
05___PRT_DEF_DTM_CSYS
 70
0
 62
7
  6
CONTINUOUS
370
-3
390
F
  0
LAYER
  5
204
100
AcDbSymbolTableRecord
100
AcDbLayerTableRecord
  2
06___PRT_ALL_SURFS
 70
0
 62
7
  6
CONTINUOUS
370
-3
390
F
  0
LAYER
  5
205
100
AcDbSymbolTableRecord
100
AcDbLayerTableRecord
  2
ALL_ASSEMBLY_MEMBERS
 70
0
 62
7
  6
CONTINUOUS
370
-3
390
F
  0
LAYER
  5
206
100
AcDbSymbolTableRecord
100
AcDbLayerTableRecord
  2
ALL_FEATURES
 70
0
 62
7
  6
CONTINUOUS
370
-3
390
F
  0
LAYER
  5
207
100
AcDbSymbolTableRecord
100
AcDbLayerTableRecord
  2
AXES_FEATURES
 70
0
 62
7
  6
CONTINUOUS
370
-3
390
F
  0
LAYER
  5
208
100
AcDbSymbolTableRecord
100
AcDbLayerTableRecord
  2
BROACH_SKETCH
 70
0
 62
7
  6
CONTINUOUS
370
-3
390
F
  0
LAYER
  5
209
100
AcDbSymbolTableRecord
100
AcDbLayerTableRecord
  2
CHAMFER_FEATURES
 70
0
 62
7
  6
CONTINUOUS
370
-3
390
F
  0
LAYER
  5
20A
100
AcDbSymbolTableRecord
100
AcDbLayerTableRecord
  2
COSMETIC_SKETCHES
 70
0
 62
7
  6
CONTINUOUS
370
-3
390
F
  0
LAYER
  5
20B
100
AcDbSymbolTableRecord
100
AcDbLayerTableRecord
  2
CUT_FEATURES
 70
0
 62
7
  6
CONTINUOUS
370
-3
390
F
  0
LAYER
  5
20C
100
AcDbSymbolTableRecord
100
AcDbLayerTableRecord
  2
DATUM_CURVES
 70
0
 62
7
  6
CONTINUOUS
370
-3
390
F
  0
LAYER
  5
20D
100
AcDbSymbolTableRecord
100
AcDbLayerTableRecord
  2
DATUM_PLANES
 70
0
 62
7
  6
CONTINUOUS
370
-3
390
F
  0
LAYER
  5
20E
100
AcDbSymbolTableRecord
100
AcDbLayerTableRecord
  2
DATUM_POINTS
 70
0
 62
7
  6
CONTINUOUS
370
-3
390
F
  0
LAYER
  5
20F
100
AcDbSymbolTableRecord
100
AcDbLayerTableRecord
  2
DEFAULT_COORDINATE_SYSTEM
 70
0
 62
7
  6
CONTINUOUS
370
-3
390
F
  0
LAYER
  5
210
100
AcDbSymbolTableRecord
100
AcDbLayerTableRecord
  2
DEFAULT_DATUM_AXES
 70
0
 62
7
  6
CONTINUOUS
370
-3
390
F
  0
LAYER
  5
211
100
AcDbSymbolTableRecord
100
AcDbLayerTableRecord
  2
DEFAULT_DATUM_CURVES
 70
0
 62
7
  6
CONTINUOUS
370
-3
390
F
  0
LAYER
  5
212
100
AcDbSymbolTableRecord
100
AcDbLayerTableRecord
  2
DEFAULT_DATUM_PLANES
 70
0
 62
7
  6
CONTINUOUS
370
-3
390
F
  0
LAYER
  5
213
100
AcDbSymbolTableRecord
100
AcDbLayerTableRecord
  2
DEFAULT_SURFACES
 70
0
 62
7
  6
CONTINUOUS
370
-3
390
F
  0
LAYER
  5
214
100
AcDbSymbolTableRecord
100
AcDbLayerTableRecord
  2
DIMENSIONS
 70
0
 62
7
  6
CONTINUOUS
370
-3
390
F
  0
LAYER
  5
215
100
AcDbSymbolTableRecord
100
AcDbLayerTableRecord
  2
HOLE_FEATURES
 70
0
 62
7
  6
CONTINUOUS
370
-3
390
F
  0
LAYER
  5
216
100
AcDbSymbolTableRecord
100
AcDbLayerTableRecord
  2
PART_REFERENCE_DIMENSIONS
 70
0
 62
7
  6
CONTINUOUS
370
-3
390
F
  0
LAYER
  5
217
100
AcDbSymbolTableRecord
100
AcDbLayerTableRecord
  2
PLATED_SURFACE_AREA
 70
0
 62
7
  6
CONTINUOUS
370
-3
390
F
  0
LAYER
  5
218
100
AcDbSymbolTableRecord
100
AcDbLayerTableRecord
  2
POINTS
 70
0
 62
7
  6
CONTINUOUS
370
-3
390
F
  0
LAYER
  5
219
100
AcDbSymbolTableRecord
100
AcDbLayerTableRecord
  2
PROTRUSION
 70
0
 62
7
  6
CONTINUOUS
370
-3
390
F
  0
LAYER
  5
21A
100
AcDbSymbolTableRecord
100
AcDbLayerTableRecord
  2
PROTRUSION_FEATURES
 70
0
 62
7
  6
CONTINUOUS
370
-3
390
F
  0
LAYER
  5
21B
100
AcDbSymbolTableRecord
100
AcDbLayerTableRecord
  2
QUILT
 70
0
 62
7
  6
CONTINUOUS
370
-3
390
F
  0
LAYER
  5
21C
100
AcDbSymbolTableRecord
100
AcDbLayerTableRecord
  2
REFERENCE_DIMENSIONS
 70
0
 62
7
  6
CONTINUOUS
370
-3
390
F
  0
LAYER
  5
21D
100
AcDbSymbolTableRecord
100
AcDbLayerTableRecord
  2
ROUND_FEATURES
 70
0
 62
7
  6
CONTINUOUS
370
-3
390
F
  0
LAYER
  5
21E
100
AcDbSymbolTableRecord
100
AcDbLayerTableRecord
  2
WETTED_SURFACES
 70
0
 62
7
  6
CONTINUOUS
370
-3
390
F
  0
LAYER
  5
21F
100
AcDbSymbolTableRecord
100
AcDbLayerTableRecord
  2
XSEC_DATUMS
 70
0
 62
7
  6
CONTINUOUS
370
-3
390
F
  0
ENDTAB
  0
TABLE
  2
STYLE
  5
3
100
AcDbSymbolTable
 70
1
  0
STYLE
  5
11
100
AcDbSymbolTableRecord
100
AcDbTextStyleTableRecord
  2
STANDARD
 70
0
 40
0.0
 41
0.8
 50
0.0
 71
0
 42
0.2
  3
txt
  4

  0
STYLE
  5
220
100
AcDbSymbolTableRecord
100
AcDbTextStyleTableRecord
  2
TEXTSTYLE_1
 70
0
 40
0.0
 41
0.8
 50
0.0
 71
0
 42
0.2
  3
gdt
  4

  0
ENDTAB
  0
TABLE
  2
VIEW
  5
6
100
AcDbSymbolTable
 70
0
  0
ENDTAB
  0
TABLE
  2
UCS
  5
7
100
AcDbSymbolTable
 70
0
  0
ENDTAB
  0
TABLE
  2
APPID
  5
9
100
AcDbSymbolTable
 70
1
  0
APPID
  5
221
100
AcDbSymbolTableRecord
100
AcDbRegAppTableRecord
  2
ACAD
 70
0
  0
ENDTAB
  0
TABLE
  2
BLOCK_RECORD
  5
1
100
AcDbSymbolTable
 70
0
  0
BLOCK_RECORD
  5
222
100
AcDbSymbolTableRecord
100
AcDbBlockTableRecord
  2
*Model_Space
  0
BLOCK_RECORD
  5
223
100
AcDbSymbolTableRecord
100
AcDbBlockTableRecord
  2
*Paper_Space
  0
BLOCK_RECORD
  5
224
100
AcDbSymbolTableRecord
100
AcDbBlockTableRecord
  2
_FILLED
  0
ENDTAB
  0
TABLE
  2
DIMSTYLE
  5
A
100
AcDbSymbolTable
 70
1
100
AcDbDimStyleTable
 71
0
  0
DIMSTYLE
105
225
100
AcDbSymbolTableRecord
100
AcDbDimStyleTableRecord
  2
STANDARD
 70
0
  3

  4

 40
1.0
 41
0.1
 42
0.0625
 43
0.38
 44
0.125
 45
0.0
 46
0.0
 47
0.001
 48
0.001
140
0.08
141
0.09
142
0.0
143
25.4
144
1.0
145
0.0
146
1.0
147
0.09
 71
1.0
 72
0.0
 73
1
 74
1
 75
0
 76
0
 77
0
 78
4
 79
1
170
1
171
2
172
0
173
0
174
0
175
0
176
0
177
0
178
0
270
2
179
3
271
3
272
3
273
2
274
2
275
0
280
0
281
0
282
0
283
1
284
4
285
0
286
0
287
3
288
0
340
11
278
46
341
224
342
224
343
224
344
224
  0
ENDTAB
  0
ENDSEC
  0
SECTION
  2
BLOCKS
  0
BLOCK
  5
20
100
AcDbEntity
  8
0
100
AcDbBlockBegin
  2
*Model_Space
 70
0
 10
0.0
 20
0.0
 30
0.0
  3
*Model_Space
  1

  0
ENDBLK
  5
21
100
AcDbEntity
  8
0
100
AcDbBlockEnd
  0
BLOCK
  5
1C
100
AcDbEntity
  8
0
100
AcDbBlockBegin
  2
*Paper_Space
 70
0
 10
0.0
 20
0.0
 30
0.0
  3
*Paper_Space
  1

  0
ENDBLK
  5
1D
100
AcDbEntity
  8
0
100
AcDbBlockEnd
  0
BLOCK
  5
226
100
AcDbEntity
  8
0
100
AcDbBlockBegin
  2
_FILLED
 70
64
 10
0.0
 20
0.0
  3
_FILLED
  1

  0
SOLID
  5
227
100
AcDbEntity
  8
0
  6
BYBLOCK
 62
0
100
AcDbTrace
 10
0.0
 20
0.0
 11
-1.0
 21
0.2
 12
-1.0
 22
-0.2
 13
-1.0
 23
-0.2
  0
ENDBLK
  5
228
100
AcDbEntity
  8
0
  6
BYBLOCK
 62
0
100
AcDbBlockEnd
  0
ENDSEC
  0
SECTION
  2
ENTITIES
  0
MTEXT
  5
229
100
AcDbEntity
  8
0
100
AcDbMText
 62
2
  6
CONTINUOUS
  7
STANDARD
 71
3
 72
1
 10
4.3412849379
 20
2.7499728261
 30
0.0
 11
1.0
 21
0.0
 31
0.0
 73
2
 44
0.9
  1
SCALE  .500
 40
0.08
 41
0.704
  0
LINE
  5
22A
100
AcDbEntity
  8
0
100
AcDbLine
 62
7
  6
CONTINUOUS
 10
0.0
 20
0.0
 11
0.0
 21
8.5
  0
LINE
  5
22B
100
AcDbEntity
  8
0
100
AcDbLine
 62
7
  6
CONTINUOUS
 10
0.0
 20
0.0
 11
11.0
 21
0.0
  0
LINE
  5
22C
100
AcDbEntity
  8
0
100
AcDbLine
 62
7
  6
CONTINUOUS
 10
0.0
 20
8.5
 11
11.0
 21
8.5
  0
LINE
  5
22D
100
AcDbEntity
  8
0
100
AcDbLine
 62
7
  6
CONTINUOUS
 10
11.0
 20
0.0
 11
11.0
 21
8.5
  0
LINE
  5
22E
100
AcDbEntity
  8
ALL_FEATURES
100
AcDbLine
 62
7
  6
CONTINUOUS
 10
3.6412242763
 20
4.4774993284
 11
3.642313723
 21
4.4650468947
  0
LINE
  5
22F
100
AcDbEntity
  8
ALL_FEATURES
100
AcDbLine
 62
7
  6
CONTINUOUS
 10
3.6951731477
 20
4.8681159261
 11
3.6809249314
 21
4.8242644253
  0
LINE
  5
230
100
AcDbEntity
  8
ALL_FEATURES
100
AcDbLine
 62
7
  6
CONTINUOUS
 10
3.9236891371
 20
5.0970264219
 11
3.9137061932
 21
5.0895037341
  0
LINE
  5
231
100
AcDbEntity
  8
ALL_FEATURES
100
AcDbLine
 62
7
  6
CONTINUOUS
 10
4.2375815198
 20
5.2391800294
 11
4.241809359
 21
5.2414081651
  0
LINE
  5
232
100
AcDbEntity
  8
ALL_FEATURES
100
AcDbLine
 62
7
  6
CONTINUOUS
 10
4.2320637385
 20
5.2362713542
 11
4.2375815198
 21
5.2391800294
  0
LINE
  5
233
100
AcDbEntity
  8
ALL_FEATURES
100
AcDbLine
 62
7
  6
CONTINUOUS
 10
4.2639783291
 20
5.2525136611
 11
4.2420342418
 21
5.2410012765
  0
LINE
  5
234
100
AcDbEntity
  8
ALL_FEATURES
100
AcDbLine
 62
7
  6
CONTINUOUS
 10
4.3940279976
 20
3.8118253681
 11
4.3859975445
 21
3.8118165419
  0
LINE
  5
235
100
AcDbEntity
  8
ALL_FEATURES
100
AcDbLine
 62
7
  6
CONTINUOUS
 10
4.3538589922
 20
3.8117957701
 11
4.3458201691
 21
3.8117942164
  0
LINE
  5
236
100
AcDbEntity
  8
ALL_FEATURES
100
AcDbLine
 62
7
  6
CONTINUOUS
 10
4.3458201691
 20
3.812431991
 11
4.3940279976
 21
3.812431991
  0
LINE
  5
237
100
AcDbEntity
  8
ALL_FEATURES
100
AcDbLine
 62
7
  6
CONTINUOUS
 10
4.4231710587
 20
3.8509162335
 11
4.4274543325
 21
3.8509162335
  0
LINE
  5
238
100
AcDbEntity
  8
ALL_FEATURES
100
AcDbLine
 62
7
  6
CONTINUOUS
 10
4.3789945466
 20
3.8669929824
 11
4.4044422304
 21
3.8669929824
  0
LINE
  5
239
100
AcDbEntity
  8
ALL_FEATURES
100
AcDbLine
 62
7
  6
CONTINUOUS
 10
4.4334173246
 20
3.9016454649
 11
4.4377005984
 21
3.9016454649
  0
LINE
  5
23A
100
AcDbEntity
  8
ALL_FEATURES
100
AcDbLine
 62
7
  6
CONTINUOUS
 10
3.781110238
 20
4.0893094164
 11
3.7762124121
 21
4.0923949622
  0
LINE
  5
23B
100
AcDbEntity
  8
ALL_FEATURES
100
AcDbLine
 62
7
  6
CONTINUOUS
 10
3.7863881331
 20
4.0859852288
 11
3.7811102558
 21
4.0893094299
  0
LINE
  5
23C
100
AcDbEntity
  8
ALL_FEATURES
100
AcDbLine
 62
7
  6
CONTINUOUS
 10
3.7563645873
 20
4.1055029215
 11
3.7765052366
 21
4.0927619498
  0
LINE
  5
23D
100
AcDbEntity
  8
ALL_FEATURES
100
AcDbLine
 62
7
  6
CONTINUOUS
 10
3.7994786848
 20
4.2347436204
 11
3.8161498579
 21
4.2058683016
  0
LINE
  5
23E
100
AcDbEntity
  8
ALL_FEATURES
100
AcDbLine
 62
7
  6
CONTINUOUS
 10
3.6371203285
 20
4.6522295505
 11
3.6363077197
 21
4.6569389963
  0
LINE
  5
23F
100
AcDbEntity
  8
ALL_FEATURES
100
AcDbLine
 62
7
  6
CONTINUOUS
 10
3.6381815549
 20
4.6460829985
 11
3.6371203285
 21
4.6522295505
  0
LINE
  5
240
100
AcDbEntity
  8
ALL_FEATURES
100
AcDbLine
 62
7
  6
CONTINUOUS
 10
3.663477935
 20
4.7337441465
 11
3.6626732103
 21
4.7384525847
  0
LINE
  5
241
100
AcDbEntity
  8
ALL_FEATURES
100
AcDbLine
 62
7
  6
CONTINUOUS
 10
3.6645292902
 20
4.7275961163
 11
3.663477935
 21
4.7337441465
  0
LINE
  5
242
100
AcDbEntity
  8
ALL_FEATURES
100
AcDbLine
 62
7
  6
CONTINUOUS
 10
3.6325963538
 20
4.6814547268
 11
3.6367641864
 21
4.657027137
  0
LINE
  5
243
100
AcDbEntity
  8
ALL_FEATURES
100
AcDbLine
 62
7
  6
CONTINUOUS
 10
3.6590684429
 20
4.7629274396
 11
3.6651299695
 21
4.7274009438
  0
LINE
  5
244
100
AcDbEntity
  8
ALL_FEATURES
100
AcDbLine
 62
7
  6
CONTINUOUS
 10
4.3853774647
 20
3.9201378894
 11
4.4109931259
 21
3.9201378894
  0
LINE
  5
245
100
AcDbEntity
  8
ALL_FEATURES
100
AcDbLine
 62
7
  6
CONTINUOUS
 10
3.7790714829
 20
4.2517641004
 11
3.7795851199
 21
4.2483754774
  0
LINE
  5
246
100
AcDbEntity
  8
0
100
AcDbLine
 62
7
  6
CONTINUOUS
 10
3.9270992056
 20
4.5064886167
 11
3.9265467252
 21
4.5177346134
  0
LINE
  5
247
100
AcDbEntity
  8
0
100
AcDbLine
 62
7
  6
CONTINUOUS
 10
3.9265467252
 20
4.5472110388
 11
3.9270992056
 21
4.5584570355
  0
LINE
  5
248
100
AcDbEntity
  8
0
100
AcDbLine
 62
7
  6
CONTINUOUS
 10
3.9299884005
 20
4.5877915239
 11
3.931640521
 21
4.5989292155
  0
LINE
  5
249
100
AcDbEntity
  8
0
100
AcDbLine
 62
7
  6
CONTINUOUS
 10
3.9373910863
 20
4.6278392596
 11
3.9401269361
 21
4.6387613841
  0
LINE
  5
24A
100
AcDbEntity
  8
0
100
AcDbLine
 62
7
  6
CONTINUOUS
 10
3.9486834907
 20
4.6669685645
 11
3.952476722
 21
4.6775699358
  0
LINE
  5
24B
100
AcDbEntity
  8
0
100
AcDbLine
 62
7
  6
CONTINUOUS
 10
3.9637568616
 20
4.7048026019
 11
3.9685709436
 21
4.714981123
  0
LINE
  5
24C
100
AcDbEntity
  8
0
100
AcDbLine
 62
7
  6
CONTINUOUS
 10
3.9824660343
 20
4.7409770094
 11
3.9882546047
 21
4.7506346556
  0
LINE
  5
24D
100
AcDbEntity
  8
0
100
AcDbLine
 62
7
  6
CONTINUOUS
 10
4.0046308292
 20
4.7751434076
 11
4.0113381409
 21
4.7841871704
  0
LINE
  5
24E
100
AcDbEntity
  8
0
100
AcDbLine
 62
7
  6
CONTINUOUS
 10
4.0300377872
 20
4.8069727554
 11
4.0375992451
 21
4.8153155386
  0
LINE
  5
24F
100
AcDbEntity
  8
0
100
AcDbLine
 62
7
  6
CONTINUOUS
 10
4.0584422254
 20
4.8361585189
 11
4.0667850086
 21
4.8437199768
  0
LINE
  5
250
100
AcDbEntity
  8
0
100
AcDbLine
 62
7
  6
CONTINUOUS
 10
4.0895705935
 20
4.8624196231
 11
4.0986143564
 21
4.8691269347
  0
LINE
  5
251
100
AcDbEntity
  8
ALL_FEATURES
100
AcDbLine
 62
7
  6
CONTINUOUS
 10
3.8358243007
 20
4.1952132472
 11
3.8287973165
 21
4.1966982531
  0
LINE
  5
252
100
AcDbEntity
  8
0
100
AcDbLine
 62
7
  6
CONTINUOUS
 10
4.0986143564
 20
4.1958187174
 11
4.0895705935
 21
4.2025260291
  0
LINE
  5
253
100
AcDbEntity
  8
0
100
AcDbLine
 62
7
  6
CONTINUOUS
 10
4.0667850086
 20
4.2212256754
 11
4.0584422254
 21
4.2287871333
  0
LINE
  5
254
100
AcDbEntity
  8
0
100
AcDbLine
 62
7
  6
CONTINUOUS
 10
4.0375992451
 20
4.2496301136
 11
4.0300377872
 21
4.2579728968
  0
LINE
  5
255
100
AcDbEntity
  8
0
100
AcDbLine
 62
7
  6
CONTINUOUS
 10
4.0113381409
 20
4.2807584817
 11
4.0046308292
 21
4.2898022446
  0
LINE
  5
256
100
AcDbEntity
  8
0
100
AcDbLine
 62
7
  6
CONTINUOUS
 10
3.9882546047
 20
4.3143109966
 11
3.9824660343
 21
4.3239686428
  0
LINE
  5
257
100
AcDbEntity
  8
0
100
AcDbLine
 62
7
  6
CONTINUOUS
 10
3.9685709436
 20
4.3499645292
 11
3.9637568616
 21
4.3601430502
  0
LINE
  5
258
100
AcDbEntity
  8
0
100
AcDbLine
 62
7
  6
CONTINUOUS
 10
3.952476722
 20
4.3873757164
 11
3.9486834907
 21
4.3979770876
  0
LINE
  5
259
100
AcDbEntity
  8
0
100
AcDbLine
 62
7
  6
CONTINUOUS
 10
3.9401269361
 20
4.4261842681
 11
3.9373910863
 21
4.4371063925
  0
LINE
  5
25A
100
AcDbEntity
  8
0
100
AcDbLine
 62
7
  6
CONTINUOUS
 10
3.931640521
 20
4.4660164367
 11
3.9299884005
 21
4.4771541283
  0
LINE
  5
25B
100
AcDbEntity
  8
0
100
AcDbLine
 62
7
  6
CONTINUOUS
 10
4.0300377879
 20
4.806972748
 11
4.0320807565
 21
4.7862301398
  0
LINE
  5
25C
100
AcDbEntity
  8
0
100
AcDbLine
 62
7
  6
CONTINUOUS
 10
4.0875276242
 20
4.2232686447
 11
4.089570415
 21
4.2025278421
  0
LINE
  5
25D
100
AcDbEntity
  8
0
100
AcDbLine
 62
7
  6
CONTINUOUS
 10
4.0584422254
 20
4.8361585114
 11
4.0584422254
 21
4.8153155386
  0
LINE
  5
25E
100
AcDbEntity
  8
0
100
AcDbLine
 62
7
  6
CONTINUOUS
 10
4.0584422254
 20
4.2496301136
 11
4.0584422254
 21
4.228788955
  0
LINE
  5
25F
100
AcDbEntity
  8
0
100
AcDbLine
 62
7
  6
CONTINUOUS
 10
4.0895705928
 20
4.8624196157
 11
4.0875276242
 21
4.8416770074
  0
LINE
  5
260
100
AcDbEntity
  8
0
100
AcDbLine
 62
7
  6
CONTINUOUS
 10
4.0320807565
 20
4.2787155124
 11
4.0300379658
 21
4.2579747097
  0
LINE
  5
261
100
AcDbEntity
  8
0
100
AcDbLine
 62
7
  6
CONTINUOUS
 10
4.123123107
 20
4.885503152
 11
4.1190568447
 21
4.865060671
  0
LINE
  5
262
100
AcDbEntity
  8
0
100
AcDbLine
 62
7
  6
CONTINUOUS
 10
4.008697093
 20
4.3102447329
 11
4.0046311846
 21
4.2898040313
  0
LINE
  5
263
100
AcDbEntity
  8
0
100
AcDbLine
 62
7
  6
CONTINUOUS
 10
4.1587766388
 20
4.9051868133
 11
4.1527262432
 21
4.8852413318
  0
LINE
  5
264
100
AcDbEntity
  8
0
100
AcDbLine
 62
7
  6
CONTINUOUS
 10
3.9885164321
 20
4.3439141314
 11
3.9824665632
 21
4.3239703861
  0
LINE
  5
265
100
AcDbEntity
  8
0
100
AcDbLine
 62
7
  6
CONTINUOUS
 10
4.1961878253
 20
4.9212810351
 11
4.1882115649
 21
4.9020246391
  0
LINE
  5
266
100
AcDbEntity
  8
0
100
AcDbLine
 62
7
  6
CONTINUOUS
 10
3.9717331249
 20
4.3793994531
 11
3.9637575588
 21
4.3601447333
  0
LINE
  5
267
100
AcDbEntity
  8
0
100
AcDbLine
 62
7
  6
CONTINUOUS
 10
4.2349963764
 20
4.9336308214
 11
4.225171067
 21
4.9152489604
  0
LINE
  5
268
100
AcDbEntity
  8
0
100
AcDbLine
 62
7
  6
CONTINUOUS
 10
3.9585088036
 20
4.4163589552
 11
3.9486856732
 21
4.3979811709
  0
LINE
  5
269
100
AcDbEntity
  8
0
100
AcDbLine
 62
7
  6
CONTINUOUS
 10
4.2748285444
 20
4.9421172368
 11
4.2632488091
 21
4.9247869382
  0
LINE
  5
26A
100
AcDbEntity
  8
0
100
AcDbLine
 62
7
  6
CONTINUOUS
 10
3.9489708257
 20
4.4544366973
 11
3.9373920984
 21
4.4371079072
  0
LINE
  5
26B
100
AcDbEntity
  8
0
100
AcDbLine
 62
7
  6
CONTINUOUS
 10
4.3153007238
 20
4.9466585527
 11
4.3020780818
 21
4.9305467168
  0
LINE
  5
26C
100
AcDbEntity
  8
0
100
AcDbLine
 62
7
  6
CONTINUOUS
 10
3.9432110472
 20
4.49326597
 11
3.9299895562
 21
4.4771555365
  0
LINE
  5
26D
100
AcDbEntity
  8
0
100
AcDbLine
 62
7
  6
CONTINUOUS
 10
4.3560231454
 20
4.9472110336
 11
4.3412849379
 21
4.9324728261
  0
LINE
  5
26E
100
AcDbEntity
  8
0
100
AcDbLine
 62
7
  6
CONTINUOUS
 10
3.9412849379
 20
4.5324728261
 11
3.9265480133
 21
4.5177359015
  0
LINE
  5
26F
100
AcDbEntity
  8
0
100
AcDbLine
 62
7
  6
CONTINUOUS
 10
4.3966036299
 20
4.9437693588
 11
4.380491794
 21
4.9305467168
  0
LINE
  5
270
100
AcDbEntity
  8
0
100
AcDbLine
 62
7
  6
CONTINUOUS
 10
3.9432110472
 20
4.5716796822
 11
3.9271006138
 21
4.5584581912
  0
LINE
  5
271
100
AcDbEntity
  8
0
100
AcDbLine
 62
7
  6
CONTINUOUS
 10
4.4366513653
 20
4.9363666736
 11
4.4193210667
 21
4.9247869382
  0
LINE
  5
272
100
AcDbEntity
  8
0
100
AcDbLine
 62
7
  6
CONTINUOUS
 10
3.9489708257
 20
4.6105089549
 11
3.9316420357
 21
4.5989302276
  0
LINE
  5
273
100
AcDbEntity
  8
0
100
AcDbLine
 62
7
  6
CONTINUOUS
 10
4.4757806698
 20
4.9250742698
 11
4.4573988088
 21
4.9152489604
  0
LINE
  5
274
100
AcDbEntity
  8
0
100
AcDbLine
 62
7
  6
CONTINUOUS
 10
3.9585088036
 20
4.648586697
 11
3.9401285427
 21
4.6387622429
  0
LINE
  5
275
100
AcDbEntity
  8
0
100
AcDbLine
 62
7
  6
CONTINUOUS
 10
4.5136147069
 20
4.9100008995
 11
4.4943583108
 21
4.9020246391
  0
LINE
  5
276
100
AcDbEntity
  8
0
100
AcDbLine
 62
7
  6
CONTINUOUS
 10
3.9717331249
 20
4.685546199
 11
3.9524784051
 21
4.6775706329
  0
LINE
  5
277
100
AcDbEntity
  8
0
100
AcDbLine
 62
7
  6
CONTINUOUS
 10
4.5497891141
 20
4.8912917275
 11
4.5298436326
 21
4.8852413318
  0
LINE
  5
278
100
AcDbEntity
  8
0
100
AcDbLine
 62
7
  6
CONTINUOUS
 10
3.9885164321
 20
4.7210315208
 11
3.9685726869
 21
4.7149816518
  0
LINE
  5
279
100
AcDbEntity
  8
0
100
AcDbLine
 62
7
  6
CONTINUOUS
 10
4.0986143564
 20
4.1958187174
 11
4.1190568447
 21
4.1998849812
  0
LINE
  5
27A
100
AcDbEntity
  8
0
100
AcDbLine
 62
7
  6
CONTINUOUS
 10
4.6738727828
 20
4.3102447329
 11
4.6943134844
 21
4.3143106412
  0
LINE
  5
27B
100
AcDbEntity
  8
0
100
AcDbLine
 62
7
  6
CONTINUOUS
 10
4.0667850159
 20
4.2212256761
 11
4.0875276242
 21
4.2232686447
  0
LINE
  5
27C
100
AcDbEntity
  8
0
100
AcDbLine
 62
7
  6
CONTINUOUS
 10
4.6504891192
 20
4.2787155124
 11
4.6712299219
 21
4.2807583032
  0
LINE
  5
27D
100
AcDbEntity
  8
0
100
AcDbLine
 62
7
  6
CONTINUOUS
 10
4.0375992525
 20
4.2496301136
 11
4.0584422254
 21
4.2496301136
  0
LINE
  5
27E
100
AcDbEntity
  8
0
100
AcDbLine
 62
7
  6
CONTINUOUS
 10
4.6241276504
 20
4.2496301136
 11
4.6449688089
 21
4.2496301136
  0
LINE
  5
27F
100
AcDbEntity
  8
0
100
AcDbLine
 62
7
  6
CONTINUOUS
 10
4.0113381483
 20
4.280758481
 11
4.0320807565
 21
4.2787155124
  0
LINE
  5
280
100
AcDbEntity
  8
0
100
AcDbLine
 62
7
  6
CONTINUOUS
 10
4.5950422516
 20
4.2232686447
 11
4.6157830542
 21
4.221225854
  0
LINE
  5
281
100
AcDbEntity
  8
0
100
AcDbLine
 62
7
  6
CONTINUOUS
 10
3.988254612
 20
4.3143109952
 11
4.008697093
 21
4.3102447329
  0
LINE
  5
282
100
AcDbEntity
  8
0
100
AcDbLine
 62
7
  6
CONTINUOUS
 10
4.5635130311
 20
4.1998849812
 11
4.5839555194
 21
4.1958187174
  0
LINE
  5
283
100
AcDbEntity
  8
0
100
AcDbLine
 62
7
  6
CONTINUOUS
 10
3.9685709507
 20
4.349964527
 11
3.9885164321
 21
4.3439141314
  0
LINE
  5
284
100
AcDbEntity
  8
0
100
AcDbLine
 62
7
  6
CONTINUOUS
 10
4.5298436326
 20
4.1797043203
 11
4.5497873779
 21
4.1736544514
  0
LINE
  5
285
100
AcDbEntity
  8
0
100
AcDbLine
 62
7
  6
CONTINUOUS
 10
3.9524767288
 20
4.3873757135
 11
3.9717331249
 21
4.3793994531
  0
LINE
  5
286
100
AcDbEntity
  8
0
100
AcDbLine
 62
7
  6
CONTINUOUS
 10
4.4943583108
 20
4.1629210131
 11
4.5136130307
 21
4.154945447
  0
LINE
  5
287
100
AcDbEntity
  8
0
100
AcDbLine
 62
7
  6
CONTINUOUS
 10
3.9401269426
 20
4.4261842646
 11
3.9585088036
 21
4.4163589552
  0
LINE
  5
288
100
AcDbEntity
  8
0
100
AcDbLine
 62
7
  6
CONTINUOUS
 10
4.4573988088
 20
4.1496966918
 11
4.4757790697
 21
4.1398722377
  0
LINE
  5
289
100
AcDbEntity
  8
0
100
AcDbLine
 62
7
  6
CONTINUOUS
 10
3.9316405271
 20
4.4660164326
 11
3.9489708257
 21
4.4544366973
  0
LINE
  5
28A
100
AcDbEntity
  8
0
100
AcDbLine
 62
7
  6
CONTINUOUS
 10
4.4193210667
 20
4.1401587139
 11
4.4366498567
 21
4.1285799866
  0
LINE
  5
28B
100
AcDbEntity
  8
0
100
AcDbLine
 62
7
  6
CONTINUOUS
 10
3.9270992113
 20
4.506488612
 11
3.9432110472
 21
4.49326597
  0
LINE
  5
28C
100
AcDbEntity
  8
0
100
AcDbLine
 62
7
  6
CONTINUOUS
 10
4.380491794
 20
4.1343989354
 11
4.3966022274
 21
4.1211774444
  0
LINE
  5
28D
100
AcDbEntity
  8
ALL_FEATURES
100
AcDbLine
 62
7
  6
CONTINUOUS
 10
3.7154541561
 20
4.790703319
 11
3.6803761092
 21
4.8244427485
  0
LINE
  5
28E
100
AcDbEntity
  8
0
100
AcDbLine
 62
7
  6
CONTINUOUS
 10
3.9265467304
 20
4.5472110336
 11
3.9412849379
 21
4.5324728261
  0
LINE
  5
28F
100
AcDbEntity
  8
0
100
AcDbLine
 62
7
  6
CONTINUOUS
 10
4.3412849379
 20
4.1324728261
 11
4.3560218458
 21
4.1177359182
  0
LINE
  5
290
100
AcDbEntity
  8
0
100
AcDbLine
 62
7
  6
CONTINUOUS
 10
3.9299884052
 20
4.5877915181
 11
3.9432110472
 21
4.5716796822
  0
LINE
  5
291
100
AcDbEntity
  8
0
100
AcDbLine
 62
7
  6
CONTINUOUS
 10
4.3020780818
 20
4.1343989354
 11
4.3152995728
 21
4.118288502
  0
LINE
  5
292
100
AcDbEntity
  8
0
100
AcDbLine
 62
7
  6
CONTINUOUS
 10
3.9373910904
 20
4.6278392535
 11
3.9489708257
 21
4.6105089549
  0
LINE
  5
293
100
AcDbEntity
  8
0
100
AcDbLine
 62
7
  6
CONTINUOUS
 10
4.2632488091
 20
4.1401587139
 11
4.2748275364
 21
4.1228299239
  0
LINE
  5
294
100
AcDbEntity
  8
0
100
AcDbLine
 62
7
  6
CONTINUOUS
 10
3.9486849075
 20
4.6669659138
 11
3.9585088036
 21
4.648586697
  0
LINE
  5
295
100
AcDbEntity
  8
0
100
AcDbLine
 62
7
  6
CONTINUOUS
 10
4.225171067
 20
4.1496966918
 11
4.2349955211
 21
4.1313164309
  0
LINE
  5
296
100
AcDbEntity
  8
0
100
AcDbLine
 62
7
  6
CONTINUOUS
 10
3.9637568645
 20
4.7048025951
 11
3.9717331249
 21
4.685546199
  0
LINE
  5
297
100
AcDbEntity
  8
0
100
AcDbLine
 62
7
  6
CONTINUOUS
 10
4.1882115649
 20
4.1629210131
 11
4.196187131
 21
4.1436662933
  0
LINE
  5
298
100
AcDbEntity
  8
0
100
AcDbLine
 62
7
  6
CONTINUOUS
 10
3.9824660365
 20
4.7409770023
 11
3.9885164321
 21
4.7210315208
  0
LINE
  5
299
100
AcDbEntity
  8
0
100
AcDbLine
 62
7
  6
CONTINUOUS
 10
4.1527262432
 20
4.1797043203
 11
4.1587761121
 21
4.1597605751
  0
LINE
  5
29A
100
AcDbEntity
  8
0
100
AcDbLine
 62
7
  6
CONTINUOUS
 10
4.0046308307
 20
4.7751434003
 11
4.008697093
 21
4.7547009193
  0
LINE
  5
29B
100
AcDbEntity
  8
0
100
AcDbLine
 62
7
  6
CONTINUOUS
 10
4.1190568447
 20
4.1998849812
 11
4.123122753
 21
4.1794442796
  0
LINE
  5
29C
100
AcDbEntity
  8
ALL_FEATURES
100
AcDbLine
 62
7
  6
CONTINUOUS
 10
4.2320637385
 20
5.2330220563
 11
4.2320637385
 21
5.2362713542
  0
LINE
  5
29D
100
AcDbEntity
  8
ALL_FEATURES
100
AcDbLine
 62
7
  6
CONTINUOUS
 10
4.2327356237
 20
5.1359585679
 11
4.2327356237
 21
5.1402079136
  0
LINE
  5
29E
100
AcDbEntity
  8
0
100
AcDbLine
 62
7
  6
CONTINUOUS
 10
4.2462849379
 20
2.8476490222
 11
4.2462849379
 21
2.8667780069
  0
LINE
  5
29F
100
AcDbEntity
  8
ALL_FEATURES
100
AcDbLine
 62
7
  6
CONTINUOUS
 10
4.249280819
 20
5.1538319863
 11
4.249280819
 21
5.2292296099
  0
LINE
  5
2A0
100
AcDbEntity
  8
ALL_FEATURES
100
AcDbLine
 62
7
  6
CONTINUOUS
 10
4.2639783291
 20
5.1538642934
 11
4.2639783291
 21
5.2530843443
  0
LINE
  5
2A1
100
AcDbEntity
  8
ALL_FEATURES
100
AcDbLine
 62
7
  6
CONTINUOUS
 10
4.2762849379
 20
4.995337374
 11
4.2762849379
 21
5.1242560942
  0
LINE
  5
2A2
100
AcDbEntity
  8
ALL_FEATURES
100
AcDbLine
 62
7
  6
CONTINUOUS
 10
4.2805235244
 20
5.1396240976
 11
4.2805235244
 21
5.140315191
  0
LINE
  5
2A3
100
AcDbEntity
  8
ALL_FEATURES
100
AcDbLine
 62
7
  6
CONTINUOUS
 10
4.3458201691
 20
3.9269970886
 11
4.3458201691
 21
3.9226655276
  0
LINE
  5
2A4
100
AcDbEntity
  8
ALL_FEATURES
100
AcDbLine
 62
7
  6
CONTINUOUS
 10
4.3458201691
 20
3.8161257777
 11
4.3458201691
 21
3.8117942164
  0
LINE
  5
2A5
100
AcDbEntity
  8
ALL_FEATURES
100
AcDbLine
 62
7
  6
CONTINUOUS
 10
4.3608536218
 20
3.9040944898
 11
4.3608536218
 21
3.8347057384
  0
LINE
  5
2A6
100
AcDbEntity
  8
ALL_FEATURES
100
AcDbLine
 62
7
  6
CONTINUOUS
 10
4.7404496809
 20
5.0179021166
 11
4.7882647026
 21
5.0748858404
  0
LINE
  5
2A7
100
AcDbEntity
  8
ALL_FEATURES
100
AcDbLine
 62
7
  6
CONTINUOUS
 10
4.7978402581
 20
5.0668509952
 11
4.7500252365
 21
5.0098672714
  0
LINE
  5
2A8
100
AcDbEntity
  8
ALL_FEATURES
100
AcDbLine
 62
7
  6
CONTINUOUS
 10
3.706084552
 20
4.3086400337
 11
3.7064753766
 21
4.3088656763
  0
LINE
  5
2A9
100
AcDbEntity
  8
ALL_FEATURES
100
AcDbLine
 62
7
  6
CONTINUOUS
 10
3.7157824982
 20
4.4714745796
 11
3.6416785946
 21
4.4649913281
  0
LINE
  5
2AA
100
AcDbEntity
  8
ALL_FEATURES
100
AcDbLine
 62
7
  6
CONTINUOUS
 10
3.6405891479
 20
4.4774437619
 11
3.7146930514
 21
4.4839270133
  0
LINE
  5
2AB
100
AcDbEntity
  8
ALL_FEATURES
100
AcDbLine
 62
7
  6
CONTINUOUS
 10
5.0323476677
 20
4.4042734051
 11
4.9590908045
 21
4.4171905666
  0
LINE
  5
2AC
100
AcDbEntity
  8
ALL_FEATURES
100
AcDbLine
 62
7
  6
CONTINUOUS
 10
4.9612614067
 20
4.4295006636
 11
5.0345182699
 21
4.416583502
  0
LINE
  5
2AD
100
AcDbEntity
  8
ALL_FEATURES
100
AcDbLine
 62
7
  6
CONTINUOUS
 10
3.6412718208
 20
4.6450789103
 11
3.6381815549
 21
4.6460829985
  0
LINE
  5
2AE
100
AcDbEntity
  8
ALL_FEATURES
100
AcDbLine
 62
7
  6
CONTINUOUS
 10
3.7337923078
 20
4.6157236436
 11
3.7297509399
 21
4.6170367636
  0
LINE
  5
2AF
100
AcDbEntity
  8
ALL_FEATURES
100
AcDbLine
 62
7
  6
CONTINUOUS
 10
3.7219064233
 20
4.6369822494
 11
3.6501990221
 21
4.6602813965
  0
LINE
  5
2B0
100
AcDbEntity
  8
ALL_FEATURES
100
AcDbLine
 62
7
  6
CONTINUOUS
 10
3.7264174779
 20
4.6509703956
 11
3.6320536019
 21
4.6816310775
  0
LINE
  5
2B1
100
AcDbEntity
  8
ALL_FEATURES
100
AcDbLine
 62
7
  6
CONTINUOUS
 10
3.7484568507
 20
4.6612060171
 11
3.7444161865
 21
4.6625189085
  0
LINE
  5
2B2
100
AcDbEntity
  8
ALL_FEATURES
100
AcDbLine
 62
7
  6
CONTINUOUS
 10
3.6676189866
 20
4.7265922131
 11
3.6645292902
 21
4.7275961163
  0
LINE
  5
2B3
100
AcDbEntity
  8
ALL_FEATURES
100
AcDbLine
 62
7
  6
CONTINUOUS
 10
3.7601211428
 20
4.6972429062
 11
3.7560807603
 21
4.6985557061
  0
LINE
  5
2B4
100
AcDbEntity
  8
ALL_FEATURES
100
AcDbLine
 62
7
  6
CONTINUOUS
 10
3.7482741097
 20
4.7184888921
 11
3.6765779029
 21
4.7417844019
  0
LINE
  5
2B5
100
AcDbEntity
  8
ALL_FEATURES
100
AcDbLine
 62
7
  6
CONTINUOUS
 10
3.6584624129
 20
4.7631243507
 11
3.7528162578
 21
4.732466928
  0
LINE
  5
2B6
100
AcDbEntity
  8
ALL_FEATURES
100
AcDbLine
 62
7
  6
CONTINUOUS
 10
3.9580896985
 20
5.0306048333
 11
3.9133225034
 21
5.0900129078
  0
LINE
  5
2B7
100
AcDbEntity
  8
ALL_FEATURES
100
AcDbLine
 62
7
  6
CONTINUOUS
 10
3.9233054472
 20
5.0975355956
 11
3.9680726424
 21
5.0381275211
  0
LINE
  5
2B8
100
AcDbEntity
  8
ALL_FEATURES
100
AcDbLine
 62
7
  6
CONTINUOUS
 10
4.3789945466
 20
3.9136043305
 11
4.3789945466
 21
3.8738694718
  0
LINE
  5
2B9
100
AcDbEntity
  8
ALL_FEATURES
100
AcDbLine
 62
7
  6
CONTINUOUS
 10
4.3789945466
 20
3.8663723414
 11
4.3789945466
 21
3.8347178507
  0
LINE
  5
2BA
100
AcDbEntity
  8
ALL_FEATURES
100
AcDbLine
 62
7
  6
CONTINUOUS
 10
4.3940279976
 20
3.8161571172
 11
4.3940279976
 21
3.8118253681
  0
LINE
  5
2BB
100
AcDbEntity
  8
ALL_FEATURES
100
AcDbLine
 62
7
  6
CONTINUOUS
 10
4.4062849379
 20
4.995337374
 11
4.4062849379
 21
5.1242560942
  0
LINE
  5
2BC
100
AcDbEntity
  8
ALL_FEATURES
100
AcDbLine
 62
7
  6
CONTINUOUS
 10
4.4274543325
 20
3.8900223289
 11
4.4274543325
 21
3.8503664964
  0
LINE
  5
2BD
100
AcDbEntity
  8
0
100
AcDbLine
 62
7
  6
CONTINUOUS
 10
4.4362849379
 20
2.8667780069
 11
4.4362849379
 21
2.8476490222
  0
LINE
  5
2BE
100
AcDbEntity
  8
ALL_FEATURES
100
AcDbLine
 62
7
  6
CONTINUOUS
 10
4.4650402464
 20
5.1944888929
 11
4.4650402464
 21
5.1940376076
  0
LINE
  5
2BF
100
AcDbEntity
  8
ALL_FEATURES
100
AcDbLine
 62
7
  6
CONTINUOUS
 10
3.8382049775
 20
4.1965877316
 11
3.8358243007
 21
4.1952132472
  0
LINE
  5
2C0
100
AcDbEntity
  8
ALL_FEATURES
100
AcDbLine
 62
7
  6
CONTINUOUS
 10
3.8489381157
 20
4.1780550189
 11
3.8452587151
 21
4.175930716
  0
LINE
  5
2C1
100
AcDbEntity
  8
ALL_FEATURES
100
AcDbLine
 62
7
  6
CONTINUOUS
 10
3.8417974459
 20
4.1548276054
 11
3.7558703612
 21
4.1052175799
  0
LINE
  5
2C2
100
AcDbEntity
  8
ALL_FEATURES
100
AcDbLine
 62
7
  6
CONTINUOUS
 10
3.8491741797
 20
4.1421153418
 11
3.7838779223
 21
4.10441653
  0
LINE
  5
2C3
100
AcDbEntity
  8
ALL_FEATURES
100
AcDbLine
 62
7
  6
CONTINUOUS
 10
3.8729256117
 20
4.1367234915
 11
3.8692455704
 21
4.1345988187
  0
LINE
  5
2C4
100
AcDbEntity
  8
ALL_FEATURES
100
AcDbLine
 62
7
  6
CONTINUOUS
 10
3.7892021076
 20
4.0876098777
 11
3.7863881331
 21
4.0859852288
  0
LINE
  5
2C5
100
AcDbEntity
  8
ALL_FEATURES
100
AcDbLine
 62
7
  6
CONTINUOUS
 10
3.7708492603
 20
4.7440042945
 11
3.7748896515
 21
4.7426914918
  0
LINE
  5
2C6
100
AcDbEntity
  8
ALL_FEATURES
100
AcDbLine
 62
7
  6
CONTINUOUS
 10
3.763638814
 20
4.8436623785
 11
3.764081472
 21
4.8435185502
  0
LINE
  5
2C7
100
AcDbEntity
  8
0
100
AcDbLine
 62
7
  6
CONTINUOUS
 10
4.6525320878
 20
4.2579729041
 11
4.6504891192
 21
4.2787155124
  0
LINE
  5
2C8
100
AcDbEntity
  8
0
100
AcDbLine
 62
7
  6
CONTINUOUS
 10
4.5950422516
 20
4.8416770074
 11
4.5929994608
 21
4.8624178101
  0
LINE
  5
2C9
100
AcDbEntity
  8
0
100
AcDbLine
 62
7
  6
CONTINUOUS
 10
4.6241276504
 20
4.2287871407
 11
4.6241276504
 21
4.2496301136
  0
LINE
  5
2CA
100
AcDbEntity
  8
0
100
AcDbLine
 62
7
  6
CONTINUOUS
 10
4.6241276504
 20
4.8153155386
 11
4.6241276504
 21
4.8361566971
  0
LINE
  5
2CB
100
AcDbEntity
  8
0
100
AcDbLine
 62
7
  6
CONTINUOUS
 10
4.592999283
 20
4.2025260365
 11
4.5950422516
 21
4.2232686447
  0
LINE
  5
2CC
100
AcDbEntity
  8
0
100
AcDbLine
 62
7
  6
CONTINUOUS
 10
4.6504891192
 20
4.7862301398
 11
4.65253191
 21
4.8069709424
  0
LINE
  5
2CD
100
AcDbEntity
  8
0
100
AcDbLine
 62
7
  6
CONTINUOUS
 10
4.5594467688
 20
4.1794425002
 11
4.5635130311
 21
4.1998849812
  0
LINE
  5
2CE
100
AcDbEntity
  8
0
100
AcDbLine
 62
7
  6
CONTINUOUS
 10
4.6738727828
 20
4.7547009193
 11
4.6779386911
 21
4.7751416208
  0
LINE
  5
2CF
100
AcDbEntity
  8
0
100
AcDbLine
 62
7
  6
CONTINUOUS
 10
4.523793237
 20
4.1597588389
 11
4.5298436326
 21
4.1797043203
  0
LINE
  5
2D0
100
AcDbEntity
  8
0
100
AcDbLine
 62
7
  6
CONTINUOUS
 10
4.6940534436
 20
4.7210315208
 11
4.7001033126
 21
4.7409752661
  0
LINE
  5
2D1
100
AcDbEntity
  8
0
100
AcDbLine
 62
7
  6
CONTINUOUS
 10
4.4863820504
 20
4.143664617
 11
4.4943583108
 21
4.1629210131
  0
LINE
  5
2D2
100
AcDbEntity
  8
0
100
AcDbLine
 62
7
  6
CONTINUOUS
 10
4.7108367509
 20
4.685546199
 11
4.718812317
 21
4.7048009189
  0
LINE
  5
2D3
100
AcDbEntity
  8
0
100
AcDbLine
 62
7
  6
CONTINUOUS
 10
4.4475734994
 20
4.1313148308
 11
4.4573988088
 21
4.1496966918
  0
LINE
  5
2D4
100
AcDbEntity
  8
0
100
AcDbLine
 62
7
  6
CONTINUOUS
 10
4.7240610722
 20
4.648586697
 11
4.7338842025
 21
4.6669644813
  0
LINE
  5
2D5
100
AcDbEntity
  8
0
100
AcDbLine
 62
7
  6
CONTINUOUS
 10
4.4077413314
 20
4.1228284153
 11
4.4193210667
 21
4.1401587139
  0
LINE
  5
2D6
100
AcDbEntity
  8
0
100
AcDbLine
 62
7
  6
CONTINUOUS
 10
4.73359905
 20
4.6105089549
 11
4.7451777774
 21
4.6278377449
  0
LINE
  5
2D7
100
AcDbEntity
  8
0
100
AcDbLine
 62
7
  6
CONTINUOUS
 10
4.367269152
 20
4.1182870995
 11
4.380491794
 21
4.1343989354
  0
LINE
  5
2D8
100
AcDbEntity
  8
0
100
AcDbLine
 62
7
  6
CONTINUOUS
 10
4.7393588286
 20
4.5716796822
 11
4.7525803196
 21
4.5877901156
  0
LINE
  5
2D9
100
AcDbEntity
  8
0
100
AcDbLine
 62
7
  6
CONTINUOUS
 10
4.3265467304
 20
4.1177346186
 11
4.3412849379
 21
4.1324728261
  0
LINE
  5
2DA
100
AcDbEntity
  8
0
100
AcDbLine
 62
7
  6
CONTINUOUS
 10
4.7412849379
 20
4.5324728261
 11
4.7560218624
 21
4.5472097506
  0
LINE
  5
2DB
100
AcDbEntity
  8
0
100
AcDbLine
 62
7
  6
CONTINUOUS
 10
4.2859662458
 20
4.1211762934
 11
4.3020780818
 21
4.1343989354
  0
LINE
  5
2DC
100
AcDbEntity
  8
0
100
AcDbLine
 62
7
  6
CONTINUOUS
 10
4.7393588286
 20
4.49326597
 11
4.755469262
 21
4.506487461
  0
LINE
  5
2DD
100
AcDbEntity
  8
0
100
AcDbLine
 62
7
  6
CONTINUOUS
 10
4.2459185105
 20
4.1285789786
 11
4.2632488091
 21
4.1401587139
  0
LINE
  5
2DE
100
AcDbEntity
  8
0
100
AcDbLine
 62
7
  6
CONTINUOUS
 10
4.73359905
 20
4.4544366973
 11
4.7509278401
 21
4.4660154246
  0
LINE
  5
2DF
100
AcDbEntity
  8
0
100
AcDbLine
 62
7
  6
CONTINUOUS
 10
4.206789206
 20
4.1398713824
 11
4.225171067
 21
4.1496966918
  0
LINE
  5
2E0
100
AcDbEntity
  8
0
100
AcDbLine
 62
7
  6
CONTINUOUS
 10
4.7240610722
 20
4.4163589552
 11
4.7424413331
 21
4.4261834093
  0
LINE
  5
2E1
100
AcDbEntity
  8
0
100
AcDbLine
 62
7
  6
CONTINUOUS
 10
4.1689551689
 20
4.1549447527
 11
4.1882115649
 21
4.1629210131
  0
LINE
  5
2E2
100
AcDbEntity
  8
0
100
AcDbLine
 62
7
  6
CONTINUOUS
 10
4.7108367509
 20
4.3793994531
 11
4.7300914707
 21
4.3873750192
  0
LINE
  5
2E3
100
AcDbEntity
  8
0
100
AcDbLine
 62
7
  6
CONTINUOUS
 10
4.1327807617
 20
4.1736539247
 11
4.1527262432
 21
4.1797043203
  0
LINE
  5
2E4
100
AcDbEntity
  8
0
100
AcDbLine
 62
7
  6
CONTINUOUS
 10
4.6940534436
 20
4.3439141314
 11
4.7139971889
 21
4.3499640003
  0
LINE
  5
2E5
100
AcDbEntity
  8
0
100
AcDbLine
 62
7
  6
CONTINUOUS
 10
4.5839555194
 20
4.8691269347
 11
4.5635130311
 21
4.865060671
  0
LINE
  5
2E6
100
AcDbEntity
  8
0
100
AcDbLine
 62
7
  6
CONTINUOUS
 10
4.008697093
 20
4.7547009193
 11
3.9882563914
 21
4.750635011
  0
LINE
  5
2E7
100
AcDbEntity
  8
0
100
AcDbLine
 62
7
  6
CONTINUOUS
 10
4.6157848598
 20
4.843719976
 11
4.5950422516
 21
4.8416770074
  0
LINE
  5
2E8
100
AcDbEntity
  8
0
100
AcDbLine
 62
7
  6
CONTINUOUS
 10
4.0320807565
 20
4.7862301398
 11
4.0113399539
 21
4.784187349
  0
LINE
  5
2E9
100
AcDbEntity
  8
0
100
AcDbLine
 62
7
  6
CONTINUOUS
 10
4.6449706232
 20
4.8153155386
 11
4.6241276504
 21
4.8153155386
  0
LINE
  5
2EA
100
AcDbEntity
  8
0
100
AcDbLine
 62
7
  6
CONTINUOUS
 10
4.0584422254
 20
4.8153155386
 11
4.0376010669
 21
4.8153155386
  0
LINE
  5
2EB
100
AcDbEntity
  8
0
100
AcDbLine
 62
7
  6
CONTINUOUS
 10
4.6712317275
 20
4.7841871712
 11
4.6504891192
 21
4.7862301398
  0
LINE
  5
2EC
100
AcDbEntity
  8
0
100
AcDbLine
 62
7
  6
CONTINUOUS
 10
4.0875276242
 20
4.8416770074
 11
4.0667868215
 21
4.8437197982
  0
LINE
  5
2ED
100
AcDbEntity
  8
0
100
AcDbLine
 62
7
  6
CONTINUOUS
 10
4.6943152638
 20
4.750634657
 11
4.6738727828
 21
4.7547009193
  0
LINE
  5
2EE
100
AcDbEntity
  8
0
100
AcDbLine
 62
7
  6
CONTINUOUS
 10
4.1190568447
 20
4.865060671
 11
4.0986143564
 21
4.8691269347
  0
LINE
  5
2EF
100
AcDbEntity
  8
0
100
AcDbLine
 62
7
  6
CONTINUOUS
 10
4.7139989251
 20
4.7149811252
 11
4.6940534436
 21
4.7210315208
  0
LINE
  5
2F0
100
AcDbEntity
  8
0
100
AcDbLine
 62
7
  6
CONTINUOUS
 10
4.1527262432
 20
4.8852413318
 11
4.1327824979
 21
4.8912912008
  0
LINE
  5
2F1
100
AcDbEntity
  8
0
100
AcDbLine
 62
7
  6
CONTINUOUS
 10
4.7300931469
 20
4.6775699386
 11
4.7108367509
 21
4.685546199
  0
LINE
  5
2F2
100
AcDbEntity
  8
0
100
AcDbLine
 62
7
  6
CONTINUOUS
 10
4.1882115649
 20
4.9020246391
 11
4.1689568451
 21
4.9100002052
  0
LINE
  5
2F3
100
AcDbEntity
  8
0
100
AcDbLine
 62
7
  6
CONTINUOUS
 10
4.7424429332
 20
4.6387613876
 11
4.7240610722
 21
4.648586697
  0
LINE
  5
2F4
100
AcDbEntity
  8
0
100
AcDbLine
 62
7
  6
CONTINUOUS
 10
4.225171067
 20
4.9152489604
 11
4.2067908061
 21
4.9250734145
  0
LINE
  5
2F5
100
AcDbEntity
  8
0
100
AcDbLine
 62
7
  6
CONTINUOUS
 10
4.7509293486
 20
4.5989292196
 11
4.73359905
 21
4.6105089549
  0
LINE
  5
2F6
100
AcDbEntity
  8
0
100
AcDbLine
 62
7
  6
CONTINUOUS
 10
4.2632488091
 20
4.9247869382
 11
4.2459200191
 21
4.9363656656
  0
LINE
  5
2F7
100
AcDbEntity
  8
0
100
AcDbLine
 62
7
  6
CONTINUOUS
 10
4.7554706645
 20
4.5584570402
 11
4.7393588286
 21
4.5716796822
  0
LINE
  5
2F8
100
AcDbEntity
  8
0
100
AcDbLine
 62
7
  6
CONTINUOUS
 10
4.3020780818
 20
4.9305467168
 11
4.2859676483
 21
4.9437682078
  0
LINE
  5
2F9
100
AcDbEntity
  8
0
100
AcDbLine
 62
7
  6
CONTINUOUS
 10
4.7560231454
 20
4.5177346186
 11
4.7412849379
 21
4.5324728261
  0
LINE
  5
2FA
100
AcDbEntity
  8
0
100
AcDbLine
 62
7
  6
CONTINUOUS
 10
4.3412849379
 20
4.9324728261
 11
4.32654803
 21
4.947209734
  0
LINE
  5
2FB
100
AcDbEntity
  8
0
100
AcDbLine
 62
7
  6
CONTINUOUS
 10
4.7525814706
 20
4.477154134
 11
4.7393588286
 21
4.49326597
  0
LINE
  5
2FC
100
AcDbEntity
  8
0
100
AcDbLine
 62
7
  6
CONTINUOUS
 10
4.380491794
 20
4.9305467168
 11
4.367270303
 21
4.9466571502
  0
LINE
  5
2FD
100
AcDbEntity
  8
ALL_FEATURES
100
AcDbLine
 62
7
  6
CONTINUOUS
 10
4.9551271665
 20
4.2037804848
 11
4.9605353479
 21
4.1957331054
  0
LINE
  5
2FE
100
AcDbEntity
  8
0
100
AcDbLine
 62
7
  6
CONTINUOUS
 10
4.7451787854
 20
4.4371063987
 11
4.73359905
 21
4.4544366973
  0
LINE
  5
2FF
100
AcDbEntity
  8
0
100
AcDbLine
 62
7
  6
CONTINUOUS
 10
4.4193210667
 20
4.9247869382
 11
4.4077423394
 21
4.9421157283
  0
LINE
  5
300
100
AcDbEntity
  8
ALL_FEATURES
100
AcDbLine
 62
7
  6
CONTINUOUS
 10
4.8888086851
 20
4.1375392535
 11
4.912504708
 21
4.0950076145
  0
LINE
  5
301
100
AcDbEntity
  8
0
100
AcDbLine
 62
7
  6
CONTINUOUS
 10
4.7338849683
 20
4.3979797383
 11
4.7240610722
 21
4.4163589552
  0
LINE
  5
302
100
AcDbEntity
  8
0
100
AcDbLine
 62
7
  6
CONTINUOUS
 10
4.4573988088
 20
4.9152489604
 11
4.4475743547
 21
4.9336292213
  0
LINE
  5
303
100
AcDbEntity
  8
0
100
AcDbLine
 62
7
  6
CONTINUOUS
 10
4.7188130113
 20
4.3601430571
 11
4.7108367509
 21
4.3793994531
  0
LINE
  5
304
100
AcDbEntity
  8
0
100
AcDbLine
 62
7
  6
CONTINUOUS
 10
4.4943583108
 20
4.9020246391
 11
4.4863827447
 21
4.9212793589
  0
LINE
  5
305
100
AcDbEntity
  8
0
100
AcDbLine
 62
7
  6
CONTINUOUS
 10
4.7001038393
 20
4.3239686499
 11
4.6940534436
 21
4.3439141314
  0
LINE
  5
306
100
AcDbEntity
  8
0
100
AcDbLine
 62
7
  6
CONTINUOUS
 10
4.5298436326
 20
4.8852413318
 11
4.5237937636
 21
4.9051850771
  0
LINE
  5
307
100
AcDbEntity
  8
0
100
AcDbLine
 62
7
  6
CONTINUOUS
 10
4.6779390451
 20
4.2898022519
 11
4.6738727828
 21
4.3102447329
  0
LINE
  5
308
100
AcDbEntity
  8
0
100
AcDbLine
 62
7
  6
CONTINUOUS
 10
4.5635130311
 20
4.865060671
 11
4.5594471228
 21
4.8855013726
  0
LINE
  5
309
100
AcDbEntity
  8
0
100
AcDbLine
 62
7
  6
CONTINUOUS
 10
4.7554706702
 20
4.5584570355
 11
4.7560231506
 21
4.5472110388
  0
LINE
  5
30A
100
AcDbEntity
  8
0
100
AcDbLine
 62
7
  6
CONTINUOUS
 10
4.7560231506
 20
4.5177346134
 11
4.7554706702
 21
4.5064886167
  0
LINE
  5
30B
100
AcDbEntity
  8
0
100
AcDbLine
 62
7
  6
CONTINUOUS
 10
4.7525814753
 20
4.4771541283
 11
4.7509293548
 21
4.4660164367
  0
LINE
  5
30C
100
AcDbEntity
  8
0
100
AcDbLine
 62
7
  6
CONTINUOUS
 10
4.7451787895
 20
4.4371063925
 11
4.7424429397
 21
4.4261842681
  0
LINE
  5
30D
100
AcDbEntity
  8
0
100
AcDbLine
 62
7
  6
CONTINUOUS
 10
4.7338863851
 20
4.3979770876
 11
4.7300931538
 21
4.3873757164
  0
LINE
  5
30E
100
AcDbEntity
  8
0
100
AcDbLine
 62
7
  6
CONTINUOUS
 10
4.7188130141
 20
4.3601430502
 11
4.7139989322
 21
4.3499645292
  0
LINE
  5
30F
100
AcDbEntity
  8
0
100
AcDbLine
 62
7
  6
CONTINUOUS
 10
4.7001038414
 20
4.3239686428
 11
4.6943152711
 21
4.3143109966
  0
LINE
  5
310
100
AcDbEntity
  8
0
100
AcDbLine
 62
7
  6
CONTINUOUS
 10
4.6779390465
 20
4.2898022446
 11
4.6712317349
 21
4.2807584817
  0
LINE
  5
311
100
AcDbEntity
  8
0
100
AcDbLine
 62
7
  6
CONTINUOUS
 10
4.6525320886
 20
4.2579728968
 11
4.6449706307
 21
4.2496301136
  0
LINE
  5
312
100
AcDbEntity
  8
0
100
AcDbLine
 62
7
  6
CONTINUOUS
 10
4.6241276504
 20
4.2287871333
 11
4.6157848672
 21
4.2212256754
  0
LINE
  5
313
100
AcDbEntity
  8
0
100
AcDbLine
 62
7
  6
CONTINUOUS
 10
4.5929992822
 20
4.2025260291
 11
4.5839555194
 21
4.1958187174
  0
LINE
  5
314
100
AcDbEntity
  8
0
100
AcDbLine
 62
7
  6
CONTINUOUS
 10
4.5839555194
 20
4.8691269347
 11
4.5929992822
 21
4.8624196231
  0
LINE
  5
315
100
AcDbEntity
  8
0
100
AcDbLine
 62
7
  6
CONTINUOUS
 10
4.6157848672
 20
4.8437199768
 11
4.6241276504
 21
4.8361585189
  0
LINE
  5
316
100
AcDbEntity
  8
0
100
AcDbLine
 62
7
  6
CONTINUOUS
 10
4.6449706307
 20
4.8153155386
 11
4.6525320886
 21
4.8069727554
  0
LINE
  5
317
100
AcDbEntity
  8
0
100
AcDbLine
 62
7
  6
CONTINUOUS
 10
4.6712317349
 20
4.7841871704
 11
4.6779390465
 21
4.7751434076
  0
LINE
  5
318
100
AcDbEntity
  8
0
100
AcDbLine
 62
7
  6
CONTINUOUS
 10
4.6943152711
 20
4.7506346556
 11
4.7001038414
 21
4.7409770094
  0
LINE
  5
319
100
AcDbEntity
  8
0
100
AcDbLine
 62
7
  6
CONTINUOUS
 10
4.7139989322
 20
4.714981123
 11
4.7188130141
 21
4.7048026019
  0
LINE
  5
31A
100
AcDbEntity
  8
0
100
AcDbLine
 62
7
  6
CONTINUOUS
 10
4.7300931538
 20
4.6775699358
 11
4.7338863851
 21
4.6669685645
  0
LINE
  5
31B
100
AcDbEntity
  8
0
100
AcDbLine
 62
7
  6
CONTINUOUS
 10
4.7424429397
 20
4.6387613841
 11
4.7451787895
 21
4.6278392596
  0
LINE
  5
31C
100
AcDbEntity
  8
0
100
AcDbLine
 62
7
  6
CONTINUOUS
 10
4.7509293548
 20
4.5989292155
 11
4.7525814753
 21
4.5877915239
  0
LINE
  5
31D
100
AcDbEntity
  8
ALL_FEATURES
100
AcDbLine
 62
7
  6
CONTINUOUS
 10
4.2762849379
 20
5.1242560942
 11
4.4062849379
 21
5.1242560942
  0
LINE
  5
31E
100
AcDbEntity
  8
ALL_FEATURES
100
AcDbLine
 62
7
  6
CONTINUOUS
 10
4.2967394833
 20
5.1526969855
 11
4.3858303924
 21
5.1526969855
  0
LINE
  5
31F
100
AcDbEntity
  8
ALL_FEATURES
100
AcDbLine
 62
7
  6
CONTINUOUS
 10
5.0317197991
 20
4.4043841153
 11
5.0338904013
 21
4.4166942122
  0
LINE
  5
320
100
AcDbEntity
  8
ALL_FEATURES
100
AcDbLine
 62
7
  6
CONTINUOUS
 10
4.885544263
 20
4.0575978239
 11
4.91199083
 21
4.0953674358
  0
LINE
  5
321
100
AcDbEntity
  8
ALL_FEATURES
100
AcDbLine
 62
7
  6
CONTINUOUS
 10
4.9334274832
 20
4.1259821494
 11
4.9710500172
 21
4.1797126964
  0
LINE
  5
322
100
AcDbEntity
  8
ALL_FEATURES
100
AcDbLine
 62
7
  6
CONTINUOUS
 10
4.797430446
 20
5.0663626002
 11
4.7878548904
 21
5.0743974453
  0
LINE
  5
323
100
AcDbEntity
  8
ALL_FEATURES
100
AcDbLine
 62
7
  6
CONTINUOUS
 10
5.0549034451
 20
4.6441558902
 11
5.0429697694
 21
4.6886929744
  0
ARC
  5
324
100
AcDbEntity
  8
ALL_FEATURES
100
AcDbCircle
 62
7
  6
CONTINUOUS
 10
3.5781948637
 20
4.5261491106
 40
0.3134548626
100
AcDbArc
 50
299.9902068815
 51
300.8059227051
  0
ARC
  5
325
100
AcDbEntity
  8
ALL_FEATURES
100
AcDbCircle
 62
7
  6
CONTINUOUS
 10
3.7389403203
 20
4.0375355824
 40
0.0707519263
100
AcDbArc
 50
50.0905024415
 51
51.2297247184
  0
ARC
  5
326
100
AcDbEntity
  8
ALL_FEATURES
100
AcDbCircle
 62
7
  6
CONTINUOUS
 10
3.7095533534
 20
4.2657491427
 40
0.0401402192
100
AcDbArc
 50
209.8892602183
 51
210.7607669678
  0
ARC
  5
327
100
AcDbEntity
  8
ALL_FEATURES
100
AcDbCircle
 62
7
  6
CONTINUOUS
 10
3.7099562853
 20
4.2660688154
 40
0.0400921785
100
AcDbArc
 50
209.9968514926
 51
211.2041733602
  0
ARC
  5
328
100
AcDbEntity
  8
ALL_FEATURES
100
AcDbCircle
 62
7
  6
CONTINUOUS
 10
3.7500623977
 20
4.1903011225
 40
0.0376841145
100
AcDbArc
 50
249.9110279219
 51
254.5334531758
  0
ARC
  5
329
100
AcDbEntity
  8
ALL_FEATURES
100
AcDbCircle
 62
7
  6
CONTINUOUS
 10
3.7689249044
 20
4.8048765976
 40
0.0194911237
100
AcDbArc
 50
308.1597415574
 51
311.821723995
  0
ARC
  5
32A
100
AcDbEntity
  8
ALL_FEATURES
100
AcDbCircle
 62
7
  6
CONTINUOUS
 10
3.7686764034
 20
4.8042103716
 40
0.019301742
100
AcDbArc
 50
334.7212624071
 51
342.0548528363
  0
ARC
  5
32B
100
AcDbEntity
  8
ALL_FEATURES
100
AcDbCircle
 62
7
  6
CONTINUOUS
 10
3.7583732535
 20
4.2943155205
 40
0.0165579974
100
AcDbArc
 50
22.6603286806
 51
30.0009887775
  0
ARC
  5
32C
100
AcDbEntity
  8
ALL_FEATURES
100
AcDbCircle
 62
7
  6
CONTINUOUS
 10
4.390988669
 20
3.8478364604
 40
0.0322810193
100
AcDbArc
 50
4.4800039744
 51
8.2473405811
  0
ARC
  5
32D
100
AcDbEntity
  8
ALL_FEATURES
100
AcDbCircle
 62
7
  6
CONTINUOUS
 10
4.344288203
 20
3.8948184965
 40
0.0284863364
100
AcDbArc
 50
76.9088867191
 51
79.9984197436
  0
ARC
  5
32E
100
AcDbEntity
  8
ALL_FEATURES
100
AcDbCircle
 62
7
  6
CONTINUOUS
 10
4.3164785331
 20
3.9132217535
 40
0.0155564989
100
AcDbArc
 50
314.8869577216
 51
359.9540200034
  0
ARC
  5
32F
100
AcDbEntity
  8
ALL_FEATURES
100
AcDbCircle
 62
7
  6
CONTINUOUS
 10
4.3162849379
 20
3.9138126775
 40
0.0094558167
100
AcDbArc
 50
80.0590359106
 51
99.9409640894
  0
ARC
  5
330
100
AcDbEntity
  8
0
100
AcDbCircle
 62
7
  6
CONTINUOUS
 10
4.3412849379
 20
4.5324728261
 40
1.6875
100
AcDbArc
 50
273.227246384
 51
266.772753616
  0
ARC
  5
331
100
AcDbEntity
  8
0
100
AcDbCircle
 62
7
  6
CONTINUOUS
 10
4.3412849379
 20
4.5324728261
 40
1.6684016994
100
AcDbArc
 50
266.7357713275
 51
273.2642286725
  0
CIRCLE
  5
332
100
AcDbEntity
  8
0
100
AcDbCircle
 62
7
  6
CONTINUOUS
 10
4.3412849379
 20
4.5324728261
 40
1.6374999873
  0
CIRCLE
  5
333
100
AcDbEntity
  8
0
100
AcDbCircle
 62
7
  6
CONTINUOUS
 10
4.3412849379
 20
4.5324728261
 40
1.6325
  0
CIRCLE
  5
334
100
AcDbEntity
  8
0
100
AcDbCircle
 62
7
  6
CONTINUOUS
 10
4.3412849379
 20
4.5324728261
 40
1.625752668
  0
CIRCLE
  5
335
100
AcDbEntity
  8
0
100
AcDbCircle
 62
7
  6
CONTINUOUS
 10
4.3412849379
 20
4.5324728261
 40
1.5807186265
  0
CIRCLE
  5
336
100
AcDbEntity
  8
0
100
AcDbCircle
 62
7
  6
CONTINUOUS
 10
4.3412849379
 20
4.5324728261
 40
1.5683339333
  0
CIRCLE
  5
337
100
AcDbEntity
  8
0
100
AcDbCircle
 62
7
  6
CONTINUOUS
 10
4.3412849379
 20
4.5323626837
 40
1.5082321275
  0
CIRCLE
  5
338
100
AcDbEntity
  8
0
100
AcDbCircle
 62
7
  6
CONTINUOUS
 10
4.3412849379
 20
4.5323626837
 40
0.8569421992
  0
CIRCLE
  5
339
100
AcDbEntity
  8
0
100
AcDbCircle
 62
7
  6
CONTINUOUS
 10
4.3412849379
 20
4.5324728261
 40
0.8499966295
  0
CIRCLE
  5
33A
100
AcDbEntity
  8
0
100
AcDbCircle
 62
7
  6
CONTINUOUS
 10
4.3412849379
 20
4.5324728261
 40
0.8425
  0
CIRCLE
  5
33B
100
AcDbEntity
  8
0
100
AcDbCircle
 62
7
  6
CONTINUOUS
 10
4.3412849379
 20
4.5324728261
 40
0.83875
  0
CIRCLE
  5
33C
100
AcDbEntity
  8
0
100
AcDbCircle
 62
7
  6
CONTINUOUS
 10
4.3412849379
 20
4.5324728261
 40
0.83125
  0
CIRCLE
  5
33D
100
AcDbEntity
  8
0
100
AcDbCircle
 62
7
  6
CONTINUOUS
 10
4.3412849379
 20
4.5324728261
 40
0.8247070104
  0
ARC
  5
33E
100
AcDbEntity
  8
ALL_FEATURES
100
AcDbCircle
 62
7
  6
CONTINUOUS
 10
4.3412849379
 20
4.5324728261
 40
0.525
100
AcDbArc
 50
97.1123146763
 51
82.8876853237
  0
ARC
  5
33F
100
AcDbEntity
  8
0
100
AcDbCircle
 62
7
  6
CONTINUOUS
 10
4.3412849379
 20
4.5324728261
 40
0.5075
100
AcDbArc
 50
97.3588484565
 51
82.6411515863
  0
ARC
  5
340
100
AcDbEntity
  8
0
100
AcDbCircle
 62
7
  6
CONTINUOUS
 10
4.3412849379
 20
4.5324728261
 40
0.5
100
AcDbArc
 50
97.4728369162
 51
82.527163238
  0
ARC
  5
341
100
AcDbEntity
  8
ALL_ASSEMBLY_MEMBERS
100
AcDbCircle
 62
7
  6
CONTINUOUS
 10
4.3412849379
 20
4.5324728261
 40
0.49725
100
AcDbArc
 50
97.5118495626
 51
82.4881504374
  0
ARC
  5
342
100
AcDbEntity
  8
0
100
AcDbCircle
 62
7
  6
CONTINUOUS
 10
4.3412849379
 20
4.5324728261
 40
0.4925
100
AcDbArc
 50
97.5847361545
 51
82.4232718145
  0
ARC
  5
343
100
AcDbEntity
  8
0
100
AcDbCircle
 62
7
  6
CONTINUOUS
 10
4.3412849379
 20
4.5324728261
 40
0.4838888864
100
AcDbArc
 50
97.7201998088
 51
82.2866373583
  0
CIRCLE
  5
344
100
AcDbEntity
  8
0
100
AcDbCircle
 62
7
  6
CONTINUOUS
 10
4.3412849379
 20
4.5324728261
 40
0.4675
  0
CIRCLE
  5
345
100
AcDbEntity
  8
0
100
AcDbCircle
 62
7
  6
CONTINUOUS
 10
4.3412849379
 20
4.5324728261
 40
0.45
  0
CIRCLE
  5
346
100
AcDbEntity
  8
0
100
AcDbCircle
 62
7
  6
CONTINUOUS
 10
4.3412849379
 20
4.5324728261
 40
0.435
  0
ARC
  5
347
100
AcDbEntity
  8
0
100
AcDbCircle
 62
7
  6
CONTINUOUS
 10
4.3412849379
 20
4.5324728261
 40
0.415
100
AcDbArc
 50
92.0352168471
 51
93.5897831529
  0
ARC
  5
348
100
AcDbEntity
  8
0
100
AcDbCircle
 62
7
  6
CONTINUOUS
 10
4.3412849379
 20
4.5324728261
 40
0.415
100
AcDbArc
 50
97.6602168471
 51
99.2147831529
  0
ARC
  5
349
100
AcDbEntity
  8
0
100
AcDbCircle
 62
7
  6
CONTINUOUS
 10
4.3412849379
 20
4.5324728261
 40
0.415
100
AcDbArc
 50
103.2852168471
 51
104.8397831529
  0
ARC
  5
34A
100
AcDbEntity
  8
0
100
AcDbCircle
 62
7
  6
CONTINUOUS
 10
4.3412849379
 20
4.5324728261
 40
0.415
100
AcDbArc
 50
108.9102168471
 51
110.4647831529
  0
ARC
  5
34B
100
AcDbEntity
  8
0
100
AcDbCircle
 62
7
  6
CONTINUOUS
 10
4.3412849379
 20
4.5324728261
 40
0.415
100
AcDbArc
 50
114.5352168471
 51
116.0897831529
  0
ARC
  5
34C
100
AcDbEntity
  8
0
100
AcDbCircle
 62
7
  6
CONTINUOUS
 10
4.3412849379
 20
4.5324728261
 40
0.415
100
AcDbArc
 50
120.1602168471
 51
121.7147831529
  0
ARC
  5
34D
100
AcDbEntity
  8
0
100
AcDbCircle
 62
7
  6
CONTINUOUS
 10
4.3412849379
 20
4.5324728261
 40
0.415
100
AcDbArc
 50
238.2852168471
 51
239.8397831529
  0
ARC
  5
34E
100
AcDbEntity
  8
0
100
AcDbCircle
 62
7
  6
CONTINUOUS
 10
4.3412849379
 20
4.5324728261
 40
0.415
100
AcDbArc
 50
243.9102168471
 51
245.4647831529
  0
ARC
  5
34F
100
AcDbEntity
  8
0
100
AcDbCircle
 62
7
  6
CONTINUOUS
 10
4.3412849379
 20
4.5324728261
 40
0.415
100
AcDbArc
 50
249.5352168471
 51
251.0897831529
  0
ARC
  5
350
100
AcDbEntity
  8
0
100
AcDbCircle
 62
7
  6
CONTINUOUS
 10
4.3412849379
 20
4.5324728261
 40
0.415
100
AcDbArc
 50
255.1602168471
 51
256.7147831529
  0
ARC
  5
351
100
AcDbEntity
  8
0
100
AcDbCircle
 62
7
  6
CONTINUOUS
 10
4.3412849379
 20
4.5324728261
 40
0.415
100
AcDbArc
 50
260.7852168471
 51
262.3397831529
  0
ARC
  5
352
100
AcDbEntity
  8
0
100
AcDbCircle
 62
7
  6
CONTINUOUS
 10
4.3412849379
 20
4.5324728261
 40
0.415
100
AcDbArc
 50
266.4102168471
 51
267.9647831529
  0
ARC
  5
353
100
AcDbEntity
  8
0
100
AcDbCircle
 62
7
  6
CONTINUOUS
 10
4.3412849379
 20
4.5324728261
 40
0.415
100
AcDbArc
 50
272.0352168471
 51
273.5897831529
  0
ARC
  5
354
100
AcDbEntity
  8
0
100
AcDbCircle
 62
7
  6
CONTINUOUS
 10
4.3412849379
 20
4.5324728261
 40
0.415
100
AcDbArc
 50
277.6602168471
 51
279.2147831529
  0
ARC
  5
355
100
AcDbEntity
  8
0
100
AcDbCircle
 62
7
  6
CONTINUOUS
 10
4.3412849379
 20
4.5324728261
 40
0.415
100
AcDbArc
 50
283.2852168471
 51
284.8397831529
  0
ARC
  5
356
100
AcDbEntity
  8
0
100
AcDbCircle
 62
7
  6
CONTINUOUS
 10
4.3412849379
 20
4.5324728261
 40
0.415
100
AcDbArc
 50
288.9102168471
 51
290.4647831529
  0
ARC
  5
357
100
AcDbEntity
  8
0
100
AcDbCircle
 62
7
  6
CONTINUOUS
 10
4.3412849379
 20
4.5324728261
 40
0.415
100
AcDbArc
 50
294.5352168471
 51
296.0897831529
  0
ARC
  5
358
100
AcDbEntity
  8
0
100
AcDbCircle
 62
7
  6
CONTINUOUS
 10
4.3412849379
 20
4.5324728261
 40
0.415
100
AcDbArc
 50
300.1602168471
 51
301.7147831529
  0
ARC
  5
359
100
AcDbEntity
  8
0
100
AcDbCircle
 62
7
  6
CONTINUOUS
 10
4.3412849379
 20
4.5324728261
 40
0.415
100
AcDbArc
 50
58.2852168471
 51
59.8397831529
  0
ARC
  5
35A
100
AcDbEntity
  8
0
100
AcDbCircle
 62
7
  6
CONTINUOUS
 10
4.3412849379
 20
4.5324728261
 40
0.415
100
AcDbArc
 50
63.9102168471
 51
65.4647831529
  0
ARC
  5
35B
100
AcDbEntity
  8
0
100
AcDbCircle
 62
7
  6
CONTINUOUS
 10
4.3412849379
 20
4.5324728261
 40
0.415
100
AcDbArc
 50
69.5352168471
 51
71.0897831529
  0
ARC
  5
35C
100
AcDbEntity
  8
0
100
AcDbCircle
 62
7
  6
CONTINUOUS
 10
4.3412849379
 20
4.5324728261
 40
0.415
100
AcDbArc
 50
75.1602168471
 51
76.7147831529
  0
ARC
  5
35D
100
AcDbEntity
  8
0
100
AcDbCircle
 62
7
  6
CONTINUOUS
 10
4.3412849379
 20
4.5324728261
 40
0.415
100
AcDbArc
 50
80.7852168471
 51
82.3397831529
  0
ARC
  5
35E
100
AcDbEntity
  8
0
100
AcDbCircle
 62
7
  6
CONTINUOUS
 10
4.3412849379
 20
4.5324728261
 40
0.415
100
AcDbArc
 50
86.4102168471
 51
87.9647831529
  0
CIRCLE
  5
35F
100
AcDbEntity
  8
0
100
AcDbCircle
 62
7
  6
CONTINUOUS
 10
4.3412849379
 20
4.5324728261
 40
0.3825
  0
CIRCLE
  5
360
100
AcDbEntity
  8
0
100
AcDbCircle
 62
7
  6
CONTINUOUS
 10
4.3412849379
 20
4.5324728261
 40
0.3674999953
  0
CIRCLE
  5
361
100
AcDbEntity
  8
02___PRT_ALL_AXES
100
AcDbCircle
 62
7
  6
CONTINUOUS
 10
4.3412849379
 20
4.5324728261
 40
0.3475
  0
ARC
  5
362
100
AcDbEntity
  8
ALL_FEATURES
100
AcDbCircle
 62
7
  6
CONTINUOUS
 10
4.3412849379
 20
5.0199728261
 40
0.14
100
AcDbArc
 50
71.446995465
 51
108.553004535
  0
ARC
  5
363
100
AcDbEntity
  8
ALL_FEATURES
100
AcDbCircle
 62
7
  6
CONTINUOUS
 10
4.3405747727
 20
5.2153856673
 40
0.0377659994
100
AcDbArc
 50
88.9225264431
 51
90.002147401
  0
ARC
  5
364
100
AcDbEntity
  8
ALL_FEATURES
100
AcDbCircle
 62
7
  6
CONTINUOUS
 10
4.3762849379
 20
5.1242560942
 40
0.03
100
AcDbArc
 50
0.0
 51
71.446995465
  0
ARC
  5
365
100
AcDbEntity
  8
ALL_FEATURES
100
AcDbCircle
 62
7
  6
CONTINUOUS
 10
4.3062849379
 20
5.1242560942
 40
0.03
100
AcDbArc
 50
108.553004535
 51
180.0
  0
ARC
  5
366
100
AcDbEntity
  8
ALL_FEATURES
100
AcDbCircle
 62
7
  6
CONTINUOUS
 10
4.6316248944
 20
5.1965313631
 40
0.3133917693
100
AcDbArc
 50
179.9901969881
 51
180.806115371
  0
ARC
  5
367
100
AcDbEntity
  8
ALL_FEATURES
100
AcDbCircle
 62
7
  6
CONTINUOUS
 10
4.7173534767
 20
5.1964900735
 40
0.3134548626
100
AcDbArc
 50
179.9902068815
 51
180.8059227051
  0
ARC
  5
368
100
AcDbEntity
  8
ALL_FEATURES
100
AcDbCircle
 62
7
  6
CONTINUOUS
 10
4.8911838256
 20
4.6698831112
 40
0.1238827986
100
AcDbArc
 50
4.7013508236
 51
7.8174917927
  0
ARC
  5
369
100
AcDbEntity
  8
ALL_FEATURES
100
AcDbCircle
 62
7
  6
CONTINUOUS
 10
4.8830506455
 20
4.6743534438
 40
0.1157773708
100
AcDbArc
 50
44.2269058035
 51
45.9132054067
  0
ARC
  5
36A
100
AcDbEntity
  8
ALL_FEATURES
100
AcDbCircle
 62
7
  6
CONTINUOUS
 10
4.9875743307
 20
4.7508187004
 40
0.0391858599
100
AcDbArc
 50
23.4938198515
 51
28.1701777657
  0
ARC
  5
36B
100
AcDbEntity
  8
ALL_FEATURES
100
AcDbCircle
 62
7
  6
CONTINUOUS
 10
4.3408557982
 20
41.6571397323
 40
37.7301429704
100
AcDbArc
 50
270.0075387338
 51
270.1452800172
  0
SPLINE
  5
36C
100
AcDbEntity
  8
ALL_FEATURES
100
AcDbSpline
 62
7
  6
CONTINUOUS
 70
0
 71
3
 72
12
 73
8
 74
0
 42
0.0000001
 43
0.0000001
 44
0.0000000001
 40
0.0
 40
0.0
 40
0.0
 40
0.0
 40
0.1252815058
 40
0.2504867193
 40
0.5004217352
 40
0.7502293202
 40
1.0
 40
1.0
 40
1.0
 40
1.0
 10
4.3979155077
 20
5.1506394983
 30
0.0
 10
4.3968851083
 20
5.1521682907
 30
0.0
 10
4.3949787438
 20
5.1553317659
 30
0.0
 10
4.3917997767
 20
5.1619845123
 30
0.0
 10
4.3889759871
 20
5.1707863821
 30
0.0
 10
4.3871873669
 20
5.1816994278
 30
0.0
 10
4.3868495028
 20
5.1890586455
 30
0.0
 10
4.3868495028
 20
5.1927342226
 30
0.0
  0
SPLINE
  5
36D
100
AcDbEntity
  8
ALL_FEATURES
100
AcDbSpline
 62
7
  6
CONTINUOUS
 70
0
 71
3
 72
14
 73
10
 74
0
 42
0.0000001
 43
0.0000001
 44
0.0000000001
 40
0.0
 40
0.0
 40
0.0
 40
0.0
 40
0.125254141
 40
0.2505871086
 40
0.3758460308
 40
0.5009756337
 40
0.6260067189
 40
0.7508683784
 40
1.0
 40
1.0
 40
1.0
 40
1.0
 10
4.4256509229
 20
5.1341878413
 30
0.0
 10
4.4242457155
 20
5.1341910187
 30
0.0
 10
4.4214307631
 20
5.1343727158
 30
0.0
 10
4.4172870724
 20
5.1352257123
 30
0.0
 10
4.4133121016
 20
5.1366745588
 30
0.0
 10
4.409595053
 20
5.1386847162
 30
0.0
 10
4.4061873271
 20
5.1411724362
 30
0.0
 10
4.4020879535
 20
5.1450000393
 30
0.0
 10
4.3994776223
 20
5.1483218061
 30
0.0
 10
4.3979155077
 20
5.1506394983
 30
0.0
  0
SPLINE
  5
36E
100
AcDbEntity
  8
ALL_FEATURES
100
AcDbSpline
 62
7
  6
CONTINUOUS
 70
0
 71
3
 72
14
 73
10
 74
0
 42
0.0000001
 43
0.0000001
 44
0.0000000001
 40
0.0
 40
0.0
 40
0.0
 40
0.0
 40
0.2489145127
 40
0.3737261776
 40
0.4987139781
 40
0.6238716186
 40
0.7491499324
 40
0.8745655093
 40
1.0
 40
1.0
 40
1.0
 40
1.0
 10
4.4550636718
 20
5.1520146086
 30
0.0
 10
4.4536023789
 20
5.1493855259
 30
0.0
 10
4.4510285304
 20
5.1456148915
 30
0.0
 10
4.4467284048
 20
5.1413692202
 30
0.0
 10
4.4430619756
 20
5.1386762059
 30
0.0
 10
4.4390144895
 20
5.1365858646
 30
0.0
 10
4.434688952
 20
5.1351449903
 30
0.0
 10
4.4302019094
 20
5.1343398681
 30
0.0
 10
4.4271666772
 20
5.134184414
 30
0.0
 10
4.4256509229
 20
5.1341878413
 30
0.0
  0
SPLINE
  5
36F
100
AcDbEntity
  8
ALL_FEATURES
100
AcDbSpline
 62
7
  6
CONTINUOUS
 70
0
 71
3
 72
11
 73
7
 74
0
 42
0.0000001
 43
0.0000001
 44
0.0000000001
 40
0.0
 40
0.0
 40
0.0
 40
0.0
 40
0.2499710472
 40
0.4999640377
 40
0.7499600834
 40
1.0
 40
1.0
 40
1.0
 40
1.0
 10
4.4650402464
 20
5.1944888929
 30
0.0
 10
4.4650402464
 20
5.1908161743
 30
0.0
 10
4.4647044159
 20
5.1834641309
 30
0.0
 10
4.4630020791
 20
5.1725517137
 30
0.0
 10
4.4599163883
 20
5.1619384814
 30
0.0
 10
4.4568484382
 20
5.1552256683
 30
0.0
 10
4.4550636718
 20
5.1520146086
 30
0.0
  0
LINE
  5
370
100
AcDbEntity
  8
ALL_FEATURES
100
AcDbLine
 62
7
  6
CONTINUOUS
 10
4.7404496809
 20
5.0179021166
 11
4.7500252365
 21
5.0098672714
  0
SPLINE
  5
371
100
AcDbEntity
  8
ALL_FEATURES
100
AcDbSpline
 62
7
  6
CONTINUOUS
 70
0
 71
3
 72
14
 73
10
 74
0
 42
0.0000001
 43
0.0000001
 44
0.0000000001
 40
0.0
 40
0.0
 40
0.0
 40
0.0
 40
0.2500902875
 40
0.3752179168
 40
0.5003301709
 40
0.6253373215
 40
0.7502685174
 40
0.8752455719
 40
1.0
 40
1.0
 40
1.0
 40
1.0
 10
4.9129653078
 20
4.7552773081
 30
0.0
 10
4.9137670696
 20
4.757091306
 30
0.0
 10
4.9152060602
 20
4.7597243391
 30
0.0
 10
4.9176596084
 20
4.7628521866
 30
0.0
 10
4.9197702843
 20
4.7649606056
 30
0.0
 10
4.9221185884
 20
4.7667982735
 30
0.0
 10
4.9246808106
 20
4.7683220675
 30
0.0
 10
4.9274025104
 20
4.7695287318
 30
0.0
 10
4.9292918209
 20
4.770135733
 30
0.0
 10
4.930247446
 20
4.770391792
 30
0.0
  0
SPLINE
  5
372
100
AcDbEntity
  8
ALL_FEATURES
100
AcDbSpline
 62
7
  6
CONTINUOUS
 70
0
 71
3
 72
12
 73
8
 74
0
 42
0.0000001
 43
0.0000001
 44
0.0000000001
 40
0.0
 40
0.0
 40
0.0
 40
0.0
 40
0.2502069725
 40
0.5003521059
 40
0.6254358092
 40
0.7505173449
 40
1.0
 40
1.0
 40
1.0
 40
1.0
 10
4.91151694
 20
4.7294614389
 30
0.0
 10
4.9109455813
 20
4.7315839932
 30
0.0
 10
4.9100710311
 20
4.7359084119
 30
0.0
 10
4.9098299618
 20
4.7414252715
 30
0.0
 10
4.910222665
 20
4.7458090307
 30
0.0
 10
4.9110236988
 20
4.7501295886
 30
0.0
 10
4.9120792723
 20
4.7532726399
 30
0.0
 10
4.9129653078
 20
4.7552773081
 30
0.0
  0
SPLINE
  5
373
100
AcDbEntity
  8
ALL_FEATURES
100
AcDbSpline
 62
7
  6
CONTINUOUS
 70
0
 71
3
 72
13
 73
9
 74
0
 42
0.0000001
 43
0.0000001
 44
0.0000000001
 40
0.0
 40
0.0
 40
0.0
 40
0.0
 40
0.2494890567
 40
0.3746965087
 40
0.4997678065
 40
0.6249304128
 40
0.7500471288
 40
1.0
 40
1.0
 40
1.0
 40
1.0
 10
4.9266424109
 20
4.7065607463
 30
0.0
 10
4.9246570256
 20
4.7077928545
 30
0.0
 10
4.9219018101
 20
4.7100400292
 30
0.0
 10
4.9188402147
 20
4.7135885818
 30
0.0
 10
4.9168474658
 20
4.7164943001
 30
0.0
 10
4.9151429004
 20
4.7195739116
 30
0.0
 10
4.9132180984
 20
4.723849664
 30
0.0
 10
4.9121254338
 20
4.7272009302
 30
0.0
 10
4.91151694
 20
4.7294614389
 30
0.0
  0
SPLINE
  5
374
100
AcDbEntity
  8
ALL_FEATURES
100
AcDbSpline
 62
7
  6
CONTINUOUS
 70
0
 71
3
 72
13
 73
9
 74
0
 42
0.0000001
 43
0.0000001
 44
0.0000000001
 40
0.0
 40
0.0
 40
0.0
 40
0.0
 40
0.249379694
 40
0.3743393873
 40
0.4993797017
 40
0.6245063731
 40
0.7497125487
 40
1.0
 40
1.0
 40
1.0
 40
1.0
 10
4.9495547668
 20
4.7031371245
 30
0.0
 10
4.9476400653
 20
4.7026240818
 30
0.0
 10
4.944685445
 20
4.7021048683
 30
0.0
 10
4.9407103142
 20
4.7020363006
 30
0.0
 10
4.9377354947
 20
4.7023175413
 30
0.0
 10
4.9348069868
 20
4.7029207101
 30
0.0
 10
4.9310161514
 20
4.7041511856
 30
0.0
 10
4.9283328126
 20
4.7055117017
 30
0.0
 10
4.9266424109
 20
4.7065607463
 30
0.0
  0
SPLINE
  5
375
100
AcDbEntity
  8
ALL_FEATURES
100
AcDbSpline
 62
7
  6
CONTINUOUS
 70
0
 71
3
 72
11
 73
7
 74
0
 42
0.0000001
 43
0.0000001
 44
0.0000000001
 40
0.0
 40
0.0
 40
0.0
 40
0.0
 40
0.2492509309
 40
0.4989237153
 40
0.7492673053
 40
1.0
 40
1.0
 40
1.0
 40
1.0
 10
5.0109677206
 20
4.7227227854
 30
0.0
 10
5.0078776505
 20
4.7218948036
 30
0.0
 10
5.0012583407
 20
4.7214908087
 30
0.0
 10
4.9920581482
 20
4.7249099978
 30
0.0
 10
4.9842302157
 20
4.7306430835
 30
0.0
 10
4.9797343724
 20
4.7352712769
 30
0.0
 10
4.9776213933
 20
4.7376985074
 30
0.0
  0
SPLINE
  5
376
100
AcDbEntity
  8
ALL_FEATURES
100
AcDbSpline
 62
7
  6
CONTINUOUS
 70
0
 71
3
 72
9
 73
5
 74
0
 42
0.0000001
 43
0.0000001
 44
0.0000000001
 40
0.0
 40
0.0
 40
0.0
 40
0.0
 40
0.5001688266
 40
1.0
 40
1.0
 40
1.0
 40
1.0
 10
4.9784797978
 20
4.7767940934
 30
0.0
 10
4.9801625869
 20
4.7784460961
 30
0.0
 10
4.9839723061
 20
4.7813289764
 30
0.0
 10
4.9884018304
 20
4.7831049129
 30
0.0
 10
4.9906780949
 20
4.7837148362
 30
0.0
  0
SPLINE
  5
377
100
AcDbEntity
  8
ALL_FEATURES
100
AcDbSpline
 62
7
  6
CONTINUOUS
 70
0
 71
3
 72
13
 73
9
 74
0
 42
0.0000001
 43
0.0000001
 44
0.0000000001
 40
0.0
 40
0.0
 40
0.0
 40
0.0
 40
0.2502258264
 40
0.5003423552
 40
0.6253590471
 40
0.750330794
 40
0.8752194957
 40
1.0
 40
1.0
 40
1.0
 40
1.0
 10
4.9665972444
 20
4.7552644316
 30
0.0
 10
4.9673776635
 20
4.7571723949
 30
0.0
 10
4.9689915599
 20
4.7609658898
 30
0.0
 10
4.9711938064
 20
4.7656261106
 30
0.0
 10
4.9731283088
 20
4.7692644667
 30
0.0
 10
4.9746951602
 20
4.7719278143
 30
0.0
 10
4.9764245572
 20
4.7744856819
 30
0.0
 10
4.9777462393
 20
4.7760739553
 30
0.0
 10
4.9784797978
 20
4.7767940934
 30
0.0
  0
SPLINE
  5
378
100
AcDbEntity
  8
ALL_FEATURES
100
AcDbSpline
 62
7
  6
CONTINUOUS
 70
0
 71
3
 72
14
 73
10
 74
0
 42
0.0000001
 43
0.0000001
 44
0.0000000001
 40
0.0
 40
0.0
 40
0.0
 40
0.0
 40
0.124789526
 40
0.2497041053
 40
0.3746968936
 40
0.4997275814
 40
0.6247843144
 40
0.7498562341
 40
1.0
 40
1.0
 40
1.0
 40
1.0
 10
4.9929607452
 20
4.6548816353
 30
0.0
 10
4.9938124157
 20
4.656493256
 30
0.0
 10
4.9951488149
 20
4.6599154333
 30
0.0
 10
4.9963593166
 20
4.6652639807
 30
0.0
 10
4.9970179682
 20
4.6707083732
 30
0.0
 10
4.9972714602
 20
4.6761848301
 30
0.0
 10
4.997218194
 20
4.6816668665
 30
0.0
 10
4.9968254037
 20
4.6889654508
 30
0.0
 10
4.9962409884
 20
4.6944194468
 30
0.0
 10
4.9957630873
 20
4.698041943
 30
0.0
  0
SPLINE
  5
379
100
AcDbEntity
  8
ALL_FEATURES
100
AcDbSpline
 62
7
  6
CONTINUOUS
 70
0
 71
3
 72
13
 73
9
 74
0
 42
0.0000001
 43
0.0000001
 44
0.0000000001
 40
0.0
 40
0.0
 40
0.0
 40
0.0
 40
0.249318786
 40
0.3742827218
 40
0.4993287271
 40
0.6244728598
 40
0.7496983454
 40
1.0
 40
1.0
 40
1.0
 40
1.0
 10
4.9726749838
 20
4.6385560728
 30
0.0
 10
4.9748271451
 20
4.6391327427
 30
0.0
 10
4.9779927102
 20
4.6402995041
 30
0.0
 10
4.9818878512
 20
4.6424913688
 30
0.0
 10
4.9846125318
 20
4.6444572356
 30
0.0
 10
4.9871084029
 20
4.6467096711
 30
0.0
 10
4.9900846382
 20
4.6500598717
 30
0.0
 10
4.9919156202
 20
4.65290394
 30
0.0
 10
4.9929607452
 20
4.6548816353
 30
0.0
  0
SPLINE
  5
37A
100
AcDbEntity
  8
ALL_FEATURES
100
AcDbSpline
 62
7
  6
CONTINUOUS
 70
0
 71
3
 72
14
 73
10
 74
0
 42
0.0000001
 43
0.0000001
 44
0.0000000001
 40
0.0
 40
0.0
 40
0.0
 40
0.0
 40
0.250299546
 40
0.3756667069
 40
0.5008003177
 40
0.6257677358
 40
0.7507098466
 40
0.8754417437
 40
1.0
 40
1.0
 40
1.0
 40
1.0
 10
4.928223143
 20
4.6784665667
 30
0.0
 10
4.9283848539
 20
4.6793447987
 30
0.0
 10
4.928717462
 20
4.6806526078
 30
0.0
 10
4.9294285414
 20
4.6822955905
 30
0.0
 10
4.9301172682
 20
4.6834503042
 30
0.0
 10
4.9309843324
 20
4.684477889
 30
0.0
 10
4.9320172684
 20
4.6853381089
 30
0.0
 10
4.9331908519
 20
4.6859898558
 30
0.0
 10
4.9340347822
 20
4.6862840688
 30
0.0
 10
4.9344640277
 20
4.6863990848
 30
0.0
  0
SPLINE
  5
37B
100
AcDbEntity
  8
ALL_FEATURES
100
AcDbSpline
 62
7
  6
CONTINUOUS
 70
0
 71
3
 72
11
 73
7
 74
0
 42
0.0000001
 43
0.0000001
 44
0.0000000001
 40
0.0
 40
0.0
 40
0.0
 40
0.0
 40
0.250114733
 40
0.5002045389
 40
0.7501954912
 40
1.0
 40
1.0
 40
1.0
 40
1.0
 10
4.9296158153
 20
4.6619720335
 30
0.0
 10
4.9292569846
 20
4.6633151548
 30
0.0
 10
4.9286169956
 20
4.6660230824
 30
0.0
 10
4.9279662288
 20
4.6701472853
 30
0.0
 10
4.9277349267
 20
4.6743172204
 30
0.0
 10
4.9279717015
 20
4.6771010192
 30
0.0
 10
4.928223143
 20
4.6784665667
 30
0.0
  0
SPLINE
  5
37C
100
AcDbEntity
  8
ALL_FEATURES
100
AcDbSpline
 62
7
  6
CONTINUOUS
 70
0
 71
3
 72
14
 73
10
 74
0
 42
0.0000001
 43
0.0000001
 44
0.0000000001
 40
0.0
 40
0.0
 40
0.0
 40
0.0
 40
0.124613165
 40
0.2495494912
 40
0.3745511624
 40
0.499597951
 40
0.6247430137
 40
0.7499192881
 40
1.0
 40
1.0
 40
1.0
 40
1.0
 10
4.9506468849
 20
4.6325679594
 30
0.0
 10
4.9493408301
 20
4.6333814812
 30
0.0
 10
4.9468014339
 20
4.635136727
 30
0.0
 10
4.943265186
 20
4.6381287559
 30
0.0
 10
4.9400486511
 20
4.6414713484
 30
0.0
 10
4.9371982484
 20
4.6451335646
 30
0.0
 10
4.9347217093
 20
4.6490605108
 30
0.0
 10
4.9319388972
 20
4.654585279
 30
0.0
 10
4.9304128436
 20
4.6589887172
 30
0.0
 10
4.9296158153
 20
4.6619720335
 30
0.0
  0
SPLINE
  5
37D
100
AcDbEntity
  8
ALL_FEATURES
100
AcDbSpline
 62
7
  6
CONTINUOUS
 70
0
 71
3
 72
15
 73
11
 74
0
 42
0.0000001
 43
0.0000001
 44
0.0000000001
 40
0.0
 40
0.0
 40
0.0
 40
0.0
 40
0.1247393258
 40
0.2496649923
 40
0.3745816724
 40
0.4995547982
 40
0.6246005811
 40
0.7496938244
 40
0.8748842798
 40
1.0
 40
1.0
 40
1.0
 40
1.0
 10
4.9842638663
 20
4.6274017765
 30
0.0
 10
4.9828566941
 20
4.6270247259
 30
0.0
 10
4.9800042592
 20
4.6263968003
 30
0.0
 10
4.975653708
 20
4.6258733419
 30
0.0
 10
4.971267479
 20
4.6258168059
 30
0.0
 10
4.9669016278
 20
4.6262559283
 30
0.0
 10
4.9626079932
 20
4.6271692546
 30
0.0
 10
4.958438969
 20
4.6285510059
 30
0.0
 10
4.9544350223
 20
4.6303533285
 30
0.0
 10
4.9518871642
 20
4.6317954081
 30
0.0
 10
4.9506468849
 20
4.6325679594
 30
0.0
  0
LINE
  5
37E
100
AcDbEntity
  8
ALL_FEATURES
100
AcDbLine
 62
7
  6
CONTINUOUS
 10
5.0145244033
 20
4.6868966136
 11
5.0293372608
 21
4.6837359291
  0
LINE
  5
37F
100
AcDbEntity
  8
ALL_FEATURES
100
AcDbLine
 62
7
  6
CONTINUOUS
 10
5.0293372608
 20
4.6837359291
 11
5.0389464772
 21
4.6477056016
  0
LINE
  5
380
100
AcDbEntity
  8
ALL_FEATURES
100
AcDbLine
 62
7
  6
CONTINUOUS
 10
5.0389464772
 20
4.6477056016
 11
5.0554553329
 21
4.6443037681
  0
LINE
  5
381
100
AcDbEntity
  8
ALL_FEATURES
100
AcDbLine
 62
7
  6
CONTINUOUS
 10
4.9612614067
 20
4.4295006636
 11
4.9590908045
 21
4.4171905666
  0
LINE
  5
382
100
AcDbEntity
  8
ALL_FEATURES
100
AcDbLine
 62
7
  6
CONTINUOUS
 10
4.9551271665
 20
4.2037804848
 11
4.9522097177
 21
4.201927252
  0
SPLINE
  5
383
100
AcDbEntity
  8
ALL_FEATURES
100
AcDbSpline
 62
7
  6
CONTINUOUS
 70
0
 71
3
 72
12
 73
8
 74
0
 42
0.0000001
 43
0.0000001
 44
0.0000000001
 40
0.0
 40
0.0
 40
0.0
 40
0.0
 40
0.1251967548
 40
0.2503803003
 40
0.5003321686
 40
0.7502046745
 40
1.0
 40
1.0
 40
1.0
 40
1.0
 10
4.9561491334
 20
4.1883161927
 30
0.0
 10
4.9561364515
 20
4.1889100976
 30
0.0
 10
4.9560192986
 20
4.1900960376
 30
0.0
 10
4.9555676095
 20
4.1924281518
 30
0.0
 10
4.9547479388
 20
4.1952831366
 30
0.0
 10
4.9535537422
 20
4.1986343443
 30
0.0
 10
4.9526678554
 20
4.2008341332
 30
0.0
 10
4.9522097177
 20
4.201927252
 30
0.0
  0
SPLINE
  5
384
100
AcDbEntity
  8
ALL_FEATURES
100
AcDbSpline
 62
7
  6
CONTINUOUS
 70
0
 71
3
 72
13
 73
9
 74
0
 42
0.0000001
 43
0.0000001
 44
0.0000000001
 40
0.0
 40
0.0
 40
0.0
 40
0.0
 40
0.2499692517
 40
0.4999437482
 40
0.6249505599
 40
0.7499047507
 40
0.8751365384
 40
1.0
 40
1.0
 40
1.0
 40
1.0
 10
4.950470438
 20
4.175561438
 30
0.0
 10
4.951145108
 20
4.1765276699
 30
0.0
 10
4.9524490094
 20
4.1784923569
 30
0.0
 10
4.953914772
 20
4.1810528801
 30
0.0
 10
4.9549204904
 20
4.1831858557
 30
0.0
 10
4.9555605008
 20
4.1848373553
 30
0.0
 10
4.9560297664
 20
4.1865452871
 30
0.0
 10
4.9561617005
 20
4.1877276648
 30
0.0
 10
4.9561491334
 20
4.1883161927
 30
0.0
  0
LINE
  5
385
100
AcDbEntity
  8
ALL_FEATURES
100
AcDbLine
 62
7
  6
CONTINUOUS
 10
4.9504721846
 20
4.1755639388
 11
4.930940052
 21
4.1476142447
  0
LINE
  5
386
100
AcDbEntity
  8
ALL_FEATURES
100
AcDbLine
 62
7
  6
CONTINUOUS
 10
4.8682086127
 20
4.2326528727
 11
4.8613814591
 21
4.2228743673
  0
LINE
  5
387
100
AcDbEntity
  8
ALL_FEATURES
100
AcDbLine
 62
7
  6
CONTINUOUS
 10
4.8613814591
 20
4.2228743673
 11
4.9339496963
 21
4.1256164919
  0
SPLINE
  5
388
100
AcDbEntity
  8
ALL_FEATURES
100
AcDbSpline
 62
7
  6
CONTINUOUS
 70
0
 71
3
 72
14
 73
10
 74
0
 42
0.0000001
 43
0.0000001
 44
0.0000000001
 40
0.0
 40
0.0
 40
0.0
 40
0.0
 40
0.124789526
 40
0.2497041053
 40
0.3746968936
 40
0.4997275814
 40
0.6247843144
 40
0.7498562341
 40
1.0
 40
1.0
 40
1.0
 40
1.0
 10
4.8539446604
 20
4.1119430611
 30
0.0
 10
4.8557266768
 20
4.1123265734
 30
0.0
 10
4.8592072375
 20
4.1135025654
 30
0.0
 10
4.864082558
 20
4.1160132473
 30
0.0
 10
4.8686765777
 20
4.119008279
 30
0.0
 10
4.8730347286
 20
4.1223342914
 30
0.0
 10
4.8771999733
 20
4.1258988808
 30
0.0
 10
4.8825385325
 20
4.1308912151
 30
0.0
 10
4.8863408809
 20
4.1348446643
 30
0.0
 10
4.8888086851
 20
4.1375392535
 30
0.0
  0
SPLINE
  5
389
100
AcDbEntity
  8
ALL_FEATURES
100
AcDbSpline
 62
7
  6
CONTINUOUS
 70
0
 71
3
 72
13
 73
9
 74
0
 42
0.0000001
 43
0.0000001
 44
0.0000000001
 40
0.0
 40
0.0
 40
0.0
 40
0.0
 40
0.249318786
 40
0.3742827218
 40
0.4993287271
 40
0.6244728598
 40
0.7496983454
 40
1.0
 40
1.0
 40
1.0
 40
1.0
 10
4.8283991179
 20
4.1169889865
 30
0.0
 10
4.8302242553
 20
4.1157110116
 30
0.0
 10
4.8331528325
 20
4.1140360279
 30
0.0
 10
4.8373356466
 20
4.1124610802
 30
0.0
 10
4.8405929789
 20
4.1116374886
 30
0.0
 10
4.8439227595
 20
4.111173378
 30
0.0
 10
4.8484022493
 20
4.111046917
 30
0.0
 10
4.8517578646
 20
4.1114724352
 30
0.0
 10
4.8539446604
 20
4.1119430611
 30
0.0
  0
SPLINE
  5
38A
100
AcDbEntity
  8
ALL_FEATURES
100
AcDbSpline
 62
7
  6
CONTINUOUS
 70
0
 71
3
 72
14
 73
10
 74
0
 42
0.0000001
 43
0.0000001
 44
0.0000000001
 40
0.0
 40
0.0
 40
0.0
 40
0.0
 40
0.250299546
 40
0.3756667069
 40
0.5008003177
 40
0.6257677358
 40
0.7507098466
 40
0.8754417437
 40
1.0
 40
1.0
 40
1.0
 40
1.0
 10
4.8303992375
 20
4.1766950432
 30
0.0
 10
4.831175948
 20
4.177135682
 30
0.0
 10
4.8323915843
 20
4.177721533
 30
0.0
 10
4.834107255
 20
4.1782329034
 30
0.0
 10
4.8354345221
 20
4.1784475438
 30
0.0
 10
4.8367790359
 20
4.1784438529
 30
0.0
 10
4.838101961
 20
4.1782055167
 30
0.0
 10
4.839355593
 20
4.1777254344
 30
0.0
 10
4.8401234412
 20
4.1772680628
 30
0.0
 10
4.8404874622
 20
4.1770131725
 30
0.0
  0
SPLINE
  5
38B
100
AcDbEntity
  8
ALL_FEATURES
100
AcDbSpline
 62
7
  6
CONTINUOUS
 70
0
 71
3
 72
11
 73
7
 74
0
 42
0.0000001
 43
0.0000001
 44
0.0000000001
 40
0.0
 40
0.0
 40
0.0
 40
0.0
 40
0.250114733
 40
0.5002045389
 40
0.7501954912
 40
1.0
 40
1.0
 40
1.0
 40
1.0
 10
4.8186588845
 20
4.1650257127
 30
0.0
 10
4.8194571232
 20
4.1661639347
 30
0.0
 10
4.8211201391
 20
4.168394817
 30
0.0
 10
4.823861157
 20
4.1715443199
 30
0.0
 10
4.8269068345
 20
4.1744018901
 30
0.0
 10
4.829191544
 20
4.1760099016
 30
0.0
 10
4.8303992375
 20
4.1766950432
 30
0.0
  0
SPLINE
  5
38C
100
AcDbEntity
  8
ALL_FEATURES
100
AcDbSpline
 62
7
  6
CONTINUOUS
 70
0
 71
3
 72
14
 73
10
 74
0
 42
0.0000001
 43
0.0000001
 44
0.0000000001
 40
0.0
 40
0.0
 40
0.0
 40
0.0
 40
0.124613165
 40
0.2495494912
 40
0.3745511624
 40
0.499597951
 40
0.6247430137
 40
0.7499192881
 40
1.0
 40
1.0
 40
1.0
 40
1.0
 10
4.8096525679
 20
4.1300144042
 30
0.0
 10
4.809436246
 20
4.131537822
 30
0.0
 10
4.8091485498
 20
4.1346113625
 30
0.0
 10
4.8091675206
 20
4.1392435247
 30
0.0
 10
4.8096605462
 20
4.1438561105
 30
0.0
 10
4.8106337631
 20
4.1483936728
 30
0.0
 10
4.8120500897
 20
4.1528150042
 30
0.0
 10
4.8144935505
 20
4.1584980145
 30
0.0
 10
4.8168858515
 20
4.1624975149
 30
0.0
 10
4.8186588845
 20
4.1650257127
 30
0.0
  0
SPLINE
  5
38D
100
AcDbEntity
  8
ALL_FEATURES
100
AcDbSpline
 62
7
  6
CONTINUOUS
 70
0
 71
3
 72
15
 73
11
 74
0
 42
0.0000001
 43
0.0000001
 44
0.0000000001
 40
0.0
 40
0.0
 40
0.0
 40
0.0
 40
0.1247393258
 40
0.2496649923
 40
0.3745816724
 40
0.4995547982
 40
0.6246005811
 40
0.7496938244
 40
0.8748842798
 40
1.0
 40
1.0
 40
1.0
 40
1.0
 10
4.8273036214
 20
4.1009415441
 30
0.0
 10
4.8261102709
 20
4.1017771371
 30
0.0
 10
4.8237957422
 20
4.1035586062
 30
0.0
 10
4.8205982694
 20
4.1065548492
 30
0.0
 10
4.8177355466
 20
4.1098785549
 30
0.0
 10
4.8152656188
 20
4.1135052534
 30
0.0
 10
4.8132053723
 20
4.1173814431
 30
0.0
 10
4.8115840582
 20
4.1214632735
 30
0.0
 10
4.81039103
 20
4.1256889853
 30
0.0
 10
4.8098579954
 20
4.1285677088
 30
0.0
 10
4.8096525679
 20
4.1300144042
 30
0.0
  0
LINE
  5
38E
100
AcDbEntity
  8
ALL_FEATURES
100
AcDbLine
 62
7
  6
CONTINUOUS
 10
4.8923304089
 20
4.116003172
 11
4.8994307054
 21
4.102624216
  0
LINE
  5
38F
100
AcDbEntity
  8
ALL_FEATURES
100
AcDbLine
 62
7
  6
CONTINUOUS
 10
4.8994307054
 20
4.102624216
 11
4.8780065585
 21
4.072103281
  0
LINE
  5
390
100
AcDbEntity
  8
ALL_FEATURES
100
AcDbLine
 62
7
  6
CONTINUOUS
 10
4.8780065585
 20
4.072103281
 11
4.8860122907
 21
4.0572701074
  0
SPLINE
  5
391
100
AcDbEntity
  8
ALL_FEATURES
100
AcDbSpline
 62
7
  6
CONTINUOUS
 70
0
 71
3
 72
12
 73
8
 74
0
 42
0.0000001
 43
0.0000001
 44
0.0000000001
 40
0.0
 40
0.0
 40
0.0
 40
0.0
 40
0.2494151232
 40
0.4998518636
 40
0.6248738654
 40
0.749923291
 40
1.0
 40
1.0
 40
1.0
 40
1.0
 10
4.3821015349
 20
3.8201434647
 30
0.0
 10
4.3828166308
 20
3.8193497492
 30
0.0
 10
4.3846170342
 20
3.8180904992
 30
0.0
 10
4.3871480302
 20
3.8171802227
 30
0.0
 10
4.3892408601
 20
3.8167082702
 30
0.0
 10
4.3913555568
 20
3.816359877
 30
0.0
 10
4.3929584705
 20
3.8162164573
 30
0.0
 10
4.3940279976
 20
3.8161571172
 30
0.0
  0
SPLINE
  5
392
100
AcDbEntity
  8
ALL_FEATURES
100
AcDbSpline
 62
7
  6
CONTINUOUS
 70
0
 71
3
 72
13
 73
9
 74
0
 42
0.0000001
 43
0.0000001
 44
0.0000000001
 40
0.0
 40
0.0
 40
0.0
 40
0.0
 40
0.2496208275
 40
0.4992965221
 40
0.7487921287
 40
0.811811548
 40
0.8749452709
 40
1.0
 40
1.0
 40
1.0
 40
1.0
 10
4.3789945466
 20
3.8347178259
 30
0.0
 10
4.3789945466
 20
3.8334564367
 30
0.0
 10
4.3790525539
 20
3.8309319744
 30
0.0
 10
4.379402562
 20
3.8271627156
 30
0.0
 10
4.3799792057
 20
3.8243640147
 30
0.0
 10
4.3806306007
 20
3.8225789343
 30
0.0
 10
4.3811528953
 20
3.8214220527
 30
0.0
 10
4.3816785509
 20
3.8206129527
 30
0.0
 10
4.3821015349
 20
3.8201434647
 30
0.0
  0
LINE
  5
393
100
AcDbEntity
  8
ALL_FEATURES
100
AcDbLine
 62
7
  6
CONTINUOUS
 10
4.4274543325
 20
3.8900223289
 11
4.4231710587
 21
3.8900132832
  0
SPLINE
  5
394
100
AcDbEntity
  8
ALL_FEATURES
100
AcDbSpline
 62
7
  6
CONTINUOUS
 70
0
 71
3
 72
12
 73
8
 74
0
 42
0.0000001
 43
0.0000001
 44
0.0000000001
 40
0.0
 40
0.0
 40
0.0
 40
0.0
 40
0.25038073
 40
0.5007073235
 40
0.6255909085
 40
0.7504369466
 40
1.0
 40
1.0
 40
1.0
 40
1.0
 10
4.4190542307
 20
3.8775934042
 30
0.0
 10
4.4198132478
 20
3.8784025168
 30
0.0
 10
4.4210212241
 20
3.8803114738
 30
0.0
 10
4.4219556687
 20
3.8829313677
 30
0.0
 10
4.4224761093
 20
3.8850863351
 30
0.0
 10
4.4228814909
 20
3.8872619275
 30
0.0
 10
4.4230758811
 20
3.8889116091
 30
0.0
 10
4.4231710587
 20
3.8900132832
 30
0.0
  0
SPLINE
  5
395
100
AcDbEntity
  8
ALL_FEATURES
100
AcDbSpline
 62
7
  6
CONTINUOUS
 70
0
 71
3
 72
11
 73
7
 74
0
 42
0.0000001
 43
0.0000001
 44
0.0000000001
 40
0.0
 40
0.0
 40
0.0
 40
0.0
 40
0.2501879941
 40
0.5004125222
 40
0.7504142909
 40
1.0
 40
1.0
 40
1.0
 40
1.0
 10
4.4044441893
 20
3.8739011708
 30
0.0
 10
4.4057278314
 20
3.8739031663
 30
0.0
 10
4.4082957149
 20
3.8739747711
 30
0.0
 10
4.4121314163
 20
3.8744045266
 30
0.0
 10
4.4158711701
 20
3.8753306206
 30
0.0
 10
4.4181781163
 20
3.8766594658
 30
0.0
 10
4.4190542307
 20
3.8775934042
 30
0.0
  0
LINE
  5
396
100
AcDbEntity
  8
ALL_FEATURES
100
AcDbLine
 62
7
  6
CONTINUOUS
 10
4.4044422304
 20
3.8739011038
 11
4.3789945466
 21
3.8738694718
  0
LINE
  5
397
100
AcDbEntity
  8
ALL_FEATURES
100
AcDbLine
 62
7
  6
CONTINUOUS
 10
4.4365247984
 20
3.9271180519
 11
4.4377005984
 21
3.9011266365
  0
SPLINE
  5
398
100
AcDbEntity
  8
ALL_FEATURES
100
AcDbSpline
 62
7
  6
CONTINUOUS
 70
0
 71
3
 72
14
 73
10
 74
0
 42
0.0000001
 43
0.0000001
 44
0.0000000001
 40
0.0
 40
0.0
 40
0.0
 40
0.0
 40
0.1251899337
 40
0.1880875602
 40
0.2506965777
 40
0.375580707
 40
0.5005020857
 40
0.7502658355
 40
1.0
 40
1.0
 40
1.0
 40
1.0
 10
4.358082133
 20
3.8201272253
 30
0.0
 10
4.3584719892
 20
3.8206195016
 30
0.0
 10
4.3589406989
 20
3.8214529028
 30
0.0
 10
4.3594031806
 20
3.8226217464
 30
0.0
 10
4.359789196
 20
3.823818081
 30
0.0
 10
4.3601448664
 20
3.8253465505
 30
0.0
 10
4.3605428423
 20
3.8278218006
 30
0.0
 10
4.3608001944
 20
3.8309473313
 30
0.0
 10
4.3608536218
 20
3.8334530711
 30
0.0
 10
4.3608536218
 20
3.8347057364
 30
0.0
  0
SPLINE
  5
399
100
AcDbEntity
  8
ALL_FEATURES
100
AcDbSpline
 62
7
  6
CONTINUOUS
 70
0
 71
3
 72
11
 73
7
 74
0
 42
0.0000001
 43
0.0000001
 44
0.0000000001
 40
0.0
 40
0.0
 40
0.0
 40
0.0
 40
0.2503255142
 40
0.5006316518
 40
0.7506148837
 40
1.0
 40
1.0
 40
1.0
 40
1.0
 10
4.3458201691
 20
3.8161257777
 30
0.0
 10
4.3469202182
 20
3.8161840808
 30
0.0
 10
4.3491174877
 20
3.8163660684
 30
0.0
 10
4.3523793911
 20
3.8169406105
 30
0.0
 10
4.3555234479
 20
3.8179649757
 30
0.0
 10
4.3574007921
 20
3.8192668873
 30
0.0
 10
4.358082133
 20
3.8201272253
 30
0.0
  0
SPLINE
  5
39A
100
AcDbEntity
  8
ALL_FEATURES
100
AcDbSpline
 62
7
  6
CONTINUOUS
 70
0
 71
3
 72
11
 73
7
 74
0
 42
0.0000001
 43
0.0000001
 44
0.0000000001
 40
0.0
 40
0.0
 40
0.0
 40
0.0
 40
0.2498620164
 40
0.4998142111
 40
0.7497944999
 40
1.0
 40
1.0
 40
1.0
 40
1.0
 10
4.3793747711
 20
5.1946578067
 30
0.0
 10
4.3793747711
 20
5.191401653
 30
0.0
 10
4.3791107812
 20
5.1848839001
 30
0.0
 10
4.3777887394
 20
5.1751857082
 30
0.0
 10
4.3754135738
 20
5.1656810805
 30
0.0
 10
4.373049882
 20
5.1595828212
 30
0.0
 10
4.3716704149
 20
5.1566283707
 30
0.0
  0
SPLINE
  5
39B
100
AcDbEntity
  8
ALL_FEATURES
100
AcDbSpline
 62
7
  6
CONTINUOUS
 70
0
 71
3
 72
9
 73
5
 74
0
 42
0.0000001
 43
0.0000001
 44
0.0000000001
 40
0.0
 40
0.0
 40
0.0
 40
0.0
 40
0.5006599429
 40
1.0
 40
1.0
 40
1.0
 40
1.0
 10
5.0123789232
 20
4.7697906805
 30
0.0
 10
5.0105426985
 20
4.7709856268
 30
0.0
 10
5.0063788419
 20
4.7727662654
 30
0.0
 10
5.0018463359
 20
4.7724477815
 30
0.0
 10
4.9997357614
 20
4.7718822547
 30
0.0
  0
SPLINE
  5
39C
100
AcDbEntity
  8
ALL_FEATURES
100
AcDbSpline
 62
7
  6
CONTINUOUS
 70
0
 71
3
 72
9
 73
5
 74
0
 42
0.0000001
 43
0.0000001
 44
0.0000000001
 40
0.0
 40
0.0
 40
0.0
 40
0.0
 40
0.5003353113
 40
1.0
 40
1.0
 40
1.0
 40
1.0
 10
5.020384114
 20
4.7586328381
 30
0.0
 10
5.0197784616
 20
4.7608844151
 30
0.0
 10
5.0178359938
 20
4.7652513442
 30
0.0
 10
5.0143305477
 20
4.7685206363
 30
0.0
 10
5.0123789232
 20
4.7697906805
 30
0.0
  0
SPLINE
  5
39D
100
AcDbEntity
  8
ALL_FEATURES
100
AcDbSpline
 62
7
  6
CONTINUOUS
 70
0
 71
3
 72
12
 73
8
 74
0
 42
0.0000001
 43
0.0000001
 44
0.0000000001
 40
0.0
 40
0.0
 40
0.0
 40
0.0
 40
0.2494590877
 40
0.3745895572
 40
0.4996958249
 40
0.7498450834
 40
1.0
 40
1.0
 40
1.0
 40
1.0
 10
5.0191031712
 20
4.7444658839
 30
0.0
 10
5.0196913775
 20
4.7455261523
 30
0.0
 10
5.0204045416
 20
4.7472220408
 30
0.0
 10
5.0209662929
 20
4.74958864
 30
0.0
 10
5.0212653974
 20
4.7520068689
 30
0.0
 10
5.0211791493
 20
4.7550645073
 30
0.0
 10
5.0206999478
 20
4.7574586925
 30
0.0
 10
5.020384114
 20
4.7586328381
 30
0.0
  0
SPLINE
  5
39E
100
AcDbEntity
  8
ALL_FEATURES
100
AcDbSpline
 62
7
  6
CONTINUOUS
 70
0
 71
3
 72
12
 73
8
 74
0
 42
0.0000001
 43
0.0000001
 44
0.0000000001
 40
0.0
 40
0.0
 40
0.0
 40
0.0
 40
0.2494587737
 40
0.4991740155
 40
0.6242929008
 40
0.749593941
 40
1.0
 40
1.0
 40
1.0
 40
1.0
 10
5.0082019895
 20
4.7362412537
 30
0.0
 10
5.0093290081
 20
4.7365432374
 30
0.0
 10
5.0115436467
 20
4.7373224534
 30
0.0
 10
5.0140823635
 20
4.7388083908
 30
0.0
 10
5.0158909105
 20
4.7402991221
 30
0.0
 10
5.0175229821
 20
4.7419846107
 30
0.0
 10
5.0185349972
 20
4.7434417246
 30
0.0
 10
5.0191031712
 20
4.7444658839
 30
0.0
  0
SPLINE
  5
39F
100
AcDbEntity
  8
ALL_FEATURES
100
AcDbSpline
 62
7
  6
CONTINUOUS
 70
0
 71
3
 72
9
 73
5
 74
0
 42
0.0000001
 43
0.0000001
 44
0.0000000001
 40
0.0
 40
0.0
 40
0.0
 40
0.0
 40
0.4998551029
 40
1.0
 40
1.0
 40
1.0
 40
1.0
 10
4.9542964505
 20
4.7265141119
 30
0.0
 10
4.9561789158
 20
4.7299776095
 30
0.0
 10
4.9595721036
 20
4.7371119526
 30
0.0
 10
4.9623778696
 20
4.7444891698
 30
0.0
 10
4.9636635337
 20
4.7482180547
 30
0.0
  0
SPLINE
  5
3A0
100
AcDbEntity
  8
ALL_FEATURES
100
AcDbSpline
 62
7
  6
CONTINUOUS
 70
0
 71
3
 72
12
 73
8
 74
0
 42
0.0000001
 43
0.0000001
 44
0.0000000001
 40
0.0
 40
0.0
 40
0.0
 40
0.0
 40
0.2495770399
 40
0.374660897
 40
0.4997167774
 40
0.749787559
 40
1.0
 40
1.0
 40
1.0
 40
1.0
 10
4.9406744072
 20
4.7150171613
 30
0.0
 10
4.9421475205
 20
4.7154118809
 30
0.0
 10
4.9443044617
 20
4.7162537057
 30
0.0
 10
4.946916237
 20
4.7178462688
 30
0.0
 10
4.9493243453
 20
4.719739409
 30
0.0
 10
4.9519265306
 20
4.7225749347
 30
0.0
 10
4.953566312
 20
4.7251707496
 30
0.0
 10
4.9542964505
 20
4.7265141119
 30
0.0
  0
SPLINE
  5
3A1
100
AcDbEntity
  8
ALL_FEATURES
100
AcDbSpline
 62
7
  6
CONTINUOUS
 70
0
 71
3
 72
11
 73
7
 74
0
 42
0.0000001
 43
0.0000001
 44
0.0000000001
 40
0.0
 40
0.0
 40
0.0
 40
0.0
 40
0.2506475567
 40
0.500925626
 40
0.7506932924
 40
1.0
 40
1.0
 40
1.0
 40
1.0
 10
4.9636635337
 20
4.7482180547
 30
0.0
 10
4.9616959104
 20
4.749951393
 30
0.0
 10
4.9575449118
 20
4.7531833788
 30
0.0
 10
4.9505421716
 20
4.7568682339
 30
0.0
 10
4.9427848127
 20
4.7586406738
 30
0.0
 10
4.9374825752
 20
4.7580708819
 30
0.0
 10
4.9349632612
 20
4.7573958338
 30
0.0
  0
SPLINE
  5
3A2
100
AcDbEntity
  8
ALL_FEATURES
100
AcDbSpline
 62
7
  6
CONTINUOUS
 70
0
 71
3
 72
13
 73
9
 74
0
 42
0.0000001
 43
0.0000001
 44
0.0000000001
 40
0.0
 40
0.0
 40
0.0
 40
0.0
 40
0.1250509959
 40
0.250074103
 40
0.3750722052
 40
0.5000667406
 40
0.7500203025
 40
1.0
 40
1.0
 40
1.0
 40
1.0
 10
4.4089374764
 20
5.2342725356
 30
0.0
 10
4.408345761
 20
5.23279148
 30
0.0
 10
4.4073388864
 20
5.2297581574
 30
0.0
 10
4.4062163607
 20
5.2251046739
 30
0.0
 10
4.4053846691
 20
5.2203921122
 30
0.0
 10
4.4045783038
 20
5.2140652928
 30
0.0
 10
4.4040191789
 20
5.2061087352
 30
0.0
 10
4.4038986187
 20
5.1997318567
 30
0.0
 10
4.4038986187
 20
5.1965436498
 30
0.0
  0
SPLINE
  5
3A3
100
AcDbEntity
  8
ALL_FEATURES
100
AcDbSpline
 62
7
  6
CONTINUOUS
 70
0
 71
3
 72
11
 73
7
 74
0
 42
0.0000001
 43
0.0000001
 44
0.0000000001
 40
0.0
 40
0.0
 40
0.0
 40
0.0
 40
0.2508616949
 40
0.501083813
 40
0.7507459866
 40
1.0
 40
1.0
 40
1.0
 40
1.0
 10
4.4257349152
 20
5.2469065385
 30
0.0
 10
4.4238585618
 20
5.2469101252
 30
0.0
 10
4.4200662074
 20
5.2464325384
 30
0.0
 10
4.4150028632
 20
5.2436952221
 30
0.0
 10
4.4112943892
 20
5.2393718855
 30
0.0
 10
4.4096291597
 20
5.236003809
 30
0.0
 10
4.4089374764
 20
5.2342725356
 30
0.0
  0
SPLINE
  5
3A4
100
AcDbEntity
  8
ALL_FEATURES
100
AcDbSpline
 62
7
  6
CONTINUOUS
 70
0
 71
3
 72
11
 73
7
 74
0
 42
0.0000001
 43
0.0000001
 44
0.0000000001
 40
0.0
 40
0.0
 40
0.0
 40
0.0
 40
0.249314671
 40
0.4990896733
 40
0.7493599785
 40
1.0
 40
1.0
 40
1.0
 40
1.0
 10
4.4427000338
 20
5.2328743269
 30
0.0
 10
4.4420095178
 20
5.2347025705
 30
0.0
 10
4.4403691412
 20
5.2382756742
 30
0.0
 10
4.4367744425
 20
5.2430198343
 30
0.0
 10
4.4316859031
 20
5.2462810697
 30
0.0
 10
4.4276996002
 20
5.2469027829
 30
0.0
 10
4.4257349152
 20
5.2469065385
 30
0.0
  0
SPLINE
  5
3A5
100
AcDbEntity
  8
ALL_FEATURES
100
AcDbSpline
 62
7
  6
CONTINUOUS
 70
0
 71
3
 72
12
 73
8
 74
0
 42
0.0000001
 43
0.0000001
 44
0.0000000001
 40
0.0
 40
0.0
 40
0.0
 40
0.0
 40
0.2498954593
 40
0.4998201404
 40
0.7497909862
 40
0.8748692256
 40
1.0
 40
1.0
 40
1.0
 40
1.0
 10
4.4479911434
 20
5.1943698663
 30
0.0
 10
4.4479911434
 20
5.1976230527
 30
0.0
 10
4.4478525149
 20
5.2041314656
 30
0.0
 10
4.4470967161
 20
5.2138686637
 30
0.0
 10
4.4458402694
 20
5.2219216625
 30
0.0
 10
4.444284074
 20
5.228248358
 30
0.0
 10
4.4432756028
 20
5.2313504229
 30
0.0
 10
4.4427000338
 20
5.2328743269
 30
0.0
  0
SPLINE
  5
3A6
100
AcDbEntity
  8
ALL_FEATURES
100
AcDbSpline
 62
7
  6
CONTINUOUS
 70
0
 71
3
 72
13
 73
9
 74
0
 42
0.0000001
 43
0.0000001
 44
0.0000000001
 40
0.0
 40
0.0
 40
0.0
 40
0.0
 40
0.1250946862
 40
0.2501434203
 40
0.3751529263
 40
0.5001473556
 40
0.750074128
 40
1.0
 40
1.0
 40
1.0
 40
1.0
 10
4.3232722932
 20
5.234322318
 30
0.0
 10
4.322680611
 20
5.2328402773
 30
0.0
 10
4.3216736198
 20
5.2298053493
 30
0.0
 10
4.3205510174
 20
5.2251497576
 30
0.0
 10
4.3197192703
 20
5.2204356802
 30
0.0
 10
4.3189128749
 20
5.2141076731
 30
0.0
 10
4.3183537076
 20
5.2061504237
 30
0.0
 10
4.3182331296
 20
5.1997731931
 30
0.0
 10
4.3182331296
 20
5.1965849828
 30
0.0
  0
SPLINE
  5
3A7
100
AcDbEntity
  8
ALL_FEATURES
100
AcDbSpline
 62
7
  6
CONTINUOUS
 70
0
 71
3
 72
15
 73
11
 74
0
 42
0.0000001
 43
0.0000001
 44
0.0000000001
 40
0.0
 40
0.0
 40
0.0
 40
0.0
 40
0.1253791689
 40
0.2507867753
 40
0.3760317585
 40
0.501160167
 40
0.626089603
 40
0.7508357331
 40
0.8754830721
 40
1.0
 40
1.0
 40
1.0
 40
1.0
 10
4.3400694189
 20
5.2469875041
 30
0.0
 10
4.3391282892
 20
5.246987478
 30
0.0
 10
4.3372423494
 20
5.2468667594
 30
0.0
 10
4.3344754552
 20
5.2462451392
 30
0.0
 10
4.331863414
 20
5.2451367923
 30
0.0
 10
4.3295105195
 20
5.2435575952
 30
0.0
 10
4.3274823104
 20
5.2415888898
 30
0.0
 10
4.3257832601
 20
5.2393396533
 30
0.0
 10
4.3243830744
 20
5.2369005544
 30
0.0
 10
4.3236188437
 20
5.2351903546
 30
0.0
 10
4.3232722932
 20
5.234322318
 30
0.0
  0
SPLINE
  5
3A8
100
AcDbEntity
  8
ALL_FEATURES
100
AcDbSpline
 62
7
  6
CONTINUOUS
 70
0
 71
3
 72
14
 73
10
 74
0
 42
0.0000001
 43
0.0000001
 44
0.0000000001
 40
0.0
 40
0.0
 40
0.0
 40
0.0
 40
0.1254996783
 40
0.2510285499
 40
0.376430295
 40
0.5015818358
 40
0.626448244
 40
0.7513452692
 40
1.0
 40
1.0
 40
1.0
 40
1.0
 10
4.3400694189
 20
5.2469875041
 30
0.0
 10
4.3410551478
 20
5.2469875314
 30
0.0
 10
4.3430312077
 20
5.2468350899
 30
0.0
 10
4.3459096488
 20
5.2460808588
 30
0.0
 10
4.3485688607
 20
5.2447481334
 30
0.0
 10
4.3509198741
 20
5.2429404593
 30
0.0
 10
4.3529060981
 20
5.2407488084
 30
0.0
 10
4.355111017
 20
5.237503447
 30
0.0
 10
4.3563439313
 20
5.2348172506
 30
0.0
 10
4.3570345511
 20
5.2329903906
 30
0.0
  0
SPLINE
  5
3A9
100
AcDbEntity
  8
ALL_FEATURES
100
AcDbSpline
 62
7
  6
CONTINUOUS
 70
0
 71
3
 72
12
 73
8
 74
0
 42
0.0000001
 43
0.0000001
 44
0.0000000001
 40
0.0
 40
0.0
 40
0.0
 40
0.0
 40
0.2499432705
 40
0.4998896382
 40
0.7498480814
 40
0.8749041086
 40
1.0
 40
1.0
 40
1.0
 40
1.0
 10
4.362325653
 20
5.1945035738
 30
0.0
 10
4.362325653
 20
5.1977559424
 30
0.0
 10
4.36218705
 20
5.2042623807
 30
0.0
 10
4.3614313128
 20
5.2139959964
 30
0.0
 10
4.3601749135
 20
5.2220452044
 30
0.0
 10
4.3586186815
 20
5.2283679974
 30
0.0
 10
4.3576101618
 20
5.2314677583
 30
0.0
 10
4.3570345511
 20
5.2329903906
 30
0.0
  0
SPLINE
  5
3AA
100
AcDbEntity
  8
ALL_FEATURES
100
AcDbSpline
 62
7
  6
CONTINUOUS
 70
0
 71
3
 72
13
 73
9
 74
0
 42
0.0000001
 43
0.0000001
 44
0.0000000001
 40
0.0
 40
0.0
 40
0.0
 40
0.0
 40
0.1250509959
 40
0.250074103
 40
0.3750722052
 40
0.5000667406
 40
0.7500203025
 40
1.0
 40
1.0
 40
1.0
 40
1.0
 10
3.6996822918
 20
4.2401617884
 30
0.0
 10
3.7012607813
 20
4.2403898755
 30
0.0
 10
3.704391153
 20
4.2410345579
 30
0.0
 10
3.7089824508
 20
4.2423891639
 30
0.0
 10
3.7134794947
 20
4.2440251786
 30
0.0
 10
3.7193618637
 20
4.2464902555
 30
0.0
 10
3.7265320072
 20
4.2499843179
 30
0.0
 10
3.7321148261
 20
4.253068349
 30
0.0
 10
3.7348758942
 20
4.2546624524
 30
0.0
  0
SPLINE
  5
3AB
100
AcDbEntity
  8
ALL_FEATURES
100
AcDbSpline
 62
7
  6
CONTINUOUS
 70
0
 71
3
 72
11
 73
7
 74
0
 42
0.0000001
 43
0.0000001
 44
0.0000000001
 40
0.0
 40
0.0
 40
0.0
 40
0.0
 40
0.2508616949
 40
0.501083813
 40
0.7507459866
 40
1.0
 40
1.0
 40
1.0
 40
1.0
 10
3.680342205
 20
4.2483917955
 30
0.0
 10
3.6812772755
 20
4.2467650325
 30
0.0
 10
3.683587055
 20
4.2437195507
 30
0.0
 10
3.6884893125
 20
4.2407032241
 30
0.0
 10
3.6940876689
 20
4.2396532597
 30
0.0
 10
3.6978371235
 20
4.2398951669
 30
0.0
 10
3.6996822918
 20
4.2401617884
 30
0.0
  0
SPLINE
  5
3AC
100
AcDbEntity
  8
ALL_FEATURES
100
AcDbSpline
 62
7
  6
CONTINUOUS
 70
0
 71
3
 72
11
 73
7
 74
0
 42
0.0000001
 43
0.0000001
 44
0.0000000001
 40
0.0
 40
0.0
 40
0.0
 40
0.0
 40
0.249314671
 40
0.4990896733
 40
0.7493599785
 40
1.0
 40
1.0
 40
1.0
 40
1.0
 10
3.6840118973
 20
4.2701001251
 30
0.0
 10
3.68277385
 20
4.2685879989
 30
0.0
 10
3.6804996397
 20
4.2653808392
 30
0.0
 10
3.6781884259
 20
4.2598956588
 30
0.0
 10
3.6779083829
 20
4.2538582366
 30
0.0
 10
3.6793631149
 20
4.2500951405
 30
0.0
 10
3.680342205
 20
4.2483917955
 30
0.0
  0
SPLINE
  5
3AD
100
AcDbEntity
  8
ALL_FEATURES
100
AcDbSpline
 62
7
  6
CONTINUOUS
 70
0
 71
3
 72
12
 73
8
 74
0
 42
0.0000001
 43
0.0000001
 44
0.0000000001
 40
0.0
 40
0.0
 40
0.0
 40
0.0
 40
0.2498954593
 40
0.4998201404
 40
0.7497909862
 40
0.8748692256
 40
1.0
 40
1.0
 40
1.0
 40
1.0
 10
3.7147121836
 20
4.2939345906
 30
0.0
 10
3.7118948415
 20
4.2923079974
 30
0.0
 10
3.7063277049
 20
4.2889337352
 30
0.0
 10
3.6982729434
 20
4.2834105952
 30
0.0
 10
3.6919270652
 20
4.2782959811
 30
0.0
 10
3.6872260839
 20
4.2737849286
 30
0.0
 10
3.6850438525
 20
4.2713605344
 30
0.0
 10
3.6840118973
 20
4.2701001251
 30
0.0
  0
SPLINE
  5
3AE
100
AcDbEntity
  8
ALL_FEATURES
100
AcDbSpline
 62
7
  6
CONTINUOUS
 70
0
 71
3
 72
21
 73
17
 74
0
 42
0.0000001
 43
0.0000001
 44
0.0000000001
 40
0.0
 40
0.0
 40
0.0
 40
0.0
 40
0.1240439964
 40
0.1865724567
 40
0.2491150501
 40
0.3117358953
 40
0.3744834737
 40
0.4372827119
 40
0.5001105806
 40
0.5629299501
 40
0.6257036263
 40
0.6884135913
 40
0.7509914389
 40
0.8134918495
 40
0.8759861343
 40
1.0
 40
1.0
 40
1.0
 40
1.0
 10
4.3067849379
 20
3.9132237804
 30
0.0
 10
4.3067849379
 20
3.9119982286
 30
0.0
 10
4.3071618757
 20
3.9101294173
 30
0.0
 10
4.3083355072
 20
3.907953417
 30
0.0
 10
4.3095253577
 20
3.906514303
 30
0.0
 10
4.3109744445
 20
3.9053349328
 30
0.0
 10
4.3126275355
 20
3.9044590772
 30
0.0
 10
4.314420031
 20
3.9039156391
 30
0.0
 10
4.3162849359
 20
3.9037348037
 30
0.0
 10
4.3181498156
 20
3.9039132441
 30
0.0
 10
4.3199423128
 20
3.904454276
 30
0.0
 10
4.3215953677
 20
3.9053280047
 30
0.0
 10
4.3230444605
 20
3.9065054699
 30
0.0
 10
4.3242343832
 20
3.9079430273
 30
0.0
 10
4.3254081142
 20
3.9101178183
 30
0.0
 10
4.3257849379
 20
3.9119860485
 30
0.0
 10
4.3257849379
 20
3.9132113026
 30
0.0
  0
LINE
  5
3AF
100
AcDbEntity
  8
ALL_FEATURES
100
AcDbLine
 62
7
  6
CONTINUOUS
 10
4.2394488735
 20
5.2356367662
 11
4.2320637385
 21
5.2330220563
  0
SPLINE
  5
3B0
100
AcDbEntity
  8
ALL_FEATURES
100
AcDbSpline
 62
7
  6
CONTINUOUS
 70
0
 71
3
 72
9
 73
5
 74
0
 42
0.0000001
 43
0.0000001
 44
0.0000000001
 40
0.0
 40
0.0
 40
0.0
 40
0.0
 40
0.5000204339
 40
1.0
 40
1.0
 40
1.0
 40
1.0
 10
4.24432566
 20
5.2366335383
 30
0.0
 10
4.2434925972
 20
5.2366316878
 30
0.0
 10
4.2418249033
 20
5.2364287854
 30
0.0
 10
4.2402250825
 20
5.2359390628
 30
0.0
 10
4.2394488735
 20
5.2356367662
 30
0.0
  0
SPLINE
  5
3B1
100
AcDbEntity
  8
ALL_FEATURES
100
AcDbSpline
 62
7
  6
CONTINUOUS
 70
0
 71
3
 72
17
 73
13
 74
0
 42
0.0000001
 43
0.0000001
 44
0.0000000001
 40
0.0
 40
0.0
 40
0.0
 40
0.0
 40
0.2484324766
 40
0.3727635031
 40
0.4975287429
 40
0.5599421479
 40
0.6224571588
 40
0.6853479721
 40
0.748309869
 40
0.8111503474
 40
0.874080908
 40
1.0
 40
1.0
 40
1.0
 40
1.0
 10
4.249280819
 20
5.2292296099
 30
0.0
 10
4.249280819
 20
5.2300649088
 30
0.0
 10
4.2492119261
 20
5.2313234172
 30
0.0
 10
4.2488700138
 20
5.2329640418
 30
0.0
 10
4.2485124475
 20
5.233954941
 30
0.0
 10
4.2481065491
 20
5.2346919808
 30
0.0
 10
4.2477299512
 20
5.2352016516
 30
0.0
 10
4.2472801821
 20
5.2356509405
 30
0.0
 10
4.2467673269
 20
5.2360286631
 30
0.0
 10
4.2461993361
 20
5.2363186875
 30
0.0
 10
4.2453888407
 20
5.2365722527
 30
0.0
 10
4.2447490339
 20
5.2366344788
 30
0.0
 10
4.24432566
 20
5.2366335383
 30
0.0
  0
LINE
  5
3B2
100
AcDbEntity
  8
ALL_FEATURES
100
AcDbLine
 62
7
  6
CONTINUOUS
 10
4.2327356237
 20
5.1359585679
 11
4.2787148886
 21
5.1360635919
  0
LINE
  5
3B3
100
AcDbEntity
  8
ALL_FEATURES
100
AcDbLine
 62
7
  6
CONTINUOUS
 10
3.9580896985
 20
5.0306048333
 11
3.9680726424
 21
5.0381275211
  0
LINE
  5
3B4
100
AcDbEntity
  8
ALL_FEATURES
100
AcDbLine
 62
7
  6
CONTINUOUS
 10
3.641067216
 20
4.6529105808
 11
3.6412718208
 21
4.6450789103
  0
SPLINE
  5
3B5
100
AcDbEntity
  8
ALL_FEATURES
100
AcDbSpline
 62
7
  6
CONTINUOUS
 70
0
 71
3
 72
9
 73
5
 74
0
 42
0.0000001
 43
0.0000001
 44
0.0000000001
 40
0.0
 40
0.0
 40
0.0
 40
0.0
 40
0.5000204339
 40
1.0
 40
1.0
 40
1.0
 40
1.0
 10
3.6416262394
 20
4.6578566999
 30
0.0
 10
3.6413705688
 20
4.6570638383
 30
0.0
 10
3.6410481946
 20
4.6554150668
 30
0.0
 10
3.6410195767
 20
4.6537422142
 30
0.0
 10
3.641067216
 20
4.6529105808
 30
0.0
  0
SPLINE
  5
3B6
100
AcDbEntity
  8
ALL_FEATURES
100
AcDbSpline
 62
7
  6
CONTINUOUS
 70
0
 71
3
 72
17
 73
13
 74
0
 42
0.0000001
 43
0.0000001
 44
0.0000000001
 40
0.0
 40
0.0
 40
0.0
 40
0.0
 40
0.2484324766
 40
0.3727635031
 40
0.4975287429
 40
0.5599421479
 40
0.6224571588
 40
0.6853479721
 40
0.748309869
 40
0.8111503474
 40
0.874080908
 40
1.0
 40
1.0
 40
1.0
 40
1.0
 10
3.6501990221
 20
4.6602813965
 30
0.0
 10
3.6494046056
 20
4.660539518
 30
0.0
 10
3.6481864039
 20
4.6608628974
 30
0.0
 10
3.6465204205
 20
4.6610447004
 30
0.0
 10
3.6454675253
 20
4.6610108393
 30
0.0
 10
3.6446411293
 20
4.6608525648
 30
0.0
 10
3.6440400284
 20
4.6606518959
 30
0.0
 10
3.643473743
 20
4.660362978
 30
0.0
 10
3.6429560265
 20
4.6599919464
 30
0.0
 10
3.6425046781
 20
4.6595413775
 30
0.0
 10
3.6420130663
 20
4.6588489066
 30
0.0
 10
3.6417561747
 20
4.658259643
 30
0.0
 10
3.6416262394
 20
4.6578566999
 30
0.0
  0
LINE
  5
3B7
100
AcDbEntity
  8
ALL_FEATURES
100
AcDbLine
 62
7
  6
CONTINUOUS
 10
3.7337923078
 20
4.6157236436
 11
3.7484568507
 21
4.6612060171
  0
LINE
  5
3B8
100
AcDbEntity
  8
ALL_FEATURES
100
AcDbLine
 62
7
  6
CONTINUOUS
 10
3.6674285817
 20
4.7344193561
 11
3.6676189866
 21
4.7265922131
  0
SPLINE
  5
3B9
100
AcDbEntity
  8
ALL_FEATURES
100
AcDbSpline
 62
7
  6
CONTINUOUS
 70
0
 71
3
 72
9
 73
5
 74
0
 42
0.0000001
 43
0.0000001
 44
0.0000000001
 40
0.0
 40
0.0
 40
0.0
 40
0.0
 40
0.5001048352
 40
1.0
 40
1.0
 40
1.0
 40
1.0
 10
3.6679968645
 20
4.7393624566
 30
0.0
 10
3.6677396962
 20
4.7385702705
 30
0.0
 10
3.667414157
 20
4.7369227785
 30
0.0
 10
3.6673824305
 20
4.7352506099
 30
0.0
 10
3.6674285817
 20
4.7344193561
 30
0.0
  0
SPLINE
  5
3BA
100
AcDbEntity
  8
ALL_FEATURES
100
AcDbSpline
 62
7
  6
CONTINUOUS
 70
0
 71
3
 72
17
 73
13
 74
0
 42
0.0000001
 43
0.0000001
 44
0.0000000001
 40
0.0
 40
0.0
 40
0.0
 40
0.0
 40
0.2483158736
 40
0.3726229222
 40
0.4973962687
 40
0.5598274013
 40
0.6223689255
 40
0.6852915801
 40
0.7482849942
 40
0.8111506693
 40
0.8740947715
 40
1.0
 40
1.0
 40
1.0
 40
1.0
 10
3.6765778991
 20
4.7417844031
 30
0.0
 10
3.6757835267
 20
4.7420425104
 30
0.0
 10
3.6745652766
 20
4.7423658713
 30
0.0
 10
3.6728990604
 20
4.7425477895
 30
0.0
 10
3.6718457321
 20
4.7425141195
 30
0.0
 10
3.6710187579
 20
4.7423561079
 30
0.0
 10
3.6704170372
 20
4.7421556833
 30
0.0
 10
3.6698499729
 20
4.7418670672
 30
0.0
 10
3.6693313319
 20
4.7414963773
 30
0.0
 10
3.6688789252
 20
4.7410461737
 30
0.0
 10
3.6683858092
 20
4.7403542485
 30
0.0
 10
3.6681276291
 20
4.7397652666
 30
0.0
 10
3.6679968645
 20
4.7393624566
 30
0.0
  0
LINE
  5
3BB
100
AcDbEntity
  8
ALL_FEATURES
100
AcDbLine
 62
7
  6
CONTINUOUS
 10
3.7601211428
 20
4.6972429062
 11
3.7748896515
 21
4.7426914918
  0
SPLINE
  5
3BC
100
AcDbEntity
  8
ALL_FEATURES
100
AcDbSpline
 62
7
  6
CONTINUOUS
 70
0
 71
3
 72
14
 73
10
 74
0
 42
0.0000001
 43
0.0000001
 44
0.0000000001
 40
0.0
 40
0.0
 40
0.0
 40
0.0
 40
0.124817322
 40
0.2497484028
 40
0.3747478607
 40
0.4997776413
 40
0.6248276319
 40
0.7498883376
 40
1.0
 40
1.0
 40
1.0
 40
1.0
 10
3.7413537559
 20
4.825361655
 30
0.0
 10
3.7397602914
 20
4.8244743616
 30
0.0
 10
3.7367723567
 20
4.8223335483
 30
0.0
 10
3.7328389258
 20
4.8185087279
 30
0.0
 10
3.7293159343
 20
4.8143030482
 30
0.0
 10
3.7261152434
 20
4.8098497547
 30
0.0
 10
3.723168744
 20
4.8052246909
 30
0.0
 10
3.7195158416
 20
4.7988917797
 30
0.0
 10
3.7170299934
 20
4.7940007893
 30
0.0
 10
3.7154541561
 20
4.790703319
 30
0.0
  0
SPLINE
  5
3BD
100
AcDbEntity
  8
ALL_FEATURES
100
AcDbSpline
 62
7
  6
CONTINUOUS
 70
0
 71
3
 72
13
 73
9
 74
0
 42
0.0000001
 43
0.0000001
 44
0.0000000001
 40
0.0
 40
0.0
 40
0.0
 40
0.0
 40
0.2492801576
 40
0.3742400073
 40
0.499287983
 40
0.6244403206
 40
0.7496769383
 40
1.0
 40
1.0
 40
1.0
 40
1.0
 10
3.7672703825
 20
4.8279999137
 30
0.0
 10
3.7651508534
 20
4.8286885905
 30
0.0
 10
3.7618596267
 20
4.8294342483
 30
0.0
 10
3.7573977916
 20
4.8297181827
 30
0.0
 10
3.754040607
 20
4.8295539068
 30
0.0
 10
3.7507190342
 20
4.8290248022
 30
0.0
 10
3.7463957745
 20
4.8278373637
 30
0.0
 10
3.7433089963
 20
4.8264503969
 30
0.0
 10
3.7413537559
 20
4.825361655
 30
0.0
  0
SPLINE
  5
3BE
100
AcDbEntity
  8
ALL_FEATURES
100
AcDbSpline
 62
7
  6
CONTINUOUS
 70
0
 71
3
 72
14
 73
10
 74
0
 42
0.0000001
 43
0.0000001
 44
0.0000000001
 40
0.0
 40
0.0
 40
0.0
 40
0.0
 40
0.2503067053
 40
0.3756880712
 40
0.5008385071
 40
0.6258186141
 40
0.7507638119
 40
0.8754797959
 40
1.0
 40
1.0
 40
1.0
 40
1.0
 10
3.7827633665
 20
4.7703327059
 30
0.0
 10
3.782148597
 20
4.769684602
 30
0.0
 10
3.7811559713
 20
4.7687697197
 30
0.0
 10
3.77966334
 20
4.7677800304
 30
0.0
 10
3.7784559294
 20
4.7671872665
 30
0.0
 10
3.7771684067
 20
4.7667981483
 30
0.0
 10
3.7758331592
 20
4.7666396437
 30
0.0
 10
3.7744937333
 20
4.7667323869
 30
0.0
 10
3.7736256417
 20
4.7669453156
 30
0.0
 10
3.7732030026
 20
4.7670826394
 30
0.0
  0
SPLINE
  5
3BF
100
AcDbEntity
  8
ALL_FEATURES
100
AcDbSpline
 62
7
  6
CONTINUOUS
 70
0
 71
3
 72
11
 73
7
 74
0
 42
0.0000001
 43
0.0000001
 44
0.0000000001
 40
0.0
 40
0.0
 40
0.0
 40
0.0
 40
0.2500715682
 40
0.5001422715
 40
0.7501450506
 40
1.0
 40
1.0
 40
1.0
 40
1.0
 10
3.7905981061
 20
4.7849205156
 30
0.0
 10
3.7901659535
 20
4.7835989435
 30
0.0
 10
3.7892246716
 20
4.7809798797
 30
0.0
 10
3.787519416
 20
4.7771675963
 30
0.0
 10
3.7854373312
 20
4.7735454399
 30
0.0
 10
3.7837194381
 20
4.7713406184
 30
0.0
 10
3.7827633665
 20
4.7703327059
 30
0.0
  0
SPLINE
  5
3C0
100
AcDbEntity
  8
ALL_FEATURES
100
AcDbSpline
 62
7
  6
CONTINUOUS
 70
0
 71
3
 72
14
 73
10
 74
0
 42
0.0000001
 43
0.0000001
 44
0.0000000001
 40
0.0
 40
0.0
 40
0.0
 40
0.0
 40
0.1245947202
 40
0.249511671
 40
0.3744964796
 40
0.4995332337
 40
0.6246777125
 40
0.7498642339
 40
1.0
 40
1.0
 40
1.0
 40
1.0
 10
3.7890082117
 20
4.8210251795
 30
0.0
 10
3.7896594957
 20
4.819631823
 30
0.0
 10
3.7908312259
 20
4.8167772731
 30
0.0
 10
3.7921641237
 20
4.8123429827
 30
0.0
 10
3.7930374836
 20
4.8077889168
 30
0.0
 10
3.7934291872
 20
4.8031663038
 30
0.0
 10
3.7933628207
 20
4.7985253841
 30
0.0
 10
3.7926812454
 20
4.7923778779
 30
0.0
 10
3.7915578039
 20
4.7878553816
 30
0.0
 10
3.7905981061
 20
4.7849205156
 30
0.0
  0
SPLINE
  5
3C1
100
AcDbEntity
  8
ALL_FEATURES
100
AcDbSpline
 62
7
  6
CONTINUOUS
 70
0
 71
3
 72
15
 73
11
 74
0
 42
0.0000001
 43
0.0000001
 44
0.0000000001
 40
0.0
 40
0.0
 40
0.0
 40
0.0
 40
0.1247836632
 40
0.2497410461
 40
0.3746752791
 40
0.4996514902
 40
0.6246871347
 40
0.7497589265
 40
0.874919529
 40
1.0
 40
1.0
 40
1.0
 40
1.0
 10
3.763638814
 20
4.8436623785
 30
0.0
 10
3.7650244272
 20
4.8432121655
 30
0.0
 10
3.7677587462
 20
4.8421852445
 30
0.0
 10
3.7716924203
 20
4.8402548767
 30
0.0
 10
3.7754012708
 20
4.8379136735
 30
0.0
 10
3.7788225975
 20
4.835168068
 30
0.0
 10
3.7819245933
 20
4.8320642881
 30
0.0
 10
3.7846664563
 20
4.8286357051
 30
0.0
 10
3.7870403367
 20
4.8249444914
 30
0.0
 10
3.7883898166
 20
4.8223481734
 30
0.0
 10
3.7890082117
 20
4.8210251795
 30
0.0
  0
LINE
  5
3C2
100
AcDbEntity
  8
ALL_FEATURES
100
AcDbLine
 62
7
  6
CONTINUOUS
 10
3.7058040102
 20
4.8102640982
 11
3.6951079111
 21
4.8209807124
  0
LINE
  5
3C3
100
AcDbEntity
  8
ALL_FEATURES
100
AcDbLine
 62
7
  6
CONTINUOUS
 10
3.6951079111
 20
4.8209807124
 11
3.7067069801
 21
4.856420628
  0
LINE
  5
3C4
100
AcDbEntity
  8
ALL_FEATURES
100
AcDbLine
 62
7
  6
CONTINUOUS
 10
3.7067069801
 20
4.856420628
 11
3.6947193057
 21
4.8682633883
  0
LINE
  5
3C5
100
AcDbEntity
  8
ALL_FEATURES
100
AcDbLine
 62
7
  6
CONTINUOUS
 10
3.7157824982
 20
4.4714745796
 11
3.7146930514
 21
4.4839270133
  0
LINE
  5
3C6
100
AcDbEntity
  8
ALL_FEATURES
100
AcDbLine
 62
7
  6
CONTINUOUS
 10
3.7843331141
 20
4.091806471
 11
3.7892021076
 21
4.0876098777
  0
SPLINE
  5
3C7
100
AcDbEntity
  8
ALL_FEATURES
100
AcDbSpline
 62
7
  6
CONTINUOUS
 70
0
 71
3
 72
9
 73
5
 74
0
 42
0.0000001
 43
0.0000001
 44
0.0000000001
 40
0.0
 40
0.0
 40
0.0
 40
0.0
 40
0.5000204339
 40
1.0
 40
1.0
 40
1.0
 40
1.0
 10
3.7799435117
 20
4.0964232722
 30
0.0
 10
3.7803616457
 20
4.0957027439
 30
0.0
 10
3.7813712112
 20
4.0943599298
 30
0.0
 10
3.7825952339
 20
4.0932193057
 30
0.0
 10
3.7832451349
 20
4.0926982372
 30
0.0
  0
SPLINE
  5
3C8
100
AcDbEntity
  8
ALL_FEATURES
100
AcDbSpline
 62
7
  6
CONTINUOUS
 70
0
 71
3
 72
17
 73
13
 74
0
 42
0.0000001
 43
0.0000001
 44
0.0000000001
 40
0.0
 40
0.0
 40
0.0
 40
0.0
 40
0.2484324766
 40
0.3727635031
 40
0.4975287429
 40
0.5599421479
 40
0.6224571588
 40
0.6853479721
 40
0.748309869
 40
0.8111503474
 40
0.874080908
 40
1.0
 40
1.0
 40
1.0
 40
1.0
 10
3.7838779223
 20
4.10441653
 30
0.0
 10
3.7831545322
 20
4.1039988805
 30
0.0
 10
3.7820990785
 20
4.1033099633
 30
0.0
 10
3.780849212
 20
4.1021935463
 30
0.0
 10
3.7801698513
 20
4.1013884351
 30
0.0
 10
3.7797345053
 20
4.100668397
 30
0.0
 10
3.7794814164
 20
4.1000874182
 30
0.0
 10
3.7793172053
 20
4.0994732623
 30
0.0
 10
3.7792465155
 20
4.0988402554
 30
0.0
 10
3.7792793424
 20
4.0982033487
 30
0.0
 10
3.7794649962
 20
4.0973746565
 30
0.0
 10
3.7797310103
 20
4.0967894545
 30
0.0
 10
3.7799435117
 20
4.0964232722
 30
0.0
  0
LINE
  5
3C9
100
AcDbEntity
  8
ALL_FEATURES
100
AcDbLine
 62
7
  6
CONTINUOUS
 10
3.8729256117
 20
4.1367234915
 11
3.8489381157
 21
4.1780550189
  0
SPLINE
  5
3CA
100
AcDbEntity
  8
ALL_FEATURES
100
AcDbSpline
 62
7
  6
CONTINUOUS
 70
0
 71
3
 72
12
 73
8
 74
0
 42
0.0000001
 43
0.0000001
 44
0.0000000001
 40
0.0
 40
0.0
 40
0.0
 40
0.0
 40
0.1249260897
 40
0.2498848553
 40
0.4998586621
 40
0.7499018259
 40
1.0
 40
1.0
 40
1.0
 40
1.0
 10
3.7657808547
 20
4.217026149
 30
0.0
 10
3.7678835684
 20
4.2166884968
 30
0.0
 10
3.772076724
 20
4.2159329752
 30
0.0
 10
3.7804256892
 20
4.2142264354
 30
0.0
 10
3.7908125627
 20
4.2118495055
 30
0.0
 10
3.8032266078
 20
4.2087809147
 30
0.0
 10
3.8114795448
 20
4.2066395011
 30
0.0
 10
3.8156020132
 20
4.2055520033
 30
0.0
  0
SPLINE
  5
3CB
100
AcDbEntity
  8
ALL_FEATURES
100
AcDbSpline
 62
7
  6
CONTINUOUS
 70
0
 71
3
 72
13
 73
9
 74
0
 42
0.0000001
 43
0.0000001
 44
0.0000000001
 40
0.0
 40
0.0
 40
0.0
 40
0.0
 40
0.1248672858
 40
0.249764403
 40
0.3746938669
 40
0.4996838516
 40
0.7496966433
 40
1.0
 40
1.0
 40
1.0
 40
1.0
 10
3.7294396358
 20
4.2130234011
 30
0.0
 10
3.7307822922
 20
4.2137985842
 30
0.0
 10
3.7335835931
 20
4.2151560935
 30
0.0
 10
3.7380082276
 20
4.2166275287
 30
0.0
 10
3.7425694794
 20
4.2175930758
 30
0.0
 10
3.7487441233
 20
4.2182964709
 30
0.0
 10
3.756534346
 20
4.2182520598
 30
0.0
 10
3.7627123701
 20
4.2175188839
 30
0.0
 10
3.7657808547
 20
4.217026149
 30
0.0
  0
LINE
  5
3CC
100
AcDbEntity
  8
ALL_FEATURES
100
AcDbLine
 62
7
  6
CONTINUOUS
 10
3.7655045207
 20
4.1549050366
 11
3.7651327324
 21
4.158375564
  0
SPLINE
  5
3CD
100
AcDbEntity
  8
ALL_FEATURES
100
AcDbSpline
 62
7
  6
CONTINUOUS
 70
0
 71
3
 72
11
 73
7
 74
0
 42
0.0000001
 43
0.0000001
 44
0.0000000001
 40
0.0
 40
0.0
 40
0.0
 40
0.0
 40
0.2502515515
 40
0.5002987472
 40
0.7501993982
 40
1.0
 40
1.0
 40
1.0
 40
1.0
 10
3.7448564346
 20
4.1596691328
 30
0.0
 10
3.7464467271
 20
4.1590388637
 30
0.0
 10
3.7497854517
 20
4.1581717402
 30
0.0
 10
3.7549055312
 20
4.1577172907
 30
0.0
 10
3.7600368209
 20
4.1578259218
 30
0.0
 10
3.7634387217
 20
4.1581609471
 30
0.0
 10
3.7651327324
 20
4.158375564
 30
0.0
  0
SPLINE
  5
3CE
100
AcDbEntity
  8
ALL_FEATURES
100
AcDbSpline
 62
7
  6
CONTINUOUS
 70
0
 71
3
 72
9
 73
5
 74
0
 42
0.0000001
 43
0.0000001
 44
0.0000000001
 40
0.0
 40
0.0
 40
0.0
 40
0.0
 40
0.5004068778
 40
1.0
 40
1.0
 40
1.0
 40
1.0
 10
3.7329501947
 20
4.1704400188
 30
0.0
 10
3.7343094438
 20
4.1680869007
 30
0.0
 10
3.7376330393
 20
4.163677589
 30
0.0
 10
3.742334231
 20
4.1606687396
 30
0.0
 10
3.7448564346
 20
4.1596691328
 30
0.0
  0
SPLINE
  5
3CF
100
AcDbEntity
  8
ALL_FEATURES
100
AcDbSpline
 62
7
  6
CONTINUOUS
 70
0
 71
3
 72
14
 73
10
 74
0
 42
0.0000001
 43
0.0000001
 44
0.0000000001
 40
0.0
 40
0.0
 40
0.0
 40
0.0
 40
0.1245452048
 40
0.2495031398
 40
0.3744764303
 40
0.499564699
 40
0.6248132913
 40
0.7500180719
 40
1.0
 40
1.0
 40
1.0
 40
1.0
 10
3.731629958
 20
4.1880808529
 30
0.0
 10
3.7313167042
 20
4.1873837818
 30
0.0
 10
3.7307685082
 20
4.1859499784
 30
0.0
 10
3.7302093871
 20
4.1837152288
 30
0.0
 10
3.729948908
 20
4.1814214491
 30
0.0
 10
3.7300062336
 20
4.1791124911
 30
0.0
 10
3.7303556662
 20
4.1768284762
 30
0.0
 10
3.7311919896
 20
4.1738675216
 30
0.0
 10
3.7321829509
 20
4.1717682634
 30
0.0
 10
3.7329501947
 20
4.1704400188
 30
0.0
  0
SPLINE
  5
3D0
100
AcDbEntity
  8
ALL_FEATURES
100
AcDbSpline
 62
7
  6
CONTINUOUS
 70
0
 71
3
 72
9
 73
5
 74
0
 42
0.0000001
 43
0.0000001
 44
0.0000000001
 40
0.0
 40
0.0
 40
0.0
 40
0.0
 40
0.4996040298
 40
1.0
 40
1.0
 40
1.0
 40
1.0
 10
3.743079084
 20
4.2012115118
 30
0.0
 10
3.7405343269
 20
4.1997422956
 30
0.0
 10
3.7359173023
 20
4.195881563
 30
0.0
 10
3.7328363267
 20
4.1907653369
 30
0.0
 10
3.731629958
 20
4.1880808529
 30
0.0
  0
LINE
  5
3D1
100
AcDbEntity
  8
ALL_FEATURES
100
AcDbLine
 62
7
  6
CONTINUOUS
 10
3.8382049775
 20
4.1965877316
 11
3.8044758435
 21
4.2549878733
  0
LINE
  5
3D2
100
AcDbEntity
  8
ALL_FEATURES
100
AcDbLine
 62
7
  6
CONTINUOUS
 10
3.8044758435
 20
4.2549878733
 11
3.7785351577
 21
4.2514544528
  0
SPLINE
  5
3D3
100
AcDbEntity
  8
ALL_FEATURES
100
AcDbSpline
 62
7
  6
CONTINUOUS
 70
0
 71
3
 72
12
 73
8
 74
0
 42
0.0000001
 43
0.0000001
 44
0.0000000001
 40
0.0
 40
0.0
 40
0.0
 40
0.0
 40
0.1252815058
 40
0.2504867193
 40
0.5004217352
 40
0.7502293202
 40
1.0
 40
1.0
 40
1.0
 40
1.0
 10
3.777621611
 20
4.2724330021
 30
0.0
 10
3.7768128377
 20
4.2707762538
 30
0.0
 10
3.7750263701
 20
4.2675435561
 30
0.0
 10
3.7708544062
 20
4.2614641167
 30
0.0
 10
3.7646436582
 20
4.2546177083
 30
0.0
 10
3.7560869935
 20
4.2476121949
 30
0.0
 10
3.7498826561
 20
4.2436399871
 30
0.0
 10
3.7466995129
 20
4.2418021986
 30
0.0
  0
SPLINE
  5
3D4
100
AcDbEntity
  8
ALL_FEATURES
100
AcDbSpline
 62
7
  6
CONTINUOUS
 70
0
 71
3
 72
14
 73
10
 74
0
 42
0.0000001
 43
0.0000001
 44
0.0000000001
 40
0.0
 40
0.0
 40
0.0
 40
0.0
 40
0.125254141
 40
0.2505871086
 40
0.3758460308
 40
0.5009756337
 40
0.6260067189
 40
0.7508683784
 40
1.0
 40
1.0
 40
1.0
 40
1.0
 10
3.7780014563
 20
4.3046784047
 30
0.0
 10
3.7787013084
 20
4.3034598707
 30
0.0
 10
3.7799514303
 20
4.3009312019
 30
0.0
 10
3.781284559
 20
4.2969161622
 30
0.0
 10
3.7820173065
 20
4.2927493133
 30
0.0
 10
3.7821349834
 20
4.2885251761
 30
0.0
 10
3.7816844177
 20
4.2843301389
 30
0.0
 10
3.7804193029
 20
4.2788661757
 30
0.0
 10
3.7788477341
 20
4.274944679
 30
0.0
 10
3.777621611
 20
4.2724330021
 30
0.0
  0
SPLINE
  5
3D5
100
AcDbEntity
  8
ALL_FEATURES
100
AcDbSpline
 62
7
  6
CONTINUOUS
 70
0
 71
3
 72
14
 73
10
 74
0
 42
0.0000001
 43
0.0000001
 44
0.0000000001
 40
0.0
 40
0.0
 40
0.0
 40
0.0
 40
0.2489145127
 40
0.3737261776
 40
0.4987139781
 40
0.6238716186
 40
0.7491499324
 40
0.8745655093
 40
1.0
 40
1.0
 40
1.0
 40
1.0
 10
3.7478566486
 20
4.3212372088
 30
0.0
 10
3.7508641475
 20
4.3212862334
 30
0.0
 10
3.7554165369
 20
4.3209425324
 30
0.0
 10
3.7612434589
 20
4.3193413501
 30
0.0
 10
3.7654088923
 20
4.3175126364
 30
0.0
 10
3.769242924
 20
4.3150525812
 30
0.0
 10
3.7726535265
 20
4.312026993
 30
0.0
 10
3.775594304
 20
4.3085436612
 30
0.0
 10
3.7772465474
 20
4.3059928001
 30
0.0
 10
3.7780014563
 20
4.3046784047
 30
0.0
  0
SPLINE
  5
3D6
100
AcDbEntity
  8
ALL_FEATURES
100
AcDbSpline
 62
7
  6
CONTINUOUS
 70
0
 71
3
 72
11
 73
7
 74
0
 42
0.0000001
 43
0.0000001
 44
0.0000000001
 40
0.0
 40
0.0
 40
0.0
 40
0.0
 40
0.2499710472
 40
0.4999640377
 40
0.7499600834
 40
1.0
 40
1.0
 40
1.0
 40
1.0
 10
3.706084552
 20
4.3086400337
 30
0.0
 10
3.7092652197
 20
4.310476393
 30
0.0
 10
3.7158001913
 20
4.313861577
 30
0.0
 10
3.7261017902
 20
4.3178435187
 30
0.0
 10
3.7368359644
 20
4.3204778482
 30
0.0
 10
3.7441834061
 20
4.321177332
 30
0.0
 10
3.7478566486
 20
4.3212372088
 30
0.0
  0
SPLINE
  5
3D7
100
AcDbEntity
  8
ALL_FEATURES
100
AcDbSpline
 62
7
  6
CONTINUOUS
 70
0
 71
3
 72
15
 73
11
 74
0
 42
0.0000001
 43
0.0000001
 44
0.0000000001
 40
0.0
 40
0.0
 40
0.0
 40
0.0
 40
0.1245274344
 40
0.2492952544
 40
0.3744376264
 40
0.4998941571
 40
0.6253802559
 40
0.750599927
 40
0.8754519125
 40
1.0
 40
1.0
 40
1.0
 40
1.0
 10
4.3005349379
 20
3.9132299522
 30
0.0
 10
4.3005349379
 20
3.9152621606
 30
0.0
 10
4.3013571871
 20
3.9193756401
 30
0.0
 10
4.3048659457
 20
3.9245656307
 30
0.0
 10
4.3101090017
 20
3.9280322046
 30
0.0
 10
4.3162857231
 20
3.929243302
 30
0.0
 10
4.3224618341
 20
3.928023395
 30
0.0
 10
4.327703846
 20
3.9245502845
 30
0.0
 10
4.3312122335
 20
3.9193568636
 30
0.0
 10
4.3320349379
 20
3.9152418149
 30
0.0
 10
4.3320349379
 20
3.9132092695
 30
0.0
  0
SPLINE
  5
3D8
100
AcDbEntity
  8
ALL_FEATURES
100
AcDbSpline
 62
7
  6
CONTINUOUS
 70
0
 71
3
 72
11
 73
7
 74
0
 42
0.0000001
 43
0.0000001
 44
0.0000000001
 40
0.0
 40
0.0
 40
0.0
 40
0.0
 40
0.2501162105
 40
0.5001025816
 40
0.7500450419
 40
1.0
 40
1.0
 40
1.0
 40
1.0
 10
4.3089836799
 20
5.1561689812
 30
0.0
 10
4.3075325488
 20
5.1589600153
 30
0.0
 10
4.3050886341
 20
5.1647882665
 30
0.0
 10
4.3027106912
 20
5.173942662
 30
0.0
 10
4.301431221
 20
5.1833048581
 30
0.0
 10
4.3011840196
 20
5.1895962472
 30
0.0
 10
4.3011840196
 20
5.1927399549
 30
0.0
  0
SPLINE
  5
3D9
100
AcDbEntity
  8
ALL_FEATURES
100
AcDbSpline
 62
7
  6
CONTINUOUS
 70
0
 71
3
 72
13
 73
9
 74
0
 42
0.0000001
 43
0.0000001
 44
0.0000000001
 40
0.0
 40
0.0
 40
0.0
 40
0.0
 40
0.2498759578
 40
0.4997677358
 40
0.6247540944
 40
0.7497647521
 40
0.874838773
 40
1.0
 40
1.0
 40
1.0
 40
1.0
 10
3.7387250207
 20
4.2569205468
 30
0.0
 10
3.7416066529
 20
4.2586394165
 30
0.0
 10
3.7473122767
 20
4.26217536
 30
0.0
 10
3.7542280985
 20
4.2669348234
 30
0.0
 10
3.7595322554
 20
4.2710517934
 30
0.0
 10
3.7633489504
 20
4.2743433344
 30
0.0
 10
3.7669199005
 20
4.2779043023
 30
0.0
 10
3.7690339675
 20
4.2805355921
 30
0.0
 10
3.7699588365
 20
4.2819388969
 30
0.0
  0
SPLINE
  5
3DA
100
AcDbEntity
  8
ALL_FEATURES
100
AcDbSpline
 62
7
  6
CONTINUOUS
 70
0
 71
3
 72
9
 73
5
 74
0
 42
0.0000001
 43
0.0000001
 44
0.0000000001
 40
0.0
 40
0.0
 40
0.0
 40
0.0
 40
0.4992955811
 40
1.0
 40
1.0
 40
1.0
 40
1.0
 10
4.9400543906
 20
4.685810261
 30
0.0
 10
4.9410621669
 20
4.6852996121
 30
0.0
 10
4.9427815006
 20
4.6836478524
 30
0.0
 10
4.9436214562
 20
4.6815048333
 30
0.0
 10
4.9439143112
 20
4.6804103816
 30
0.0
  0
SPLINE
  5
3DB
100
AcDbEntity
  8
ALL_FEATURES
100
AcDbSpline
 62
7
  6
CONTINUOUS
 70
0
 71
3
 72
21
 73
17
 74
0
 42
0.0000001
 43
0.0000001
 44
0.0000000001
 40
0.0
 40
0.0
 40
0.0
 40
0.0
 40
0.1240551768
 40
0.1865832019
 40
0.2491195803
 40
0.3117342679
 40
0.3744781686
 40
0.4372763358
 40
0.5001032081
 40
0.5629208767
 40
0.6256926167
 40
0.688397559
 40
0.7509697429
 40
0.8134674241
 40
0.8759664939
 40
1.0
 40
1.0
 40
1.0
 40
1.0
 10
4.3257849379
 20
3.9132113026
 30
0.0
 10
4.3257849379
 20
3.9144368341
 30
0.0
 10
4.3254078175
 20
3.9163055215
 30
0.0
 10
4.3242342013
 20
3.9184812963
 30
0.0
 10
4.3230441509
 20
3.9199198407
 30
0.0
 10
4.321595097
 20
3.9210986705
 30
0.0
 10
4.3199420718
 20
3.9219739935
 30
0.0
 10
4.3181497637
 20
3.9225170962
 30
0.0
 10
4.3162851105
 20
3.9226979395
 30
0.0
 10
4.3144204699
 20
3.922519645
 30
0.0
 10
4.3126281707
 20
3.9219790323
 30
0.0
 10
4.3109750982
 20
3.9211060206
 30
0.0
 10
4.3095260297
 20
3.9199290587
 30
0.0
 10
4.3083357715
 20
3.9184920667
 30
0.0
 10
4.3071620073
 20
3.916317327
 30
0.0
 10
4.3067849379
 20
3.9144490978
 30
0.0
 10
4.3067849379
 20
3.9132237804
 30
0.0
  0
SPLINE
  5
3DC
100
AcDbEntity
  8
ALL_FEATURES
100
AcDbSpline
 62
7
  6
CONTINUOUS
 70
0
 71
3
 72
9
 73
5
 74
0
 42
0.0000001
 43
0.0000001
 44
0.0000000001
 40
0.0
 40
0.0
 40
0.0
 40
0.0
 40
0.4993532061
 40
1.0
 40
1.0
 40
1.0
 40
1.0
 10
4.9344640277
 20
4.6863990848
 30
0.0
 10
4.9353841988
 20
4.6866456439
 30
0.0
 10
4.937335176
 20
4.6868350893
 30
0.0
 10
4.9392024225
 20
4.6862419605
 30
0.0
 10
4.9400543906
 20
4.685810261
 30
0.0
  0
SPLINE
  5
3DD
100
AcDbEntity
  8
ALL_FEATURES
100
AcDbSpline
 62
7
  6
CONTINUOUS
 70
0
 71
3
 72
14
 73
10
 74
0
 42
0.0000001
 43
0.0000001
 44
0.0000000001
 40
0.0
 40
0.0
 40
0.0
 40
0.0
 40
0.1256428632
 40
0.2511406108
 40
0.3763170433
 40
0.5012156626
 40
0.6260194107
 40
0.7507446873
 40
1.0
 40
1.0
 40
1.0
 40
1.0
 10
4.2446616044
 20
5.1421565076
 30
0.0
 10
4.2451529172
 20
5.1424014574
 30
0.0
 10
4.2460597212
 20
5.1430532922
 30
0.0
 10
4.2471005901
 20
5.1443448599
 30
0.0
 10
4.2478489307
 20
5.1458143903
 30
0.0
 10
4.2483879733
 20
5.1473646745
 30
0.0
 10
4.2487675938
 20
5.1489582349
 30
0.0
 10
4.249114199
 20
5.151111197
 30
0.0
 10
4.24923752
 20
5.1527437416
 30
0.0
 10
4.249280819
 20
5.1538319863
 30
0.0
  0
SPLINE
  5
3DE
100
AcDbEntity
  8
ALL_FEATURES
100
AcDbSpline
 62
7
  6
CONTINUOUS
 70
0
 71
3
 72
10
 73
6
 74
0
 42
0.0000001
 43
0.0000001
 44
0.0000000001
 40
0.0
 40
0.0
 40
0.0
 40
0.0
 40
0.4999285893
 40
0.7499306511
 40
1.0
 40
1.0
 40
1.0
 40
1.0
 10
4.2327356237
 20
5.1402079136
 30
0.0
 10
4.2340725377
 20
5.140211742
 30
0.0
 10
4.2360790066
 20
5.1402553182
 30
0.0
 10
4.2387460653
 20
5.1404582091
 30
0.0
 10
4.2400734507
 20
5.1406320394
 30
0.0
 10
4.2407319651
 20
5.1407485424
 30
0.0
  0
SPLINE
  5
3DF
100
AcDbEntity
  8
ALL_FEATURES
100
AcDbSpline
 62
7
  6
CONTINUOUS
 70
0
 71
3
 72
10
 73
6
 74
0
 42
0.0000001
 43
0.0000001
 44
0.0000000001
 40
0.0
 40
0.0
 40
0.0
 40
0.0
 40
0.499408983
 40
0.7503673266
 40
1.0
 40
1.0
 40
1.0
 40
1.0
 10
4.2407319651
 20
5.1407485424
 30
0.0
 10
4.2414214403
 20
5.1408705228
 30
0.0
 10
4.2424529158
 20
5.1411005475
 30
0.0
 10
4.2437674146
 20
5.1415944246
 30
0.0
 10
4.2443827372
 20
5.1419450213
 30
0.0
 10
4.2446616044
 20
5.1421565076
 30
0.0
  0
SPLINE
  5
3E0
100
AcDbEntity
  8
ALL_FEATURES
100
AcDbSpline
 62
7
  6
CONTINUOUS
 70
0
 71
3
 72
13
 73
9
 74
0
 42
0.0000001
 43
0.0000001
 44
0.0000000001
 40
0.0
 40
0.0
 40
0.0
 40
0.0
 40
0.2502855475
 40
0.3754849741
 40
0.500592466
 40
0.6256215343
 40
0.750584992
 40
1.0
 40
1.0
 40
1.0
 40
1.0
 10
5.0091751413
 20
4.6455548159
 30
0.0
 10
5.0077463279
 20
4.6433449443
 30
0.0
 10
5.0053265071
 20
4.6401921912
 30
0.0
 10
5.0015668514
 20
4.636499641
 30
0.0
 10
4.998488046
 20
4.6340204159
 30
0.0
 10
4.9951859756
 20
4.6318519419
 30
0.0
 10
4.9905292103
 20
4.6294120263
 30
0.0
 10
4.9867969045
 20
4.6280805021
 30
0.0
 10
4.9842638663
 20
4.6274017765
 30
0.0
  0
SPLINE
  5
3E1
100
AcDbEntity
  8
ALL_FEATURES
100
AcDbSpline
 62
7
  6
CONTINUOUS
 70
0
 71
3
 72
13
 73
9
 74
0
 42
0.0000001
 43
0.0000001
 44
0.0000000001
 40
0.0
 40
0.0
 40
0.0
 40
0.0
 40
0.2501999758
 40
0.5002677399
 40
0.6253199023
 40
0.7503081421
 40
0.8752234721
 40
1.0
 40
1.0
 40
1.0
 40
1.0
 10
5.0145244033
 20
4.6868966136
 30
0.0
 10
5.0149997727
 20
4.6833838262
 30
0.0
 10
5.0156853787
 20
4.6763204762
 30
0.0
 10
5.0156144855
 20
4.6674336257
 30
0.0
 10
5.0147371743
 20
4.6603943327
 30
0.0
 10
5.0135735085
 20
4.6552002532
 30
0.0
 10
5.0117987707
 20
4.6501821699
 30
0.0
 10
5.0101349893
 20
4.6470393632
 30
0.0
 10
5.0091751413
 20
4.6455548159
 30
0.0
  0
SPLINE
  5
3E2
100
AcDbEntity
  8
ALL_FEATURES
100
AcDbSpline
 62
7
  6
CONTINUOUS
 70
0
 71
3
 72
14
 73
10
 74
0
 42
0.0000001
 43
0.0000001
 44
0.0000000001
 40
0.0
 40
0.0
 40
0.0
 40
0.0
 40
0.0623217905
 40
0.1249794096
 40
0.2497964166
 40
0.3747943728
 40
0.4998080246
 40
0.7498762127
 40
1.0
 40
1.0
 40
1.0
 40
1.0
 10
4.2676066364
 20
5.1427988078
 30
0.0
 10
4.2678123157
 20
5.1426137348
 30
0.0
 10
4.2682741362
 20
5.1422971944
 30
0.0
 10
4.2692776094
 20
5.141820803
 30
0.0
 10
4.2706061625
 20
5.1414035577
 30
0.0
 10
4.2722341378
 20
5.1410551245
 30
0.0
 10
4.2744297276
 20
5.1407188036
 30
0.0
 10
4.2771952565
 20
5.1404608729
 30
0.0
 10
4.2794136937
 20
5.1403527094
 30
0.0
 10
4.2805235244
 20
5.140315191
 30
0.0
  0
SPLINE
  5
3E3
100
AcDbEntity
  8
ALL_FEATURES
100
AcDbSpline
 62
7
  6
CONTINUOUS
 70
0
 71
3
 72
12
 73
8
 74
0
 42
0.0000001
 43
0.0000001
 44
0.0000000001
 40
0.0
 40
0.0
 40
0.0
 40
0.0
 40
0.2496540754
 40
0.374577999
 40
0.4995455182
 40
0.7497682878
 40
1.0
 40
1.0
 40
1.0
 40
1.0
 10
4.2639783291
 20
5.1538642934
 30
0.0
 10
4.2639783291
 20
5.1528700154
 30
0.0
 10
4.264051541
 20
5.151375664
 30
0.0
 10
4.2643428677
 20
5.1494061976
 30
0.0
 10
4.2647802175
 20
5.1474610431
 30
0.0
 10
4.2656658616
 20
5.1451156434
 30
0.0
 10
4.2668658169
 20
5.1434654075
 30
0.0
 10
4.2676066364
 20
5.1427988078
 30
0.0
  0
LINE
  5
3E4
100
AcDbEntity
  8
ALL_FEATURES
100
AcDbLine
 62
7
  6
CONTINUOUS
 10
4.2418093523
 20
5.2414082213
 11
4.2639783291
 21
5.2530843443
  0
LINE
  5
3E5
100
AcDbEntity
  8
ALL_FEATURES
100
AcDbLine
 62
7
  6
CONTINUOUS
 10
5.0435757229
 20
4.6888553391
 11
5.0554553329
 21
4.6443037681
  0
LINE
  5
3E6
100
AcDbEntity
  8
ALL_FEATURES
100
AcDbLine
 62
7
  6
CONTINUOUS
 10
4.9957630873
 20
4.698041943
 11
5.0435757229
 21
4.6888553391
  0
LINE
  5
3E7
100
AcDbEntity
  8
ALL_FEATURES
100
AcDbLine
 62
7
  6
CONTINUOUS
 10
3.9133225034
 20
5.0900129078
 11
3.9233054472
 21
5.0975355956
  0
LINE
  5
3E8
100
AcDbEntity
  8
ALL_FEATURES
100
AcDbLine
 62
7
  6
CONTINUOUS
 10
5.0345182699
 20
4.416583502
 11
5.0323476677
 21
4.4042734051
  0
SPLINE
  5
3E9
100
AcDbEntity
  8
ALL_FEATURES
100
AcDbSpline
 62
7
  6
CONTINUOUS
 70
0
 71
3
 72
14
 73
10
 74
0
 42
0.0000001
 43
0.0000001
 44
0.0000000001
 40
0.0
 40
0.0
 40
0.0
 40
0.0
 40
0.1256428632
 40
0.2511406108
 40
0.3763170433
 40
0.5012156626
 40
0.6260194107
 40
0.7507446873
 40
1.0
 40
1.0
 40
1.0
 40
1.0
 10
3.7315830476
 20
4.6289811939
 30
0.0
 10
3.7315019105
 20
4.6295241538
 30
0.0
 10
3.7311621966
 20
4.6305880037
 30
0.0
 10
3.7302554889
 20
4.6319770453
 30
0.0
 10
3.7290891325
 20
4.6331428693
 30
0.0
 10
3.7277812978
 20
4.6341345935
 30
0.0
 10
3.726383041
 20
4.6349880712
 30
0.0
 10
3.7244425593
 20
4.6359830143
 30
0.0
 10
3.7229280254
 20
4.6366047835
 30
0.0
 10
3.7219064233
 20
4.6369822494
 30
0.0
  0
SPLINE
  5
3EA
100
AcDbEntity
  8
ALL_FEATURES
100
AcDbSpline
 62
7
  6
CONTINUOUS
 70
0
 71
3
 72
12
 73
8
 74
0
 42
0.0000001
 43
0.0000001
 44
0.0000000001
 40
0.0
 40
0.0
 40
0.0
 40
0.0
 40
0.2499815294
 40
0.4999798899
 40
0.7500156019
 40
0.8750326972
 40
1.0
 40
1.0
 40
1.0
 40
1.0
 10
3.7297509399
 20
4.6170367636
 30
0.0
 10
3.7300044333
 20
4.6178246054
 30
0.0
 10
3.7304922102
 20
4.6194067341
 30
0.0
 10
3.7311398868
 20
4.6218043355
 30
0.0
 10
3.731573327
 20
4.6238301022
 30
0.0
 10
3.7318034056
 20
4.625470083
 30
0.0
 10
3.7318634904
 20
4.6262968339
 30
0.0
 10
3.7318707877
 20
4.6267105015
 30
0.0
  0
LINE
  5
3EB
100
AcDbEntity
  8
ALL_FEATURES
100
AcDbLine
 62
7
  6
CONTINUOUS
 10
3.7318707877
 20
4.6267105015
 11
3.7315830476
 21
4.6289811939
  0
SPLINE
  5
3EC
100
AcDbEntity
  8
ALL_FEATURES
100
AcDbSpline
 62
7
  6
CONTINUOUS
 70
0
 71
3
 72
14
 73
10
 74
0
 42
0.0000001
 43
0.0000001
 44
0.0000000001
 40
0.0
 40
0.0
 40
0.0
 40
0.0
 40
0.0623217905
 40
0.1249794096
 40
0.2497964166
 40
0.3747943728
 40
0.4998080246
 40
0.7498762127
 40
1.0
 40
1.0
 40
1.0
 40
1.0
 10
3.7380625886
 20
4.6510016978
 30
0.0
 10
3.738302162
 20
4.6511401197
 30
0.0
 10
3.7387459201
 20
4.6514815208
 30
0.0
 10
3.7395090855
 20
4.6522886675
 30
0.0
 10
3.7403164549
 20
4.6534232607
 30
0.0
 10
3.7411509066
 20
4.6548638854
 30
0.0
 10
3.7421492413
 20
4.6568480865
 30
0.0
 10
3.7432491435
 20
4.6593985558
 30
0.0
 10
3.7440375478
 20
4.6614749906
 30
0.0
 10
3.7444161865
 20
4.6625189085
 30
0.0
  0
SPLINE
  5
3ED
100
AcDbEntity
  8
ALL_FEATURES
100
AcDbSpline
 62
7
  6
CONTINUOUS
 70
0
 71
3
 72
12
 73
8
 74
0
 42
0.0000001
 43
0.0000001
 44
0.0000000001
 40
0.0
 40
0.0
 40
0.0
 40
0.0
 40
0.2496540754
 40
0.374577999
 40
0.4995455182
 40
0.7497682878
 40
1.0
 40
1.0
 40
1.0
 40
1.0
 10
3.7264174779
 20
4.6509703956
 30
0.0
 10
3.7273630924
 20
4.6506631469
 30
0.0
 10
3.7288069287
 20
4.6502709954
 30
0.0
 10
3.7307700275
 20
4.649939465
 30
0.0
 10
3.7327551279
 20
4.6497543237
 30
0.0
 10
3.7352594146
 20
4.6498718529
 30
0.0
 10
3.7371996889
 20
4.6505031272
 30
0.0
 10
3.7380625886
 20
4.6510016978
 30
0.0
  0
LINE
  5
3EE
100
AcDbEntity
  8
ALL_FEATURES
100
AcDbLine
 62
7
  6
CONTINUOUS
 10
4.8682086127
 20
4.2326528727
 11
4.930940052
 21
4.1476142447
  0
LINE
  5
3EF
100
AcDbEntity
  8
ALL_FEATURES
100
AcDbLine
 62
7
  6
CONTINUOUS
 10
3.6363076642
 20
4.6569390072
 11
3.6320536019
 21
4.6816310775
  0
LINE
  5
3F0
100
AcDbEntity
  8
ALL_FEATURES
100
AcDbLine
 62
7
  6
CONTINUOUS
 10
4.9715243273
 20
4.1793805809
 11
4.9432951588
 21
4.1389727285
  0
LINE
  5
3F1
100
AcDbEntity
  8
ALL_FEATURES
100
AcDbLine
 62
7
  6
CONTINUOUS
 10
4.9432951588
 20
4.1389727285
 11
4.9339496963
 21
4.1256164919
  0
LINE
  5
3F2
100
AcDbEntity
  8
ALL_FEATURES
100
AcDbLine
 62
7
  6
CONTINUOUS
 10
4.9605353482
 20
4.1957331052
 11
4.9715243273
 21
4.1793805809
  0
SPLINE
  5
3F3
100
AcDbEntity
  8
ALL_FEATURES
100
AcDbSpline
 62
7
  6
CONTINUOUS
 70
0
 71
3
 72
14
 73
10
 74
0
 42
0.0000001
 43
0.0000001
 44
0.0000000001
 40
0.0
 40
0.0
 40
0.0
 40
0.0
 40
0.1256115652
 40
0.2510602155
 40
0.3762007654
 40
0.5010860454
 40
0.625898014
 40
0.7506497813
 40
1.0
 40
1.0
 40
1.0
 40
1.0
 10
3.7579387857
 20
4.7104918404
 30
0.0
 10
3.7578587567
 20
4.7110343887
 30
0.0
 10
3.7575210771
 20
4.7120976775
 30
0.0
 10
3.7566166105
 20
4.7134860907
 30
0.0
 10
3.7554520161
 20
4.7146512677
 30
0.0
 10
3.754145614
 20
4.7156424544
 30
0.0
 10
3.7527484964
 20
4.7164955058
 30
0.0
 10
3.7508091127
 20
4.7174900641
 30
0.0
 10
3.7492952892
 20
4.7181115689
 30
0.0
 10
3.748274109
 20
4.7184888924
 30
0.0
  0
SPLINE
  5
3F4
100
AcDbEntity
  8
ALL_FEATURES
100
AcDbSpline
 62
7
  6
CONTINUOUS
 70
0
 71
3
 72
12
 73
8
 74
0
 42
0.0000001
 43
0.0000001
 44
0.0000000001
 40
0.0
 40
0.0
 40
0.0
 40
0.0
 40
0.2500306318
 40
0.5000555078
 40
0.7500831856
 40
0.8750764395
 40
1.0
 40
1.0
 40
1.0
 40
1.0
 10
3.7560807603
 20
4.6985557061
 30
0.0
 10
3.7563360167
 20
4.699342945
 30
0.0
 10
3.7568273207
 20
4.7009238371
 30
0.0
 10
3.7574803258
 20
4.7033196197
 30
0.0
 10
3.7579182418
 20
4.7053439094
 30
0.0
 10
3.7581518932
 20
4.7069827395
 30
0.0
 10
3.7582137659
 20
4.707808941
 30
0.0
 10
3.7582219422
 20
4.7082223502
 30
0.0
  0
LINE
  5
3F5
100
AcDbEntity
  8
ALL_FEATURES
100
AcDbLine
 62
7
  6
CONTINUOUS
 10
3.7582219422
 20
4.7082223502
 11
3.7579387857
 21
4.7104918404
  0
LINE
  5
3F6
100
AcDbEntity
  8
ALL_FEATURES
100
AcDbLine
 62
7
  6
CONTINUOUS
 10
4.4109931259
 20
3.9195642186
 11
4.3853774647
 21
3.9195256712
  0
SPLINE
  5
3F7
100
AcDbEntity
  8
ALL_FEATURES
100
AcDbSpline
 62
7
  6
CONTINUOUS
 70
0
 71
3
 72
12
 73
8
 74
0
 42
0.0000001
 43
0.0000001
 44
0.0000000001
 40
0.0
 40
0.0
 40
0.0
 40
0.0
 40
0.2502335707
 40
0.3754336277
 40
0.5005073477
 40
0.7503210163
 40
1.0
 40
1.0
 40
1.0
 40
1.0
 10
4.8162442562
 20
4.1336011863
 30
0.0
 10
4.8167164382
 20
4.1319151021
 30
0.0
 10
4.8176531525
 20
4.1294403698
 30
0.0
 10
4.8193378651
 20
4.1263656378
 30
0.0
 10
4.8213032606
 20
4.1234646959
 30
0.0
 10
4.8242347831
 20
4.1201924298
 30
0.0
 10
4.8269680001
 20
4.117991066
 30
0.0
 10
4.8283991179
 20
4.1169889865
 30
0.0
  0
SPLINE
  5
3F8
100
AcDbEntity
  8
ALL_FEATURES
100
AcDbSpline
 62
7
  6
CONTINUOUS
 70
0
 71
3
 72
14
 73
10
 74
0
 42
0.0000001
 43
0.0000001
 44
0.0000000001
 40
0.0
 40
0.0
 40
0.0
 40
0.0
 40
0.1252354893
 40
0.2507501879
 40
0.376056147
 40
0.5011687487
 40
0.6262391269
 40
0.7510900861
 40
1.0
 40
1.0
 40
1.0
 40
1.0
 10
4.8186221241
 20
4.1509036693
 30
0.0
 10
4.8181886598
 20
4.1502859773
 30
0.0
 10
4.8173931536
 20
4.1489965697
 30
0.0
 10
4.8164402172
 20
4.1469347149
 30
0.0
 10
4.8157570443
 20
4.1447680808
 30
0.0
 10
4.8153618246
 20
4.1425344518
 30
0.0
 10
4.8152314298
 20
4.1402734233
 30
0.0
 10
4.8153897316
 20
4.1372671937
 30
0.0
 10
4.8158397998
 20
4.1350454335
 30
0.0
 10
4.8162442562
 20
4.1336011863
 30
0.0
  0
SPLINE
  5
3F9
100
AcDbEntity
  8
ALL_FEATURES
100
AcDbSpline
 62
7
  6
CONTINUOUS
 70
0
 71
3
 72
14
 73
10
 74
0
 42
0.0000001
 43
0.0000001
 44
0.0000000001
 40
0.0
 40
0.0
 40
0.0
 40
0.0
 40
0.0623610139
 40
0.1250489317
 40
0.2499017615
 40
0.3749114182
 40
0.4999205387
 40
0.7499471775
 40
1.0
 40
1.0
 40
1.0
 40
1.0
 10
3.7644678642
 20
4.7324961133
 30
0.0
 10
3.7647078486
 20
4.7326343894
 30
0.0
 10
3.76515253
 20
4.7329754242
 30
0.0
 10
3.765917798
 20
4.7337818199
 30
0.0
 10
3.7667280016
 20
4.7349154719
 30
0.0
 10
3.7675659954
 20
4.7363550174
 30
0.0
 10
3.7685690469
 20
4.7383376443
 30
0.0
 10
3.7696749354
 20
4.7408861454
 30
0.0
 10
3.7704681996
 20
4.7429611287
 30
0.0
 10
3.7708492603
 20
4.7440042945
 30
0.0
  0
SPLINE
  5
3FA
100
AcDbEntity
  8
ALL_FEATURES
100
AcDbSpline
 62
7
  6
CONTINUOUS
 70
0
 71
3
 72
12
 73
8
 74
0
 42
0.0000001
 43
0.0000001
 44
0.0000000001
 40
0.0
 40
0.0
 40
0.0
 40
0.0
 40
0.2495275418
 40
0.374414273
 40
0.4993652586
 40
0.749630503
 40
1.0
 40
1.0
 40
1.0
 40
1.0
 10
3.7528162565
 20
4.7324669285
 30
0.0
 10
3.7537618565
 20
4.7321596844
 30
0.0
 10
3.755205776
 20
4.7317675341
 30
0.0
 10
3.7571691204
 20
4.7314359091
 30
0.0
 10
3.7591551351
 20
4.7312505197
 30
0.0
 10
3.7616612971
 20
4.7313676503
 30
0.0
 10
3.7636034674
 20
4.7319980584
 30
0.0
 10
3.7644678642
 20
4.7324961133
 30
0.0
  0
SPLINE
  5
3FB
100
AcDbEntity
  8
ALL_FEATURES
100
AcDbSpline
 62
7
  6
CONTINUOUS
 70
0
 71
3
 72
9
 73
5
 74
0
 42
0.0000001
 43
0.0000001
 44
0.0000000001
 40
0.0
 40
0.0
 40
0.0
 40
0.0
 40
0.4996733301
 40
1.0
 40
1.0
 40
1.0
 40
1.0
 10
4.8269827908
 20
4.1574541955
 30
0.0
 10
4.8253137015
 20
4.1568087611
 30
0.0
 10
4.8221243152
 20
4.1550459962
 30
0.0
 10
4.8196514187
 20
4.1523704268
 30
0.0
 10
4.8186221241
 20
4.1509036693
 30
0.0
  0
LINE
  5
3FC
100
AcDbEntity
  8
ALL_FEATURES
100
AcDbLine
 62
7
  6
CONTINUOUS
 10
3.6626731603
 20
4.7384526001
 11
3.6584624129
 21
4.7631243507
  0
LINE
  5
3FD
100
AcDbEntity
  8
ALL_FEATURES
100
AcDbLine
 62
7
  6
CONTINUOUS
 10
4.8353911799
 20
4.1609039704
 11
4.8269827908
 21
4.1574541955
  0
SPLINE
  5
3FE
100
AcDbEntity
  8
ALL_FEATURES
100
AcDbSpline
 62
7
  6
CONTINUOUS
 70
0
 71
3
 72
10
 73
6
 74
0
 42
0.0000001
 43
0.0000001
 44
0.0000000001
 40
0.0
 40
0.0
 40
0.0
 40
0.0
 40
0.4995467725
 40
0.7498583766
 40
1.0
 40
1.0
 40
1.0
 40
1.0
 10
4.8419743747
 20
4.1659243711
 30
0.0
 10
4.8411764091
 20
4.1647855899
 30
0.0
 10
4.8396124106
 20
4.1633277587
 30
0.0
 10
4.837262234
 20
4.1618391252
 30
0.0
 10
4.8360210705
 20
4.1612007147
 30
0.0
 10
4.8353911799
 20
4.1609039704
 30
0.0
  0
SPLINE
  5
3FF
100
AcDbEntity
  8
ALL_FEATURES
100
AcDbSpline
 62
7
  6
CONTINUOUS
 70
0
 71
3
 72
12
 73
8
 74
0
 42
0.0000001
 43
0.0000001
 44
0.0000000001
 40
0.0
 40
0.0
 40
0.0
 40
0.0
 40
0.2501709473
 40
0.3753540258
 40
0.5004214246
 40
0.75025609
 40
1.0
 40
1.0
 40
1.0
 40
1.0
 10
3.7837456678
 20
4.8156704573
 30
0.0
 10
3.782802214
 20
4.8171443842
 30
0.0
 10
3.7811840593
 20
4.8192364285
 30
0.0
 10
3.7786753467
 20
4.8216833458
 30
0.0
 10
3.7759485768
 20
4.8238824218
 30
0.0
 10
3.7721889888
 20
4.8261542429
 30
0.0
 10
3.7689319081
 20
4.8274600513
 30
0.0
 10
3.7672703825
 20
4.8279999137
 30
0.0
  0
SPLINE
  5
400
100
AcDbEntity
  8
ALL_FEATURES
100
AcDbSpline
 62
7
  6
CONTINUOUS
 70
0
 71
3
 72
14
 73
10
 74
0
 42
0.0000001
 43
0.0000001
 44
0.0000000001
 40
0.0
 40
0.0
 40
0.0
 40
0.0
 40
0.1252750908
 40
0.2508227072
 40
0.3761429035
 40
0.501237067
 40
0.626276236
 40
0.7511046392
 40
1.0
 40
1.0
 40
1.0
 40
1.0
 10
3.7865163563
 20
4.7984332492
 30
0.0
 10
3.7867510915
 20
4.7991504213
 30
0.0
 10
3.7871362898
 20
4.8006156726
 30
0.0
 10
3.7874467203
 20
4.8028655683
 30
0.0
 10
3.7874690838
 20
4.8051367058
 30
0.0
 10
3.7871959862
 20
4.8073876299
 30
0.0
 10
3.7866611448
 20
4.8095871911
 30
0.0
 10
3.7856325784
 20
4.812414974
 30
0.0
 10
3.7845539306
 20
4.8144077348
 30
0.0
 10
3.7837456678
 20
4.8156704573
 30
0.0
  0
SPLINE
  5
401
100
AcDbEntity
  8
ALL_FEATURES
100
AcDbSpline
 62
7
  6
CONTINUOUS
 70
0
 71
3
 72
9
 73
5
 74
0
 42
0.0000001
 43
0.0000001
 44
0.0000000001
 40
0.0
 40
0.0
 40
0.0
 40
0.0
 40
0.4997524774
 40
1.0
 40
1.0
 40
1.0
 40
1.0
 10
3.7804249235
 20
4.7897272289
 30
0.0
 10
3.7818340481
 20
4.79083191
 30
0.0
 10
3.7843721376
 20
4.793448679
 30
0.0
 10
3.7859588316
 20
4.796729878
 30
0.0
 10
3.7865163563
 20
4.7984332492
 30
0.0
  0
LINE
  5
402
100
AcDbEntity
  8
ALL_FEATURES
100
AcDbLine
 62
7
  6
CONTINUOUS
 10
3.7733811068
 20
4.7839700645
 11
3.7804249235
 21
4.7897272289
  0
SPLINE
  5
403
100
AcDbEntity
  8
ALL_FEATURES
100
AcDbSpline
 62
7
  6
CONTINUOUS
 70
0
 71
3
 72
10
 73
6
 74
0
 42
0.0000001
 43
0.0000001
 44
0.0000000001
 40
0.0
 40
0.0
 40
0.0
 40
0.0
 40
0.4994837324
 40
0.7498196387
 40
1.0
 40
1.0
 40
1.0
 40
1.0
 10
3.7685464004
 20
4.7772459877
 30
0.0
 10
3.7689781121
 20
4.7785680932
 30
0.0
 10
3.7700488041
 20
4.7804193133
 30
0.0
 10
3.7718634798
 20
4.7825291788
 30
0.0
 10
3.7728648423
 20
4.7835023518
 30
0.0
 10
3.7733811068
 20
4.7839700645
 30
0.0
  0
SPLINE
  5
404
100
AcDbEntity
  8
ALL_FEATURES
100
AcDbSpline
 62
7
  6
CONTINUOUS
 70
0
 71
3
 72
9
 73
5
 74
0
 42
0.0000001
 43
0.0000001
 44
0.0000000001
 40
0.0
 40
0.0
 40
0.0
 40
0.0
 40
0.4992168091
 40
1.0
 40
1.0
 40
1.0
 40
1.0
 10
3.7688380735
 20
4.7706191355
 30
0.0
 10
3.7682719047
 20
4.771595791
 30
0.0
 10
3.7677307231
 20
4.7739162597
 30
0.0
 10
3.7681948873
 20
4.776169488
 30
0.0
 10
3.7685464004
 20
4.7772459877
 30
0.0
  0
SPLINE
  5
405
100
AcDbEntity
  8
ALL_FEATURES
100
AcDbSpline
 62
7
  6
CONTINUOUS
 70
0
 71
3
 72
9
 73
5
 74
0
 42
0.0000001
 43
0.0000001
 44
0.0000000001
 40
0.0
 40
0.0
 40
0.0
 40
0.0
 40
0.4994361559
 40
1.0
 40
1.0
 40
1.0
 40
1.0
 10
3.7732030026
 20
4.7670826394
 30
0.0
 10
3.7722973977
 20
4.7673768882
 30
0.0
 10
3.7705590312
 20
4.7682799233
 30
0.0
 10
3.7693167085
 20
4.769793478
 30
0.0
 10
3.7688380735
 20
4.7706191355
 30
0.0
  0
SPLINE
  5
406
100
AcDbEntity
  8
ALL_FEATURES
100
AcDbSpline
 62
7
  6
CONTINUOUS
 70
0
 71
3
 72
9
 73
5
 74
0
 42
0.0000001
 43
0.0000001
 44
0.0000000001
 40
0.0
 40
0.0
 40
0.0
 40
0.0
 40
0.4992955811
 40
1.0
 40
1.0
 40
1.0
 40
1.0
 10
4.8436298131
 20
4.1723522174
 30
0.0
 10
4.8438864195
 20
4.1712519772
 30
0.0
 10
4.8437262645
 20
4.1688731605
 30
0.0
 10
4.8426245297
 20
4.166852211
 30
0.0
 10
4.8419743747
 20
4.1659243711
 30
0.0
  0
SPLINE
  5
407
100
AcDbEntity
  8
ALL_FEATURES
100
AcDbSpline
 62
7
  6
CONTINUOUS
 70
0
 71
3
 72
9
 73
5
 74
0
 42
0.0000001
 43
0.0000001
 44
0.0000000001
 40
0.0
 40
0.0
 40
0.0
 40
0.0
 40
0.4993532061
 40
1.0
 40
1.0
 40
1.0
 40
1.0
 10
4.8404874622
 20
4.1770131725
 30
0.0
 10
4.841267812
 20
4.1764667657
 30
0.0
 10
4.8426669997
 20
4.1750940036
 30
0.0
 10
4.8434128796
 20
4.1732823539
 30
0.0
 10
4.8436298131
 20
4.1723522174
 30
0.0
  0
SPLINE
  5
408
100
AcDbEntity
  8
ALL_FEATURES
100
AcDbSpline
 62
7
  6
CONTINUOUS
 70
0
 71
3
 72
13
 73
9
 74
0
 42
0.0000001
 43
0.0000001
 44
0.0000000001
 40
0.0
 40
0.0
 40
0.0
 40
0.0
 40
0.250312957
 40
0.3755241378
 40
0.5006393012
 40
0.6256698411
 40
0.7506266457
 40
1.0
 40
1.0
 40
1.0
 40
1.0
 10
3.7328463314
 20
4.8420108242
 30
0.0
 10
3.7352499621
 20
4.8430852834
 30
0.0
 10
3.7389988908
 20
4.8444104357
 30
0.0
 10
3.744165907
 20
4.8454584764
 30
0.0
 10
3.7481001107
 20
4.8458601629
 30
0.0
 10
3.7520520396
 20
4.8458797698
 30
0.0
 10
3.7572878828
 20
4.8453892226
 30
0.0
 10
3.7611442234
 20
4.8444729201
 30
0.0
 10
3.763638814
 20
4.8436623785
 30
0.0
  0
SPLINE
  5
409
100
AcDbEntity
  8
ALL_FEATURES
100
AcDbSpline
 62
7
  6
CONTINUOUS
 70
0
 71
3
 72
13
 73
9
 74
0
 42
0.0000001
 43
0.0000001
 44
0.0000000001
 40
0.0
 40
0.0
 40
0.0
 40
0.0
 40
0.250158742
 40
0.5002077101
 40
0.6252615352
 40
0.7502605876
 40
0.875195719
 40
1.0
 40
1.0
 40
1.0
 40
1.0
 10
3.7058040102
 20
4.8102640982
 30
0.0
 10
3.707322038
 20
4.8134682501
 30
0.0
 10
3.7106010972
 20
4.8197638566
 30
0.0
 10
3.7155092122
 20
4.8271757437
 30
0.0
 10
3.7200854827
 20
4.8325993684
 30
0.0
 10
3.7238952316
 20
4.8363201805
 30
0.0
 10
3.728121409
 20
4.8395606323
 30
0.0
 10
3.7312314517
 20
4.8412889487
 30
0.0
 10
3.7328463314
 20
4.8420108242
 30
0.0
  0
SPLINE
  5
40A
100
AcDbEntity
  8
ALL_FEATURES
100
AcDbSpline
 62
7
  6
CONTINUOUS
 70
0
 71
3
 72
13
 73
9
 74
0
 42
0.0000001
 43
0.0000001
 44
0.0000000001
 40
0.0
 40
0.0
 40
0.0
 40
0.0
 40
0.2502855475
 40
0.3754849741
 40
0.500592466
 40
0.6256215343
 40
0.750584992
 40
1.0
 40
1.0
 40
1.0
 40
1.0
 10
4.8572223152
 20
4.0935269491
 30
0.0
 10
4.8546110318
 20
4.0932010055
 30
0.0
 10
4.850640452
 20
4.0930281452
 30
0.0
 10
4.8453951343
 20
4.0935346831
 30
0.0
 10
4.8415169198
 20
4.0942995696
 30
0.0
 10
4.8377332423
 20
4.0954352341
 30
0.0
 10
4.8328708475
 20
4.0974341758
 30
0.0
 10
4.8294517608
 20
4.0994374006
 30
0.0
 10
4.8273036214
 20
4.1009415441
 30
0.0
  0
LINE
  5
40B
100
AcDbEntity
  8
ALL_FEATURES
100
AcDbLine
 62
7
  6
CONTINUOUS
 10
3.6803761092
 20
4.8244427485
 11
3.6947193057
 21
4.8682633883
  0
SPLINE
  5
40C
100
AcDbEntity
  8
ALL_FEATURES
100
AcDbSpline
 62
7
  6
CONTINUOUS
 70
0
 71
3
 72
13
 73
9
 74
0
 42
0.0000001
 43
0.0000001
 44
0.0000000001
 40
0.0
 40
0.0
 40
0.0
 40
0.0
 40
0.2501999758
 40
0.5002677399
 40
0.6253199023
 40
0.7503081421
 40
0.8752234721
 40
1.0
 40
1.0
 40
1.0
 40
1.0
 10
4.8923304089
 20
4.116003172
 30
0.0
 10
4.8899450192
 20
4.1133810417
 30
0.0
 10
4.8849748782
 20
4.1083156031
 30
0.0
 10
4.8781215865
 20
4.1026575531
 30
0.0
 10
4.8721652505
 20
4.0988048422
 30
0.0
 10
4.8674383648
 20
4.0963575719
 30
0.0
 10
4.8624535104
 20
4.0944915382
 30
0.0
 10
4.8589765228
 20
4.0937459114
 30
0.0
 10
4.8572223152
 20
4.0935269491
 30
0.0
  0
LINE
  5
40D
100
AcDbEntity
  8
ALL_FEATURES
100
AcDbLine
 62
7
  6
CONTINUOUS
 10
3.6416785946
 20
4.4649913281
 11
3.6405891479
 21
4.4774437619
  0
LINE
  5
40E
100
AcDbEntity
  8
ALL_FEATURES
100
AcDbLine
 62
7
  6
CONTINUOUS
 10
4.912504708
 20
4.0950076145
 11
4.8860122907
 21
4.0572701074
  0
LINE
  5
40F
100
AcDbEntity
  8
ALL_FEATURES
100
AcDbLine
 62
7
  6
CONTINUOUS
 10
4.3859975442
 20
3.8118165471
 11
4.3538589922
 21
3.8117957701
  0
SPLINE
  5
410
100
AcDbEntity
  8
ALL_FEATURES
100
AcDbSpline
 62
7
  6
CONTINUOUS
 70
0
 71
3
 72
14
 73
10
 74
0
 42
0.0000001
 43
0.0000001
 44
0.0000000001
 40
0.0
 40
0.0
 40
0.0
 40
0.0
 40
0.1256428632
 40
0.2511406108
 40
0.3763170433
 40
0.5012156626
 40
0.6260194107
 40
0.7507446873
 40
1.0
 40
1.0
 40
1.0
 40
1.0
 10
3.8615950482
 20
4.1439527239
 30
0.0
 10
3.8611372591
 20
4.1442557384
 30
0.0
 10
3.8601193515
 20
4.1447151363
 30
0.0
 10
3.8584803866
 20
4.1449707714
 30
0.0
 10
3.8568335657
 20
4.1448840882
 30
0.0
 10
3.8552214588
 20
4.1445757706
 30
0.0
 10
3.8536515848
 20
4.1441077514
 30
0.0
 10
3.8516137624
 20
4.1433314393
 30
0.0
 10
3.8501382768
 20
4.142621966
 30
0.0
 10
3.8491741797
 20
4.1421153418
 30
0.0
  0
SPLINE
  5
411
100
AcDbEntity
  8
ALL_FEATURES
100
AcDbSpline
 62
7
  6
CONTINUOUS
 70
0
 71
3
 72
13
 73
9
 74
0
 42
0.0000001
 43
0.0000001
 44
0.0000000001
 40
0.0
 40
0.0
 40
0.0
 40
0.0
 40
0.2498866823
 40
0.4997802752
 40
0.6247810689
 40
0.7497478121
 40
0.8746863744
 40
1.0
 40
1.0
 40
1.0
 40
1.0
 10
3.8692455704
 20
4.1345988187
 30
0.0
 10
3.8687568112
 20
4.1354398036
 30
0.0
 10
3.8677549408
 20
4.1371077498
 30
0.0
 10
3.8664125596
 20
4.1391377137
 30
0.0
 10
3.8652485419
 20
4.1406974786
 30
0.0
 10
3.8643129323
 20
4.1418192765
 30
0.0
 10
3.8632881189
 20
4.1428612559
 30
0.0
 10
3.862511993
 20
4.1434636959
 30
0.0
 10
3.862089018
 20
4.1437066598
 30
0.0
  0
LINE
  5
412
100
AcDbEntity
  8
ALL_FEATURES
100
AcDbLine
 62
7
  6
CONTINUOUS
 10
3.862089018
 20
4.1437066598
 11
3.8615950482
 21
4.1439527239
  0
SPLINE
  5
413
100
AcDbEntity
  8
ALL_FEATURES
100
AcDbSpline
 62
7
  6
CONTINUOUS
 70
0
 71
3
 72
10
 73
6
 74
0
 42
0.0000001
 43
0.0000001
 44
0.0000000001
 40
0.0
 40
0.0
 40
0.0
 40
0.0
 40
0.2494653759
 40
0.500343876
 40
1.0
 40
1.0
 40
1.0
 40
1.0
 10
3.8495662839
 20
4.1635025544
 30
0.0
 10
3.8496216364
 20
4.1637633857
 30
0.0
 10
3.8496658567
 20
4.1643009606
 30
0.0
 10
3.8495873032
 20
4.1653685585
 30
0.0
 10
3.8494177296
 20
4.1661563712
 30
0.0
 10
3.8492814775
 20
4.1666727531
 30
0.0
  0
SPLINE
  5
414
100
AcDbEntity
  8
ALL_FEATURES
100
AcDbSpline
 62
7
  6
CONTINUOUS
 70
0
 71
3
 72
10
 73
6
 74
0
 42
0.0000001
 43
0.0000001
 44
0.0000000001
 40
0.0
 40
0.0
 40
0.0
 40
0.0
 40
0.2498887814
 40
0.4999003932
 40
1.0
 40
1.0
 40
1.0
 40
1.0
 10
3.8492814775
 20
4.1666727531
 30
0.0
 10
3.8490665967
 20
4.1674871301
 30
0.0
 10
3.8485172193
 20
4.1690842853
 30
0.0
 10
3.8471955576
 20
4.1721855208
 30
0.0
 10
3.8460517061
 20
4.1744433164
 30
0.0
 10
3.8452587151
 20
4.175930716
 30
0.0
  0
SPLINE
  5
415
100
AcDbEntity
  8
ALL_FEATURES
100
AcDbSpline
 62
7
  6
CONTINUOUS
 70
0
 71
3
 72
12
 73
8
 74
0
 42
0.0000001
 43
0.0000001
 44
0.0000000001
 40
0.0
 40
0.0
 40
0.0
 40
0.0
 40
0.2496540754
 40
0.374577999
 40
0.4995455182
 40
0.7497682878
 40
1.0
 40
1.0
 40
1.0
 40
1.0
 10
3.8417974459
 20
4.1548276054
 30
0.0
 10
3.8426585158
 20
4.1553247444
 30
0.0
 10
3.8439160562
 20
4.1561353234
 30
0.0
 10
3.8454760008
 20
4.1573723529
 30
0.0
 10
3.8469418791
 20
4.1587236862
 30
0.0
 10
3.8485302327
 20
4.1606633763
 30
0.0
 10
3.8493594014
 20
4.1625276861
 30
0.0
 10
3.8495662839
 20
4.1635025544
 30
0.0
  0
LINE
  5
416
100
AcDbEntity
  8
ALL_FEATURES
100
AcDbLine
 62
7
  6
CONTINUOUS
 10
4.4044422304
 20
3.8664036195
 11
4.3789945466
 21
3.8663723414
  0
LINE
  5
417
100
AcDbEntity
  8
ALL_FEATURES
100
AcDbLine
 62
7
  6
CONTINUOUS
 10
3.7762124121
 20
4.0923949622
 11
3.7558703612
 21
4.1052175799
  0
SPLINE
  5
418
100
AcDbEntity
  8
ALL_FEATURES
100
AcDbSpline
 62
7
  6
CONTINUOUS
 70
0
 71
3
 72
14
 73
10
 74
0
 42
0.0000001
 43
0.0000001
 44
0.0000000001
 40
0.0
 40
0.0
 40
0.0
 40
0.0
 40
0.1244166125
 40
0.249188504
 40
0.3741767389
 40
0.4992760954
 40
0.6244333822
 40
0.7496228371
 40
1.0
 40
1.0
 40
1.0
 40
1.0
 10
4.4197621327
 20
3.861568643
 30
0.0
 10
4.4193995473
 20
3.8621571887
 30
0.0
 10
4.4184600456
 20
3.8632116816
 30
0.0
 10
4.4166959306
 20
3.8643407291
 30
0.0
 10
4.4147610383
 20
3.865132061
 30
0.0
 10
4.4127445628
 20
3.8656758886
 30
0.0
 10
4.4106883489
 20
3.8660390187
 30
0.0
 10
4.4079212204
 20
3.8663398444
 30
0.0
 10
4.4058322471
 20
3.8664057896
 30
0.0
 10
4.4044411304
 20
3.8664036513
 30
0.0
  0
SPLINE
  5
419
100
AcDbEntity
  8
ALL_FEATURES
100
AcDbSpline
 62
7
  6
CONTINUOUS
 70
0
 71
3
 72
9
 73
5
 74
0
 42
0.0000001
 43
0.0000001
 44
0.0000000001
 40
0.0
 40
0.0
 40
0.0
 40
0.0
 40
0.4999846036
 40
1.0
 40
1.0
 40
1.0
 40
1.0
 10
4.4229358395
 20
3.8524670657
 30
0.0
 10
4.4227029986
 20
3.8540651024
 30
0.0
 10
4.4219768117
 20
3.8572322561
 30
0.0
 10
4.4206092388
 20
3.8601936271
 30
0.0
 10
4.4197621327
 20
3.861568643
 30
0.0
  0
SPLINE
  5
41A
100
AcDbEntity
  8
ALL_FEATURES
100
AcDbSpline
 62
7
  6
CONTINUOUS
 70
0
 71
3
 72
13
 73
9
 74
0
 42
0.0000001
 43
0.0000001
 44
0.0000000001
 40
0.0
 40
0.0
 40
0.0
 40
0.0
 40
0.2503345112
 40
0.3755701586
 40
0.500661117
 40
0.625695894
 40
0.7506303472
 40
1.0
 40
1.0
 40
1.0
 40
1.0
 10
3.7145529854
 20
4.1941486675
 30
0.0
 10
3.7150785437
 20
4.1961408553
 30
0.0
 10
3.7161599329
 20
4.1990665125
 30
0.0
 10
3.7181887802
 20
4.2026603041
 30
0.0
 10
3.7199998095
 20
4.205171054
 30
0.0
 10
3.7220608311
 20
4.2074766417
 30
0.0
 10
3.7251014742
 20
4.2102496275
 30
0.0
 10
3.7276622014
 20
4.2119971989
 30
0.0
 10
3.7294396358
 20
4.2130234011
 30
0.0
  0
SPLINE
  5
41B
100
AcDbEntity
  8
ALL_FEATURES
100
AcDbSpline
 62
7
  6
CONTINUOUS
 70
0
 71
3
 72
13
 73
9
 74
0
 42
0.0000001
 43
0.0000001
 44
0.0000000001
 40
0.0
 40
0.0
 40
0.0
 40
0.0
 40
0.2501096129
 40
0.375331127
 40
0.500510738
 40
0.6256159194
 40
0.7506433462
 40
1.0
 40
1.0
 40
1.0
 40
1.0
 10
3.7177245952
 20
4.1711533755
 30
0.0
 10
3.7167312988
 20
4.1728737137
 30
0.0
 10
3.7154500761
 20
4.1755891809
 30
0.0
 10
3.7142943101
 20
4.1793984629
 30
0.0
 10
3.7137282704
 20
4.1823323849
 30
0.0
 10
3.713467386
 20
4.1853076203
 30
0.0
 10
3.7135413139
 20
4.1892797485
 30
0.0
 10
3.7140477881
 20
4.1922336603
 30
0.0
 10
3.7145529854
 20
4.1941486675
 30
0.0
  0
SPLINE
  5
41C
100
AcDbEntity
  8
ALL_FEATURES
100
AcDbSpline
 62
7
  6
CONTINUOUS
 70
0
 71
3
 72
9
 73
5
 74
0
 42
0.0000001
 43
0.0000001
 44
0.0000000001
 40
0.0
 40
0.0
 40
0.0
 40
0.0
 40
0.4996189395
 40
1.0
 40
1.0
 40
1.0
 40
1.0
 10
3.737118698
 20
4.1549096952
 30
0.0
 10
3.7353215064
 20
4.1555673915
 30
0.0
 10
3.7318097027
 20
4.1571339058
 30
0.0
 10
3.7285769273
 20
4.159223579
 30
0.0
 10
3.727058452
 20
4.1603931417
 30
0.0
  0
SPLINE
  5
41D
100
AcDbEntity
  8
ALL_FEATURES
100
AcDbSpline
 62
7
  6
CONTINUOUS
 70
0
 71
3
 72
10
 73
6
 74
0
 42
0.0000001
 43
0.0000001
 44
0.0000000001
 40
0.0
 40
0.0
 40
0.0
 40
0.0
 40
0.2500437977
 40
0.5002223271
 40
1.0
 40
1.0
 40
1.0
 40
1.0
 10
3.727058452
 20
4.1603931417
 30
0.0
 10
3.7261126648
 20
4.1611216077
 30
0.0
 10
3.7242922349
 20
4.1626755172
 30
0.0
 10
3.7209918963
 20
4.1661336039
 30
0.0
 10
3.7189177156
 20
4.1690869524
 30
0.0
 10
3.7177245952
 20
4.1711533755
 30
0.0
  0
SPLINE
  5
41E
100
AcDbEntity
  8
ALL_FEATURES
100
AcDbSpline
 62
7
  6
CONTINUOUS
 70
0
 71
3
 72
9
 73
5
 74
0
 42
0.0000001
 43
0.0000001
 44
0.0000000001
 40
0.0
 40
0.0
 40
0.0
 40
0.0
 40
0.2498851461
 40
1.0
 40
1.0
 40
1.0
 40
1.0
 10
3.7655045207
 20
4.1549050366
 30
0.0
 10
3.764702243
 20
4.1546657642
 30
0.0
 10
3.7614742954
 20
4.1537690695
 30
0.0
 10
3.7581688869
 20
4.15313777
 30
0.0
 10
3.7556712782
 20
4.1528588564
 30
0.0
  0
SPLINE
  5
41F
100
AcDbEntity
  8
ALL_FEATURES
100
AcDbSpline
 62
7
  6
CONTINUOUS
 70
0
 71
3
 72
10
 73
6
 74
0
 42
0.0000001
 43
0.0000001
 44
0.0000000001
 40
0.0
 40
0.0
 40
0.0
 40
0.0
 40
0.4992172694
 40
0.7494734702
 40
1.0
 40
1.0
 40
1.0
 40
1.0
 10
3.7556712782
 20
4.1528588564
 30
0.0
 10
3.7530613015
 20
4.1525673944
 30
0.0
 10
3.7490922409
 20
4.1524461695
 30
0.0
 10
3.7438605541
 20
4.1530575967
 30
0.0
 10
3.7412831028
 20
4.1536300152
 30
0.0
 10
3.7400129601
 20
4.1539816884
 30
0.0
  0
LINE
  5
420
100
AcDbEntity
  8
ALL_FEATURES
100
AcDbLine
 62
7
  6
CONTINUOUS
 10
4.4274543325
 20
3.8503664964
 11
4.4231710587
 21
3.8503579686
  0
SPLINE
  5
421
100
AcDbEntity
  8
ALL_FEATURES
100
AcDbSpline
 62
7
  6
CONTINUOUS
 70
0
 71
3
 72
9
 73
5
 74
0
 42
0.0000001
 43
0.0000001
 44
0.0000000001
 40
0.0
 40
0.0
 40
0.0
 40
0.0
 40
0.5000706626
 40
1.0
 40
1.0
 40
1.0
 40
1.0
 10
3.755232009
 20
4.2059671999
 30
0.0
 10
3.753101786
 20
4.205495831
 30
0.0
 10
3.7489106974
 20
4.2042120756
 30
0.0
 10
3.744968002
 20
4.2023020791
 30
0.0
 10
3.743079084
 20
4.2012115118
 30
0.0
  0
SPLINE
  5
422
100
AcDbEntity
  8
ALL_FEATURES
100
AcDbSpline
 62
7
  6
CONTINUOUS
 70
0
 71
3
 72
9
 73
5
 74
0
 42
0.0000001
 43
0.0000001
 44
0.0000000001
 40
0.0
 40
0.0
 40
0.0
 40
0.0
 40
0.5001837076
 40
1.0
 40
1.0
 40
1.0
 40
1.0
 10
3.7675257374
 20
4.2071862025
 30
0.0
 10
3.7654632006
 20
4.2072626106
 30
0.0
 10
3.7613239491
 20
4.2071003217
 30
0.0
 10
3.7572457341
 20
4.2064127906
 30
0.0
 10
3.755232009
 20
4.2059671999
 30
0.0
  0
SPLINE
  5
423
100
AcDbEntity
  8
ALL_FEATURES
100
AcDbSpline
 62
7
  6
CONTINUOUS
 70
0
 71
3
 72
9
 73
5
 74
0
 42
0.0000001
 43
0.0000001
 44
0.0000000001
 40
0.0
 40
0.0
 40
0.0
 40
0.0
 40
0.2524889861
 40
1.0
 40
1.0
 40
1.0
 40
1.0
 10
3.7871290309
 20
4.205211528
 30
0.0
 10
3.7854911713
 20
4.2054742961
 30
0.0
 10
3.778990669
 20
4.2064261326
 30
0.0
 10
3.7724330958
 20
4.2070044068
 30
0.0
 10
3.7675254518
 20
4.2071860377
 30
0.0
  0
LINE
  5
424
100
AcDbEntity
  8
ALL_FEATURES
100
AcDbLine
 62
7
  6
CONTINUOUS
 10
3.8145532957
 20
4.1997098613
 11
3.8055490597
 21
4.2016143461
  0
SPLINE
  5
425
100
AcDbEntity
  8
ALL_FEATURES
100
AcDbSpline
 62
7
  6
CONTINUOUS
 70
0
 71
3
 72
10
 73
6
 74
0
 42
0.0000001
 43
0.0000001
 44
0.0000000001
 40
0.0
 40
0.0
 40
0.0
 40
0.0
 40
0.500060162
 40
0.7500554004
 40
1.0
 40
1.0
 40
1.0
 40
1.0
 10
3.8055490597
 20
4.2016143461
 30
0.0
 10
3.802487612
 20
4.2022588521
 30
0.0
 10
3.7978940114
 20
4.2032184729
 30
0.0
 10
3.7917535238
 20
4.2044173104
 30
0.0
 10
3.7886734846
 20
4.2049641725
 30
0.0
 10
3.7871294707
 20
4.2052117827
 30
0.0
  0
LINE
  5
426
100
AcDbEntity
  8
ALL_FEATURES
100
AcDbLine
 62
7
  6
CONTINUOUS
 10
3.8287973165
 20
4.1966982531
 11
3.8145535077
 21
4.1997098165
  0
SPLINE
  5
427
100
AcDbEntity
  8
ALL_FEATURES
100
AcDbSpline
 62
7
  6
CONTINUOUS
 70
0
 71
3
 72
9
 73
5
 74
0
 42
0.0000001
 43
0.0000001
 44
0.0000000001
 40
0.0
 40
0.0
 40
0.0
 40
0.0
 40
0.5004541996
 40
1.0
 40
1.0
 40
1.0
 40
1.0
 10
4.3803587856
 20
3.9180834139
 30
0.0
 10
4.3798072287
 20
3.9175109102
 30
0.0
 10
4.3791039046
 20
3.9159902128
 30
0.0
 10
4.3789945467
 20
3.9143977782
 30
0.0
 10
4.3789945467
 20
3.9136042523
 30
0.0
  0
SPLINE
  5
428
100
AcDbEntity
  8
ALL_FEATURES
100
AcDbSpline
 62
7
  6
CONTINUOUS
 70
0
 71
3
 72
11
 73
7
 74
0
 42
0.0000001
 43
0.0000001
 44
0.0000000001
 40
0.0
 40
0.0
 40
0.0
 40
0.0
 40
0.2499665997
 40
0.4999021232
 40
0.7504392059
 40
1.0
 40
1.0
 40
1.0
 40
1.0
 10
4.3853756136
 20
3.9195256688
 30
0.0
 10
4.3849306942
 20
3.919525149
 30
0.0
 10
4.3840406079
 20
3.919489879
 30
0.0
 10
4.3827138279
 20
3.9193033526
 30
0.0
 10
4.3814342504
 20
3.9189000677
 30
0.0
 10
4.380666974
 20
3.9184033065
 30
0.0
 10
4.3803587856
 20
3.9180834139
 30
0.0
  0
LINE
  5
429
100
AcDbEntity
  8
ALL_FEATURES
100
AcDbLine
 62
7
  6
CONTINUOUS
 10
3.7790461623
 20
4.2480643101
 11
3.7785351577
 21
4.2514544528
  0
SPLINE
  5
42A
100
AcDbEntity
  8
ALL_FEATURES
100
AcDbSpline
 62
7
  6
CONTINUOUS
 70
0
 71
3
 72
14
 73
10
 74
0
 42
0.0000001
 43
0.0000001
 44
0.0000000001
 40
0.0
 40
0.0
 40
0.0
 40
0.0
 40
0.1253050942
 40
0.1882294337
 40
0.2508805397
 40
0.3758240101
 40
0.5007539011
 40
0.7504428082
 40
1.0
 40
1.0
 40
1.0
 40
1.0
 10
3.7915528425
 20
4.2447140718
 30
0.0
 10
3.7911404488
 20
4.2450745006
 30
0.0
 10
3.7904401931
 20
4.2455247692
 30
0.0
 10
3.7894494863
 20
4.2459941266
 30
0.0
 10
3.7884320761
 20
4.2464013281
 30
0.0
 10
3.7871257215
 20
4.2468067723
 30
0.0
 10
3.7850008948
 20
4.2473140012
 30
0.0
 10
3.782304524
 20
4.2477502279
 30
0.0
 10
3.7801332259
 20
4.2479740875
 30
0.0
 10
3.7790461623
 20
4.2480643101
 30
0.0
  0
SPLINE
  5
42B
100
AcDbEntity
  8
ALL_FEATURES
100
AcDbSpline
 62
7
  6
CONTINUOUS
 70
0
 71
3
 72
12
 73
8
 74
0
 42
0.0000001
 43
0.0000001
 44
0.0000000001
 40
0.0
 40
0.0
 40
0.0
 40
0.0
 40
0.2500605036
 40
0.500102764
 40
0.75008774
 40
0.8750687377
 40
1.0
 40
1.0
 40
1.0
 40
1.0
 10
3.7989281222
 20
4.2344256984
 30
0.0
 10
3.7983990643
 20
4.2353427812
 30
0.0
 10
3.7973186596
 20
4.2371643083
 30
0.0
 10
3.7956043719
 20
4.2398382646
 30
0.0
 10
3.7940588743
 20
4.241990231
 30
0.0
 10
3.7926965064
 20
4.2436110779
 30
0.0
 10
3.7919511197
 20
4.2443659806
 30
0.0
 10
3.7915528425
 20
4.2447140718
 30
0.0
  0
LINE
  5
42C
100
AcDbEntity
  8
ALL_FEATURES
100
AcDbLine
 62
7
  6
CONTINUOUS
 10
3.8156020132
 20
4.2055520033
 11
3.7989280986
 21
4.2344257393
  0
SPLINE
  5
42D
100
AcDbEntity
  8
ALL_FEATURES
100
AcDbSpline
 62
7
  6
CONTINUOUS
 70
0
 71
3
 72
12
 73
8
 74
0
 42
0.0000001
 43
0.0000001
 44
0.0000000001
 40
0.0
 40
0.0
 40
0.0
 40
0.0
 40
0.2490739809
 40
0.3742063289
 40
0.4993716682
 40
0.7496532235
 40
1.0
 40
1.0
 40
1.0
 40
1.0
 10
4.4280812557
 20
3.9147290611
 30
0.0
 10
4.4270833052
 20
3.9158645046
 30
0.0
 10
4.4251147772
 20
3.9171610307
 30
0.0
 10
4.4222795136
 20
3.9182232115
 30
0.0
 10
4.4193281892
 20
3.9189724865
 30
0.0
 10
4.4155527359
 20
3.9194703581
 30
0.0
 10
4.4125125152
 20
3.9195670145
 30
0.0
 10
4.4109931259
 20
3.9195642186
 30
0.0
  0
SPLINE
  5
42E
100
AcDbEntity
  8
ALL_FEATURES
100
AcDbSpline
 62
7
  6
CONTINUOUS
 70
0
 71
3
 72
9
 73
5
 74
0
 42
0.0000001
 43
0.0000001
 44
0.0000000001
 40
0.0
 40
0.0
 40
0.0
 40
0.0
 40
0.7498076219
 40
1.0
 40
1.0
 40
1.0
 40
1.0
 10
4.4334173246
 20
3.9011163352
 30
0.0
 10
4.4331939181
 20
3.9028395001
 30
0.0
 10
4.4327628776
 20
3.9051274199
 30
0.0
 10
4.4320817722
 20
3.9073437232
 30
0.0
 10
4.4318937008
 20
3.9078921625
 30
0.0
  0
SPLINE
  5
42F
100
AcDbEntity
  8
ALL_FEATURES
100
AcDbSpline
 62
7
  6
CONTINUOUS
 70
0
 71
3
 72
9
 73
5
 74
0
 42
0.0000001
 43
0.0000001
 44
0.0000000001
 40
0.0
 40
0.0
 40
0.0
 40
0.0
 40
0.499807758
 40
1.0
 40
1.0
 40
1.0
 40
1.0
 10
4.4318937008
 20
3.9078921625
 30
0.0
 10
4.4314686322
 20
3.9091317141
 30
0.0
 10
4.4304372673
 20
3.9115558703
 30
0.0
 10
4.428947008
 20
3.9137440294
 30
0.0
 10
4.4280812557
 20
3.9147290611
 30
0.0
  0
LINE
  5
430
100
AcDbEntity
  8
ALL_FEATURES
100
AcDbLine
 62
7
  6
CONTINUOUS
 10
4.4377005984
 20
3.9011266365
 11
4.4334173246
 21
3.9011163352
  0
SPLINE
  5
431
100
AcDbEntity
  8
ALL_FEATURES
100
AcDbSpline
 62
7
  6
CONTINUOUS
 70
0
 71
3
 72
11
 73
7
 74
0
 42
0.0000001
 43
0.0000001
 44
0.0000000001
 40
0.0
 40
0.0
 40
0.0
 40
0.0
 40
0.2503057185
 40
0.5003980588
 40
0.7502971361
 40
1.0
 40
1.0
 40
1.0
 40
1.0
 10
4.4545955981
 20
5.2362423151
 30
0.0
 10
4.45651015
 20
5.2331524441
 30
0.0
 10
4.4597719142
 20
5.2266088166
 30
0.0
 10
4.462979561
 20
5.2161547156
 30
0.0
 10
4.4647073491
 20
5.2053768507
 30
0.0
 10
4.4650402464
 20
5.1981150814
 30
0.0
 10
4.4650402464
 20
5.1944888929
 30
0.0
  0
SPLINE
  5
432
100
AcDbEntity
  8
ALL_FEATURES
100
AcDbSpline
 62
7
  6
CONTINUOUS
 70
0
 71
3
 72
11
 73
7
 74
0
 42
0.0000001
 43
0.0000001
 44
0.0000000001
 40
0.0
 40
0.0
 40
0.0
 40
0.0
 40
0.2503057185
 40
0.5003980588
 40
0.7502971361
 40
1.0
 40
1.0
 40
1.0
 40
1.0
 10
3.6751473519
 20
4.2787179919
 30
0.0
 10
3.6768659827
 20
4.2819209779
 30
0.0
 10
3.6809020483
 20
4.2880175624
 30
0.0
 10
3.6883517419
 20
4.2960225164
 30
0.0
 10
3.6968217526
 20
4.3029077573
 30
0.0
 10
3.7029441807
 20
4.3068269394
 30
0.0
 10
3.706084552
 20
4.3086400337
 30
0.0
  0
SPLINE
  5
433
100
AcDbEntity
  8
ALL_FEATURES
100
AcDbSpline
 62
7
  6
CONTINUOUS
 70
0
 71
3
 72
12
 73
8
 74
0
 42
0.0000001
 43
0.0000001
 44
0.0000000001
 40
0.0
 40
0.0
 40
0.0
 40
0.0
 40
0.2502781516
 40
0.3757202631
 40
0.5010260929
 40
0.7507235321
 40
1.0
 40
1.0
 40
1.0
 40
1.0
 10
3.6747521779
 20
4.2457462585
 30
0.0
 10
3.6733171177
 20
4.2482428362
 30
0.0
 10
3.671576885
 20
4.2522711732
 30
0.0
 10
3.6704851626
 20
4.2579490501
 30
0.0
 10
3.670223472
 20
4.2637212615
 30
0.0
 10
3.6714914834
 20
4.2708863757
 30
0.0
 10
3.673791286
 20
4.2761907127
 30
0.0
 10
3.6751473519
 20
4.2787179919
 30
0.0
  0
SPLINE
  5
434
100
AcDbEntity
  8
ALL_FEATURES
100
AcDbSpline
 62
7
  6
CONTINUOUS
 70
0
 71
3
 72
11
 73
7
 74
0
 42
0.0000001
 43
0.0000001
 44
0.0000000001
 40
0.0
 40
0.0
 40
0.0
 40
0.0
 40
0.2495216138
 40
0.4993059189
 40
0.7494550826
 40
1.0
 40
1.0
 40
1.0
 40
1.0
 10
3.7051675131
 20
4.2294606873
 30
0.0
 10
3.7029762539
 20
4.22941995
 30
0.0
 10
3.6985778548
 20
4.2296159348
 30
0.0
 10
3.6921019128
 20
4.2309908443
 30
0.0
 10
3.6860219097
 20
4.2336708372
 30
0.0
 10
3.6824750287
 20
4.2363474984
 30
0.0
 10
3.6808763615
 20
4.2378597872
 30
0.0
  0
SPLINE
  5
435
100
AcDbEntity
  8
ALL_FEATURES
100
AcDbSpline
 62
7
  6
CONTINUOUS
 70
0
 71
3
 72
9
 73
5
 74
0
 42
0.0000001
 43
0.0000001
 44
0.0000000001
 40
0.0
 40
0.0
 40
0.0
 40
0.0
 40
0.499925393
 40
1.0
 40
1.0
 40
1.0
 40
1.0
 10
3.6808763615
 20
4.2378597872
 30
0.0
 10
3.6797380851
 20
4.2389365608
 30
0.0
 10
3.6776260837
 20
4.2412704073
 30
0.0
 10
3.6758621121
 20
4.2438724266
 30
0.0
 10
3.6750604491
 20
4.2452192439
 30
0.0
  0
SPLINE
  5
436
100
AcDbEntity
  8
ALL_FEATURES
100
AcDbSpline
 62
7
  6
CONTINUOUS
 70
0
 71
3
 72
11
 73
7
 74
0
 42
0.0000001
 43
0.0000001
 44
0.0000000001
 40
0.0
 40
0.0
 40
0.0
 40
0.0
 40
0.2498846884
 40
0.4998425907
 40
0.7498720386
 40
1.0
 40
1.0
 40
1.0
 40
1.0
 10
3.7466995129
 20
4.2418021986
 30
0.0
 10
3.7435420567
 20
4.2399792403
 30
0.0
 10
3.7370457948
 20
4.2366317593
 30
0.0
 10
3.7267925211
 20
4.2327386911
 30
0.0
 10
3.7161133332
 20
4.2301992182
 30
0.0
 10
3.7088163484
 20
4.2295285222
 30
0.0
 10
3.7051675131
 20
4.2294606873
 30
0.0
  0
SPLINE
  5
437
100
AcDbEntity
  8
ALL_FEATURES
100
AcDbSpline
 62
7
  6
CONTINUOUS
 70
0
 71
3
 72
9
 73
5
 74
0
 42
0.0000001
 43
0.0000001
 44
0.0000000001
 40
0.0
 40
0.0
 40
0.0
 40
0.0
 40
0.2499218199
 40
1.0
 40
1.0
 40
1.0
 40
1.0
 10
4.4262388264
 20
5.2530704125
 30
0.0
 10
4.4269690959
 20
5.2530690202
 30
0.0
 10
4.4298896529
 20
5.2529785959
 30
0.0
 10
4.4328042854
 20
5.2525272213
 30
0.0
 10
4.4349198789
 20
5.2519545716
 30
0.0
  0
SPLINE
  5
438
100
AcDbEntity
  8
ALL_FEATURES
100
AcDbSpline
 62
7
  6
CONTINUOUS
 70
0
 71
3
 72
9
 73
5
 74
0
 42
0.0000001
 43
0.0000001
 44
0.0000000001
 40
0.0
 40
0.0
 40
0.0
 40
0.0
 40
0.5003873007
 40
1.0
 40
1.0
 40
1.0
 40
1.0
 10
4.4349198789
 20
5.2519545716
 30
0.0
 10
4.4376655981
 20
5.2512113592
 30
0.0
 10
4.4429724821
 20
5.2489223369
 30
0.0
 10
4.4473828937
 20
5.2452198974
 30
0.0
 10
4.4493343171
 20
5.2431563437
 30
0.0
  0
SPLINE
  5
439
100
AcDbEntity
  8
ALL_FEATURES
100
AcDbSpline
 62
7
  6
CONTINUOUS
 70
0
 71
3
 72
9
 73
5
 74
0
 42
0.0000001
 43
0.0000001
 44
0.0000000001
 40
0.0
 40
0.0
 40
0.0
 40
0.0
 40
0.2504641789
 40
1.0
 40
1.0
 40
1.0
 40
1.0
 10
4.4493343171
 20
5.2431563437
 30
0.0
 10
4.4498332136
 20
5.2426287802
 30
0.0
 10
4.4517625893
 20
5.2404634407
 30
0.0
 10
4.4534511065
 20
5.2380893956
 30
0.0
 10
4.4545955981
 20
5.2362423151
 30
0.0
  0
SPLINE
  5
43A
100
AcDbEntity
  8
ALL_FEATURES
100
AcDbSpline
 62
7
  6
CONTINUOUS
 70
0
 71
3
 72
13
 73
9
 74
0
 42
0.0000001
 43
0.0000001
 44
0.0000000001
 40
0.0
 40
0.0
 40
0.0
 40
0.0
 40
0.1250196226
 40
0.2502456597
 40
0.4998983592
 40
0.7496022097
 40
0.8748935792
 40
1.0
 40
1.0
 40
1.0
 40
1.0
 10
4.3274571031
 20
3.9021997772
 30
0.0
 10
4.3267298198
 20
3.901474533
 30
0.0
 10
4.3251249229
 20
3.9001639714
 30
0.0
 10
4.3214847631
 20
3.8982177712
 30
0.0
 10
4.3163144679
 20
3.8971842365
 30
0.0
 10
4.3111413764
 20
3.8982054588
 30
0.0
 10
4.3074944535
 20
3.9001423907
 30
0.0
 10
4.3058847122
 20
3.9014489501
 30
0.0
 10
4.3051547011
 20
3.9021724619
 30
0.0
  0
SPLINE
  5
43B
100
AcDbEntity
  8
ALL_FEATURES
100
AcDbSpline
 62
7
  6
CONTINUOUS
 70
0
 71
3
 72
9
 73
5
 74
0
 42
0.0000001
 43
0.0000001
 44
0.0000000001
 40
0.0
 40
0.0
 40
0.0
 40
0.0
 40
0.5006715164
 40
1.0
 40
1.0
 40
1.0
 40
1.0
 10
4.3051547011
 20
3.9021724619
 30
0.0
 10
4.3037060407
 20
3.9036082248
 30
0.0
 10
4.3013544989
 20
3.9070812993
 30
0.0
 10
4.3005349379
 20
3.9111958077
 30
0.0
 10
4.3005349379
 20
3.9132299522
 30
0.0
  0
SPLINE
  5
43C
100
AcDbEntity
  8
ALL_FEATURES
100
AcDbSpline
 62
7
  6
CONTINUOUS
 70
0
 71
3
 72
9
 73
5
 74
0
 42
0.0000001
 43
0.0000001
 44
0.0000000001
 40
0.0
 40
0.0
 40
0.0
 40
0.0
 40
0.7497660874
 40
1.0
 40
1.0
 40
1.0
 40
1.0
 10
4.3112624491
 20
5.2348989313
 30
0.0
 10
4.3120160217
 20
5.2362635038
 30
0.0
 10
4.3131042722
 20
5.2380405729
 30
0.0
 10
4.3143157636
 20
5.2397306057
 30
0.0
 10
4.3146269441
 20
5.2401475388
 30
0.0
  0
SPLINE
  5
43D
100
AcDbEntity
  8
ALL_FEATURES
100
AcDbSpline
 62
7
  6
CONTINUOUS
 70
0
 71
3
 72
9
 73
5
 74
0
 42
0.0000001
 43
0.0000001
 44
0.0000000001
 40
0.0
 40
0.0
 40
0.0
 40
0.0
 40
0.749775832
 40
1.0
 40
1.0
 40
1.0
 40
1.0
 10
4.3146269441
 20
5.2401475388
 30
0.0
 10
4.3155410225
 20
5.2413722612
 30
0.0
 10
4.3168549141
 20
5.2429397724
 30
0.0
 10
4.3182975409
 20
5.2443802951
 30
0.0
 10
4.3186667337
 20
5.2447321701
 30
0.0
  0
SPLINE
  5
43E
100
AcDbEntity
  8
ALL_FEATURES
100
AcDbSpline
 62
7
  6
CONTINUOUS
 70
0
 71
3
 72
9
 73
5
 74
0
 42
0.0000001
 43
0.0000001
 44
0.0000000001
 40
0.0
 40
0.0
 40
0.0
 40
0.0
 40
0.4996498031
 40
1.0
 40
1.0
 40
1.0
 40
1.0
 10
4.3186667337
 20
5.2447321701
 30
0.0
 10
4.3201179782
 20
5.2461153403
 30
0.0
 10
4.3232850753
 20
5.2486256434
 30
0.0
 10
4.3269068899
 20
5.2504295403
 30
0.0
 10
4.3287867147
 20
5.2511343844
 30
0.0
  0
SPLINE
  5
43F
100
AcDbEntity
  8
ALL_FEATURES
100
AcDbSpline
 62
7
  6
CONTINUOUS
 70
0
 71
3
 72
9
 73
5
 74
0
 42
0.0000001
 43
0.0000001
 44
0.0000000001
 40
0.0
 40
0.0
 40
0.0
 40
0.0
 40
0.4998926412
 40
1.0
 40
1.0
 40
1.0
 40
1.0
 10
4.3287867147
 20
5.2511343844
 30
0.0
 10
4.3306600406
 20
5.2518367918
 30
0.0
 10
4.3345611544
 20
5.2528558762
 30
0.0
 10
4.3385718165
 20
5.2531516302
 30
0.0
 10
4.3405733573
 20
5.2531516623
 30
0.0
  0
SPLINE
  5
440
100
AcDbEntity
  8
ALL_FEATURES
100
AcDbSpline
 62
7
  6
CONTINUOUS
 70
0
 71
3
 72
11
 73
7
 74
0
 42
0.0000001
 43
0.0000001
 44
0.0000000001
 40
0.0
 40
0.0
 40
0.0
 40
0.0
 40
0.2498026572
 40
0.4997339239
 40
0.7497929254
 40
1.0
 40
1.0
 40
1.0
 40
1.0
 10
4.3011840196
 20
5.1927399549
 30
0.0
 10
4.3011840196
 20
5.1963862947
 30
0.0
 10
4.3015332941
 20
5.2036876125
 30
0.0
 10
4.3032886138
 20
5.2145174461
 30
0.0
 10
4.3064292591
 20
5.2250418279
 30
0.0
 10
4.309496867
 20
5.2317018076
 30
0.0
 10
4.3112624491
 20
5.2348989313
 30
0.0
  0
SPLINE
  5
441
100
AcDbEntity
  8
ALL_FEATURES
100
AcDbSpline
 62
7
  6
CONTINUOUS
 70
0
 71
3
 72
9
 73
5
 74
0
 42
0.0000001
 43
0.0000001
 44
0.0000000001
 40
0.0
 40
0.0
 40
0.0
 40
0.0
 40
0.7497764812
 40
1.0
 40
1.0
 40
1.0
 40
1.0
 10
4.3969274405
 20
5.2348727452
 30
0.0
 10
4.3976801439
 20
5.2362343016
 30
0.0
 10
4.3987670507
 20
5.2380073656
 30
0.0
 10
4.3999769584
 20
5.2396934757
 30
0.0
 10
4.4002877139
 20
5.2401094155
 30
0.0
  0
SPLINE
  5
442
100
AcDbEntity
  8
ALL_FEATURES
100
AcDbSpline
 62
7
  6
CONTINUOUS
 70
0
 71
3
 72
9
 73
5
 74
0
 42
0.0000001
 43
0.0000001
 44
0.0000000001
 40
0.0
 40
0.0
 40
0.0
 40
0.0
 40
0.7497794667
 40
1.0
 40
1.0
 40
1.0
 40
1.0
 10
4.4002877139
 20
5.2401094155
 30
0.0
 10
4.4012008567
 20
5.2413316387
 30
0.0
 10
4.4025133751
 20
5.2428958273
 30
0.0
 10
4.4039544413
 20
5.2443330618
 30
0.0
 10
4.4043232255
 20
5.2446841116
 30
0.0
  0
SPLINE
  5
443
100
AcDbEntity
  8
ALL_FEATURES
100
AcDbSpline
 62
7
  6
CONTINUOUS
 70
0
 71
3
 72
9
 73
5
 74
0
 42
0.0000001
 43
0.0000001
 44
0.0000000001
 40
0.0
 40
0.0
 40
0.0
 40
0.0
 40
0.4996133113
 40
1.0
 40
1.0
 40
1.0
 40
1.0
 10
4.4043232255
 20
5.2446841116
 30
0.0
 10
4.4057742962
 20
5.2460654022
 30
0.0
 10
4.408941433
 20
5.2485716868
 30
0.0
 10
4.4125631646
 20
5.2503702327
 30
0.0
 10
4.4144428651
 20
5.2510721807
 30
0.0
  0
SPLINE
  5
444
100
AcDbEntity
  8
ALL_FEATURES
100
AcDbSpline
 62
7
  6
CONTINUOUS
 70
0
 71
3
 72
9
 73
5
 74
0
 42
0.0000001
 43
0.0000001
 44
0.0000000001
 40
0.0
 40
0.0
 40
0.0
 40
0.0
 40
0.4998180853
 40
1.0
 40
1.0
 40
1.0
 40
1.0
 10
4.4144428651
 20
5.2510721807
 30
0.0
 10
4.4163178075
 20
5.2517723518
 30
0.0
 10
4.4202226465
 20
5.2527858363
 30
0.0
 10
4.4242359615
 20
5.2530742311
 30
0.0
 10
4.4262388264
 20
5.2530704125
 30
0.0
  0
SPLINE
  5
445
100
AcDbEntity
  8
ALL_FEATURES
100
AcDbSpline
 62
7
  6
CONTINUOUS
 70
0
 71
3
 72
11
 73
7
 74
0
 42
0.0000001
 43
0.0000001
 44
0.0000000001
 40
0.0
 40
0.0
 40
0.0
 40
0.0
 40
0.2496318687
 40
0.4998501185
 40
0.7499016306
 40
1.0
 40
1.0
 40
1.0
 40
1.0
 10
4.3571414859
 20
3.9190664021
 30
0.0
 10
4.3563618345
 20
3.9196951852
 30
0.0
 10
4.3546163422
 20
3.920730198
 30
0.0
 10
4.3517691922
 20
3.9217356546
 30
0.0
 10
4.3488156149
 20
3.9223510797
 30
0.0
 10
4.3468202516
 20
3.9225829902
 30
0.0
 10
4.3458201691
 20
3.9226655276
 30
0.0
  0
LINE
  5
446
100
AcDbEntity
  8
ALL_FEATURES
100
AcDbLine
 62
7
  6
CONTINUOUS
 10
4.3608536218
 20
3.9040944872
 11
4.3606763122
 21
3.9088807478
  0
SPLINE
  5
447
100
AcDbEntity
  8
ALL_FEATURES
100
AcDbSpline
 62
7
  6
CONTINUOUS
 70
0
 71
3
 72
11
 73
7
 74
0
 42
0.0000001
 43
0.0000001
 44
0.0000000001
 40
0.0
 40
0.0
 40
0.0
 40
0.0
 40
0.2498071132
 40
0.4996376917
 40
0.7496233892
 40
1.0
 40
1.0
 40
1.0
 40
1.0
 10
4.3606763122
 20
3.9088807478
 30
0.0
 10
4.3606022119
 20
3.909794788
 30
0.0
 10
4.360398995
 20
3.9116189288
 30
0.0
 10
4.3598552274
 20
3.9143238469
 30
0.0
 10
4.3589461729
 20
3.9169290698
 30
0.0
 10
4.3578569339
 20
3.9184893984
 30
0.0
 10
4.3571414859
 20
3.9190664021
 30
0.0
  0
SPLINE
  5
448
100
AcDbEntity
  8
ALL_FEATURES
100
AcDbSpline
 62
7
  6
CONTINUOUS
 70
0
 71
3
 72
11
 73
7
 74
0
 42
0.0000001
 43
0.0000001
 44
0.0000000001
 40
0.0
 40
0.0
 40
0.0
 40
0.0
 40
0.2498846884
 40
0.4998425907
 40
0.7498720386
 40
1.0
 40
1.0
 40
1.0
 40
1.0
 10
4.3868495028
 20
5.1927342226
 30
0.0
 10
4.3868495028
 20
5.196380139
 30
0.0
 10
4.3871986301
 20
5.2036798073
 30
0.0
 10
4.388953771
 20
5.214505937
 30
0.0
 10
4.3920941169
 20
5.2250241214
 30
0.0
 10
4.3951617695
 20
5.2316788436
 30
0.0
 10
4.3969274405
 20
5.2348727452
 30
0.0
  0
LINE
  5
449
100
AcDbEntity
  8
ALL_FEATURES
100
AcDbLine
 62
7
  6
CONTINUOUS
 10
4.7882647026
 20
5.0748858404
 11
4.7978402581
 21
5.0668509952
  0
SPLINE
  5
44A
100
AcDbEntity
  8
ALL_FEATURES
100
AcDbSpline
 62
7
  6
CONTINUOUS
 70
0
 71
3
 72
15
 73
11
 74
0
 42
0.0000001
 43
0.0000001
 44
0.0000000001
 40
0.0
 40
0.0
 40
0.0
 40
0.0
 40
0.2495799792
 40
0.3744743868
 40
0.4996267553
 40
0.6248802063
 40
0.7497586833
 40
0.8126094119
 40
0.8756819172
 40
1.0
 40
1.0
 40
1.0
 40
1.0
 10
4.4044422304
 20
3.8669929824
 30
0.0
 10
4.4058297403
 20
3.8669929824
 30
0.0
 10
4.4079140254
 20
3.8669282531
 30
0.0
 10
4.4106758057
 20
3.8666183437
 30
0.0
 10
4.4127317107
 20
3.866253471
 30
0.0
 10
4.4147534084
 20
3.8657243253
 30
0.0
 10
4.4163688877
 20
3.8650549852
 30
0.0
 10
4.4175706511
 20
3.86434249
 30
0.0
 10
4.4186853517
 20
3.8635090202
 30
0.0
 10
4.419399897
 20
3.8627207701
 30
0.0
 10
4.4197621327
 20
3.8621321717
 30
0.0
  0
SPLINE
  5
44B
100
AcDbEntity
  8
ALL_FEATURES
100
AcDbSpline
 62
7
  6
CONTINUOUS
 70
0
 71
3
 72
11
 73
7
 74
0
 42
0.0000001
 43
0.0000001
 44
0.0000000001
 40
0.0
 40
0.0
 40
0.0
 40
0.0
 40
0.4967911021
 40
0.6227087572
 40
0.7485192147
 40
1.0
 40
1.0
 40
1.0
 40
1.0
 10
4.3803590706
 20
3.9187016734
 30
0.0
 10
4.3809698872
 20
3.9193350353
 30
0.0
 10
4.3820789486
 20
3.9197748297
 30
0.0
 10
4.3833765648
 20
3.9200094613
 30
0.0
 10
4.3842634622
 20
3.9201143509
 30
0.0
 10
4.3849320445
 20
3.9201378894
 30
0.0
 10
4.3853774647
 20
3.9201378894
 30
0.0
  0
SPLINE
  5
44C
100
AcDbEntity
  8
ALL_FEATURES
100
AcDbSpline
 62
7
  6
CONTINUOUS
 70
0
 71
3
 72
13
 73
9
 74
0
 42
0.0000001
 43
0.0000001
 44
0.0000000001
 40
0.0
 40
0.0
 40
0.0
 40
0.0
 40
0.2501467368
 40
0.3752880008
 40
0.5005614991
 40
0.6258235248
 40
0.7509635727
 40
1.0
 40
1.0
 40
1.0
 40
1.0
 10
4.4109931259
 20
3.9201378894
 30
0.0
 10
4.412512316
 20
3.9201378894
 30
0.0
 10
4.4147939616
 20
3.9200649357
 30
0.0
 10
4.4178172135
 20
3.9197307762
 30
0.0
 10
4.4200666552
 20
3.9193432927
 30
0.0
 10
4.4222836709
 20
3.9187804873
 30
0.0
 10
4.425115362
 20
3.9177020936
 30
0.0
 10
4.4270838221
 20
3.9164052055
 30
0.0
 10
4.4280812557
 20
3.9152682702
 30
0.0
  0
LINE
  5
44D
100
AcDbEntity
  8
ALL_FEATURES
100
AcDbLine
 62
7
  6
CONTINUOUS
 10
4.3458201691
 20
3.92330326
 11
4.3492355772
 21
3.922871925
  0
SPLINE
  5
44E
100
AcDbEntity
  8
ALL_FEATURES
100
AcDbSpline
 62
7
  6
CONTINUOUS
 70
0
 71
3
 72
9
 73
5
 74
0
 42
0.0000001
 43
0.0000001
 44
0.0000000001
 40
0.0
 40
0.0
 40
0.0
 40
0.0
 40
0.2511381855
 40
1.0
 40
1.0
 40
1.0
 40
1.0
 10
4.350740365
 20
3.9225645046
 30
0.0
 10
4.3513143403
 20
3.9224306335
 30
0.0
 10
4.3535761986
 20
3.9218238486
 30
0.0
 10
4.355773716
 20
3.9208047026
 30
0.0
 10
4.357141437
 20
3.919701076
 30
0.0
  0
SPLINE
  5
44F
100
AcDbEntity
  8
ALL_FEATURES
100
AcDbSpline
 62
7
  6
CONTINUOUS
 70
0
 71
3
 72
12
 73
8
 74
0
 42
0.0000001
 43
0.0000001
 44
0.0000000001
 40
0.0
 40
0.0
 40
0.0
 40
0.0
 40
0.2506860492
 40
0.5006521722
 40
0.6260267466
 40
0.7515181838
 40
1.0
 40
1.0
 40
1.0
 40
1.0
 10
4.3179173274
 20
3.923126526
 30
0.0
 10
4.3190010951
 20
3.9229376641
 30
0.0
 10
4.3211197186
 20
3.9221847395
 30
0.0
 10
4.3232758285
 20
3.9203893502
 30
0.0
 10
4.3245522489
 20
3.9185869703
 30
0.0
 10
4.3254825342
 20
3.9165940452
 30
0.0
 10
4.3257849379
 20
3.9149365793
 30
0.0
 10
4.3257849379
 20
3.9138461516
 30
0.0
  0
SPLINE
  5
450
100
AcDbEntity
  8
ALL_FEATURES
100
AcDbSpline
 62
7
  6
CONTINUOUS
 70
0
 71
3
 72
15
 73
11
 74
0
 42
0.0000001
 43
0.0000001
 44
0.0000000001
 40
0.0
 40
0.0
 40
0.0
 40
0.0
 40
0.1247001341
 40
0.2496739657
 40
0.37479396
 40
0.5
 40
0.62520604
 40
0.7503260343
 40
0.8752998659
 40
1.0
 40
1.0
 40
1.0
 40
1.0
 10
4.3047516642
 20
3.9032081304
 30
0.0
 10
4.3054848988
 20
3.9024258509
 30
0.0
 10
4.3071198285
 20
3.9010068504
 30
0.0
 10
4.309952614
 20
3.8994268536
 30
0.0
 10
4.3130500668
 20
3.898443623
 30
0.0
 10
4.3162849379
 20
3.8981175808
 30
0.0
 10
4.3195198089
 20
3.898443623
 30
0.0
 10
4.3226172617
 20
3.8994268536
 30
0.0
 10
4.3254500473
 20
3.9010068504
 30
0.0
 10
4.327084977
 20
3.9024258509
 30
0.0
 10
4.3278182116
 20
3.9032081304
 30
0.0
  0
LINE
  5
451
100
AcDbEntity
  8
ALL_FEATURES
100
AcDbLine
 62
7
  6
CONTINUOUS
 10
4.2805235244
 20
5.1397265087
 11
4.2758234134
 21
5.1400167234
  0
LINE
  5
452
100
AcDbEntity
  8
ALL_FEATURES
100
AcDbLine
 62
7
  6
CONTINUOUS
 10
4.2758234134
 20
5.1400167234
 11
4.2709049043
 21
5.1407802465
  0
SPLINE
  5
453
100
AcDbEntity
  8
ALL_FEATURES
100
AcDbSpline
 62
7
  6
CONTINUOUS
 70
0
 71
3
 72
11
 73
7
 74
0
 42
0.0000001
 43
0.0000001
 44
0.0000000001
 40
0.0
 40
0.0
 40
0.0
 40
0.0
 40
0.2501981104
 40
0.5024166135
 40
0.7529203452
 40
1.0
 40
1.0
 40
1.0
 40
1.0
 10
4.2709049043
 20
5.1407802465
 30
0.0
 10
4.2706109016
 20
5.1408542303
 30
0.0
 10
4.2700243327
 20
5.1410181108
 30
0.0
 10
4.269159012
 20
5.141309548
 30
0.0
 10
4.2683294462
 20
5.1416857591
 30
0.0
 10
4.2678289877
 20
5.1420324638
 30
0.0
 10
4.2676066364
 20
5.1422329489
 30
0.0
  0
SPLINE
  5
454
100
AcDbEntity
  8
ALL_FEATURES
100
AcDbSpline
 62
7
  6
CONTINUOUS
 70
0
 71
3
 72
11
 73
7
 74
0
 42
0.0000001
 43
0.0000001
 44
0.0000000001
 40
0.0
 40
0.0
 40
0.0
 40
0.0
 40
0.2496477837
 40
0.4996075036
 40
0.7497476868
 40
1.0
 40
1.0
 40
1.0
 40
1.0
 10
4.9480494464
 20
4.7693362769
 30
0.0
 10
4.9498361747
 20
4.7685602561
 30
0.0
 10
4.9532650181
 20
4.766664926
 30
0.0
 10
4.9580053576
 20
4.7632237061
 30
0.0
 10
4.9624404345
 20
4.7593932245
 30
0.0
 10
4.9652335527
 20
4.756662055
 30
0.0
 10
4.9665972444
 20
4.7552644316
 30
0.0
  0
SPLINE
  5
455
100
AcDbEntity
  8
ALL_FEATURES
100
AcDbSpline
 62
7
  6
CONTINUOUS
 70
0
 71
3
 72
15
 73
11
 74
0
 42
0.0000001
 43
0.0000001
 44
0.0000000001
 40
0.0
 40
0.0
 40
0.0
 40
0.0
 40
0.1245322873
 40
0.1876372959
 40
0.2505575093
 40
0.375570278
 40
0.5003231613
 40
0.6251519362
 40
0.7500805
 40
1.0
 40
1.0
 40
1.0
 40
1.0
 10
4.2446616044
 20
5.1416423913
 30
0.0
 10
4.2442567678
 20
5.1413364662
 30
0.0
 10
4.243562366
 20
5.1409865713
 30
0.0
 10
4.2425939559
 20
5.1406657998
 30
0.0
 10
4.2416051695
 20
5.1404007491
 30
0.0
 10
4.2403524794
 20
5.1401600438
 30
0.0
 10
4.238836452
 20
5.1399771951
 30
0.0
 10
4.2373152905
 20
5.1398527578
 30
0.0
 10
4.2352817303
 20
5.139747793
 30
0.0
 10
4.2337539627
 20
5.1397265087
 30
0.0
 10
4.2327356237
 20
5.1397265087
 30
0.0
  0
SPLINE
  5
456
100
AcDbEntity
  8
ALL_FEATURES
100
AcDbSpline
 62
7
  6
CONTINUOUS
 70
0
 71
3
 72
11
 73
7
 74
0
 42
0.0000001
 43
0.0000001
 44
0.0000000001
 40
0.0
 40
0.0
 40
0.0
 40
0.0
 40
0.2502382905
 40
0.5003035805
 40
0.7502255812
 40
1.0
 40
1.0
 40
1.0
 40
1.0
 10
4.3689300203
 20
5.236381226
 30
0.0
 10
4.3708447545
 20
5.233295394
 30
0.0
 10
4.3741068643
 20
5.2267586141
 30
0.0
 10
4.3773143696
 20
5.2163128807
 30
0.0
 10
4.379041995
 20
5.2055411213
 30
0.0
 10
4.3793747711
 20
5.1982826812
 30
0.0
 10
4.3793747711
 20
5.1946578067
 30
0.0
  0
SPLINE
  5
457
100
AcDbEntity
  8
ALL_FEATURES
100
AcDbSpline
 62
7
  6
CONTINUOUS
 70
0
 71
3
 72
9
 73
5
 74
0
 42
0.0000001
 43
0.0000001
 44
0.0000000001
 40
0.0
 40
0.0
 40
0.0
 40
0.0
 40
0.7496743906
 40
1.0
 40
1.0
 40
1.0
 40
1.0
 10
4.3412849379
 20
5.2531449904
 30
0.0
 10
4.343389686
 20
5.2531053248
 30
0.0
 10
4.3462047633
 20
5.2528101491
 30
0.0
 10
4.3489344857
 20
5.2521453269
 30
0.0
 10
4.3496110588
 20
5.2519546586
 30
0.0
  0
SPLINE
  5
458
100
AcDbEntity
  8
ALL_FEATURES
100
AcDbSpline
 62
7
  6
CONTINUOUS
 70
0
 71
3
 72
9
 73
5
 74
0
 42
0.0000001
 43
0.0000001
 44
0.0000000001
 40
0.0
 40
0.0
 40
0.0
 40
0.0
 40
0.5004472968
 40
1.0
 40
1.0
 40
1.0
 40
1.0
 10
4.3496110588
 20
5.2519546586
 30
0.0
 10
4.3522988143
 20
5.2511972094
 30
0.0
 10
4.3574854663
 20
5.2489064181
 30
0.0
 10
4.361801649
 20
5.2452614584
 30
0.0
 10
4.3637151634
 20
5.2432345473
 30
0.0
  0
SPLINE
  5
459
100
AcDbEntity
  8
ALL_FEATURES
100
AcDbSpline
 62
7
  6
CONTINUOUS
 70
0
 71
3
 72
9
 73
5
 74
0
 42
0.0000001
 43
0.0000001
 44
0.0000000001
 40
0.0
 40
0.0
 40
0.0
 40
0.0
 40
0.2504534306
 40
1.0
 40
1.0
 40
1.0
 40
1.0
 10
4.3637151634
 20
5.2432345473
 30
0.0
 10
4.3642091985
 20
5.2427112351
 30
0.0
 10
4.3661202788
 20
5.2405638534
 30
0.0
 10
4.3677944466
 20
5.2382113441
 30
0.0
 10
4.3689300203
 20
5.236381226
 30
0.0
  0
SPLINE
  5
45A
100
AcDbEntity
  8
ALL_FEATURES
100
AcDbSpline
 62
7
  6
CONTINUOUS
 70
0
 71
3
 72
9
 73
5
 74
0
 42
0.0000001
 43
0.0000001
 44
0.0000000001
 40
0.0
 40
0.0
 40
0.0
 40
0.0
 40
0.5138876393
 40
1.0
 40
1.0
 40
1.0
 40
1.0
 10
4.3405733501
 20
5.2525136611
 30
0.0
 10
4.3385250055
 20
5.2525136611
 30
0.0
 10
4.3345295668
 20
5.2522123535
 30
0.0
 10
4.3306479884
 20
5.2511917874
 30
0.0
 10
4.3288323252
 20
5.2505151864
 30
0.0
  0
SPLINE
  5
45B
100
AcDbEntity
  8
ALL_FEATURES
100
AcDbSpline
 62
7
  6
CONTINUOUS
 70
0
 71
3
 72
11
 73
7
 74
0
 42
0.0000001
 43
0.0000001
 44
0.0000000001
 40
0.0
 40
0.0
 40
0.0
 40
0.0
 40
0.2585433125
 40
0.5077932682
 40
0.7530884269
 40
1.0
 40
1.0
 40
1.0
 40
1.0
 10
4.3636147228
 20
5.2427083049
 30
0.0
 10
4.3625362386
 20
5.2438420058
 30
0.0
 10
4.3602716956
 20
5.2459363831
 30
0.0
 10
4.356502186
 20
5.2485275148
 30
0.0
 10
4.3524465411
 20
5.2504875851
 30
0.0
 10
4.3495851742
 20
5.2513624672
 30
0.0
 10
4.3481281522
 20
5.2516943452
 30
0.0
  0
SPLINE
  5
45C
100
AcDbEntity
  8
ALL_FEATURES
100
AcDbSpline
 62
7
  6
CONTINUOUS
 70
0
 71
3
 72
9
 73
5
 74
0
 42
0.0000001
 43
0.0000001
 44
0.0000000001
 40
0.0
 40
0.0
 40
0.0
 40
0.0
 40
0.2439743145
 40
1.0
 40
1.0
 40
1.0
 40
1.0
 10
4.3481281522
 20
5.2516943452
 30
0.0
 10
4.3475248663
 20
5.2518317606
 30
0.0
 10
4.345035497
 20
5.252320982
 30
0.0
 10
4.3424906909
 20
5.2525136611
 30
0.0
 10
4.3405733501
 20
5.2525136611
 30
0.0
  0
SPLINE
  5
45D
100
AcDbEntity
  8
ALL_FEATURES
100
AcDbSpline
 62
7
  6
CONTINUOUS
 70
0
 71
3
 72
9
 73
5
 74
0
 42
0.0000001
 43
0.0000001
 44
0.0000000001
 40
0.0
 40
0.0
 40
0.0
 40
0.0
 40
0.5138876707
 40
1.0
 40
1.0
 40
1.0
 40
1.0
 10
4.4262388264
 20
5.2525136611
 30
0.0
 10
4.4241904824
 20
5.2525136611
 30
0.0
 10
4.420195045
 20
5.2522123536
 30
0.0
 10
4.4163134678
 20
5.2511917879
 30
0.0
 10
4.4144978054
 20
5.2505151872
 30
0.0
  0
SPLINE
  5
45E
100
AcDbEntity
  8
ALL_FEATURES
100
AcDbSpline
 62
7
  6
CONTINUOUS
 70
0
 71
3
 72
9
 73
5
 74
0
 42
0.0000001
 43
0.0000001
 44
0.0000000001
 40
0.0
 40
0.0
 40
0.0
 40
0.0
 40
0.2439742726
 40
1.0
 40
1.0
 40
1.0
 40
1.0
 10
4.4337936386
 20
5.2516943446
 30
0.0
 10
4.433190352
 20
5.2518317601
 30
0.0
 10
4.4307009794
 20
5.2523209819
 30
0.0
 10
4.4281561698
 20
5.2525136611
 30
0.0
 10
4.4262388264
 20
5.2525136611
 30
0.0
  0
SPLINE
  5
45F
100
AcDbEntity
  8
ALL_FEATURES
100
AcDbSpline
 62
7
  6
CONTINUOUS
 70
0
 71
3
 72
15
 73
11
 74
0
 42
0.0000001
 43
0.0000001
 44
0.0000000001
 40
0.0
 40
0.0
 40
0.0
 40
0.0
 40
0.1253286006
 40
0.2509435674
 40
0.3136092006
 40
0.376180714
 40
0.5013463238
 40
0.6264621934
 40
0.751156042
 40
1.0
 40
1.0
 40
1.0
 40
1.0
 10
4.4264907891
 20
5.1398098083
 30
0.0
 10
4.4255857078
 20
5.1398098083
 30
0.0
 10
4.4237703268
 20
5.1399579776
 30
0.0
 10
4.4215632921
 20
5.14051841
 30
0.0
 10
4.4198834884
 20
5.1412032774
 30
0.0
 10
4.4182782576
 20
5.1420408262
 30
0.0
 10
4.4164170121
 20
5.1433400276
 30
0.0
 10
4.4144418468
 20
5.1452046414
 30
0.0
 10
4.4121549038
 20
5.1479960726
 30
0.0
 10
4.4107848882
 20
5.1503401121
 30
0.0
 10
4.4099792414
 20
5.1519464702
 30
0.0
  0
SPLINE
  5
460
100
AcDbEntity
  8
ALL_FEATURES
100
AcDbSpline
 62
7
  6
CONTINUOUS
 70
0
 71
3
 72
9
 73
5
 74
0
 42
0.0000001
 43
0.0000001
 44
0.0000000001
 40
0.0
 40
0.0
 40
0.0
 40
0.0
 40
0.499470929
 40
1.0
 40
1.0
 40
1.0
 40
1.0
 10
4.930247446
 20
4.770391792
 30
0.0
 10
4.9331583585
 20
4.7711717686
 30
0.0
 10
4.9392549068
 20
4.7719678075
 30
0.0
 10
4.9452794473
 20
4.7705393568
 30
0.0
 10
4.9480494464
 20
4.7693362769
 30
0.0
  0
SPLINE
  5
461
100
AcDbEntity
  8
ALL_FEATURES
100
AcDbSpline
 62
7
  6
CONTINUOUS
 70
0
 71
3
 72
10
 73
6
 74
0
 42
0.0000001
 43
0.0000001
 44
0.0000000001
 40
0.0
 40
0.0
 40
0.0
 40
0.0
 40
0.5007011435
 40
0.750561151
 40
1.0
 40
1.0
 40
1.0
 40
1.0
 10
3.7736530575
 20
4.3006947736
 30
0.0
 10
3.7740529493
 20
4.2997362706
 30
0.0
 10
3.7745185122
 20
4.2982362894
 30
0.0
 10
3.7748159173
 20
4.2961805852
 30
0.0
 10
3.774853335
 20
4.2951432675
 30
0.0
 10
3.7748469899
 20
4.2946259092
 30
0.0
  0
SPLINE
  5
462
100
AcDbEntity
  8
ALL_FEATURES
100
AcDbSpline
 62
7
  6
CONTINUOUS
 70
0
 71
3
 72
15
 73
11
 74
0
 42
0.0000001
 43
0.0000001
 44
0.0000000001
 40
0.0
 40
0.0
 40
0.0
 40
0.0
 40
0.1247048747
 40
0.1873840286
 40
0.2498588158
 40
0.3747508979
 40
0.4996794014
 40
0.6246987299
 40
0.7497746407
 40
1.0
 40
1.0
 40
1.0
 40
1.0
 10
4.9997357614
 20
4.7718822547
 30
0.0
 10
4.9983690538
 20
4.7715160465
 30
0.0
 10
4.9963924727
 20
4.7706424381
 30
0.0
 10
4.9940457959
 20
4.7690470302
 30
0.0
 10
4.991883689
 20
4.767201572
 30
0.0
 10
4.9895212336
 20
4.7645399081
 30
0.0
 10
4.9871144341
 20
4.7610248547
 30
0.0
 10
4.9850476257
 20
4.7572997713
 30
0.0
 10
4.9826504045
 20
4.7521506984
 30
0.0
 10
4.9811704414
 20
4.748149696
 30
0.0
 10
4.9802802543
 20
4.7454537696
 30
0.0
  0
SPLINE
  5
463
100
AcDbEntity
  8
ALL_FEATURES
100
AcDbSpline
 62
7
  6
CONTINUOUS
 70
0
 71
3
 72
9
 73
5
 74
0
 42
0.0000001
 43
0.0000001
 44
0.0000000001
 40
0.0
 40
0.0
 40
0.0
 40
0.0
 40
0.4890352496
 40
1.0
 40
1.0
 40
1.0
 40
1.0
 10
3.6713087193
 20
4.2564787585
 30
0.0
 10
3.6716355141
 20
4.2546810684
 30
0.0
 10
3.6726509795
 20
4.2510611907
 30
0.0
 10
3.6742797958
 20
4.2476779511
 30
0.0
 10
3.6752343387
 20
4.2460246342
 30
0.0
  0
SPLINE
  5
464
100
AcDbEntity
  8
ALL_FEATURES
100
AcDbSpline
 62
7
  6
CONTINUOUS
 70
0
 71
3
 72
9
 73
5
 74
0
 42
0.0000001
 43
0.0000001
 44
0.0000000001
 40
0.0
 40
0.0
 40
0.0
 40
0.0
 40
0.2576750368
 40
1.0
 40
1.0
 40
1.0
 40
1.0
 10
3.6756643816
 20
4.2452974863
 30
0.0
 10
3.6759897859
 20
4.2447603354
 30
0.0
 10
3.6773018577
 20
4.2427062687
 30
0.0
 10
3.6788201843
 20
4.2407814621
 30
0.0
 10
3.6800594498
 20
4.2394632671
 30
0.0
  0
SPLINE
  5
465
100
AcDbEntity
  8
ALL_FEATURES
100
AcDbSpline
 62
7
  6
CONTINUOUS
 70
0
 71
3
 72
11
 73
7
 74
0
 42
0.0000001
 43
0.0000001
 44
0.0000000001
 40
0.0
 40
0.0
 40
0.0
 40
0.0
 40
0.2531977733
 40
0.4979462194
 40
0.7437905464
 40
1.0
 40
1.0
 40
1.0
 40
1.0
 10
3.7151014877
 20
4.1944655434
 30
0.0
 10
3.7145893466
 20
4.1925223398
 30
0.0
 10
3.713920142
 20
4.1885981372
 30
0.0
 10
3.7141227518
 20
4.182657121
 30
0.0
 10
3.7155539498
 20
4.1768638663
 30
0.0
 10
3.7172603123
 20
4.1732335127
 30
0.0
 10
3.7182770434
 20
4.1714724827
 30
0.0
  0
SPLINE
  5
466
100
AcDbEntity
  8
ALL_FEATURES
100
AcDbSpline
 62
7
  6
CONTINUOUS
 70
0
 71
3
 72
11
 73
7
 74
0
 42
0.0000001
 43
0.0000001
 44
0.0000000001
 40
0.0
 40
0.0
 40
0.0
 40
0.0
 40
0.2558948573
 40
0.505776707
 40
0.7527456948
 40
1.0
 40
1.0
 40
1.0
 40
1.0
 10
3.7182770434
 20
4.1714724827
 30
0.0
 10
3.719001511
 20
4.1702176681
 30
0.0
 10
3.7205675201
 20
4.1678116116
 30
0.0
 10
3.7232928509
 20
4.1645222406
 30
0.0
 10
3.7263535552
 20
4.1616126138
 30
0.0
 10
3.7286042522
 20
4.1599365941
 30
0.0
 10
3.7297741805
 20
4.1591676359
 30
0.0
  0
SPLINE
  5
467
100
AcDbEntity
  8
ALL_FEATURES
100
AcDbSpline
 62
7
  6
CONTINUOUS
 70
0
 71
3
 72
9
 73
5
 74
0
 42
0.0000001
 43
0.0000001
 44
0.0000000001
 40
0.0
 40
0.0
 40
0.0
 40
0.0
 40
0.4933856175
 40
1.0
 40
1.0
 40
1.0
 40
1.0
 10
3.7297741805
 20
4.1591676359
 30
0.0
 10
3.7309885172
 20
4.1583694894
 30
0.0
 10
3.7335503321
 20
4.1569004494
 30
0.0
 10
3.7362641438
 20
4.1557383885
 30
0.0
 10
3.7376652012
 20
4.1552251206
 30
0.0
  0
SPLINE
  5
468
100
AcDbEntity
  8
ALL_FEATURES
100
AcDbSpline
 62
7
  6
CONTINUOUS
 70
0
 71
3
 72
9
 73
5
 74
0
 42
0.0000001
 43
0.0000001
 44
0.0000000001
 40
0.0
 40
0.0
 40
0.0
 40
0.0
 40
0.5003952434
 40
1.0
 40
1.0
 40
1.0
 40
1.0
 10
4.9648571762
 20
4.7125735171
 30
0.0
 10
4.9627407247
 20
4.7104106528
 30
0.0
 10
4.9580794944
 20
4.7064697275
 30
0.0
 10
4.9524731482
 20
4.7039191025
 30
0.0
 10
4.9495547668
 20
4.7031371245
 30
0.0
  0
SPLINE
  5
469
100
AcDbEntity
  8
ALL_FEATURES
100
AcDbSpline
 62
7
  6
CONTINUOUS
 70
0
 71
3
 72
9
 73
5
 74
0
 42
0.0000001
 43
0.0000001
 44
0.0000000001
 40
0.0
 40
0.0
 40
0.0
 40
0.0
 40
0.500263434
 40
1.0
 40
1.0
 40
1.0
 40
1.0
 10
4.9959292713
 20
4.7359776914
 30
0.0
 10
4.9979347021
 20
4.7354921666
 30
0.0
 10
5.0020939989
 20
4.735064021
 30
0.0
 10
5.0062110282
 20
4.7357077773
 30
0.0
 10
5.0082019895
 20
4.7362412537
 30
0.0
  0
SPLINE
  5
46A
100
AcDbEntity
  8
ALL_FEATURES
100
AcDbSpline
 62
7
  6
CONTINUOUS
 70
0
 71
3
 72
10
 73
6
 74
0
 42
0.0000001
 43
0.0000001
 44
0.0000000001
 40
0.0
 40
0.0
 40
0.0
 40
0.0
 40
0.249909681
 40
0.5011079757
 40
1.0
 40
1.0
 40
1.0
 40
1.0
 10
3.7885625238
 20
4.2468377243
 30
0.0
 10
3.7888786388
 20
4.246734816
 30
0.0
 10
3.7895071969
 20
4.2465105878
 30
0.0
 10
3.7907297142
 20
4.2459887991
 30
0.0
 10
3.7915977017
 20
4.2454653823
 30
0.0
 10
3.7920976628
 20
4.2450289478
 30
0.0
  0
SPLINE
  5
46B
100
AcDbEntity
  8
ALL_FEATURES
100
AcDbSpline
 62
7
  6
CONTINUOUS
 70
0
 71
3
 72
11
 73
7
 74
0
 42
0.0000001
 43
0.0000001
 44
0.0000000001
 40
0.0
 40
0.0
 40
0.0
 40
0.0
 40
0.2498990624
 40
0.4999240527
 40
0.7499387674
 40
1.0
 40
1.0
 40
1.0
 40
1.0
 10
3.7920976628
 20
4.2450289478
 30
0.0
 10
3.7928946255
 20
4.2443332498
 30
0.0
 10
3.7942964899
 20
4.2427287184
 30
0.0
 10
3.7961538286
 20
4.2401556453
 30
0.0
 10
3.7978690923
 20
4.2374810593
 30
0.0
 10
3.7989493933
 20
4.2356603802
 30
0.0
 10
3.7994786848
 20
4.2347436204
 30
0.0
  0
SPLINE
  5
46C
100
AcDbEntity
  8
ALL_FEATURES
100
AcDbSpline
 62
7
  6
CONTINUOUS
 70
0
 71
3
 72
9
 73
5
 74
0
 42
0.0000001
 43
0.0000001
 44
0.0000000001
 40
0.0
 40
0.0
 40
0.0
 40
0.0
 40
0.500176393
 40
1.0
 40
1.0
 40
1.0
 40
1.0
 10
4.9802802543
 20
4.7454537696
 30
0.0
 10
4.9816439933
 20
4.7443130715
 30
0.0
 10
4.984425409
 20
4.7420974323
 30
0.0
 10
4.9873562473
 20
4.740075654
 30
0.0
 10
4.9888737717
 20
4.7391517286
 30
0.0
  0
SPLINE
  5
46D
100
AcDbEntity
  8
ALL_FEATURES
100
AcDbSpline
 62
7
  6
CONTINUOUS
 70
0
 71
3
 72
9
 73
5
 74
0
 42
0.0000001
 43
0.0000001
 44
0.0000000001
 40
0.0
 40
0.0
 40
0.0
 40
0.0
 40
0.5003583421
 40
1.0
 40
1.0
 40
1.0
 40
1.0
 10
4.9888737717
 20
4.7391517286
 30
0.0
 10
4.9899789434
 20
4.7384788589
 30
0.0
 10
4.9922432823
 20
4.7372254796
 30
0.0
 10
4.994673511
 20
4.7362817172
 30
0.0
 10
4.9959292713
 20
4.7359776914
 30
0.0
  0
SPLINE
  5
46E
100
AcDbEntity
  8
ALL_FEATURES
100
AcDbSpline
 62
7
  6
CONTINUOUS
 70
0
 71
3
 72
15
 73
11
 74
0
 42
0.0000001
 43
0.0000001
 44
0.0000000001
 40
0.0
 40
0.0
 40
0.0
 40
0.0
 40
0.1245322873
 40
0.1876372959
 40
0.2505575093
 40
0.375570278
 40
0.5003231613
 40
0.6251519362
 40
0.7500805
 40
1.0
 40
1.0
 40
1.0
 40
1.0
 10
3.8620402859
 20
4.144209782
 30
0.0
 10
3.8625076432
 20
4.1440121459
 30
0.0
 10
3.8631578619
 20
4.1435857237
 30
0.0
 10
3.8639198632
 20
4.1429074417
 30
0.0
 10
3.8646437971
 20
4.1421836529
 30
0.0
 10
3.865478599
 20
4.1412191441
 30
0.0
 10
3.8663949643
 20
4.1399976502
 30
0.0
 10
3.8672633109
 20
4.1387425044
 30
0.0
 10
3.8683709933
 20
4.137033872
 30
0.0
 10
3.8691533098
 20
4.1357214285
 30
0.0
 10
3.8696624792
 20
4.1348395211
 30
0.0
  0
LINE
  5
46F
100
AcDbEntity
  8
ALL_FEATURES
100
AcDbLine
 62
7
  6
CONTINUOUS
 10
3.8457685289
 20
4.1762250571
 11
3.8478672511
 21
4.1720095343
  0
LINE
  5
470
100
AcDbEntity
  8
ALL_FEATURES
100
AcDbLine
 62
7
  6
CONTINUOUS
 10
3.8478672511
 20
4.1720095343
 11
3.8496652753
 21
4.1673682189
  0
SPLINE
  5
471
100
AcDbEntity
  8
ALL_FEATURES
100
AcDbSpline
 62
7
  6
CONTINUOUS
 70
0
 71
3
 72
11
 73
7
 74
0
 42
0.0000001
 43
0.0000001
 44
0.0000000001
 40
0.0
 40
0.0
 40
0.0
 40
0.0
 40
0.2501981104
 40
0.5024166135
 40
0.7529203452
 40
1.0
 40
1.0
 40
1.0
 40
1.0
 10
3.8496652753
 20
4.1673682189
 30
0.0
 10
3.8497482048
 20
4.1670766131
 30
0.0
 10
3.8498995646
 20
4.1664866893
 30
0.0
 10
3.8500798329
 20
4.1655915811
 30
0.0
 10
3.8501688074
 20
4.1646850504
 30
0.0
 10
3.8501187817
 20
4.1640782883
 30
0.0
 10
3.8500563321
 20
4.1637854839
 30
0.0
  0
SPLINE
  5
472
100
AcDbEntity
  8
ALL_FEATURES
100
AcDbSpline
 62
7
  6
CONTINUOUS
 70
0
 71
3
 72
11
 73
7
 74
0
 42
0.0000001
 43
0.0000001
 44
0.0000000001
 40
0.0
 40
0.0
 40
0.0
 40
0.0
 40
0.2502751248
 40
0.5004517556
 40
0.7503977687
 40
1.0
 40
1.0
 40
1.0
 40
1.0
 10
4.9776213933
 20
4.7376985074
 30
0.0
 10
4.9768971205
 20
4.7354438344
 30
0.0
 10
4.9753509409
 20
4.7309660157
 30
0.0
 10
4.972628131
 20
4.7244000681
 30
0.0
 10
4.9693289553
 20
4.7181112944
 30
0.0
 10
4.966508997
 20
4.7142615614
 30
0.0
 10
4.9648571762
 20
4.7125735171
 30
0.0
  0
LINE
  5
473
100
AcDbEntity
  8
ALL_FEATURES
100
AcDbLine
 62
7
  6
CONTINUOUS
 10
5.0258503563
 20
4.7596640576
 11
5.024763272
 21
4.7632219413
  0
LINE
  5
474
100
AcDbEntity
  8
ALL_FEATURES
100
AcDbLine
 62
7
  6
CONTINUOUS
 10
5.024763272
 20
4.7632219413
 11
5.0235118035
 21
4.7664401493
  0
SPLINE
  5
475
100
AcDbEntity
  8
ALL_FEATURES
100
AcDbSpline
 62
7
  6
CONTINUOUS
 70
0
 71
3
 72
9
 73
5
 74
0
 42
0.0000001
 43
0.0000001
 44
0.0000000001
 40
0.0
 40
0.0
 40
0.0
 40
0.0
 40
0.5121506878
 40
1.0
 40
1.0
 40
1.0
 40
1.0
 10
5.0221185979
 20
4.7693180308
 30
0.0
 10
5.0214503649
 20
4.7705617009
 30
0.0
 10
5.0200021026
 20
4.7729168212
 30
0.0
 10
5.018250429
 20
4.7750587105
 30
0.0
 10
5.0173249109
 20
4.7760344135
 30
0.0
  0
SPLINE
  5
476
100
AcDbEntity
  8
ALL_FEATURES
100
AcDbSpline
 62
7
  6
CONTINUOUS
 70
0
 71
3
 72
11
 73
7
 74
0
 42
0.0000001
 43
0.0000001
 44
0.0000000001
 40
0.0
 40
0.0
 40
0.0
 40
0.0
 40
0.2231434853
 40
0.458914526
 40
0.715600873
 40
1.0
 40
1.0
 40
1.0
 40
1.0
 10
5.0252417693
 20
4.735367529
 30
0.0
 10
5.025981372
 20
4.7370533486
 30
0.0
 10
5.0271365052
 20
4.7406917048
 30
0.0
 10
5.0277830257
 20
4.7465924137
 30
0.0
 10
5.0273767165
 20
4.7530148231
 30
0.0
 10
5.0264576182
 20
4.7573977253
 30
0.0
 10
5.0258503563
 20
4.7596640576
 30
0.0
  0
LINE
  5
477
100
AcDbEntity
  8
ALL_FEATURES
100
AcDbLine
 62
7
  6
CONTINUOUS
 10
4.9741571625
 20
4.7294881373
 11
4.9770183622
 21
4.7375369257
  0
SPLINE
  5
478
100
AcDbEntity
  8
ALL_FEATURES
100
AcDbSpline
 62
7
  6
CONTINUOUS
 70
0
 71
3
 72
11
 73
7
 74
0
 42
0.0000001
 43
0.0000001
 44
0.0000000001
 40
0.0
 40
0.0
 40
0.0
 40
0.0
 40
0.2505455507
 40
0.5005996022
 40
0.7503634068
 40
1.0
 40
1.0
 40
1.0
 40
1.0
 10
4.9263682543
 20
4.7165728536
 30
0.0
 10
4.9274124756
 20
4.7159111971
 30
0.0
 10
4.9296710923
 20
4.7148383002
 30
0.0
 10
4.9333380742
 20
4.7141220289
 30
0.0
 10
4.9370578802
 20
4.7142151837
 30
0.0
 10
4.9394846628
 20
4.7146983703
 30
0.0
 10
4.9406744072
 20
4.7150171613
 30
0.0
  0
SPLINE
  5
479
100
AcDbEntity
  8
ALL_FEATURES
100
AcDbSpline
 62
7
  6
CONTINUOUS
 70
0
 71
3
 72
13
 73
9
 74
0
 42
0.0000001
 43
0.0000001
 44
0.0000000001
 40
0.0
 40
0.0
 40
0.0
 40
0.0
 40
0.2501950341
 40
0.3754193702
 40
0.50056597
 40
0.6256354048
 40
0.7506332038
 40
1.0
 40
1.0
 40
1.0
 40
1.0
 10
4.9176823818
 20
4.7278981856
 30
0.0
 10
4.9172739256
 20
4.7294225649
 30
0.0
 10
4.9168485991
 20
4.731769585
 30
0.0
 10
4.9167495729
 20
4.7349299803
 30
0.0
 10
4.9169276068
 20
4.7372960499
 30
0.0
 10
4.9173515941
 20
4.7396291905
 30
0.0
 10
4.9182434478
 20
4.7426553387
 30
0.0
 10
4.9192475933
 20
4.7448119401
 30
0.0
 10
4.9200284609
 20
4.746177353
 30
0.0
  0
SPLINE
  5
47A
100
AcDbEntity
  8
ALL_FEATURES
100
AcDbSpline
 62
7
  6
CONTINUOUS
 70
0
 71
3
 72
11
 73
7
 74
0
 42
0.0000001
 43
0.0000001
 44
0.0000000001
 40
0.0
 40
0.0
 40
0.0
 40
0.0
 40
0.2495340345
 40
0.4994408156
 40
0.7496751994
 40
1.0
 40
1.0
 40
1.0
 40
1.0
 10
4.9257606697
 20
4.7164102803
 30
0.0
 10
4.9247511513
 20
4.7170504952
 30
0.0
 10
4.9228451608
 20
4.7185277927
 30
0.0
 10
4.9205090447
 20
4.7212890967
 30
0.0
 10
4.9187714991
 20
4.7244605298
 30
0.0
 10
4.9179927568
 20
4.7267398501
 30
0.0
 10
4.9176823818
 20
4.7278981856
 30
0.0
  0
SPLINE
  5
47B
100
AcDbEntity
  8
ALL_FEATURES
100
AcDbSpline
 62
7
  6
CONTINUOUS
 70
0
 71
3
 72
10
 73
6
 74
0
 42
0.0000001
 43
0.0000001
 44
0.0000000001
 40
0.0
 40
0.0
 40
0.0
 40
0.0
 40
0.2499051574
 40
0.4998875569
 40
1.0
 40
1.0
 40
1.0
 40
1.0
 10
4.987971571
 20
4.7391709626
 30
0.0
 10
4.9872417102
 20
4.7396239648
 30
0.0
 10
4.9858069902
 20
4.7405709889
 30
0.0
 10
4.9830154686
 20
4.7425776786
 30
0.0
 10
4.9810008697
 20
4.7441899128
 30
0.0
 10
4.9796830023
 20
4.7452937364
 30
0.0
  0
SPLINE
  5
47C
100
AcDbEntity
  8
ALL_FEATURES
100
AcDbSpline
 62
7
  6
CONTINUOUS
 70
0
 71
3
 72
12
 73
8
 74
0
 42
0.0000001
 43
0.0000001
 44
0.0000000001
 40
0.0
 40
0.0
 40
0.0
 40
0.0
 40
0.2500451165
 40
0.5001643066
 40
0.6252905034
 40
0.7504277825
 40
1.0
 40
1.0
 40
1.0
 40
1.0
 10
4.9182787573
 20
4.7280565757
 30
0.0
 10
4.9185901663
 20
4.7268992802
 30
0.0
 10
4.9193700773
 20
4.7246213447
 30
0.0
 10
4.9208234311
 20
4.72197885
 30
0.0
 10
4.9222798265
 20
4.7200682278
 30
0.0
 10
4.9239272348
 20
4.71832424
 30
0.0
 10
4.9253578249
 20
4.7172130982
 30
0.0
 10
4.9263682543
 20
4.7165728536
 30
0.0
  0
SPLINE
  5
47D
100
AcDbEntity
  8
ALL_FEATURES
100
AcDbSpline
 62
7
  6
CONTINUOUS
 70
0
 71
3
 72
11
 73
7
 74
0
 42
0.0000001
 43
0.0000001
 44
0.0000000001
 40
0.0
 40
0.0
 40
0.0
 40
0.0
 40
0.2494645959
 40
0.4993132816
 40
0.749532536
 40
1.0
 40
1.0
 40
1.0
 40
1.0
 10
4.9206026385
 20
4.7463295384
 30
0.0
 10
4.9198233263
 20
4.7449645688
 30
0.0
 10
4.9184870041
 20
4.7420937516
 30
0.0
 10
4.9173822165
 20
4.7374661011
 30
0.0
 10
4.9172960494
 20
4.732703102
 30
0.0
 10
4.9178687049
 20
4.7295804621
 30
0.0
 10
4.9182787573
 20
4.7280565757
 30
0.0
  0
SPLINE
  5
47E
100
AcDbEntity
  8
ALL_FEATURES
100
AcDbSpline
 62
7
  6
CONTINUOUS
 70
0
 71
3
 72
9
 73
5
 74
0
 42
0.0000001
 43
0.0000001
 44
0.0000000001
 40
0.0
 40
0.0
 40
0.0
 40
0.0
 40
0.4995040851
 40
1.0
 40
1.0
 40
1.0
 40
1.0
 10
4.9349632612
 20
4.7573958338
 30
0.0
 10
4.931984519
 20
4.7565976822
 30
0.0
 10
4.9261993043
 20
4.7539243733
 30
0.0
 10
4.9221346866
 20
4.7490129288
 30
0.0
 10
4.9206026385
 20
4.7463295384
 30
0.0
  0
SPLINE
  5
47F
100
AcDbEntity
  8
ALL_FEATURES
100
AcDbSpline
 62
7
  6
CONTINUOUS
 70
0
 71
3
 72
13
 73
9
 74
0
 42
0.0000001
 43
0.0000001
 44
0.0000000001
 40
0.0
 40
0.0
 40
0.0
 40
0.0
 40
0.2502775459
 40
0.3754942675
 40
0.5006502321
 40
0.6257132087
 40
0.7506663169
 40
1.0
 40
1.0
 40
1.0
 40
1.0
 10
5.0258541094
 20
4.7355316125
 30
0.0
 10
5.0251726805
 20
4.7339772909
 30
0.0
 10
5.0239290766
 20
4.7317278581
 30
0.0
 10
5.0217991564
 20
4.7290755464
 30
0.0
 10
5.0199681523
 20
4.7272972997
 30
0.0
 10
5.0179378083
 20
4.7257534089
 30
0.0
 10
5.0150037569
 20
4.7240496624
 30
0.0
 10
5.0126008431
 20
4.7231603793
 30
0.0
 10
5.0109677206
 20
4.7227227854
 30
0.0
  0
SPLINE
  5
480
100
AcDbEntity
  8
ALL_FEATURES
100
AcDbSpline
 62
7
  6
CONTINUOUS
 70
0
 71
3
 72
12
 73
8
 74
0
 42
0.0000001
 43
0.0000001
 44
0.0000000001
 40
0.0
 40
0.0
 40
0.0
 40
0.0
 40
0.2500833267
 40
0.5002344419
 40
0.6253234986
 40
0.7504703082
 40
1.0
 40
1.0
 40
1.0
 40
1.0
 10
5.0264474313
 20
4.7598229086
 30
0.0
 10
5.0269833245
 20
4.757830528
 30
0.0
 10
5.0278629188
 20
4.7537891433
 30
0.0
 10
5.0283069621
 20
4.7486288874
 30
0.0
 10
5.0281430916
 20
4.7444979132
 30
0.0
 10
5.0275830677
 20
4.7404091067
 30
0.0
 10
5.0266806834
 20
4.7374170067
 30
0.0
 10
5.0258541094
 20
4.7355316125
 30
0.0
  0
SPLINE
  5
481
100
AcDbEntity
  8
ALL_FEATURES
100
AcDbSpline
 62
7
  6
CONTINUOUS
 70
0
 71
3
 72
11
 73
7
 74
0
 42
0.0000001
 43
0.0000001
 44
0.0000000001
 40
0.0
 40
0.0
 40
0.0
 40
0.0
 40
0.2095989482
 40
0.4415354302
 40
0.7032445095
 40
1.0
 40
1.0
 40
1.0
 40
1.0
 10
5.0086050762
 20
4.6454011885
 30
0.0
 10
5.0099591779
 20
4.6474988379
 30
0.0
 10
5.0122689307
 20
4.652280811
 30
0.0
 10
5.0143370045
 20
4.6604413216
 30
0.0
 10
5.015176523
 20
4.6698501475
 30
0.0
 10
5.0149378948
 20
4.6765136003
 30
0.0
 10
5.0146498149
 20
4.6800367938
 30
0.0
  0
SPLINE
  5
482
100
AcDbEntity
  8
ALL_FEATURES
100
AcDbSpline
 62
7
  6
CONTINUOUS
 70
0
 71
3
 72
9
 73
5
 74
0
 42
0.0000001
 43
0.0000001
 44
0.0000000001
 40
0.0
 40
0.0
 40
0.0
 40
0.0
 40
0.2494785647
 40
1.0
 40
1.0
 40
1.0
 40
1.0
 10
5.0121642394
 20
4.7807541158
 30
0.0
 10
5.0127390929
 20
4.7804167984
 30
0.0
 10
5.014988188
 20
4.7789721883
 30
0.0
 10
5.0170101979
 20
4.777179465
 30
0.0
 10
5.0183584285
 20
4.7756953003
 30
0.0
  0
SPLINE
  5
483
100
AcDbEntity
  8
ALL_FEATURES
100
AcDbSpline
 62
7
  6
CONTINUOUS
 70
0
 71
3
 72
9
 73
5
 74
0
 42
0.0000001
 43
0.0000001
 44
0.0000000001
 40
0.0
 40
0.0
 40
0.0
 40
0.0
 40
0.4998599341
 40
1.0
 40
1.0
 40
1.0
 40
1.0
 10
5.0183584285
 20
4.7756953003
 30
0.0
 10
5.0193619605
 20
4.7745905882
 30
0.0
 10
5.0211898678
 20
4.7722126421
 30
0.0
 10
5.0226664318
 20
4.7696077546
 30
0.0
 10
5.0233265706
 20
4.7682682848
 30
0.0
  0
SPLINE
  5
484
100
AcDbEntity
  8
ALL_FEATURES
100
AcDbSpline
 62
7
  6
CONTINUOUS
 70
0
 71
3
 72
9
 73
5
 74
0
 42
0.0000001
 43
0.0000001
 44
0.0000000001
 40
0.0
 40
0.0
 40
0.0
 40
0.0
 40
0.2502572176
 40
1.0
 40
1.0
 40
1.0
 40
1.0
 10
5.0233265706
 20
4.7682682848
 30
0.0
 10
5.0236589081
 20
4.7675939479
 30
0.0
 10
5.0249080896
 20
4.7648605645
 30
0.0
 10
5.0258624296
 20
4.7619978678
 30
0.0
 10
5.0264474313
 20
4.7598229086
 30
0.0
  0
SPLINE
  5
485
100
AcDbEntity
  8
ALL_FEATURES
100
AcDbSpline
 62
7
  6
CONTINUOUS
 70
0
 71
3
 72
13
 73
9
 74
0
 42
0.0000001
 43
0.0000001
 44
0.0000000001
 40
0.0
 40
0.0
 40
0.0
 40
0.0
 40
0.2493443722
 40
0.3742999611
 40
0.4993411659
 40
0.624474491
 40
0.74969061
 40
1.0
 40
1.0
 40
1.0
 40
1.0
 10
4.9906780949
 20
4.7837148362
 30
0.0
 10
4.9924671867
 20
4.7841942218
 30
0.0
 10
4.9952263758
 20
4.7846832971
 30
0.0
 10
4.9989401687
 20
4.7847681305
 30
0.0
 10
5.0017221669
 20
4.7845306702
 30
0.0
 10
5.0044655939
 20
4.7840016523
 30
0.0
 10
5.008026608
 20
4.7829104222
 30
0.0
 10
5.0105605697
 20
4.7816951309
 30
0.0
 10
5.0121642394
 20
4.7807541158
 30
0.0
  0
SPLINE
  5
486
100
AcDbEntity
  8
ALL_FEATURES
100
AcDbSpline
 62
7
  6
CONTINUOUS
 70
0
 71
3
 72
11
 73
7
 74
0
 42
0.0000001
 43
0.0000001
 44
0.0000000001
 40
0.0
 40
0.0
 40
0.0
 40
0.0
 40
0.2866196038
 40
0.5429362818
 40
0.7773291022
 40
1.0
 40
1.0
 40
1.0
 40
1.0
 10
4.9433002241
 20
4.6802457802
 30
0.0
 10
4.9431313539
 20
4.6808760124
 30
0.0
 10
4.9427267704
 20
4.6820506373
 30
0.0
 10
4.9418528223
 20
4.6836023915
 30
0.0
 10
4.940762299
 20
4.6848244018
 30
0.0
 10
4.939890947
 20
4.6854162188
 30
0.0
 10
4.9394387717
 20
4.6856452945
 30
0.0
  0
SPLINE
  5
487
100
AcDbEntity
  8
ALL_FEATURES
100
AcDbSpline
 62
7
  6
CONTINUOUS
 70
0
 71
3
 72
11
 73
7
 74
0
 42
0.0000001
 43
0.0000001
 44
0.0000000001
 40
0.0
 40
0.0
 40
0.0
 40
0.0
 40
0.2875632182
 40
0.5469469464
 40
0.7825501703
 40
1.0
 40
1.0
 40
1.0
 40
1.0
 10
4.9429178489
 20
4.6719765254
 30
0.0
 10
4.9431219939
 20
4.6727518896
 30
0.0
 10
4.9434523687
 20
4.674243247
 30
0.0
 10
4.9437010148
 20
4.6764158232
 30
0.0
 10
4.9436721282
 20
4.6784082089
 30
0.0
 10
4.9434571453
 20
4.6796601421
 30
0.0
 10
4.9433002241
 20
4.6802457802
 30
0.0
  0
LINE
  5
488
100
AcDbEntity
  8
ALL_FEATURES
100
AcDbLine
 62
7
  6
CONTINUOUS
 10
4.9401605727
 20
4.6633190449
 11
4.9429178489
 21
4.6719765254
  0
SPLINE
  5
489
100
AcDbEntity
  8
ALL_FEATURES
100
AcDbSpline
 62
7
  6
CONTINUOUS
 70
0
 71
3
 72
11
 73
7
 74
0
 42
0.0000001
 43
0.0000001
 44
0.0000000001
 40
0.0
 40
0.0
 40
0.0
 40
0.0
 40
0.2501999716
 40
0.5003386447
 40
0.7503008879
 40
1.0
 40
1.0
 40
1.0
 40
1.0
 10
4.9398137121
 20
4.6527053367
 30
0.0
 10
4.9395811891
 20
4.6535731242
 30
0.0
 10
4.9392304747
 20
4.6553422448
 30
0.0
 10
4.9391060808
 20
4.6580441021
 30
0.0
 10
4.9394053116
 20
4.6607304653
 30
0.0
 10
4.9398712125
 20
4.6624704198
 30
0.0
 10
4.9401605727
 20
4.6633190449
 30
0.0
  0
SPLINE
  5
48A
100
AcDbEntity
  8
ALL_FEATURES
100
AcDbSpline
 62
7
  6
CONTINUOUS
 70
0
 71
3
 72
13
 73
9
 74
0
 42
0.0000001
 43
0.0000001
 44
0.0000000001
 40
0.0
 40
0.0
 40
0.0
 40
0.0
 40
0.2492884884
 40
0.3742406614
 40
0.4993585997
 40
0.6245203467
 40
0.7497886946
 40
1.0
 40
1.0
 40
1.0
 40
1.0
 10
4.9515593193
 20
4.639767109
 30
0.0
 10
4.9501905101
 20
4.6403858465
 30
0.0
 10
4.9481965064
 20
4.6414701348
 30
0.0
 10
4.9457865929
 20
4.6432798087
 30
0.0
 10
4.9441368827
 20
4.6448333571
 30
0.0
 10
4.9426788986
 20
4.6465720486
 30
0.0
 10
4.9410489121
 20
4.6491181489
 30
0.0
 10
4.940203938
 20
4.6512489937
 30
0.0
 10
4.9398137121
 20
4.6527053367
 30
0.0
  0
SPLINE
  5
48B
100
AcDbEntity
  8
ALL_FEATURES
100
AcDbSpline
 62
7
  6
CONTINUOUS
 70
0
 71
3
 72
13
 73
9
 74
0
 42
0.0000001
 43
0.0000001
 44
0.0000000001
 40
0.0
 40
0.0
 40
0.0
 40
0.0
 40
0.1250151029
 40
0.2500188095
 40
0.3750119411
 40
0.5000084753
 40
0.7499862096
 40
1.0
 40
1.0
 40
1.0
 40
1.0
 10
4.4430490709
 20
5.1542195516
 30
0.0
 10
4.443612433
 20
5.155815883
 30
0.0
 10
4.4445794843
 20
5.1590656234
 30
0.0
 10
4.4456734433
 20
5.1640272253
 30
0.0
 10
4.4464942404
 20
5.1690403343
 30
0.0
 10
4.4472989164
 20
5.1757639315
 30
0.0
 10
4.4478664944
 20
5.1842132697
 30
0.0
 10
4.4479911434
 20
5.190984442
 30
0.0
 10
4.4479911434
 20
5.1943698663
 30
0.0
  0
SPLINE
  5
48C
100
AcDbEntity
  8
ALL_FEATURES
100
AcDbSpline
 62
7
  6
CONTINUOUS
 70
0
 71
3
 72
9
 73
5
 74
0
 42
0.0000001
 43
0.0000001
 44
0.0000000001
 40
0.0
 40
0.0
 40
0.0
 40
0.0
 40
0.5002044319
 40
1.0
 40
1.0
 40
1.0
 40
1.0
 10
3.7861298315
 20
4.7959680967
 30
0.0
 10
3.7856264354
 20
4.7949051292
 30
0.0
 10
3.7844072157
 20
4.7928729551
 30
0.0
 10
3.7827974715
 20
4.791135187
 30
0.0
 10
3.7819218794
 20
4.7903513595
 30
0.0
  0
LINE
  5
48D
100
AcDbEntity
  8
ALL_FEATURES
100
AcDbLine
 62
7
  6
CONTINUOUS
 10
3.7809676134
 20
4.7895508982
 11
3.7739399711
 21
4.7837918469
  0
SPLINE
  5
48E
100
AcDbEntity
  8
ALL_FEATURES
100
AcDbSpline
 62
7
  6
CONTINUOUS
 70
0
 71
3
 72
13
 73
9
 74
0
 42
0.0000001
 43
0.0000001
 44
0.0000000001
 40
0.0
 40
0.0
 40
0.0
 40
0.0
 40
0.2505229087
 40
0.3760453543
 40
0.5013923894
 40
0.6262713142
 40
0.7511897239
 40
1.0
 40
1.0
 40
1.0
 40
1.0
 10
4.4264907891
 20
5.1403510576
 30
0.0
 10
4.4284276867
 20
5.1403466792
 30
0.0
 10
4.4313890024
 20
5.1407910458
 30
0.0
 10
4.4348752001
 20
5.1425400373
 30
0.0
 10
4.4371864419
 20
5.1443298932
 30
0.0
 10
4.4391242735
 20
5.1465063304
 30
0.0
 10
4.4412462792
 20
5.1497358687
 30
0.0
 10
4.4424088873
 20
5.15240554
 30
0.0
 10
4.4430490709
 20
5.1542195516
 30
0.0
  0
SPLINE
  5
48F
100
AcDbEntity
  8
ALL_FEATURES
100
AcDbSpline
 62
7
  6
CONTINUOUS
 70
0
 71
3
 72
11
 73
7
 74
0
 42
0.0000001
 43
0.0000001
 44
0.0000000001
 40
0.0
 40
0.0
 40
0.0
 40
0.0
 40
0.2493644805
 40
0.4991647404
 40
0.7494222574
 40
1.0
 40
1.0
 40
1.0
 40
1.0
 10
4.4099792414
 20
5.1525227084
 30
0.0
 10
4.4107846153
 20
5.1509152913
 30
0.0
 10
4.4126178516
 20
5.1477984398
 30
0.0
 10
4.4162715877
 20
5.1437423249
 30
0.0
 10
4.4210304866
 20
5.1409394596
 30
0.0
 10
4.4246841539
 20
5.1403551415
 30
0.0
 10
4.4264907891
 20
5.1403510576
 30
0.0
  0
SPLINE
  5
490
100
AcDbEntity
  8
ALL_FEATURES
100
AcDbSpline
 62
7
  6
CONTINUOUS
 70
0
 71
3
 72
13
 73
9
 74
0
 42
0.0000001
 43
0.0000001
 44
0.0000000001
 40
0.0
 40
0.0
 40
0.0
 40
0.0
 40
0.2498759578
 40
0.4997677358
 40
0.6247540944
 40
0.7497647521
 40
0.874838773
 40
1.0
 40
1.0
 40
1.0
 40
1.0
 10
4.4039296225
 20
5.1920811613
 30
0.0
 10
4.4039773913
 20
5.1887261598
 30
0.0
 10
4.4041867963
 20
5.1820169729
 30
0.0
 10
4.4048507015
 20
5.1736479638
 30
0.0
 10
4.4057640238
 20
5.1669959442
 30
0.0
 10
4.4067062344
 20
5.1620448189
 30
0.0
 10
4.408004648
 20
5.1571718014
 30
0.0
 10
4.4092263783
 20
5.1540253208
 30
0.0
 10
4.4099792414
 20
5.1525227084
 30
0.0
  0
SPLINE
  5
491
100
AcDbEntity
  8
ALL_FEATURES
100
AcDbSpline
 62
7
  6
CONTINUOUS
 70
0
 71
3
 72
11
 73
7
 74
0
 42
0.0000001
 43
0.0000001
 44
0.0000000001
 40
0.0
 40
0.0
 40
0.0
 40
0.0
 40
0.2875634322
 40
0.5469471829
 40
0.7825503125
 40
1.0
 40
1.0
 40
1.0
 40
1.0
 10
3.7739399711
 20
4.7837918469
 30
0.0
 10
3.7733464659
 20
4.7832527567
 30
0.0
 10
3.7722571369
 20
4.7821819336
 30
0.0
 10
3.770865333
 20
4.7804952794
 30
0.0
 10
3.7698044275
 20
4.7788085909
 30
0.0
 10
3.7693028756
 20
4.7776415431
 30
0.0
 10
3.7691155194
 20
4.7770649202
 30
0.0
  0
SPLINE
  5
492
100
AcDbEntity
  8
ALL_FEATURES
100
AcDbSpline
 62
7
  6
CONTINUOUS
 70
0
 71
3
 72
11
 73
7
 74
0
 42
0.0000001
 43
0.0000001
 44
0.0000000001
 40
0.0
 40
0.0
 40
0.0
 40
0.0
 40
0.2866194859
 40
0.5429359544
 40
0.7773287535
 40
1.0
 40
1.0
 40
1.0
 40
1.0
 10
3.7691155194
 20
4.7770649202
 30
0.0
 10
3.768913897
 20
4.77644439
 30
0.0
 10
3.7686134628
 20
4.7752389156
 30
0.0
 10
3.768501272
 20
4.7734615196
 30
0.0
 10
3.7687503079
 20
4.771842714
 30
0.0
 10
3.7691587578
 20
4.7708718014
 30
0.0
 10
3.7694132197
 20
4.7704334088
 30
0.0
  0
SPLINE
  5
493
100
AcDbEntity
  8
ALL_FEATURES
100
AcDbSpline
 62
7
  6
CONTINUOUS
 70
0
 71
3
 72
12
 73
8
 74
0
 42
0.0000001
 43
0.0000001
 44
0.0000000001
 40
0.0
 40
0.0
 40
0.0
 40
0.0
 40
0.2499818076
 40
0.4999591653
 40
0.7499353154
 40
0.8749588069
 40
1.0
 40
1.0
 40
1.0
 40
1.0
 10
4.318264142
 20
5.1921222846
 30
0.0
 10
4.3183042405
 20
5.1893066963
 30
0.0
 10
4.3184646265
 20
5.1836760062
 30
0.0
 10
4.319028964
 20
5.1752452485
 30
0.0
 10
4.3198800161
 20
5.1682501512
 30
0.0
 10
4.3209228855
 20
5.1627130046
 30
0.0
 10
4.3216052212
 20
5.1599771633
 30
0.0
 10
4.3220022907
 20
5.1586257871
 30
0.0
  0
SPLINE
  5
494
100
AcDbEntity
  8
ALL_FEATURES
100
AcDbSpline
 62
7
  6
CONTINUOUS
 70
0
 71
3
 72
14
 73
10
 74
0
 42
0.0000001
 43
0.0000001
 44
0.0000000001
 40
0.0
 40
0.0
 40
0.0
 40
0.0
 40
0.0991149008
 40
0.2033120662
 40
0.3140121012
 40
0.4324091329
 40
0.5594874089
 40
0.6960500852
 40
1.0
 40
1.0
 40
1.0
 40
1.0
 10
3.7333239932
 20
4.8418556225
 30
0.0
 10
3.7320429931
 20
4.8412810888
 30
0.0
 10
3.7294943012
 20
4.8399195157
 30
0.0
 10
3.7258542684
 20
4.8373465407
 30
0.0
 10
3.7223193702
 20
4.8342039648
 30
0.0
 10
3.718890706
 20
4.8304934498
 30
0.0
 10
3.7155676826
 20
4.8262149478
 30
0.0
 10
3.7111196923
 20
4.8195110145
 30
0.0
 10
3.7081965277
 20
4.8139773799
 30
0.0
 10
3.7063593177
 20
4.8100836679
 30
0.0
  0
SPLINE
  5
495
100
AcDbEntity
  8
ALL_FEATURES
100
AcDbSpline
 62
7
  6
CONTINUOUS
 70
0
 71
3
 72
12
 73
8
 74
0
 42
0.0000001
 43
0.0000001
 44
0.0000000001
 40
0.0
 40
0.0
 40
0.0
 40
0.0
 40
0.2502335707
 40
0.3754336277
 40
0.5005073477
 40
0.7503210163
 40
1.0
 40
1.0
 40
1.0
 40
1.0
 10
4.952136306
 20
4.6399230247
 30
0.0
 10
4.9537314342
 20
4.6392009431
 30
0.0
 10
4.9562292974
 20
4.6383277805
 30
0.0
 10
4.9596675912
 20
4.6376419457
 30
0.0
 10
4.9631531735
 20
4.6372828364
 30
0.0
 10
4.9675442211
 20
4.6374251409
 30
0.0
 10
4.9709874416
 20
4.6381038972
 30
0.0
 10
4.9726749838
 20
4.6385560728
 30
0.0
  0
SPLINE
  5
496
100
AcDbEntity
  8
ALL_FEATURES
100
AcDbSpline
 62
7
  6
CONTINUOUS
 70
0
 71
3
 72
9
 73
5
 74
0
 42
0.0000001
 43
0.0000001
 44
0.0000000001
 40
0.0
 40
0.0
 40
0.0
 40
0.0
 40
0.2483338418
 40
1.0
 40
1.0
 40
1.0
 40
1.0
 10
3.7585440903
 20
4.7102950361
 30
0.0
 10
3.7586103614
 20
4.7101034126
 30
0.0
 10
3.7588214775
 20
4.7093118501
 30
0.0
 10
3.7588435169
 20
4.7084840176
 30
0.0
 10
3.7588218853
 20
4.707870679
 30
0.0
  0
SPLINE
  5
497
100
AcDbEntity
  8
ALL_FEATURES
100
AcDbSpline
 62
7
  6
CONTINUOUS
 70
0
 71
3
 72
12
 73
8
 74
0
 42
0.0000001
 43
0.0000001
 44
0.0000000001
 40
0.0
 40
0.0
 40
0.0
 40
0.0
 40
0.2503065213
 40
0.3751192895
 40
0.4999968479
 40
0.7499666454
 40
1.0
 40
1.0
 40
1.0
 40
1.0
 10
3.7588218853
 20
4.707870679
 30
0.0
 10
3.7587931428
 20
4.7070557207
 30
0.0
 10
3.7586447051
 20
4.7058375534
 30
0.0
 10
3.7583241712
 20
4.704240694
 30
0.0
 10
3.7579548892
 20
4.702654979
 30
0.0
 10
3.7574187267
 20
4.700690394
 30
0.0
 10
3.7569325909
 20
4.6991354244
 30
0.0
 10
3.7566808733
 20
4.6983607175
 30
0.0
  0
LINE
  5
498
100
AcDbEntity
  8
ALL_FEATURES
100
AcDbLine
 62
7
  6
CONTINUOUS
 10
3.7714481446
 20
4.7438097052
 11
3.7697197199
 21
4.7394293159
  0
SPLINE
  5
499
100
AcDbEntity
  8
ALL_FEATURES
100
AcDbSpline
 62
7
  6
CONTINUOUS
 70
0
 71
3
 72
13
 73
9
 74
0
 42
0.0000001
 43
0.0000001
 44
0.0000000001
 40
0.0
 40
0.0
 40
0.0
 40
0.0
 40
0.2491923238
 40
0.4980000933
 40
0.6227524199
 40
0.748298619
 40
0.8748309993
 40
1.0
 40
1.0
 40
1.0
 40
1.0
 10
3.7697197199
 20
4.7394293159
 30
0.0
 10
3.7694563584
 20
4.7388216192
 30
0.0
 10
3.7689097283
 20
4.7376159793
 30
0.0
 10
3.7681627366
 20
4.7361375341
 30
0.0
 10
3.767488802
 20
4.7349942825
 30
0.0
 10
3.7669329405
 20
4.7341604819
 30
0.0
 10
3.766328414
 20
4.7333597701
 30
0.0
 10
3.7658583602
 20
4.7328778645
 30
0.0
 10
3.7656010255
 20
4.7326670252
 30
0.0
  0
LINE
  5
49A
100
AcDbEntity
  8
ALL_FEATURES
100
AcDbLine
 62
7
  6
CONTINUOUS
 10
3.7656010255
 20
4.7326670252
 11
3.7650728446
 21
4.7322995504
  0
SPLINE
  5
49B
100
AcDbEntity
  8
ALL_FEATURES
100
AcDbSpline
 62
7
  6
CONTINUOUS
 70
0
 71
3
 72
11
 73
7
 74
0
 42
0.0000001
 43
0.0000001
 44
0.0000000001
 40
0.0
 40
0.0
 40
0.0
 40
0.0
 40
0.250006459
 40
0.5000024132
 40
0.7499977406
 40
1.0
 40
1.0
 40
1.0
 40
1.0
 10
4.3587604915
 20
5.1588536907
 30
0.0
 10
4.3595251033
 20
5.1617472413
 30
0.0
 10
4.3606843337
 20
5.1676329203
 30
0.0
 10
4.3617069411
 20
5.1765576965
 30
0.0
 10
4.3622281647
 20
5.1855245595
 30
0.0
 10
4.362325653
 20
5.1915107549
 30
0.0
 10
4.362325653
 20
5.1945035738
 30
0.0
  0
SPLINE
  5
49C
100
AcDbEntity
  8
ALL_FEATURES
100
AcDbSpline
 62
7
  6
CONTINUOUS
 70
0
 71
3
 72
14
 73
10
 74
0
 42
0.0000001
 43
0.0000001
 44
0.0000000001
 40
0.0
 40
0.0
 40
0.0
 40
0.0
 40
0.1252354893
 40
0.2507501879
 40
0.376056147
 40
0.5011687487
 40
0.6262391269
 40
0.7510900861
 40
1.0
 40
1.0
 40
1.0
 40
1.0
 10
4.940410299
 20
4.6528663989
 30
0.0
 10
4.9406048531
 20
4.6521373012
 30
0.0
 10
4.9410812551
 20
4.6506990928
 30
0.0
 10
4.9420481918
 20
4.6486437665
 30
0.0
 10
4.9432687947
 20
4.6467277401
 30
0.0
 10
4.9447258115
 20
4.6449892352
 30
0.0
 10
4.9463740436
 20
4.6434359859
 30
0.0
 10
4.9487787036
 20
4.6416248849
 30
0.0
 10
4.9507699689
 20
4.6405415374
 30
0.0
 10
4.952136306
 20
4.6399230247
 30
0.0
  0
SPLINE
  5
49D
100
AcDbEntity
  8
ALL_FEATURES
100
AcDbSpline
 62
7
  6
CONTINUOUS
 70
0
 71
3
 72
12
 73
8
 74
0
 42
0.0000001
 43
0.0000001
 44
0.0000000001
 40
0.0
 40
0.0
 40
0.0
 40
0.0
 40
0.2503065198
 40
0.3751192893
 40
0.4999968485
 40
0.7499666459
 40
1.0
 40
1.0
 40
1.0
 40
1.0
 10
3.7323497964
 20
4.6263979667
 30
0.0
 10
3.732321054
 20
4.625583008
 30
0.0
 10
3.7321726162
 20
4.6243648402
 30
0.0
 10
3.731852082
 20
4.6227679802
 30
0.0
 10
3.7314827997
 20
4.6211822646
 30
0.0
 10
3.7309466369
 20
4.6192176787
 30
0.0
 10
3.7304605008
 20
4.6176627086
 30
0.0
 10
3.7302087832
 20
4.6168880014
 30
0.0
  0
LINE
  5
49E
100
AcDbEntity
  8
ALL_FEATURES
100
AcDbLine
 62
7
  6
CONTINUOUS
 10
3.7449760566
 20
4.6623369957
 11
3.7432476319
 21
4.6579566058
  0
SPLINE
  5
49F
100
AcDbEntity
  8
ALL_FEATURES
100
AcDbSpline
 62
7
  6
CONTINUOUS
 70
0
 71
3
 72
13
 73
9
 74
0
 42
0.0000001
 43
0.0000001
 44
0.0000000001
 40
0.0
 40
0.0
 40
0.0
 40
0.0
 40
0.2491923359
 40
0.4980001284
 40
0.6227524576
 40
0.7482986462
 40
0.8748310023
 40
1.0
 40
1.0
 40
1.0
 40
1.0
 10
3.7432476319
 20
4.6579566058
 30
0.0
 10
3.7429842702
 20
4.6573489089
 30
0.0
 10
3.7424376399
 20
4.6561432685
 30
0.0
 10
3.7416906478
 20
4.6546648229
 30
0.0
 10
3.7410167126
 20
4.6535215711
 30
0.0
 10
3.7404608506
 20
4.6526877706
 30
0.0
 10
3.7398563234
 20
4.6518870591
 30
0.0
 10
3.7393862693
 20
4.6514051537
 30
0.0
 10
3.7391289347
 20
4.6511943142
 30
0.0
  0
LINE
  5
4A0
100
AcDbEntity
  8
ALL_FEATURES
100
AcDbLine
 62
7
  6
CONTINUOUS
 10
3.7391289347
 20
4.6511943142
 11
3.7386007524
 21
4.6508268378
  0
SPLINE
  5
4A1
100
AcDbEntity
  8
ALL_FEATURES
100
AcDbSpline
 62
7
  6
CONTINUOUS
 70
0
 71
3
 72
9
 73
5
 74
0
 42
0.0000001
 43
0.0000001
 44
0.0000000001
 40
0.0
 40
0.0
 40
0.0
 40
0.0
 40
0.4996733301
 40
1.0
 40
1.0
 40
1.0
 40
1.0
 10
4.9407664378
 20
4.6634816382
 30
0.0
 10
4.9401879993
 20
4.6617881644
 30
0.0
 10
4.9394882576
 20
4.6582118693
 30
0.0
 10
4.9399483154
 20
4.6545976978
 30
0.0
 10
4.940410299
 20
4.6528663989
 30
0.0
  0
LINE
  5
4A2
100
AcDbEntity
  8
ALL_FEATURES
100
AcDbLine
 62
7
  6
CONTINUOUS
 10
4.9435285653
 20
4.6721403106
 11
4.9407664378
 21
4.6634816382
  0
SPLINE
  5
4A3
100
AcDbEntity
  8
ALL_FEATURES
100
AcDbSpline
 62
7
  6
CONTINUOUS
 70
0
 71
3
 72
10
 73
6
 74
0
 42
0.0000001
 43
0.0000001
 44
0.0000000001
 40
0.0
 40
0.0
 40
0.0
 40
0.0
 40
0.4995467725
 40
0.7498583766
 40
1.0
 40
1.0
 40
1.0
 40
1.0
 10
4.9439143112
 20
4.6804103816
 30
0.0
 10
4.9442737458
 20
4.6790671101
 30
0.0
 10
4.9443851905
 20
4.6769319419
 30
0.0
 10
4.9440148855
 20
4.674174727
 30
0.0
 10
4.9437061319
 20
4.6728135782
 30
0.0
 10
4.9435285653
 20
4.6721403106
 30
0.0
  0
SPLINE
  5
4A4
100
AcDbEntity
  8
ALL_FEATURES
100
AcDbSpline
 62
7
  6
CONTINUOUS
 70
0
 71
3
 72
13
 73
9
 74
0
 42
0.0000001
 43
0.0000001
 44
0.0000000001
 40
0.0
 40
0.0
 40
0.0
 40
0.0
 40
0.1250151029
 40
0.2500188095
 40
0.3750119411
 40
0.5000084753
 40
0.7499862096
 40
1.0
 40
1.0
 40
1.0
 40
1.0
 10
3.7519544124
 20
4.3097297877
 30
0.0
 10
3.7502902678
 20
4.3094195079
 30
0.0
 10
3.7469923844
 20
4.3086321287
 30
0.0
 10
3.7421485316
 20
4.3070987241
 30
0.0
 10
3.7373966534
 20
4.3053030007
 30
0.0
 10
3.7311715094
 20
4.3026380719
 30
0.0
 10
3.7235703788
 20
4.2989049397
 30
0.0
 10
3.717644047
 20
4.2956273028
 30
0.0
 10
3.7147121836
 20
4.2939345906
 30
0.0
  0
SPLINE
  5
4A5
100
AcDbEntity
  8
ALL_FEATURES
100
AcDbSpline
 62
7
  6
CONTINUOUS
 70
0
 71
3
 72
14
 73
10
 74
0
 42
0.0000001
 43
0.0000001
 44
0.0000000001
 40
0.0
 40
0.0
 40
0.0
 40
0.0
 40
0.0991148453
 40
0.2033119926
 40
0.3140120384
 40
0.4324090986
 40
0.559487408
 40
0.6960501097
 40
1.0
 40
1.0
 40
1.0
 40
1.0
 10
4.856738199
 20
4.0938648945
 30
0.0
 10
4.858131202
 20
4.0940397955
 30
0.0
 10
4.8609666123
 20
4.0945967093
 30
0.0
 10
4.8651998564
 20
4.0959930159
 30
0.0
 10
4.869499096
 20
4.0979647734
 30
0.0
 10
4.8738627934
 20
4.1005107137
 30
0.0
 10
4.8782915295
 20
4.1036307087
 30
0.0
 10
4.8845052037
 20
4.1087412458
 30
0.0
 10
4.888918518
 20
4.1131784358
 30
0.0
 10
4.8918138617
 20
4.1163648623
 30
0.0
  0
SPLINE
  5
4A6
100
AcDbEntity
  8
ALL_FEATURES
100
AcDbSpline
 62
7
  6
CONTINUOUS
 70
0
 71
3
 72
13
 73
9
 74
0
 42
0.0000001
 43
0.0000001
 44
0.0000000001
 40
0.0
 40
0.0
 40
0.0
 40
0.0
 40
0.2505229087
 40
0.3760453543
 40
0.5013923894
 40
0.6262713142
 40
0.7511897239
 40
1.0
 40
1.0
 40
1.0
 40
1.0
 10
3.7722440214
 20
4.302324142
 30
0.0
 10
3.7712793644
 20
4.3040037337
 30
0.0
 10
3.7694138737
 20
4.3063461251
 30
0.0
 10
3.7661561039
 20
4.3084907651
 30
0.0
 10
3.7634504223
 20
4.3095974313
 30
0.0
 10
3.7605966566
 20
4.3101874241
 30
0.0
 10
3.7567387915
 20
4.3104103657
 30
0.0
 10
3.7538454843
 20
4.3100823782
 30
0.0
 10
3.7519544124
 20
4.3097297877
 30
0.0
  0
SPLINE
  5
4A7
100
AcDbEntity
  8
ALL_FEATURES
100
AcDbSpline
 62
7
  6
CONTINUOUS
 70
0
 71
3
 72
13
 73
9
 74
0
 42
0.0000001
 43
0.0000001
 44
0.0000000001
 40
0.0
 40
0.0
 40
0.0
 40
0.0
 40
0.2492884884
 40
0.3742406614
 40
0.4993585997
 40
0.6245203467
 40
0.7497886946
 40
1.0
 40
1.0
 40
1.0
 40
1.0
 10
4.8157539379
 20
4.1339429631
 30
0.0
 10
4.8153480648
 20
4.1353892485
 30
0.0
 10
4.814896957
 20
4.1376137111
 30
0.0
 10
4.814734185
 20
4.1406230479
 30
0.0
 10
4.8148638589
 20
4.1428854009
 30
0.0
 10
4.8152585997
 20
4.1451198909
 30
0.0
 10
4.8161612906
 20
4.1480051346
 30
0.0
 10
4.8172504735
 20
4.150022103
 30
0.0
 10
4.8181152647
 20
4.1512571527
 30
0.0
  0
SPLINE
  5
4A8
100
AcDbEntity
  8
ALL_FEATURES
100
AcDbSpline
 62
7
  6
CONTINUOUS
 70
0
 71
3
 72
11
 73
7
 74
0
 42
0.0000001
 43
0.0000001
 44
0.0000000001
 40
0.0
 40
0.0
 40
0.0
 40
0.0
 40
0.2501999716
 40
0.5003386447
 40
0.7503008879
 40
1.0
 40
1.0
 40
1.0
 40
1.0
 10
4.8181152647
 20
4.1512571527
 30
0.0
 10
4.8186305656
 20
4.1519930787
 30
0.0
 10
4.8197603556
 20
4.1533989103
 30
0.0
 10
4.8217501395
 20
4.155230922
 30
0.0
 10
4.824000355
 20
4.1567284588
 30
0.0
 10
4.8256327129
 20
4.1574899792
 30
0.0
 10
4.8264687945
 20
4.1578138021
 30
0.0
  0
SPLINE
  5
4A9
100
AcDbEntity
  8
ALL_FEATURES
100
AcDbSpline
 62
7
  6
CONTINUOUS
 70
0
 71
3
 72
11
 73
7
 74
0
 42
0.0000001
 43
0.0000001
 44
0.0000000001
 40
0.0
 40
0.0
 40
0.0
 40
0.0
 40
0.2866196038
 40
0.5429362818
 40
0.7773291022
 40
1.0
 40
1.0
 40
1.0
 40
1.0
 10
4.841453555
 20
4.1662889854
 30
0.0
 10
4.8418277932
 20
4.1668234529
 30
0.0
 10
4.8424675468
 20
4.1678884162
 30
0.0
 10
4.8430944965
 20
4.1695553476
 30
0.0
 10
4.8433296359
 20
4.17117623
 30
0.0
 10
4.8432228998
 20
4.172224137
 30
0.0
 10
4.8431077292
 20
4.1727177704
 30
0.0
  0
SPLINE
  5
4AA
100
AcDbEntity
  8
ALL_FEATURES
100
AcDbSpline
 62
7
  6
CONTINUOUS
 70
0
 71
3
 72
11
 73
7
 74
0
 42
0.0000001
 43
0.0000001
 44
0.0000000001
 40
0.0
 40
0.0
 40
0.0
 40
0.0
 40
0.2875632182
 40
0.5469469464
 40
0.7825501703
 40
1.0
 40
1.0
 40
1.0
 40
1.0
 10
4.8348731523
 20
4.1612665273
 30
0.0
 10
4.8355983376
 20
4.1616085376
 30
0.0
 10
4.8369531445
 20
4.1623140819
 30
0.0
 10
4.8387772611
 20
4.1635201129
 30
0.0
 10
4.8402849492
 20
4.1648229222
 30
0.0
 10
4.8411057973
 20
4.1657923358
 30
0.0
 10
4.841453555
 20
4.1662889854
 30
0.0
  0
LINE
  5
4AB
100
AcDbEntity
  8
ALL_FEATURES
100
AcDbLine
 62
7
  6
CONTINUOUS
 10
4.8264687945
 20
4.1578138021
 11
4.8348731523
 21
4.1612665273
  0
SPLINE
  5
4AC
100
AcDbEntity
  8
ALL_FEATURES
100
AcDbSpline
 62
7
  6
CONTINUOUS
 70
0
 71
3
 72
11
 73
7
 74
0
 42
0.0000001
 43
0.0000001
 44
0.0000000001
 40
0.0
 40
0.0
 40
0.0
 40
0.0
 40
0.2493723874
 40
0.499195031
 40
0.7493877235
 40
1.0
 40
1.0
 40
1.0
 40
1.0
 10
3.7699588365
 20
4.2819388969
 30
0.0
 10
3.770546482
 20
4.2828305321
 30
0.0
 10
3.7716524877
 20
4.284663777
 30
0.0
 10
3.7730201614
 20
4.2875744983
 30
0.0
 10
3.7740039878
 20
4.2906460809
 30
0.0
 10
3.7743057136
 20
4.2927842671
 30
0.0
 10
3.7743501559
 20
4.2938565233
 30
0.0
  0
SPLINE
  5
4AD
100
AcDbEntity
  8
ALL_FEATURES
100
AcDbSpline
 62
7
  6
CONTINUOUS
 70
0
 71
3
 72
11
 73
7
 74
0
 42
0.0000001
 43
0.0000001
 44
0.0000000001
 40
0.0
 40
0.0
 40
0.0
 40
0.0
 40
0.2498544461
 40
0.4998184314
 40
0.7501925731
 40
1.0
 40
1.0
 40
1.0
 40
1.0
 10
3.7743501559
 20
4.2938565233
 30
0.0
 10
3.7743806399
 20
4.2945920055
 30
0.0
 10
3.7743441798
 20
4.2960697583
 30
0.0
 10
3.7739638899
 20
4.2982553866
 30
0.0
 10
3.7732623901
 20
4.3003588668
 30
0.0
 10
3.7726105672
 20
4.3016859387
 30
0.0
 10
3.7722440214
 20
4.302324142
 30
0.0
  0
ENDSEC
  0
SECTION
  2
OBJECTS
  0
DICTIONARY
  5
C
100
AcDbDictionary
280
0
281
1
  3
ACAD_GROUP
350
D
  3
ACAD_MLINESTYLE
350
17
  3
ACAD_LAYOUT
350
1A
  3
ACAD_PLOTSETTINGS
350
19
  3
ACAD_PLOTSTYLENAME
350
E
  0
DICTIONARY
  5
D
102
{ACAD_REACTORS
330
C
102
}
100
AcDbDictionary
280
0
281
1
  0
ACDBDICTIONARYWDFLT
  5
E
102
{ACAD_REACTORS
330
C
102
}
100
AcDbDictionary
281
1
  3
Normal
350
F
100
AcDbDictionaryWithDefault
340
F
  0
DICTIONARY
  5
17
102
{ACAD_REACTORS
330
C
102
}
100
AcDbDictionary
280
0
281
1
  3
Standard
350
18
  0
DICTIONARY
  5
19
102
{ACAD_REACTORS
330
C
102
}
100
AcDbDictionary
281
1
  0
DICTIONARY
  5
1A
102
{ACAD_REACTORS
330
C
102
}
100
AcDbDictionary
281
1
  3
Model
350
4AE
  3
Layout1
350
4AF
  0
ACDBPLACEHOLDER
  5
F
102
{ACAD_REACTORS
330
E
102
}
  0
MLINESTYLE
  5
18
102
{ACAD_REACTORS
330
17
102
}
100
AcDbMlineStyle
  2
STANDARD
 70
0
  3

 62
256
 51
90.0
 52
90.0
 71
2
 49
0.5
 62
256
  6
BYLAYER
 49
-0.5
 62
256
  6
BYLAYER
  0
LAYOUT
  5
4AE
102
{ACAD_REACTORS
330
1A
102
}
100
AcDbPlotSettings
  1

  2
none_device
  4
ANSI_A_(11.00_x_8.50_Inches)
  6

 40
0.0
 41
0.0
 42
0.0
 43
0.0
 44
279.4
 45
215.9
 46
0.0
 47
0.0
 48
0.0
 49
0.0
140
0.0
141
0.0
142
1.0
143
1.0
 70
1024
 72
0
 73
0
 74
0
  7

 75
0
147
1.0
148
0.0
149
0.0
100
AcDbLayout
  1
Model
 70
0
 71
0
 10
0.0
 20
0.0
 11
11.0
 21
8.5
 12
0.0
 22
0.0
 32
0.0
 14
0.0
 24
0.0
 34
0.0
 15
0.0
 25
0.0
 35
0.0
146
0.0
 13
0.0
 23
0.0
 33
0.0
 16
1.0
 26
0.0
 36
0.0
 17
0.0
 27
1.0
 37
0.0
 76
0
330
222
345
0
346
0
  0
LAYOUT
  5
4AF
102
{ACAD_REACTORS
330
1A
102
}
100
AcDbPlotSettings
  1

  2
none_device
  4
ANSI_A_(11.00_x_8.50_Inches)
  6

 40
0.0
 41
0.0
 42
0.0
 43
0.0
 44
279.4
 45
215.9
 46
0.0
 47
0.0
 48
0.0
 49
0.0
140
0.0
141
0.0
142
1.0
143
1.0
 70
0
 72
0
 73
0
 74
0
  7

 75
0
147
1.0
148
0.0
149
0.0
100
AcDbLayout
  1
Layout1
 70
0
 71
1
 10
0.0
 20
0.0
 11
11.0
 21
8.5
 12
0.0
 22
0.0
 32
0.0
 14
0.0
 24
0.0
 34
0.0
 15
0.0
 25
0.0
 35
0.0
146
0.0
 13
0.0
 23
0.0
 33
0.0
 16
1.0
 26
0.0
 36
0.0
 17
0.0
 27
1.0
 37
0.0
 76
0
330
223
345
0
346
0
  0
ENDSEC
  0
EOF
