999
DXF file: 3-2554tr_RIGHT.dxf
999
Pro/ENGINEER 2018400 by Parametric Technology Corporation
  0
SECTION
  2
HEADER
  9
$ACADVER
  1
AC1027
  9
$DWGCODEPAGE
  3
ANSI_1252
  9
$EXTMAX
 10
11.0
 20
8.5
 30
0.0
  9
$EXTMIN
 10
0.0
 20
0.0
 30
0.0
  9
$LIMMIN
 10
0.0
 20
0.0
  9
$LIMMAX
 10
11.0
 20
8.5
  9
$VIEWCTR
 10
5.5
 20
4.25
  9
$VIEWSIZE
 40
8.5
  9
$CLAYER
  8
0
  9
$LTSCALE
 40
0.605
  9
$CELTYPE
  6
BYLAYER
  9
$DIMSCALE
 40
1.0
  9
$DIMASZ
 40
0.1
  9
$DIMEXO
 40
0.0625
  9
$DIMDLI
 40
0.418
  9
$DIMEXE
 40
0.125
  9
$DIMCEN
 40
0.099
  9
$DIMLFAC
 40
1.0
  9
$DIMBLK
  1
_FILLED
  9
$DIMALT
 70
1
  9
$DIMALTD
 70
2
  9
$DIMALTTD
 70
2
  9
$DIMALTF
 40
25.4
  9
$DIMTXT
 40
0.08
  9
$DIMTOL
 70
1
  9
$DIMLIM
 70
0
  9
$DIMTFAC
 40
1.0
  9
$DIMTP
 40
0.001
  9
$DIMTM
 40
0.001
  9
$DIMGAP
 40
0.09
  9
$DIMDSEP
 70
46
  9
$AUNITS
 70
0
  9
$PDMODE
 70
3
  9
$PDSIZE
 40
0.3125
  9
$HANDSEED
  5
475
  9
$TILEMODE
 70
1
  9
$MEASUREMENT
 70
0
  9
$INSUNITS
 70
1
  0
ENDSEC
  0
SECTION
  2
CLASSES
  0
CLASS
  1
ACDBDICTIONARYWDFLT
  2
AcDbDictionaryWithDefault
  3
AutoCAD 2000
 90
0
 91
1
280
0
281
0
  0
CLASS
  1
ACDBPLACEHOLDER
  2
AcDbPlaceHolder
  3
AutoCAD 2000
 90
0
 91
1
280
0
281
0
  0
CLASS
  1
LAYOUT
  2
AcDbLayout
  3
AutoCAD 2000
 90
0
 91
0
280
0
281
0
  0
ENDSEC
  0
SECTION
  2
TABLES
  0
TABLE
  2
VPORT
  5
8
100
AcDbSymbolTable
 70
2
  0
VPORT
  5
1F4
100
AcDbSymbolTableRecord
100
AcDbViewportTableRecord
  2
*ACTIVE
 70
0
 10
0.0
 20
0.0
 11
1.0
 21
1.0
 12
5.5
 22
4.25
 13
0.0
 23
0.0
 14
1.0
 24
1.0
 15
0.0
 25
0.0
 16
0.0
 26
0.0
 36
1.0
 17
0.0
 27
0.0
 37
0.0
 40
8.5
 41
1.2941176471
 42
50.0
 43
0.0
 44
0.0
 50
0.0
 51
0.0
 71
0
 72
100
 73
1
 74
1
 75
0
 76
0
 77
0
 78
0
  0
ENDTAB
  0
TABLE
  2
LTYPE
  5
5
100
AcDbSymbolTable
 70
6
  0
LTYPE
  5
14
100
AcDbSymbolTableRecord
100
AcDbLinetypeTableRecord
  2
BYBLOCK
 70
0
  3

 72
65
 73
0
 40
0.0
  0
LTYPE
  5
15
100
AcDbSymbolTableRecord
100
AcDbLinetypeTableRecord
  2
BYLAYER
 70
0
  3

 72
65
 73
0
 40
0.0
  0
LTYPE
  5
16
100
AcDbSymbolTableRecord
100
AcDbLinetypeTableRecord
  2
CONTINUOUS
 70
64
  3
Solid line
 72
65
 73
0
 40
0.0
  0
LTYPE
  5
1F5
100
AcDbSymbolTableRecord
100
AcDbLinetypeTableRecord
  2
CENTER
 70
64
  3
____ _ ____ _ ____ _ ____ _ ____ _ ____ _ ____
 72
65
 73
4
 40
0.6
 49
0.375
 74
0
 49
-0.075
 74
0
 49
0.075
 74
0
 49
-0.075
 74
0
  0
LTYPE
  5
1F6
100
AcDbSymbolTableRecord
100
AcDbLinetypeTableRecord
  2
HIDDEN
 70
64
  3
- - - - - - - - - - - - - - - - - - - -
 72
65
 73
2
 40
0.2
 49
0.1
 74
0
 49
-0.1
 74
0
  0
LTYPE
  5
1F7
100
AcDbSymbolTableRecord
100
AcDbLinetypeTableRecord
  2
PHANTOM
 70
64
  3
_____ _ _ _____ _ _ _____ _ _ _____
 72
65
 73
6
 40
0.8
 49
0.45
 74
0
 49
-0.05
 74
0
 49
0.1
 74
0
 49
-0.05
 74
0
 49
0.1
 74
0
 49
-0.05
 74
0
  0
LTYPE
  5
1F8
100
AcDbSymbolTableRecord
100
AcDbLinetypeTableRecord
  2
DOT
 70
64
  3
. . . . . . . . . . . . . . . . . . . .
 72
65
 73
2
 40
0.2
 49
0.1
 74
0
 49
-0.1
 74
0
  0
LTYPE
  5
1F9
100
AcDbSymbolTableRecord
100
AcDbLinetypeTableRecord
  2
DASHED
 70
64
  3
- - - - - - - - - - - - - - - - - - - -
 72
65
 73
2
 40
0.2
 49
0.1
 74
0
 49
-0.1
 74
0
  0
ENDTAB
  0
TABLE
  2
LAYER
  5
2
100
AcDbSymbolTable
 70
36
  0
LAYER
  5
10
100
AcDbSymbolTableRecord
100
AcDbLayerTableRecord
  2
0
 70
0
 62
7
  6
CONTINUOUS
370
-3
390
F
  0
LAYER
  5
1FA
100
AcDbSymbolTableRecord
100
AcDbLayerTableRecord
  2
DEFAULT_1
 70
0
 62
7
  6
CENTER
370
-3
390
F
  0
LAYER
  5
1FB
100
AcDbSymbolTableRecord
100
AcDbLayerTableRecord
  2
DEFAULT_2
 70
0
 62
8
  6
HIDDEN
370
-3
390
F
  0
LAYER
  5
1FC
100
AcDbSymbolTableRecord
100
AcDbLayerTableRecord
  2
DEFAULT_3
 70
0
 62
7
  6
PHANTOM
370
-3
390
F
  0
LAYER
  5
1FD
100
AcDbSymbolTableRecord
100
AcDbLayerTableRecord
  2
01___PRT_ALL_DTM_PLN
 70
0
 62
7
  6
CONTINUOUS
370
-3
390
F
  0
LAYER
  5
1FE
100
AcDbSymbolTableRecord
100
AcDbLayerTableRecord
  2
01___PRT_DEF_DTM_PLN
 70
0
 62
7
  6
CONTINUOUS
370
-3
390
F
  0
LAYER
  5
1FF
100
AcDbSymbolTableRecord
100
AcDbLayerTableRecord
  2
02___PRT_ALL_AXES
 70
0
 62
7
  6
CONTINUOUS
370
-3
390
F
  0
LAYER
  5
200
100
AcDbSymbolTableRecord
100
AcDbLayerTableRecord
  2
03___PRT_ALL_CURVES
 70
0
 62
7
  6
CONTINUOUS
370
-3
390
F
  0
LAYER
  5
201
100
AcDbSymbolTableRecord
100
AcDbLayerTableRecord
  2
04___PRT_ALL_DTM_PNT
 70
0
 62
7
  6
CONTINUOUS
370
-3
390
F
  0
LAYER
  5
202
100
AcDbSymbolTableRecord
100
AcDbLayerTableRecord
  2
05___PRT_ALL_DTM_CSYS
 70
0
 62
7
  6
CONTINUOUS
370
-3
390
F
  0
LAYER
  5
203
100
AcDbSymbolTableRecord
100
AcDbLayerTableRecord
  2
05___PRT_DEF_DTM_CSYS
 70
0
 62
7
  6
CONTINUOUS
370
-3
390
F
  0
LAYER
  5
204
100
AcDbSymbolTableRecord
100
AcDbLayerTableRecord
  2
06___PRT_ALL_SURFS
 70
0
 62
7
  6
CONTINUOUS
370
-3
390
F
  0
LAYER
  5
205
100
AcDbSymbolTableRecord
100
AcDbLayerTableRecord
  2
ALL_ASSEMBLY_MEMBERS
 70
0
 62
7
  6
CONTINUOUS
370
-3
390
F
  0
LAYER
  5
206
100
AcDbSymbolTableRecord
100
AcDbLayerTableRecord
  2
ALL_FEATURES
 70
0
 62
7
  6
CONTINUOUS
370
-3
390
F
  0
LAYER
  5
207
100
AcDbSymbolTableRecord
100
AcDbLayerTableRecord
  2
AXES_FEATURES
 70
0
 62
7
  6
CONTINUOUS
370
-3
390
F
  0
LAYER
  5
208
100
AcDbSymbolTableRecord
100
AcDbLayerTableRecord
  2
BROACH_SKETCH
 70
0
 62
7
  6
CONTINUOUS
370
-3
390
F
  0
LAYER
  5
209
100
AcDbSymbolTableRecord
100
AcDbLayerTableRecord
  2
CHAMFER_FEATURES
 70
0
 62
7
  6
CONTINUOUS
370
-3
390
F
  0
LAYER
  5
20A
100
AcDbSymbolTableRecord
100
AcDbLayerTableRecord
  2
COSMETIC_SKETCHES
 70
0
 62
7
  6
CONTINUOUS
370
-3
390
F
  0
LAYER
  5
20B
100
AcDbSymbolTableRecord
100
AcDbLayerTableRecord
  2
CUT_FEATURES
 70
0
 62
7
  6
CONTINUOUS
370
-3
390
F
  0
LAYER
  5
20C
100
AcDbSymbolTableRecord
100
AcDbLayerTableRecord
  2
DATUM_CURVES
 70
0
 62
7
  6
CONTINUOUS
370
-3
390
F
  0
LAYER
  5
20D
100
AcDbSymbolTableRecord
100
AcDbLayerTableRecord
  2
DATUM_PLANES
 70
0
 62
7
  6
CONTINUOUS
370
-3
390
F
  0
LAYER
  5
20E
100
AcDbSymbolTableRecord
100
AcDbLayerTableRecord
  2
DATUM_POINTS
 70
0
 62
7
  6
CONTINUOUS
370
-3
390
F
  0
LAYER
  5
20F
100
AcDbSymbolTableRecord
100
AcDbLayerTableRecord
  2
DEFAULT_COORDINATE_SYSTEM
 70
0
 62
7
  6
CONTINUOUS
370
-3
390
F
  0
LAYER
  5
210
100
AcDbSymbolTableRecord
100
AcDbLayerTableRecord
  2
DEFAULT_DATUM_AXES
 70
0
 62
7
  6
CONTINUOUS
370
-3
390
F
  0
LAYER
  5
211
100
AcDbSymbolTableRecord
100
AcDbLayerTableRecord
  2
DEFAULT_DATUM_CURVES
 70
0
 62
7
  6
CONTINUOUS
370
-3
390
F
  0
LAYER
  5
212
100
AcDbSymbolTableRecord
100
AcDbLayerTableRecord
  2
DEFAULT_DATUM_PLANES
 70
0
 62
7
  6
CONTINUOUS
370
-3
390
F
  0
LAYER
  5
213
100
AcDbSymbolTableRecord
100
AcDbLayerTableRecord
  2
DEFAULT_SURFACES
 70
0
 62
7
  6
CONTINUOUS
370
-3
390
F
  0
LAYER
  5
214
100
AcDbSymbolTableRecord
100
AcDbLayerTableRecord
  2
DIMENSIONS
 70
0
 62
7
  6
CONTINUOUS
370
-3
390
F
  0
LAYER
  5
215
100
AcDbSymbolTableRecord
100
AcDbLayerTableRecord
  2
HOLE_FEATURES
 70
0
 62
7
  6
CONTINUOUS
370
-3
390
F
  0
LAYER
  5
216
100
AcDbSymbolTableRecord
100
AcDbLayerTableRecord
  2
PART_REFERENCE_DIMENSIONS
 70
0
 62
7
  6
CONTINUOUS
370
-3
390
F
  0
LAYER
  5
217
100
AcDbSymbolTableRecord
100
AcDbLayerTableRecord
  2
PLATED_SURFACE_AREA
 70
0
 62
7
  6
CONTINUOUS
370
-3
390
F
  0
LAYER
  5
218
100
AcDbSymbolTableRecord
100
AcDbLayerTableRecord
  2
POINTS
 70
0
 62
7
  6
CONTINUOUS
370
-3
390
F
  0
LAYER
  5
219
100
AcDbSymbolTableRecord
100
AcDbLayerTableRecord
  2
PROTRUSION
 70
0
 62
7
  6
CONTINUOUS
370
-3
390
F
  0
LAYER
  5
21A
100
AcDbSymbolTableRecord
100
AcDbLayerTableRecord
  2
PROTRUSION_FEATURES
 70
0
 62
7
  6
CONTINUOUS
370
-3
390
F
  0
LAYER
  5
21B
100
AcDbSymbolTableRecord
100
AcDbLayerTableRecord
  2
QUILT
 70
0
 62
7
  6
CONTINUOUS
370
-3
390
F
  0
LAYER
  5
21C
100
AcDbSymbolTableRecord
100
AcDbLayerTableRecord
  2
REFERENCE_DIMENSIONS
 70
0
 62
7
  6
CONTINUOUS
370
-3
390
F
  0
LAYER
  5
21D
100
AcDbSymbolTableRecord
100
AcDbLayerTableRecord
  2
ROUND_FEATURES
 70
0
 62
7
  6
CONTINUOUS
370
-3
390
F
  0
LAYER
  5
21E
100
AcDbSymbolTableRecord
100
AcDbLayerTableRecord
  2
WETTED_SURFACES
 70
0
 62
7
  6
CONTINUOUS
370
-3
390
F
  0
LAYER
  5
21F
100
AcDbSymbolTableRecord
100
AcDbLayerTableRecord
  2
XSEC_DATUMS
 70
0
 62
7
  6
CONTINUOUS
370
-3
390
F
  0
ENDTAB
  0
TABLE
  2
STYLE
  5
3
100
AcDbSymbolTable
 70
1
  0
STYLE
  5
11
100
AcDbSymbolTableRecord
100
AcDbTextStyleTableRecord
  2
STANDARD
 70
0
 40
0.0
 41
0.8
 50
0.0
 71
0
 42
0.2
  3
txt
  4

  0
STYLE
  5
220
100
AcDbSymbolTableRecord
100
AcDbTextStyleTableRecord
  2
TEXTSTYLE_1
 70
0
 40
0.0
 41
0.8
 50
0.0
 71
0
 42
0.2
  3
gdt
  4

  0
ENDTAB
  0
TABLE
  2
VIEW
  5
6
100
AcDbSymbolTable
 70
0
  0
ENDTAB
  0
TABLE
  2
UCS
  5
7
100
AcDbSymbolTable
 70
0
  0
ENDTAB
  0
TABLE
  2
APPID
  5
9
100
AcDbSymbolTable
 70
1
  0
APPID
  5
221
100
AcDbSymbolTableRecord
100
AcDbRegAppTableRecord
  2
ACAD
 70
0
  0
ENDTAB
  0
TABLE
  2
BLOCK_RECORD
  5
1
100
AcDbSymbolTable
 70
0
  0
BLOCK_RECORD
  5
222
100
AcDbSymbolTableRecord
100
AcDbBlockTableRecord
  2
*Model_Space
  0
BLOCK_RECORD
  5
223
100
AcDbSymbolTableRecord
100
AcDbBlockTableRecord
  2
*Paper_Space
  0
BLOCK_RECORD
  5
224
100
AcDbSymbolTableRecord
100
AcDbBlockTableRecord
  2
_FILLED
  0
ENDTAB
  0
TABLE
  2
DIMSTYLE
  5
A
100
AcDbSymbolTable
 70
1
100
AcDbDimStyleTable
 71
0
  0
DIMSTYLE
105
225
100
AcDbSymbolTableRecord
100
AcDbDimStyleTableRecord
  2
STANDARD
 70
0
  3

  4

 40
1.0
 41
0.1
 42
0.0625
 43
0.38
 44
0.125
 45
0.0
 46
0.0
 47
0.001
 48
0.001
140
0.08
141
0.09
142
0.0
143
25.4
144
1.0
145
0.0
146
1.0
147
0.09
 71
1.0
 72
0.0
 73
1
 74
1
 75
0
 76
0
 77
0
 78
4
 79
1
170
1
171
2
172
0
173
0
174
0
175
0
176
0
177
0
178
0
270
2
179
3
271
3
272
3
273
2
274
2
275
0
280
0
281
0
282
0
283
1
284
4
285
0
286
0
287
3
288
0
340
11
278
46
341
224
342
224
343
224
344
224
  0
ENDTAB
  0
ENDSEC
  0
SECTION
  2
BLOCKS
  0
BLOCK
  5
20
100
AcDbEntity
  8
0
100
AcDbBlockBegin
  2
*Model_Space
 70
0
 10
0.0
 20
0.0
 30
0.0
  3
*Model_Space
  1

  0
ENDBLK
  5
21
100
AcDbEntity
  8
0
100
AcDbBlockEnd
  0
BLOCK
  5
1C
100
AcDbEntity
  8
0
100
AcDbBlockBegin
  2
*Paper_Space
 70
0
 10
0.0
 20
0.0
 30
0.0
  3
*Paper_Space
  1

  0
ENDBLK
  5
1D
100
AcDbEntity
  8
0
100
AcDbBlockEnd
  0
BLOCK
  5
226
100
AcDbEntity
  8
0
100
AcDbBlockBegin
  2
_FILLED
 70
64
 10
0.0
 20
0.0
  3
_FILLED
  1

  0
SOLID
  5
227
100
AcDbEntity
  8
0
  6
BYBLOCK
 62
0
100
AcDbTrace
 10
0.0
 20
0.0
 11
-1.0
 21
0.2
 12
-1.0
 22
-0.2
 13
-1.0
 23
-0.2
  0
ENDBLK
  5
228
100
AcDbEntity
  8
0
  6
BYBLOCK
 62
0
100
AcDbBlockEnd
  0
ENDSEC
  0
SECTION
  2
ENTITIES
  0
MTEXT
  5
229
100
AcDbEntity
  8
0
100
AcDbMText
 62
2
  6
CONTINUOUS
  7
STANDARD
 71
3
 72
1
 10
4.3412849379
 20
2.7499728261
 30
0.0
 11
1.0
 21
0.0
 31
0.0
 73
2
 44
0.9
  1
SCALE  .500
 40
0.08
 41
0.704
  0
LINE
  5
22A
100
AcDbEntity
  8
0
100
AcDbLine
 62
7
  6
CONTINUOUS
 10
0.0
 20
0.0
 11
0.0
 21
8.5
  0
LINE
  5
22B
100
AcDbEntity
  8
0
100
AcDbLine
 62
7
  6
CONTINUOUS
 10
0.0
 20
0.0
 11
11.0
 21
0.0
  0
LINE
  5
22C
100
AcDbEntity
  8
0
100
AcDbLine
 62
7
  6
CONTINUOUS
 10
0.0
 20
8.5
 11
11.0
 21
8.5
  0
LINE
  5
22D
100
AcDbEntity
  8
0
100
AcDbLine
 62
7
  6
CONTINUOUS
 10
11.0
 20
0.0
 11
11.0
 21
8.5
  0
LINE
  5
22E
100
AcDbEntity
  8
0
100
AcDbLine
 62
7
  6
CONTINUOUS
 10
5.0717810225
 20
2.8999728261
 11
5.0684897558
 21
2.8999728261
  0
LINE
  5
22F
100
AcDbEntity
  8
0
100
AcDbLine
 62
7
  6
CONTINUOUS
 10
3.4137281227
 20
4.1649728261
 11
3.4137281227
 21
4.8999728261
  0
LINE
  5
230
100
AcDbEntity
  8
0
100
AcDbLine
 62
7
  6
CONTINUOUS
 10
3.4287281227
 20
4.1499728261
 11
3.4287281227
 21
4.9149728261
  0
LINE
  5
231
100
AcDbEntity
  8
02___PRT_ALL_AXES
100
AcDbLine
 62
7
  6
CONTINUOUS
 10
3.4587281227
 20
4.9149728261
 11
3.4587281227
 21
4.1499728261
  0
LINE
  5
232
100
AcDbEntity
  8
0
100
AcDbLine
 62
7
  6
CONTINUOUS
 10
3.4737281227
 20
4.1499728261
 11
3.4737281227
 21
4.9149728261
  0
LINE
  5
233
100
AcDbEntity
  8
0
100
AcDbLine
 62
7
  6
CONTINUOUS
 10
3.5037281227
 20
4.9149728261
 11
3.5037281227
 21
4.1499728261
  0
LINE
  5
234
100
AcDbEntity
  8
ALL_FEATURES
100
AcDbLine
 62
7
  6
CONTINUOUS
 10
4.8974813933
 20
3.8118253681
 11
4.8972392564
 21
3.8117942164
  0
LINE
  5
235
100
AcDbEntity
  8
0
100
AcDbLine
 62
7
  6
CONTINUOUS
 10
4.9280627684
 20
3.7012228261
 11
4.9180596842
 21
3.7012228261
  0
LINE
  5
236
100
AcDbEntity
  8
0
100
AcDbLine
 62
7
  6
CONTINUOUS
 10
3.6137281227
 20
4.9149728261
 11
3.6137281227
 21
4.1499728261
  0
LINE
  5
237
100
AcDbEntity
  8
0
100
AcDbLine
 62
7
  6
CONTINUOUS
 10
3.6437281227
 20
4.1499728261
 11
3.6437281227
 21
4.9149728261
  0
LINE
  5
238
100
AcDbEntity
  8
0
100
AcDbLine
 62
7
  6
CONTINUOUS
 10
3.6587281227
 20
4.1649728261
 11
3.6587281227
 21
4.8999728261
  0
LINE
  5
239
100
AcDbEntity
  8
0
100
AcDbLine
 62
7
  6
CONTINUOUS
 10
3.6948983737
 20
4.7066149617
 11
3.6948983737
 21
4.3583306905
  0
LINE
  5
23A
100
AcDbEntity
  8
ALL_FEATURES
100
AcDbLine
 62
7
  6
CONTINUOUS
 10
4.8929724425
 20
3.8503664964
 11
4.8929061575
 21
3.8503579686
  0
LINE
  5
23B
100
AcDbEntity
  8
ALL_FEATURES
100
AcDbLine
 62
7
  6
CONTINUOUS
 10
4.8879132786
 20
3.8900223289
 11
4.887842968
 21
3.8900132832
  0
LINE
  5
23C
100
AcDbEntity
  8
ALL_FEATURES
100
AcDbLine
 62
7
  6
CONTINUOUS
 10
4.8866862202
 20
3.9011266365
 11
4.8866061494
 21
3.9011163352
  0
LINE
  5
23D
100
AcDbEntity
  8
ALL_FEATURES
100
AcDbLine
 62
7
  6
CONTINUOUS
 10
4.8835812089
 20
3.9195256712
 11
4.8843183525
 21
3.919620507
  0
LINE
  5
23E
100
AcDbEntity
  8
ALL_FEATURES
100
AcDbLine
 62
7
  6
CONTINUOUS
 10
4.8829756566
 20
3.9226655276
 11
4.8839159008
 21
3.9227864929
  0
LINE
  5
23F
100
AcDbEntity
  8
ALL_FEATURES
100
AcDbLine
 62
7
  6
CONTINUOUS
 10
4.8833586325
 20
3.9271180519
 11
4.8824184035
 21
3.9269970886
  0
LINE
  5
240
100
AcDbEntity
  8
0
100
AcDbLine
 62
7
  6
CONTINUOUS
 10
3.8929407887
 20
4.709243881
 11
3.8929407887
 21
4.3557017712
  0
LINE
  5
241
100
AcDbEntity
  8
0
100
AcDbLine
 62
7
  6
CONTINUOUS
 10
3.9387281227
 20
4.0974728261
 11
3.9387281227
 21
4.9674728261
  0
LINE
  5
242
100
AcDbEntity
  8
0
100
AcDbLine
 62
7
  6
CONTINUOUS
 10
3.9537281227
 20
4.0824728261
 11
3.9537281227
 21
4.9824728261
  0
LINE
  5
243
100
AcDbEntity
  8
0
100
AcDbLine
 62
7
  6
CONTINUOUS
 10
3.9647281227
 20
4.9824728261
 11
3.9647281227
 21
4.0824728261
  0
LINE
  5
244
100
AcDbEntity
  8
ALL_FEATURES
100
AcDbLine
 62
7
  6
CONTINUOUS
 10
4.8954922926
 20
4.072103281
 11
4.8973039512
 21
4.0722369676
  0
LINE
  5
245
100
AcDbEntity
  8
ALL_FEATURES
100
AcDbLine
 62
7
  6
CONTINUOUS
 10
4.8881378106
 20
4.1009415441
 11
4.8925515478
 21
4.1012672442
  0
LINE
  5
246
100
AcDbEntity
  8
ALL_FEATURES
100
AcDbLine
 62
7
  6
CONTINUOUS
 10
4.8951538266
 20
4.102624216
 11
4.8960477097
 21
4.1026901777
  0
LINE
  5
247
100
AcDbEntity
  8
ALL_FEATURES
100
AcDbLine
 62
7
  6
CONTINUOUS
 10
4.8891808908
 20
4.11112821
 11
4.8938463297
 21
4.1114724838
  0
LINE
  5
248
100
AcDbEntity
  8
ALL_FEATURES
100
AcDbLine
 62
7
  6
CONTINUOUS
 10
4.8898261062
 20
4.1119427652
 11
4.893662261
 21
4.1122258441
  0
LINE
  5
249
100
AcDbEntity
  8
ALL_FEATURES
100
AcDbLine
 62
7
  6
CONTINUOUS
 10
4.893383523
 20
4.116003172
 11
4.89424753
 21
4.1160669291
  0
LINE
  5
24A
100
AcDbEntity
  8
ALL_FEATURES
100
AcDbLine
 62
7
  6
CONTINUOUS
 10
4.8839669973
 20
4.1300126129
 11
4.8845758607
 21
4.1300575424
  0
LINE
  5
24B
100
AcDbEntity
  8
ALL_FEATURES
100
AcDbLine
 62
7
  6
CONTINUOUS
 10
4.8951093253
 20
4.1476142447
 11
4.8971041821
 21
4.1477614499
  0
LINE
  5
24C
100
AcDbEntity
  8
ALL_FEATURES
100
AcDbLine
 62
7
  6
CONTINUOUS
 10
4.8820223872
 20
4.1650254579
 11
4.8844053365
 21
4.1652013014
  0
LINE
  5
24D
100
AcDbEntity
  8
ALL_FEATURES
100
AcDbLine
 62
7
  6
CONTINUOUS
 10
4.8953541662
 20
4.1755639388
 11
4.897728843
 21
4.1757391718
  0
LINE
  5
24E
100
AcDbEntity
  8
ALL_FEATURES
100
AcDbLine
 62
7
  6
CONTINUOUS
 10
4.8823322159
 20
4.1766950336
 11
4.8837113115
 21
4.1767968004
  0
LINE
  5
24F
100
AcDbEntity
  8
ALL_FEATURES
100
AcDbLine
 62
7
  6
CONTINUOUS
 10
4.8951723451
 20
4.1883192821
 11
4.8962154579
 21
4.1883962559
  0
LINE
  5
250
100
AcDbEntity
  8
0
100
AcDbLine
 62
7
  6
CONTINUOUS
 10
4.6937281227
 20
4.0399728261
 11
4.507894912
 21
4.0399728261
  0
LINE
  5
251
100
AcDbEntity
  8
ALL_FEATURES
100
AcDbLine
 62
7
  6
CONTINUOUS
 10
4.6937281227
 20
4.0399728261
 11
4.8720627684
 21
4.0399728261
  0
LINE
  5
252
100
AcDbEntity
  8
0
100
AcDbLine
 62
7
  6
CONTINUOUS
 10
4.0337281227
 20
4.0824728261
 11
4.0227281227
 21
4.0824728261
  0
LINE
  5
253
100
AcDbEntity
  8
0
100
AcDbLine
 62
7
  6
CONTINUOUS
 10
3.9647281227
 20
4.0824728261
 11
3.9537281227
 21
4.0824728261
  0
LINE
  5
254
100
AcDbEntity
  8
0
100
AcDbLine
 62
7
  6
CONTINUOUS
 10
4.4187671948
 20
4.1174728261
 11
4.2624781227
 21
4.1174728261
  0
LINE
  5
255
100
AcDbEntity
  8
0
100
AcDbLine
 62
7
  6
CONTINUOUS
 10
4.1609781227
 20
4.1174728261
 11
4.0487281227
 21
4.1174728261
  0
LINE
  5
256
100
AcDbEntity
  8
0
100
AcDbLine
 62
7
  6
CONTINUOUS
 10
3.6437281227
 20
4.1499728261
 11
3.6137281227
 21
4.1499728261
  0
LINE
  5
257
100
AcDbEntity
  8
0
100
AcDbLine
 62
7
  6
CONTINUOUS
 10
3.5037281227
 20
4.1499728261
 11
3.4737281227
 21
4.1499728261
  0
LINE
  5
258
100
AcDbEntity
  8
0
100
AcDbLine
 62
7
  6
CONTINUOUS
 10
3.4587281227
 20
4.1499728261
 11
3.4287281227
 21
4.1499728261
  0
LINE
  5
259
100
AcDbEntity
  8
0
100
AcDbLine
 62
7
  6
CONTINUOUS
 10
4.0227281227
 20
4.9824728261
 11
4.0227281227
 21
4.0824728261
  0
LINE
  5
25A
100
AcDbEntity
  8
0
100
AcDbLine
 62
7
  6
CONTINUOUS
 10
4.0337281227
 20
4.0824728261
 11
4.0337281227
 21
4.9824728261
  0
LINE
  5
25B
100
AcDbEntity
  8
0
100
AcDbLine
 62
7
  6
CONTINUOUS
 10
4.0487281227
 20
4.0974728261
 11
4.0487281227
 21
4.9674728261
  0
LINE
  5
25C
100
AcDbEntity
  8
ALL_FEATURES
100
AcDbLine
 62
7
  6
CONTINUOUS
 10
4.8823897309
 20
4.2228743673
 11
4.8839318356
 21
4.2229881628
  0
LINE
  5
25D
100
AcDbEntity
  8
0
100
AcDbLine
 62
7
  6
CONTINUOUS
 10
3.5180015485
 20
4.2496301136
 11
3.5994546969
 21
4.2496301136
  0
LINE
  5
25E
100
AcDbEntity
  8
0
100
AcDbLine
 62
7
  6
CONTINUOUS
 10
3.5180015485
 20
4.2787155124
 11
3.5994546969
 21
4.2787155124
  0
LINE
  5
25F
100
AcDbEntity
  8
0
100
AcDbLine
 62
7
  6
CONTINUOUS
 10
4.1037281227
 20
4.9439170692
 11
4.1037281227
 21
5.1242560942
  0
LINE
  5
260
100
AcDbEntity
  8
ALL_FEATURES
100
AcDbLine
 62
7
  6
CONTINUOUS
 10
4.8853744543
 20
4.4171905666
 11
4.8903296487
 21
4.4173012675
  0
LINE
  5
261
100
AcDbEntity
  8
0
100
AcDbLine
 62
7
  6
CONTINUOUS
 10
3.5180015485
 20
4.3102447329
 11
3.5994546969
 21
4.3102447329
  0
LINE
  5
262
100
AcDbEntity
  8
0
100
AcDbLine
 62
7
  6
CONTINUOUS
 10
3.5180015485
 20
4.3439141314
 11
3.5994546969
 21
4.3439141314
  0
LINE
  5
263
100
AcDbEntity
  8
0
100
AcDbLine
 62
7
  6
CONTINUOUS
 10
3.5180015485
 20
4.3793994531
 11
3.5994546969
 21
4.3793994531
  0
LINE
  5
264
100
AcDbEntity
  8
0
100
AcDbLine
 62
7
  6
CONTINUOUS
 10
3.5180015485
 20
4.4163589552
 11
3.5994546969
 21
4.4163589552
  0
LINE
  5
265
100
AcDbEntity
  8
ALL_FEATURES
100
AcDbLine
 62
7
  6
CONTINUOUS
 10
4.2337281227
 20
4.9439170755
 11
4.2337281227
 21
5.1242560942
  0
LINE
  5
266
100
AcDbEntity
  8
0
100
AcDbLine
 62
7
  6
CONTINUOUS
 10
3.5180015485
 20
4.4544366973
 11
3.5994546969
 21
4.4544366973
  0
LINE
  5
267
100
AcDbEntity
  8
0
100
AcDbLine
 62
7
  6
CONTINUOUS
 10
3.5180015485
 20
4.49326597
 11
3.5994546969
 21
4.49326597
  0
LINE
  5
268
100
AcDbEntity
  8
0
100
AcDbLine
 62
7
  6
CONTINUOUS
 10
3.5180015485
 20
4.5324728261
 11
3.5994546969
 21
4.5324728261
  0
LINE
  5
269
100
AcDbEntity
  8
0
100
AcDbLine
 62
7
  6
CONTINUOUS
 10
4.4187671948
 20
4.9474728261
 11
4.4187671948
 21
4.1174728261
  0
LINE
  5
26A
100
AcDbEntity
  8
0
100
AcDbLine
 62
7
  6
CONTINUOUS
 10
3.5180015485
 20
4.5716796822
 11
3.5994546969
 21
4.5716796822
  0
LINE
  5
26B
100
AcDbEntity
  8
0
100
AcDbLine
 62
7
  6
CONTINUOUS
 10
3.5180015485
 20
4.6105089549
 11
3.5994546969
 21
4.6105089549
  0
LINE
  5
26C
100
AcDbEntity
  8
0
100
AcDbLine
 62
7
  6
CONTINUOUS
 10
3.5180015485
 20
4.648586697
 11
3.5994546969
 21
4.648586697
  0
LINE
  5
26D
100
AcDbEntity
  8
ALL_FEATURES
100
AcDbLine
 62
7
  6
CONTINUOUS
 10
4.8839669973
 20
4.632567191
 11
4.8885435022
 21
4.6324148032
  0
LINE
  5
26E
100
AcDbEntity
  8
ALL_FEATURES
100
AcDbLine
 62
7
  6
CONTINUOUS
 10
4.8857453683
 20
4.6373622544
 11
4.8903450303
 21
4.6372090955
  0
LINE
  5
26F
100
AcDbEntity
  8
ALL_FEATURES
100
AcDbLine
 62
7
  6
CONTINUOUS
 10
4.8868887205
 20
4.6385560877
 11
4.8907940234
 21
4.6384260495
  0
LINE
  5
270
100
AcDbEntity
  8
ALL_FEATURES
100
AcDbLine
 62
7
  6
CONTINUOUS
 10
4.8954922926
 20
4.6477056016
 11
4.8976306508
 21
4.6476343988
  0
LINE
  5
271
100
AcDbEntity
  8
ALL_FEATURES
100
AcDbLine
 62
7
  6
CONTINUOUS
 10
4.8898261062
 20
4.654880304
 11
4.8924018548
 21
4.6547945371
  0
LINE
  5
272
100
AcDbEntity
  8
ALL_FEATURES
100
AcDbLine
 62
7
  6
CONTINUOUS
 10
4.8820223872
 20
4.6619717367
 11
4.8834134285
 21
4.661925418
  0
LINE
  5
273
100
AcDbEntity
  8
0
100
AcDbLine
 62
7
  6
CONTINUOUS
 10
4.4979918323
 20
5.016361715
 11
4.4979918323
 21
4.0485839372
  0
LINE
  5
274
100
AcDbEntity
  8
0
100
AcDbLine
 62
7
  6
CONTINUOUS
 10
4.507894912
 20
5.0249728261
 11
4.507894912
 21
4.0399728261
  0
LINE
  5
275
100
AcDbEntity
  8
0
100
AcDbLine
 62
7
  6
CONTINUOUS
 10
3.5180015485
 20
4.685546199
 11
3.5994546969
 21
4.685546199
  0
LINE
  5
276
100
AcDbEntity
  8
0
100
AcDbLine
 62
7
  6
CONTINUOUS
 10
3.5180015485
 20
4.7210315208
 11
3.5994546969
 21
4.7210315208
  0
LINE
  5
277
100
AcDbEntity
  8
0
100
AcDbLine
 62
7
  6
CONTINUOUS
 10
3.5180015485
 20
4.7547009193
 11
3.5994546969
 21
4.7547009193
  0
LINE
  5
278
100
AcDbEntity
  8
0
100
AcDbLine
 62
7
  6
CONTINUOUS
 10
3.5180015485
 20
4.7862301398
 11
3.5994546969
 21
4.7862301398
  0
LINE
  5
279
100
AcDbEntity
  8
ALL_FEATURES
100
AcDbLine
 62
7
  6
CONTINUOUS
 10
4.8823322159
 20
4.6784665471
 11
4.8842850887
 21
4.6784015206
  0
LINE
  5
27A
100
AcDbEntity
  8
ALL_FEATURES
100
AcDbLine
 62
7
  6
CONTINUOUS
 10
4.8951538266
 20
4.6837359291
 11
4.8971173312
 21
4.6836705486
  0
LINE
  5
27B
100
AcDbEntity
  8
ALL_FEATURES
100
AcDbLine
 62
7
  6
CONTINUOUS
 10
4.893383523
 20
4.6868966136
 11
4.8970154308
 21
4.6867756788
  0
LINE
  5
27C
100
AcDbEntity
  8
ALL_FEATURES
100
AcDbLine
 62
7
  6
CONTINUOUS
 10
4.8830878476
 20
4.7065608707
 11
4.8868590751
 21
4.7064352968
  0
LINE
  5
27D
100
AcDbEntity
  8
ALL_FEATURES
100
AcDbLine
 62
7
  6
CONTINUOUS
 10
4.884371822
 20
4.7141953254
 11
4.8880733373
 21
4.7140720729
  0
LINE
  5
27E
100
AcDbEntity
  8
ALL_FEATURES
100
AcDbLine
 62
7
  6
CONTINUOUS
 10
4.8851300764
 20
4.7150171562
 11
4.888101512
 21
4.7149182138
  0
LINE
  5
27F
100
AcDbEntity
  8
ALL_FEATURES
100
AcDbLine
 62
7
  6
CONTINUOUS
 10
4.8872424672
 20
4.7265143462
 11
4.8895892008
 21
4.726436205
  0
LINE
  5
280
100
AcDbEntity
  8
ALL_FEATURES
100
AcDbLine
 62
7
  6
CONTINUOUS
 10
4.8821361199
 20
4.7294631323
 11
4.8829465966
 21
4.7294361452
  0
LINE
  5
281
100
AcDbEntity
  8
ALL_FEATURES
100
AcDbLine
 62
7
  6
CONTINUOUS
 10
4.8933583823
 20
4.7353237415
 11
4.8963744017
 21
4.7352233145
  0
LINE
  5
282
100
AcDbEntity
  8
ALL_FEATURES
100
AcDbLine
 62
7
  6
CONTINUOUS
 10
4.8942364116
 20
4.7362413121
 11
4.8964058934
 21
4.736169073
  0
LINE
  5
283
100
AcDbEntity
  8
ALL_FEATURES
100
AcDbLine
 62
7
  6
CONTINUOUS
 10
4.8905388589
 20
4.7376985074
 11
4.8927723367
 21
4.7376241374
  0
LINE
  5
284
100
AcDbEntity
  8
ALL_FEATURES
100
AcDbLine
 62
7
  6
CONTINUOUS
 10
4.8958888498
 20
4.7444661276
 11
4.8969873312
 21
4.7444295505
  0
LINE
  5
285
100
AcDbEntity
  8
ALL_FEATURES
100
AcDbLine
 62
7
  6
CONTINUOUS
 10
4.8892651895
 20
4.7482180547
 11
4.8912646097
 21
4.7481514782
  0
LINE
  5
286
100
AcDbEntity
  8
ALL_FEATURES
100
AcDbLine
 62
7
  6
CONTINUOUS
 10
4.8834569983
 20
4.7552793975
 11
4.8854356108
 21
4.7552135139
  0
LINE
  5
287
100
AcDbEntity
  8
ALL_FEATURES
100
AcDbLine
 62
7
  6
CONTINUOUS
 10
4.8899218619
 20
4.7552644316
 11
4.8920410224
 21
4.7551938681
  0
LINE
  5
288
100
AcDbEntity
  8
ALL_FEATURES
100
AcDbLine
 62
7
  6
CONTINUOUS
 10
4.8896936718
 20
4.7581556441
 11
4.8870124773
 21
4.7582449222
  0
LINE
  5
289
100
AcDbEntity
  8
ALL_FEATURES
100
AcDbLine
 62
7
  6
CONTINUOUS
 10
4.896605683
 20
4.758634039
 11
4.8973537917
 21
4.7586091286
  0
LINE
  5
28A
100
AcDbEntity
  8
ALL_FEATURES
100
AcDbLine
 62
7
  6
CONTINUOUS
 10
4.8960974987
 20
4.7697917918
 11
4.8973271952
 21
4.7697508456
  0
LINE
  5
28B
100
AcDbEntity
  8
ALL_FEATURES
100
AcDbLine
 62
7
  6
CONTINUOUS
 10
4.8862406629
 20
4.770391792
 11
4.888351939
 21
4.770321491
  0
LINE
  5
28C
100
AcDbEntity
  8
ALL_FEATURES
100
AcDbLine
 62
7
  6
CONTINUOUS
 10
4.8972451416
 20
4.7723753659
 11
4.8951888985
 21
4.7724438344
  0
LINE
  5
28D
100
AcDbEntity
  8
ALL_FEATURES
100
AcDbLine
 62
7
  6
CONTINUOUS
 10
4.8923166973
 20
4.7767946911
 11
4.8968060775
 21
4.7766452043
  0
LINE
  5
28E
100
AcDbEntity
  8
ALL_FEATURES
100
AcDbLine
 62
7
  6
CONTINUOUS
 10
4.8941010683
 20
4.7837148362
 11
4.8958821528
 21
4.7836555299
  0
LINE
  5
28F
100
AcDbEntity
  8
ALL_FEATURES
100
AcDbLine
 62
7
  6
CONTINUOUS
 10
4.6937281227
 20
5.0249728261
 11
4.6937281227
 21
4.0399728261
  0
LINE
  5
290
100
AcDbEntity
  8
02___PRT_ALL_AXES
100
AcDbLine
 62
7
  6
CONTINUOUS
 10
4.6937281227
 20
5.0249728261
 11
4.6937281227
 21
4.0399728261
  0
LINE
  5
291
100
AcDbEntity
  8
0
100
AcDbLine
 62
7
  6
CONTINUOUS
 10
3.5994546969
 20
4.8153155386
 11
3.5180015485
 21
4.8153155386
  0
LINE
  5
292
100
AcDbEntity
  8
0
100
AcDbLine
 62
7
  6
CONTINUOUS
 10
3.6437281227
 20
4.9149728261
 11
3.6137281227
 21
4.9149728261
  0
LINE
  5
293
100
AcDbEntity
  8
0
100
AcDbLine
 62
7
  6
CONTINUOUS
 10
3.5037281227
 20
4.9149728261
 11
3.4737281227
 21
4.9149728261
  0
LINE
  5
294
100
AcDbEntity
  8
0
100
AcDbLine
 62
7
  6
CONTINUOUS
 10
3.4587281227
 20
4.9149728261
 11
3.4287281227
 21
4.9149728261
  0
LINE
  5
295
100
AcDbEntity
  8
0
100
AcDbLine
 62
7
  6
CONTINUOUS
 10
4.0905590656
 20
4.946372894
 11
4.0877847872
 21
4.946946477
  0
LINE
  5
296
100
AcDbEntity
  8
0
100
AcDbLine
 62
7
  6
CONTINUOUS
 10
4.0877847872
 20
4.946946477
 11
4.0868761305
 21
4.9471386422
  0
LINE
  5
297
100
AcDbEntity
  8
0
100
AcDbLine
 62
7
  6
CONTINUOUS
 10
4.0856248257
 20
4.9470590972
 11
4.0837281217
 21
4.9474728268
  0
LINE
  5
298
100
AcDbEntity
  8
ALL_FEATURES
100
AcDbLine
 62
7
  6
CONTINUOUS
 10
4.886962659
 20
4.4150467997
 11
4.8853744543
 21
4.4171905666
  0
LINE
  5
299
100
AcDbEntity
  8
ALL_FEATURES
100
AcDbLine
 62
7
  6
CONTINUOUS
 10
4.8903296487
 20
4.4173012675
 11
4.894940749
 21
4.4110774812
  0
LINE
  5
29A
100
AcDbEntity
  8
ALL_FEATURES
100
AcDbLine
 62
7
  6
CONTINUOUS
 10
4.8720627684
 20
5.0574728261
 11
4.8720627684
 21
4.0074728261
  0
LINE
  5
29B
100
AcDbEntity
  8
0
100
AcDbLine
 62
7
  6
CONTINUOUS
 10
4.9106209927
 20
5.3571798365
 11
4.8972365913
 21
5.2531449904
  0
LINE
  5
29C
100
AcDbEntity
  8
ALL_FEATURES
100
AcDbLine
 62
7
  6
CONTINUOUS
 10
4.881947322
 20
5.1343039062
 11
4.8720627684
 21
5.0574728261
  0
LINE
  5
29D
100
AcDbEntity
  8
ALL_FEATURES
100
AcDbLine
 62
7
  6
CONTINUOUS
 10
4.8827389299
 20
5.1401922651
 11
4.881947322
 21
5.1343039062
  0
LINE
  5
29E
100
AcDbEntity
  8
ALL_FEATURES
100
AcDbLine
 62
7
  6
CONTINUOUS
 10
4.8821572734
 20
5.1358620831
 11
4.8820857784
 21
5.1353324941
  0
LINE
  5
29F
100
AcDbEntity
  8
ALL_FEATURES
100
AcDbLine
 62
7
  6
CONTINUOUS
 10
4.8917429383
 20
5.0558239923
 11
4.8949441423
 21
5.0748858404
  0
LINE
  5
2A0
100
AcDbEntity
  8
0
100
AcDbLine
 62
7
  6
CONTINUOUS
 10
4.2537281227
 20
4.9474728261
 11
4.2503583696
 21
4.9467438145
  0
LINE
  5
2A1
100
AcDbEntity
  8
0
100
AcDbLine
 62
7
  6
CONTINUOUS
 10
4.2518302934
 20
4.947058854
 11
4.2503527736
 21
4.9467440151
  0
LINE
  5
2A2
100
AcDbEntity
  8
0
100
AcDbLine
 62
7
  6
CONTINUOUS
 10
4.2505800285
 20
4.9471386236
 11
4.2496718556
 21
4.9469465586
  0
LWPOLYLINE
  5
2A3
100
AcDbEntity
  8
0
100
AcDbPolyline
 62
7
  6
CONTINUOUS
 90
36
 70
0
 10
4.2496718556
 20
4.9469465586
 10
4.2468980753
 20
4.9463730773
 10
4.244834002
 20
4.9459590005
 10
4.2423317467
 20
4.9454709485
 10
4.23941067
 20
4.9449208752
 10
4.2360895774
 20
4.9443220328
 10
4.2323846869
 20
4.9436866946
 10
4.2283216664
 20
4.9430299145
 10
4.2239273687
 20
4.9423672184
 10
4.2192290311
 20
4.9417135841
 10
4.2142585646
 20
4.9410841282
 10
4.2090474021
 20
4.9404931256
 10
4.2036313476
 20
4.9399541761
 10
4.1980512964
 20
4.9394792775
 10
4.1923366213
 20
4.9390779139
 10
4.1865120127
 20
4.9387578288
 10
4.1806196124
 20
4.9385253643
 10
4.1746874598
 20
4.9383845195
 10
4.1687210226
 20
4.9383373662
 10
4.1627545676
 20
4.938384745
 10
4.1568224235
 20
4.9385258141
 10
4.1509301476
 20
4.9387584946
 10
4.1451056902
 20
4.9390787874
 10
4.1393912844
 20
4.9394803405
 10
4.1338119492
 20
4.939955373
 10
4.1283971764
 20
4.9404943695
 10
4.1231876328
 20
4.9410853361
 10
4.1182189087
 20
4.9417146894
 10
4.113522397
 20
4.9423681591
 10
4.1091299317
 20
4.9430306414
 10
4.1050685418
 20
4.9436871977
 10
4.1013650785
 20
4.944322313
 10
4.0980451627
 20
4.9449209518
 10
4.0951248503
 20
4.9454708811
 10
4.0926230072
 20
4.9459588492
 10
4.0905590656
 20
4.946372894
  0
LINE
  5
2A4
100
AcDbEntity
  8
0
100
AcDbLine
 62
7
  6
CONTINUOUS
 10
4.8387378435
 20
5.024972826
 11
4.8383618421
 21
5.0249655246
  0
LINE
  5
2A5
100
AcDbEntity
  8
0
100
AcDbLine
 62
7
  6
CONTINUOUS
 10
4.8383669825
 20
5.0249656422
 11
4.8387378435
 21
5.024972826
  0
LINE
  5
2A6
100
AcDbEntity
  8
0
100
AcDbLine
 62
7
  6
CONTINUOUS
 10
4.4187671948
 20
4.9474728261
 11
4.2537281227
 21
4.9474728261
  0
LINE
  5
2A7
100
AcDbEntity
  8
0
100
AcDbLine
 62
7
  6
CONTINUOUS
 10
4.0837281227
 20
4.9474728261
 11
4.0487281227
 21
4.9474728261
  0
LINE
  5
2A8
100
AcDbEntity
  8
0
100
AcDbLine
 62
7
  6
CONTINUOUS
 10
4.0337281227
 20
4.9824728261
 11
4.0227281227
 21
4.9824728261
  0
LINE
  5
2A9
100
AcDbEntity
  8
0
100
AcDbLine
 62
7
  6
CONTINUOUS
 10
3.9647281227
 20
4.9824728261
 11
3.9537281227
 21
4.9824728261
  0
LINE
  5
2AA
100
AcDbEntity
  8
0
100
AcDbLine
 62
7
  6
CONTINUOUS
 10
4.8287281227
 20
5.0248713032
 11
4.7487281227
 21
5.0248713032
  0
LINE
  5
2AB
100
AcDbEntity
  8
0
100
AcDbLine
 62
7
  6
CONTINUOUS
 10
4.6937281227
 20
5.0249728261
 11
4.507894912
 21
5.0249728261
  0
LINE
  5
2AC
100
AcDbEntity
  8
ALL_FEATURES
100
AcDbLine
 62
7
  6
CONTINUOUS
 10
4.6937281227
 20
5.0249728261
 11
4.7387281227
 21
5.0249728261
  0
LINE
  5
2AD
100
AcDbEntity
  8
ALL_FEATURES
100
AcDbLine
 62
7
  6
CONTINUOUS
 10
4.8387281227
 20
5.0249728261
 11
4.8720627684
 21
5.0249728261
  0
LINE
  5
2AE
100
AcDbEntity
  8
0
100
AcDbLine
 62
7
  6
CONTINUOUS
 10
4.738718407
 20
5.0249728261
 11
4.7390880692
 21
5.0249656654
  0
LINE
  5
2AF
100
AcDbEntity
  8
ALL_FEATURES
100
AcDbLine
 62
7
  6
CONTINUOUS
 10
4.8853744543
 20
5.0179021166
 11
4.8867018291
 21
5.0177712985
  0
LINE
  5
2B0
100
AcDbEntity
  8
ALL_FEATURES
100
AcDbLine
 62
7
  6
CONTINUOUS
 10
4.8937025372
 20
4.1474016417
 11
4.8970055888
 21
4.1256164919
  0
LINE
  5
2B1
100
AcDbEntity
  8
ALL_FEATURES
100
AcDbLine
 62
7
  6
CONTINUOUS
 10
4.8890710442
 20
4.1781224828
 11
4.8937025372
 21
4.1474016417
  0
LINE
  5
2B2
100
AcDbEntity
  8
ALL_FEATURES
100
AcDbLine
 62
7
  6
CONTINUOUS
 10
4.8823897309
 20
4.2228743673
 11
4.8890710442
 21
4.1781224828
  0
LWPOLYLINE
  5
2B3
100
AcDbEntity
  8
ALL_FEATURES
100
AcDbPolyline
 62
7
  6
CONTINUOUS
 90
4
 70
0
 10
4.8823897309
 20
4.2228743673
 10
4.8846760929
 20
4.207497538
 10
4.8870223007
 20
4.1917875821
 10
4.88907171
 20
4.178122531
  0
LINE
  5
2B4
100
AcDbEntity
  8
ALL_FEATURES
100
AcDbLine
 62
7
  6
CONTINUOUS
 10
4.8905225019
 20
4.1783511138
 11
4.8951093253
 21
4.1476142447
  0
LINE
  5
2B5
100
AcDbEntity
  8
ALL_FEATURES
100
AcDbLine
 62
7
  6
CONTINUOUS
 10
4.8832088202
 20
3.920965018
 11
4.8829756566
 21
3.9226655276
  0
LINE
  5
2B6
100
AcDbEntity
  8
ALL_FEATURES
100
AcDbLine
 62
7
  6
CONTINUOUS
 10
4.883462888
 20
3.9190664021
 11
4.882995254
 21
3.9225253539
  0
LINE
  5
2B7
100
AcDbEntity
  8
ALL_FEATURES
100
AcDbLine
 62
7
  6
CONTINUOUS
 10
4.8942405564
 20
4.116118389
 11
4.897084679
 21
4.0950076145
  0
LINE
  5
2B8
100
AcDbEntity
  8
ALL_FEATURES
100
AcDbLine
 62
7
  6
CONTINUOUS
 10
4.8913730946
 20
4.1375392535
 11
4.8922999239
 21
4.1305996872
  0
LINE
  5
2B9
100
AcDbEntity
  8
0
100
AcDbLine
 62
7
  6
CONTINUOUS
 10
4.9106209927
 20
3.7077658157
 11
4.8972374504
 21
3.8117939841
  0
LINE
  5
2BA
100
AcDbEntity
  8
0
100
AcDbLine
 62
7
  6
CONTINUOUS
 10
4.882416254
 20
3.926996812
 11
4.8720627684
 21
4.0074728261
  0
LINE
  5
2BB
100
AcDbEntity
  8
ALL_FEATURES
100
AcDbLine
 62
7
  6
CONTINUOUS
 10
4.8966819989
 20
3.8161257777
 11
4.8972392564
 21
3.8117942164
  0
LINE
  5
2BC
100
AcDbEntity
  8
ALL_FEATURES
100
AcDbLine
 62
7
  6
CONTINUOUS
 10
4.8824184035
 20
3.9269970886
 11
4.8829756566
 21
3.9226655276
  0
LINE
  5
2BD
100
AcDbEntity
  8
ALL_FEATURES
100
AcDbLine
 62
7
  6
CONTINUOUS
 10
4.8854018989
 20
3.9040944898
 11
4.8943250785
 21
3.8347057384
  0
LINE
  5
2BE
100
AcDbEntity
  8
ALL_FEATURES
100
AcDbLine
 62
7
  6
CONTINUOUS
 10
4.8924181274
 20
3.8502952901
 11
4.8944192258
 21
3.8347178507
  0
LINE
  5
2BF
100
AcDbEntity
  8
ALL_FEATURES
100
AcDbLine
 62
7
  6
CONTINUOUS
 10
4.884286908
 20
3.9136043305
 11
4.8882501814
 21
3.8827440062
  0
LINE
  5
2C0
100
AcDbEntity
  8
ALL_FEATURES
100
AcDbLine
 62
7
  6
CONTINUOUS
 10
4.8966425774
 20
3.8164646369
 11
4.8962795182
 21
3.8194211313
  0
LINE
  5
2C1
100
AcDbEntity
  8
ALL_FEATURES
100
AcDbLine
 62
7
  6
CONTINUOUS
 10
4.8966819989
 20
3.8161257777
 11
4.8965955317
 21
3.8168595979
  0
LINE
  5
2C2
100
AcDbEntity
  8
ALL_FEATURES
100
AcDbLine
 62
7
  6
CONTINUOUS
 10
4.8954187006
 20
4.6537087474
 11
4.8954922926
 21
4.6477056016
  0
LINE
  5
2C3
100
AcDbEntity
  8
ALL_FEATURES
100
AcDbLine
 62
7
  6
CONTINUOUS
 10
4.8952390931
 20
4.0924451708
 11
4.8952920829
 21
4.0873576751
  0
LINE
  5
2C4
100
AcDbEntity
  8
ALL_FEATURES
100
AcDbLine
 62
7
  6
CONTINUOUS
 10
4.8951538266
 20
4.102624216
 11
4.8952390931
 21
4.0924451708
  0
LINE
  5
2C5
100
AcDbEntity
  8
ALL_FEATURES
100
AcDbLine
 62
7
  6
CONTINUOUS
 10
4.8903296487
 20
4.4228121281
 11
4.8903296487
 21
4.4173012675
  0
LINE
  5
2C6
100
AcDbEntity
  8
0
100
AcDbLine
 62
7
  6
CONTINUOUS
 10
4.9106209927
 20
3.7077658157
 11
4.9106209927
 21
5.3571798365
  0
LINE
  5
2C7
100
AcDbEntity
  8
0
100
AcDbLine
 62
7
  6
CONTINUOUS
 10
4.9180596842
 20
3.7012228261
 11
4.9180596842
 21
5.3637228261
  0
LINE
  5
2C8
100
AcDbEntity
  8
0
100
AcDbLine
 62
7
  6
CONTINUOUS
 10
4.9280627684
 20
5.3637228261
 11
4.9280627684
 21
3.7012228261
  0
LINE
  5
2C9
100
AcDbEntity
  8
0
100
AcDbLine
 62
7
  6
CONTINUOUS
 10
4.9355627684
 20
3.6899728261
 11
4.9355627684
 21
5.3749728261
  0
LINE
  5
2CA
100
AcDbEntity
  8
0
100
AcDbLine
 62
7
  6
CONTINUOUS
 10
4.9432834939
 20
3.6824760748
 11
4.9432916906
 21
5.3824693316
  0
LINE
  5
2CB
100
AcDbEntity
  8
0
100
AcDbLine
 62
7
  6
CONTINUOUS
 10
4.9510000829
 20
5.3894154046
 11
4.9509836781
 21
3.6755301043
  0
LINE
  5
2CC
100
AcDbEntity
  8
ALL_FEATURES
100
AcDbLine
 62
7
  6
CONTINUOUS
 10
4.8971387326
 20
4.1525029331
 11
4.8970734338
 21
4.1435417631
  0
LINE
  5
2CD
100
AcDbEntity
  8
ALL_FEATURES
100
AcDbLine
 62
7
  6
CONTINUOUS
 10
4.8953541662
 20
4.1755639388
 11
4.8952989423
 21
4.1709061376
  0
LINE
  5
2CE
100
AcDbEntity
  8
ALL_FEATURES
100
AcDbLine
 62
7
  6
CONTINUOUS
 10
4.1037281227
 20
5.1242560942
 11
4.2337281227
 21
5.1242560942
  0
LINE
  5
2CF
100
AcDbEntity
  8
ALL_FEATURES
100
AcDbLine
 62
7
  6
CONTINUOUS
 10
4.2132735773
 20
5.1526969855
 11
4.1241826682
 21
5.1526969855
  0
LINE
  5
2D0
100
AcDbEntity
  8
ALL_FEATURES
100
AcDbLine
 62
7
  6
CONTINUOUS
 10
4.8969254314
 20
4.6891099815
 11
4.897084679
 21
4.6888553391
  0
LINE
  5
2D1
100
AcDbEntity
  8
ALL_FEATURES
100
AcDbLine
 62
7
  6
CONTINUOUS
 10
4.8948563212
 20
4.6842662082
 11
4.8951538266
 21
4.6837359291
  0
LINE
  5
2D2
100
AcDbEntity
  8
0
100
AcDbLine
 62
7
  6
CONTINUOUS
 10
5.0181673254
 20
2.9641388928
 11
5.0181673254
 21
6.1008067594
  0
LINE
  5
2D3
100
AcDbEntity
  8
0
100
AcDbLine
 62
7
  6
CONTINUOUS
 10
5.0247045023
 20
2.9517541996
 11
5.0247045023
 21
6.1131914525
  0
LINE
  5
2D4
100
AcDbEntity
  8
0
100
AcDbLine
 62
7
  6
CONTINUOUS
 10
5.0590335366
 20
2.9067201475
 11
5.0590335366
 21
6.1582255046
  0
LINE
  5
2D5
100
AcDbEntity
  8
0
100
AcDbLine
 62
7
  6
CONTINUOUS
 10
5.0684897558
 20
2.8999728261
 11
5.0684897558
 21
6.1649728261
  0
LINE
  5
2D6
100
AcDbEntity
  8
0
100
AcDbLine
 62
7
  6
CONTINUOUS
 10
5.0717810225
 20
6.1649728261
 11
5.0717810225
 21
2.8999728261
  0
LINE
  5
2D7
100
AcDbEntity
  8
0
100
AcDbLine
 62
7
  6
CONTINUOUS
 10
5.0788520903
 20
6.1699728261
 11
5.0788520903
 21
2.8949728261
  0
LINE
  5
2D8
100
AcDbEntity
  8
0
100
AcDbLine
 62
7
  6
CONTINUOUS
 10
5.0995627684
 20
2.8640711266
 11
5.0995627684
 21
2.8667780069
  0
LINE
  5
2D9
100
AcDbEntity
  8
0
100
AcDbLine
 62
7
  6
CONTINUOUS
 10
5.1495627684
 20
6.2199728261
 11
5.1495627684
 21
2.8476490222
  0
LINE
  5
2DA
100
AcDbEntity
  8
0
100
AcDbLine
 62
7
  6
CONTINUOUS
 10
4.9280627684
 20
5.3637228261
 11
4.9180596842
 21
5.3637228261
  0
LINE
  5
2DB
100
AcDbEntity
  8
0
100
AcDbLine
 62
7
  6
CONTINUOUS
 10
5.0717810225
 20
6.1649728261
 11
5.0684897558
 21
6.1649728261
  0
ARC
  5
2DC
100
AcDbEntity
  8
ALL_FEATURES
100
AcDbCircle
 62
7
  6
CONTINUOUS
 10
3.3366454301
 20
3.6500699588
 40
1.5690961534
100
AcDbArc
 50
7.3335539046
 51
7.7464846587
  0
ARC
  5
2DD
100
AcDbEntity
  8
ALL_FEATURES
100
AcDbCircle
 62
7
  6
CONTINUOUS
 10
5.2925109553
 20
3.96768037
 40
0.4117860019
100
AcDbArc
 50
186.9177001452
 51
187.3175238301
  0
ARC
  5
2DE
100
AcDbEntity
  8
ALL_FEATURES
100
AcDbCircle
 62
7
  6
CONTINUOUS
 10
4.9865928496
 20
3.9304990218
 40
0.1036166923
100
AcDbArc
 50
186.6846395883
 51
186.8818568777
  0
ARC
  5
2DF
100
AcDbEntity
  8
0
100
AcDbCircle
 62
7
  6
CONTINUOUS
 10
4.9739275634
 20
2.8774460407
 40
0.09
100
AcDbArc
 50
18.9818036151
 51
55.6540619203
  0
ARC
  5
2E0
100
AcDbEntity
  8
0
100
AcDbCircle
 62
7
  6
CONTINUOUS
 10
5.1495627684
 20
2.9199728261
 40
0.075
100
AcDbArc
 50
199.4712206345
 51
228.1896851042
  0
ARC
  5
2E1
100
AcDbEntity
  8
0
100
AcDbCircle
 62
7
  6
CONTINUOUS
 10
5.1495712924
 20
2.9225794828
 40
0.0749307118
100
AcDbArc
 50
228.1337365246
 51
269.9934820725
  0
ARC
  5
2E2
100
AcDbEntity
  8
0
100
AcDbCircle
 62
7
  6
CONTINUOUS
 10
5.0331673254
 20
2.9641388928
 40
0.015
100
AcDbArc
 50
180.0
 51
235.6540619181
  0
ARC
  5
2E3
100
AcDbEntity
  8
0
100
AcDbCircle
 62
7
  6
CONTINUOUS
 10
5.0684897558
 20
2.9099728261
 40
0.01
100
AcDbArc
 50
198.9818036146
 51
270.0
  0
ARC
  5
2E4
100
AcDbEntity
  8
0
100
AcDbCircle
 62
7
  6
CONTINUOUS
 10
5.0717810225
 20
2.8924728261
 40
0.0075
100
AcDbArc
 50
19.4712206344
 51
90.0
  0
ARC
  5
2E5
100
AcDbEntity
  8
0
100
AcDbCircle
 62
7
  6
CONTINUOUS
 10
4.9430627684
 20
3.6899728261
 40
0.0075
100
AcDbArc
 50
180.0
 51
271.6864621712
  0
ARC
  5
2E6
100
AcDbEntity
  8
0
100
AcDbCircle
 62
7
  6
CONTINUOUS
 10
4.9180596842
 20
3.7087228261
 40
0.0075
100
AcDbArc
 50
187.3310077575
 51
270.0
  0
ARC
  5
2E7
100
AcDbEntity
  8
0
100
AcDbCircle
 62
7
  6
CONTINUOUS
 10
4.9435044107
 20
3.6749728261
 40
0.0075
100
AcDbArc
 50
4.2612194869
 51
91.6864621712
  0
ARC
  5
2E8
100
AcDbEntity
  8
0
100
AcDbCircle
 62
7
  6
CONTINUOUS
 10
4.9280627684
 20
3.6937228261
 40
0.0075
100
AcDbArc
 50
0.0000000001
 51
90.0
  0
ARC
  5
2E9
100
AcDbEntity
  8
02___PRT_ALL_AXES
100
AcDbCircle
 62
7
  6
CONTINUOUS
 10
4.4863417531
 20
4.5324728261
 40
1.1275
100
AcDbArc
 50
162.048972056
 51
197.951027944
  0
ARC
  5
2EA
100
AcDbEntity
  8
ALL_FEATURES
100
AcDbCircle
 62
7
  6
CONTINUOUS
 10
5.3539491828
 20
4.1758819504
 40
0.472215283
100
AcDbArc
 50
185.5740824227
 51
186.049080543
  0
ARC
  5
2EB
100
AcDbEntity
  8
ALL_FEATURES
100
AcDbCircle
 62
7
  6
CONTINUOUS
 10
5.3452761031
 20
4.1750939983
 40
0.4635066822
100
AcDbArc
 50
184.5543668761
 51
185.5812784069
  0
ARC
  5
2EC
100
AcDbEntity
  8
ALL_FEATURES
100
AcDbCircle
 62
7
  6
CONTINUOUS
 10
5.3118877703
 20
4.1723855397
 40
0.4300087127
100
AcDbArc
 50
184.0058976808
 51
184.5478772076
  0
ARC
  5
2ED
100
AcDbEntity
  8
ALL_FEATURES
100
AcDbCircle
 62
7
  6
CONTINUOUS
 10
5.29783147
 20
4.1698868934
 40
0.4157782757
100
AcDbArc
 50
186.0424697824
 51
186.5629560252
  0
ARC
  5
2EE
100
AcDbEntity
  8
ALL_FEATURES
100
AcDbCircle
 62
7
  6
CONTINUOUS
 10
5.2893354292
 20
4.1707688094
 40
0.4073985283
100
AcDbArc
 50
183.431234492
 51
184.0006528729
  0
ARC
  5
2EF
100
AcDbEntity
  8
ALL_FEATURES
100
AcDbCircle
 62
7
  6
CONTINUOUS
 10
5.2586990544
 20
4.1690038855
 40
0.376711449
100
AcDbArc
 50
181.6827807033
 51
183.4421615586
  0
ARC
  5
2F0
100
AcDbEntity
  8
ALL_FEATURES
100
AcDbCircle
 62
7
  6
CONTINUOUS
 10
5.2360680606
 20
4.1627232413
 40
0.353600846
100
AcDbArc
 50
186.5536443835
 51
187.143521806
  0
ARC
  5
2F1
100
AcDbEntity
  8
ALL_FEATURES
100
AcDbCircle
 62
7
  6
CONTINUOUS
 10
5.219101435
 20
4.167611376
 40
0.3370900925
100
AcDbArc
 50
181.0337678565
 51
181.6438416349
  0
ARC
  5
2F2
100
AcDbEntity
  8
ALL_FEATURES
100
AcDbCircle
 62
7
  6
CONTINUOUS
 10
5.2015387324
 20
4.1672827162
 40
0.3195243191
100
AcDbArc
 50
180.4047198836
 51
181.0316616403
  0
ARC
  5
2F3
100
AcDbEntity
  8
ALL_FEATURES
100
AcDbCircle
 62
7
  6
CONTINUOUS
 10
5.1880577536
 20
4.1566760318
 40
0.3052112058
100
AcDbArc
 50
187.1379017737
 51
187.7999257627
  0
ARC
  5
2F4
100
AcDbEntity
  8
0
100
AcDbCircle
 62
7
  6
CONTINUOUS
 10
3.6337281227
 20
4.1949728261
 40
0.305
100
AcDbArc
 50
0.0
 51
31.8016417368
  0
ARC
  5
2F5
100
AcDbEntity
  8
0
100
AcDbCircle
 62
7
  6
CONTINUOUS
 10
3.8787281227
 20
4.2374728261
 40
0.22
100
AcDbArc
 50
146.6772989158
 51
180.0
  0
ARC
  5
2F6
100
AcDbEntity
  8
ALL_FEATURES
100
AcDbCircle
 62
7
  6
CONTINUOUS
 10
4.674212831
 20
4.1325319227
 40
0.2169346068
100
AcDbArc
 50
356.8546135818
 51
357.1301526072
  0
ARC
  5
2F7
100
AcDbEntity
  8
ALL_FEATURES
100
AcDbCircle
 62
7
  6
CONTINUOUS
 10
5.0687558612
 20
4.1378224759
 40
0.1799929469
100
AcDbArc
 50
188.4959273829
 51
190.048328531
  0
ARC
  5
2F8
100
AcDbEntity
  8
0
100
AcDbCircle
 62
7
  6
CONTINUOUS
 10
3.7930801715
 20
4.2937816038
 40
0.1175
100
AcDbArc
 50
31.8016417368
 51
146.6772989158
  0
ARC
  5
2F9
100
AcDbEntity
  8
ALL_FEATURES
100
AcDbCircle
 62
7
  6
CONTINUOUS
 10
4.9768332405
 20
4.1201610661
 40
0.0863734927
100
AcDbArc
 50
192.6353670507
 51
193.3906716971
  0
ARC
  5
2FA
100
AcDbEntity
  8
ALL_FEATURES
100
AcDbCircle
 62
7
  6
CONTINUOUS
 10
4.9679428228
 20
4.1186302966
 40
0.0817418616
100
AcDbArc
 50
192.4975414243
 51
193.8800185029
  0
ARC
  5
2FB
100
AcDbEntity
  8
0
100
AcDbCircle
 62
7
  6
CONTINUOUS
 10
4.4187671947
 20
4.0374728261
 40
0.08
100
AcDbArc
 50
7.9835561457
 51
90.0
  0
ARC
  5
2FC
100
AcDbEntity
  8
ALL_FEATURES
100
AcDbCircle
 62
7
  6
CONTINUOUS
 10
4.8289326725
 20
4.1840073778
 40
0.0663798862
100
AcDbArc
 50
3.0367744733
 51
3.7217690445
  0
ARC
  5
2FD
100
AcDbEntity
  8
0
100
AcDbCircle
 62
7
  6
CONTINUOUS
 10
3.5587281227
 20
4.1802612876
 40
0.0627884615
100
AcDbArc
 50
208.841546255
 51
229.561497618
  0
ARC
  5
2FE
100
AcDbEntity
  8
0
100
AcDbCircle
 62
7
  6
CONTINUOUS
 10
3.5587281227
 20
4.1802612876
 40
0.0627884615
100
AcDbArc
 50
310.438502382
 51
331.158453745
  0
ARC
  5
2FF
100
AcDbEntity
  8
0
100
AcDbCircle
 62
7
  6
CONTINUOUS
 10
3.5568276185
 20
4.1780325369
 40
0.0598594267
100
AcDbArc
 50
229.5623024091
 51
231.3699643253
  0
ARC
  5
300
100
AcDbEntity
  8
0
100
AcDbCircle
 62
7
  6
CONTINUOUS
 10
3.5606307553
 20
4.1780300757
 40
0.0598561729
100
AcDbArc
 50
308.6372859592
 51
310.4376751104
  0
ARC
  5
301
100
AcDbEntity
  8
0
100
AcDbCircle
 62
7
  6
CONTINUOUS
 10
3.5606510854
 20
4.1780053242
 40
0.0598241477
100
AcDbArc
 50
308.6368791647
 51
310.4382314022
  0
ARC
  5
302
100
AcDbEntity
  8
0
100
AcDbCircle
 62
7
  6
CONTINUOUS
 10
3.5568024571
 20
4.1780021742
 40
0.059819997
100
AcDbArc
 50
229.5617820769
 51
231.3706363878
  0
ARC
  5
303
100
AcDbEntity
  8
0
100
AcDbCircle
 62
7
  6
CONTINUOUS
 10
3.9937281227
 20
4.0977513975
 40
0.0327785714
100
AcDbArc
 50
207.7823823429
 51
332.2176176571
  0
ARC
  5
304
100
AcDbEntity
  8
ALL_FEATURES
100
AcDbCircle
 62
7
  6
CONTINUOUS
 10
4.91197997
 20
4.1735262787
 40
0.0298166116
100
AcDbArc
 50
173.8993622781
 51
175.0016182804
  0
ARC
  5
305
100
AcDbEntity
  8
0
100
AcDbCircle
 62
7
  6
CONTINUOUS
 10
3.4287281227
 20
4.1649728261
 40
0.015
100
AcDbArc
 50
180.0
 51
270.0
  0
ARC
  5
306
100
AcDbEntity
  8
0
100
AcDbCircle
 62
7
  6
CONTINUOUS
 10
4.0337281227
 20
4.0974728261
 40
0.015
100
AcDbArc
 50
270.0
 51
360.0
  0
ARC
  5
307
100
AcDbEntity
  8
0
100
AcDbCircle
 62
7
  6
CONTINUOUS
 10
3.9537281227
 20
4.0974728261
 40
0.015
100
AcDbArc
 50
180.0
 51
270.0
  0
ARC
  5
308
100
AcDbEntity
  8
0
100
AcDbCircle
 62
7
  6
CONTINUOUS
 10
3.6437281227
 20
4.1649728261
 40
0.015
100
AcDbArc
 50
270.0
 51
360.0
  0
ARC
  5
309
100
AcDbEntity
  8
0
100
AcDbCircle
 62
7
  6
CONTINUOUS
 10
3.4737281227
 20
4.1649728261
 40
0.015
100
AcDbArc
 50
180.0
 51
270.0
  0
ARC
  5
30A
100
AcDbEntity
  8
0
100
AcDbCircle
 62
7
  6
CONTINUOUS
 10
4.507894912
 20
4.0499728261
 40
0.01
100
AcDbArc
 50
187.9835561447
 51
270.0
  0
ARC
  5
30B
100
AcDbEntity
  8
ALL_FEATURES
100
AcDbCircle
 62
7
  6
CONTINUOUS
 10
2.7306324402
 20
4.7304411
 40
2.1609835448
100
AcDbArc
 50
358.9686163336
 51
359.1409446364
  0
ARC
  5
30C
100
AcDbEntity
  8
ALL_FEATURES
100
AcDbCircle
 62
7
  6
CONTINUOUS
 10
3.6104385535
 20
4.8550875311
 40
1.2832834211
100
AcDbArc
 50
354.8796167493
 51
355.0489804052
  0
ARC
  5
30D
100
AcDbEntity
  8
ALL_FEATURES
100
AcDbCircle
 62
7
  6
CONTINUOUS
 10
3.6271278287
 20
4.7131537248
 40
1.2643227483
100
AcDbArc
 50
358.3508997873
 51
359.0206223623
  0
ARC
  5
30E
100
AcDbEntity
  8
ALL_FEATURES
100
AcDbCircle
 62
7
  6
CONTINUOUS
 10
3.7565195493
 20
4.6999539184
 40
1.1369385746
100
AcDbArc
 50
358.8985227775
 51
359.2275609442
  0
ARC
  5
30F
100
AcDbEntity
  8
ALL_FEATURES
100
AcDbCircle
 62
7
  6
CONTINUOUS
 10
3.7669065554
 20
4.8410278421
 40
1.1261850165
100
AcDbArc
 50
354.6939430883
 51
354.8816022431
  0
ARC
  5
310
100
AcDbEntity
  8
0
100
AcDbCircle
 62
7
  6
CONTINUOUS
 10
3.6337281227
 20
4.8699728261
 40
0.305
100
AcDbArc
 50
328.1983582632
 51
360.0
  0
ARC
  5
311
100
AcDbEntity
  8
0
100
AcDbCircle
 62
7
  6
CONTINUOUS
 10
3.8787281227
 20
4.8274728261
 40
0.22
100
AcDbArc
 50
180.0
 51
213.3227010842
  0
ARC
  5
312
100
AcDbEntity
  8
0
100
AcDbCircle
 62
7
  6
CONTINUOUS
 10
3.7930801715
 20
4.7711640484
 40
0.1175
100
AcDbArc
 50
213.3227010842
 51
328.1983582632
  0
ARC
  5
313
100
AcDbEntity
  8
0
100
AcDbCircle
 62
7
  6
CONTINUOUS
 10
3.5587281227
 20
4.8846843645
 40
0.0627884615
100
AcDbArc
 50
130.438502382
 51
151.158453745
  0
ARC
  5
314
100
AcDbEntity
  8
0
100
AcDbCircle
 62
7
  6
CONTINUOUS
 10
3.5587281227
 20
4.8846843645
 40
0.0627884615
100
AcDbArc
 50
28.841546255
 51
49.561497618
  0
ARC
  5
315
100
AcDbEntity
  8
0
100
AcDbCircle
 62
7
  6
CONTINUOUS
 10
3.5568276185
 20
4.8869131153
 40
0.0598594267
100
AcDbArc
 50
128.6300356746
 51
130.4376975911
  0
ARC
  5
316
100
AcDbEntity
  8
0
100
AcDbCircle
 62
7
  6
CONTINUOUS
 10
3.5606307553
 20
4.8869155765
 40
0.0598561729
100
AcDbArc
 50
49.5623248896
 51
51.3627140407
  0
ARC
  5
317
100
AcDbEntity
  8
0
100
AcDbCircle
 62
7
  6
CONTINUOUS
 10
3.5606510854
 20
4.886940328
 40
0.0598241477
100
AcDbArc
 50
49.5617685978
 51
51.3631208353
  0
ARC
  5
318
100
AcDbEntity
  8
0
100
AcDbCircle
 62
7
  6
CONTINUOUS
 10
3.5568024571
 20
4.886943478
 40
0.059819997
100
AcDbArc
 50
128.6293636122
 51
130.4382179231
  0
ARC
  5
319
100
AcDbEntity
  8
0
100
AcDbCircle
 62
7
  6
CONTINUOUS
 10
3.9937281227
 20
4.9671942547
 40
0.0327785714
100
AcDbArc
 50
27.7823823429
 51
152.2176176571
  0
ARC
  5
31A
100
AcDbEntity
  8
0
100
AcDbCircle
 62
7
  6
CONTINUOUS
 10
3.4287281227
 20
4.8999728261
 40
0.015
100
AcDbArc
 50
90.0
 51
180.0
  0
ARC
  5
31B
100
AcDbEntity
  8
0
100
AcDbCircle
 62
7
  6
CONTINUOUS
 10
3.9537281227
 20
4.9674728261
 40
0.015
100
AcDbArc
 50
90.0
 51
180.0
  0
ARC
  5
31C
100
AcDbEntity
  8
0
100
AcDbCircle
 62
7
  6
CONTINUOUS
 10
3.6437281227
 20
4.8999728261
 40
0.015
100
AcDbArc
 50
0.0
 51
90.0
  0
ARC
  5
31D
100
AcDbEntity
  8
0
100
AcDbCircle
 62
7
  6
CONTINUOUS
 10
3.4737281227
 20
4.8999728261
 40
0.015
100
AcDbArc
 50
90.0
 51
180.0
  0
ARC
  5
31E
100
AcDbEntity
  8
ALL_FEATURES
100
AcDbCircle
 62
7
  6
CONTINUOUS
 10
4.4910818885
 20
4.7253386556
 40
0.3999610937
100
AcDbArc
 50
4.290978701
 51
4.4396952589
  0
ARC
  5
31F
100
AcDbEntity
  8
ALL_FEATURES
100
AcDbCircle
 62
7
  6
CONTINUOUS
 10
4.6945443615
 20
4.6724986068
 40
0.1960748998
100
AcDbArc
 50
354.072533525
 51
354.8451273496
  0
ARC
  5
320
100
AcDbEntity
  8
ALL_FEATURES
100
AcDbCircle
 62
7
  6
CONTINUOUS
 10
4.0858245015
 20
4.8108445768
 40
0.8058426296
100
AcDbArc
 50
353.9930671405
 51
354.7338816627
  0
ARC
  5
321
100
AcDbEntity
  8
ALL_FEATURES
100
AcDbCircle
 62
7
  6
CONTINUOUS
 10
4.6174688672
 20
4.7354610607
 40
0.2731699577
100
AcDbArc
 50
4.375001117
 51
5.3504230726
  0
ARC
  5
322
100
AcDbEntity
  8
ALL_FEATURES
100
AcDbCircle
 62
7
  6
CONTINUOUS
 10
5.3096373124
 20
4.7254868713
 40
0.4275196813
100
AcDbArc
 50
179.4673245767
 51
179.6555558903
  0
ARC
  5
323
100
AcDbEntity
  8
ALL_FEATURES
100
AcDbCircle
 62
7
  6
CONTINUOUS
 10
5.2928437302
 20
4.6644596423
 40
0.410828877
100
AcDbArc
 50
179.5745014014
 51
180.3469336352
  0
ARC
  5
324
100
AcDbEntity
  8
ALL_FEATURES
100
AcDbCircle
 62
7
  6
CONTINUOUS
 10
5.2664530863
 20
4.7257300357
 40
0.3843347741
100
AcDbArc
 50
179.6531037984
 51
179.9270865245
  0
ARC
  5
325
100
AcDbEntity
  8
ALL_FEATURES
100
AcDbCircle
 62
7
  6
CONTINUOUS
 10
5.2635797781
 20
4.6641624702
 40
0.3815636808
100
AcDbArc
 50
180.3289187912
 51
180.9285963827
  0
ARC
  5
326
100
AcDbEntity
  8
ALL_FEATURES
100
AcDbCircle
 62
7
  6
CONTINUOUS
 10
5.2281506073
 20
4.7262559022
 40
0.3460293484
100
AcDbArc
 50
178.9790630887
 51
179.4692174175
  0
ARC
  5
327
100
AcDbEntity
  8
ALL_FEATURES
100
AcDbCircle
 62
7
  6
CONTINUOUS
 10
5.2157489654
 20
4.7264702823
 40
0.3336258556
100
AcDbArc
 50
178.4740483656
 51
178.9779255914
  0
ARC
  5
328
100
AcDbEntity
  8
ALL_FEATURES
100
AcDbCircle
 62
7
  6
CONTINUOUS
 10
5.2144301513
 20
4.6648907208
 40
0.3324142935
100
AcDbArc
 50
179.1726370246
 51
179.5484307176
  0
ARC
  5
329
100
AcDbEntity
  8
ALL_FEATURES
100
AcDbCircle
 62
7
  6
CONTINUOUS
 10
5.2103534676
 20
4.6632452097
 40
0.3283294997
100
AcDbArc
 50
180.9190795573
 51
181.5880226622
  0
ARC
  5
32A
100
AcDbEntity
  8
ALL_FEATURES
100
AcDbCircle
 62
7
  6
CONTINUOUS
 10
5.2002164745
 20
4.72687481
 40
0.3180881007
100
AcDbArc
 50
177.9475633879
 51
178.4723836669
  0
ARC
  5
32B
100
AcDbEntity
  8
ALL_FEATURES
100
AcDbCircle
 62
7
  6
CONTINUOUS
 10
5.1733304867
 20
4.725573853
 40
0.2912125782
100
AcDbArc
 50
179.8730418327
 51
181.0502691416
  0
ARC
  5
32C
100
AcDbEntity
  8
ALL_FEATURES
100
AcDbCircle
 62
7
  6
CONTINUOUS
 10
5.1568444103
 20
4.6616999042
 40
0.274798176
100
AcDbArc
 50
181.5751304251
 51
182.3424627285
  0
ARC
  5
32D
100
AcDbEntity
  8
ALL_FEATURES
100
AcDbCircle
 62
7
  6
CONTINUOUS
 10
5.1560524481
 20
4.6657529555
 40
0.2740302268
100
AcDbArc
 50
178.258815727
 51
179.1766489469
  0
ARC
  5
32E
100
AcDbEntity
  8
ALL_FEATURES
100
AcDbCircle
 62
7
  6
CONTINUOUS
 10
5.096613128
 20
4.7241664874
 40
0.2144823117
100
AcDbArc
 50
181.0500210903
 51
181.7843243444
  0
ARC
  5
32F
100
AcDbEntity
  8
ALL_FEATURES
100
AcDbCircle
 62
7
  6
CONTINUOUS
 10
5.0928920506
 20
4.667570064
 40
0.2108438047
100
AcDbArc
 50
177.6335993157
 51
178.2308690332
  0
ARC
  5
330
100
AcDbEntity
  8
ALL_FEATURES
100
AcDbCircle
 62
7
  6
CONTINUOUS
 10
5.0661251275
 20
4.6686579226
 40
0.1840547915
100
AcDbArc
 50
177.2862476131
 51
177.6279123878
  0
ARC
  5
331
100
AcDbEntity
  8
ALL_FEATURES
100
AcDbCircle
 62
7
  6
CONTINUOUS
 10
5.0486513967
 20
4.6694875298
 40
0.1665613781
100
AcDbArc
 50
176.9097852676
 51
177.2867161181
  0
ARC
  5
332
100
AcDbEntity
  8
ALL_FEATURES
100
AcDbCircle
 62
7
  6
CONTINUOUS
 10
4.7368277249
 20
4.6680508359
 40
0.1535582998
100
AcDbArc
 50
353.1753232499
 51
354.0939560514
  0
ARC
  5
333
100
AcDbEntity
  8
ALL_FEATURES
100
AcDbCircle
 62
7
  6
CONTINUOUS
 10
5.0317763003
 20
4.6544466909
 40
0.1495082361
100
AcDbArc
 50
184.1876969049
 51
185.3920124557
  0
ARC
  5
334
100
AcDbEntity
  8
ALL_FEATURES
100
AcDbCircle
 62
7
  6
CONTINUOUS
 10
5.0247306058
 20
4.7220058529
 40
0.1377044677
100
AcDbArc
 50
183.2954668041
 51
183.4879767824
  0
ARC
  5
335
100
AcDbEntity
  8
ALL_FEATURES
100
AcDbCircle
 62
7
  6
CONTINUOUS
 10
5.0175450674
 20
4.654061771
 40
0.1344103123
100
AcDbArc
 50
175.9812500891
 51
180.509564166
  0
ARC
  5
336
100
AcDbEntity
  8
ALL_FEATURES
100
AcDbCircle
 62
7
  6
CONTINUOUS
 10
4.9853747028
 20
4.6475840793
 40
0.0980225491
100
AcDbArc
 50
186.032021571
 51
187.5662287169
  0
ARC
  5
337
100
AcDbEntity
  8
ALL_FEATURES
100
AcDbCircle
 62
7
  6
CONTINUOUS
 10
4.9609443308
 20
4.6443843993
 40
0.0733835895
100
AcDbArc
 50
187.6013459052
 51
189.3874571322
  0
ARC
  5
338
100
AcDbEntity
  8
ALL_FEATURES
100
AcDbCircle
 62
7
  6
CONTINUOUS
 10
5.1770979319
 20
4.7277252352
 40
0.294953933
100
AcDbArc
 50
176.2708630545
 51
177.9518193825
  0
ARC
  5
339
100
AcDbEntity
  8
ALL_FEATURES
100
AcDbCircle
 62
7
  6
CONTINUOUS
 10
5.1418965778
 20
4.7298718037
 40
0.2596875412
100
AcDbArc
 50
174.9970938537
 51
176.2383273923
  0
ARC
  5
33A
100
AcDbEntity
  8
ALL_FEATURES
100
AcDbCircle
 62
7
  6
CONTINUOUS
 10
5.1456989816
 20
4.754775169
 40
0.2557309144
100
AcDbArc
 50
183.8288262299
 51
184.2479903059
  0
ARC
  5
33B
100
AcDbEntity
  8
ALL_FEATURES
100
AcDbCircle
 62
7
  6
CONTINUOUS
 10
5.1408625129
 20
4.7443520238
 40
0.2462170355
100
AcDbArc
 50
173.4567900388
 51
173.9170898326
  0
ARC
  5
33C
100
AcDbEntity
  8
ALL_FEATURES
100
AcDbCircle
 62
7
  6
CONTINUOUS
 10
5.1187768522
 20
4.7318496714
 40
0.2364834173
100
AcDbArc
 50
174.3145693365
 51
174.9859846108
  0
ARC
  5
33D
100
AcDbEntity
  8
ALL_FEATURES
100
AcDbCircle
 62
7
  6
CONTINUOUS
 10
5.116970708
 20
4.7526510038
 40
0.2269242194
100
AcDbArc
 50
184.2504329972
 51
184.4222068925
  0
ARC
  5
33E
100
AcDbEntity
  8
ALL_FEATURES
100
AcDbCircle
 62
7
  6
CONTINUOUS
 10
5.1191121703
 20
4.7538678827
 40
0.2243143053
100
AcDbArc
 50
184.7726026857
 51
185.0842002906
  0
ARC
  5
33F
100
AcDbEntity
  8
ALL_FEATURES
100
AcDbCircle
 62
7
  6
CONTINUOUS
 10
5.0752748954
 20
4.749345776
 40
0.185097704
100
AcDbArc
 50
184.3973155594
 51
185.1521130935
  0
ARC
  5
340
100
AcDbEntity
  8
ALL_FEATURES
100
AcDbCircle
 62
7
  6
CONTINUOUS
 10
5.0729118498
 20
4.7497348507
 40
0.1779294918
100
AcDbArc
 50
185.0769499779
 51
185.947149597
  0
ARC
  5
341
100
AcDbEntity
  8
ALL_FEATURES
100
AcDbCircle
 62
7
  6
CONTINUOUS
 10
4.7459043587
 20
4.7345005936
 40
0.1440156122
100
AcDbArc
 50
5.4656986111
 51
6.1851915677
  0
ARC
  5
342
100
AcDbEntity
  8
ALL_FEATURES
100
AcDbCircle
 62
7
  6
CONTINUOUS
 10
5.0275089888
 20
4.7436476908
 40
0.1400236035
100
AcDbArc
 50
173.2327612026
 51
174.0240265287
  0
ARC
  5
343
100
AcDbEntity
  8
ALL_FEATURES
100
AcDbCircle
 62
7
  6
CONTINUOUS
 10
5.0029419941
 20
4.7448829223
 40
0.1199114402
100
AcDbArc
 50
171.7713472507
 51
172.779443547
  0
ARC
  5
344
100
AcDbEntity
  8
ALL_FEATURES
100
AcDbCircle
 62
7
  6
CONTINUOUS
 10
4.7860402724
 20
4.7560917501
 40
0.1104620524
100
AcDbArc
 50
353.9585677961
 51
356.3025308283
  0
ARC
  5
345
100
AcDbEntity
  8
ALL_FEATURES
100
AcDbCircle
 62
7
  6
CONTINUOUS
 10
4.994056887
 20
4.7476809989
 40
0.1063293102
100
AcDbArc
 50
172.1198509109
 51
173.2668922664
  0
ARC
  5
346
100
AcDbEntity
  8
ALL_FEATURES
100
AcDbCircle
 62
7
  6
CONTINUOUS
 10
4.8094475178
 20
4.7536398719
 40
0.0869267591
100
AcDbArc
 50
353.0008695858
 51
353.9418945971
  0
ARC
  5
347
100
AcDbEntity
  8
ALL_FEATURES
100
AcDbCircle
 62
7
  6
CONTINUOUS
 10
4.9675270675
 20
4.7653575438
 40
0.0716161274
100
AcDbArc
 50
170.0649213599
 51
170.9316041795
  0
ARC
  5
348
100
AcDbEntity
  8
ALL_FEATURES
100
AcDbCircle
 62
7
  6
CONTINUOUS
 10
4.9457336533
 20
4.7678245824
 40
0.0541649053
100
AcDbArc
 50
170.4681201653
 51
171.1494855669
  0
ARC
  5
349
100
AcDbEntity
  8
ALL_FEATURES
100
AcDbCircle
 62
7
  6
CONTINUOUS
 10
4.8370823128
 20
4.7280762088
 40
0.0499729371
100
AcDbArc
 50
349.0972954097
 51
350.6479220121
  0
ARC
  5
34A
100
AcDbEntity
  8
ALL_FEATURES
100
AcDbCircle
 62
7
  6
CONTINUOUS
 10
4.8575706846
 20
4.7467854954
 40
0.0383117648
100
AcDbArc
 50
349.1560021766
 51
350.7214723617
  0
ARC
  5
34B
100
AcDbEntity
  8
ALL_FEATURES
100
AcDbCircle
 62
7
  6
CONTINUOUS
 10
4.1687281227
 20
5.0199728261
 40
0.14
100
AcDbArc
 50
71.446995465
 51
108.553004535
  0
ARC
  5
34C
100
AcDbEntity
  8
0
100
AcDbCircle
 62
7
  6
CONTINUOUS
 10
4.4187671947
 20
5.0274728261
 40
0.08
100
AcDbArc
 50
270.0
 51
352.0164438545
  0
ARC
  5
34D
100
AcDbEntity
  8
ALL_FEATURES
100
AcDbCircle
 62
7
  6
CONTINUOUS
 10
4.1337281227
 20
5.1242560942
 40
0.03
100
AcDbArc
 50
108.553004535
 51
180.0
  0
ARC
  5
34E
100
AcDbEntity
  8
ALL_FEATURES
100
AcDbCircle
 62
7
  6
CONTINUOUS
 10
4.2037281227
 20
5.1242560942
 40
0.03
100
AcDbArc
 50
0.0
 51
71.446995465
  0
ARC
  5
34F
100
AcDbEntity
  8
0
100
AcDbCircle
 62
7
  6
CONTINUOUS
 10
4.0337281227
 20
4.9674728261
 40
0.015
100
AcDbArc
 50
0.0
 51
90.0
  0
ARC
  5
350
100
AcDbEntity
  8
0
100
AcDbCircle
 62
7
  6
CONTINUOUS
 10
4.2537278508
 20
4.9324727176
 40
0.014999952
100
AcDbArc
 50
89.998961178
 51
102.0997268905
  0
ARC
  5
351
100
AcDbEntity
  8
0
100
AcDbCircle
 62
7
  6
CONTINUOUS
 10
4.0837284292
 20
4.9324727017
 40
0.0149999459
100
AcDbArc
 50
77.9000923164
 51
90.0011706253
  0
ARC
  5
352
100
AcDbEntity
  8
0
100
AcDbCircle
 62
7
  6
CONTINUOUS
 10
4.507894912
 20
5.0149728261
 40
0.01
100
AcDbArc
 50
90.0
 51
172.0164438537
  0
ARC
  5
353
100
AcDbEntity
  8
ALL_FEATURES
100
AcDbCircle
 62
7
  6
CONTINUOUS
 10
8.1256884052
 20
4.1858876623
 40
3.2435095663
100
AcDbArc
 50
179.1738757132
 51
179.3466250117
  0
ARC
  5
354
100
AcDbEntity
  8
ALL_FEATURES
100
AcDbCircle
 62
7
  6
CONTINUOUS
 10
7.6861029521
 20
4.812013147
 40
2.8219427718
100
AcDbArc
 50
172.862674807
 51
173.0695201783
  0
ARC
  5
355
100
AcDbEntity
  8
ALL_FEATURES
100
AcDbCircle
 62
7
  6
CONTINUOUS
 10
7.1895549879
 20
5.0708684178
 40
2.2946143624
100
AcDbArc
 50
179.899686205
 51
180.100313795
  0
ARC
  5
356
100
AcDbEntity
  8
ALL_FEATURES
100
AcDbCircle
 62
7
  6
CONTINUOUS
 10
6.9371443558
 20
5.013884694
 40
2.0517738346
100
AcDbArc
 50
179.8878134127
 51
180.1121865873
  0
ARC
  5
357
100
AcDbEntity
  8
ALL_FEATURES
100
AcDbCircle
 62
7
  6
CONTINUOUS
 10
6.1670997871
 20
4.9975043232
 40
1.2916565141
100
AcDbArc
 50
173.1070215135
 51
173.3225605937
  0
ARC
  5
358
100
AcDbEntity
  8
ALL_FEATURES
100
AcDbCircle
 62
7
  6
CONTINUOUS
 10
5.9673745682
 20
4.6554008955
 40
1.0820707279
100
AcDbArc
 50
174.4137331649
 51
174.7046781463
  0
ARC
  5
359
100
AcDbEntity
  8
ALL_FEATURES
100
AcDbCircle
 62
7
  6
CONTINUOUS
 10
5.5253634695
 20
4.6942759049
 40
0.6362503167
100
AcDbArc
 50
174.9278793812
 51
175.3863333094
  0
ARC
  5
35A
100
AcDbEntity
  8
ALL_FEATURES
100
AcDbCircle
 62
7
  6
CONTINUOUS
 10
13.5893999376
 20
4.0796336433
 40
8.7706506847
100
AcDbArc
 50
172.4852249301
 51
172.6406522073
  0
ARC
  5
35B
100
AcDbEntity
  8
ALL_FEATURES
100
AcDbCircle
 62
7
  6
CONTINUOUS
 10
11.49823788
 20
4.3388569987
 40
6.6635022158
100
AcDbArc
 50
172.7049919503
 51
172.890101927
  0
ARC
  5
35C
100
AcDbEntity
  8
ALL_FEATURES
100
AcDbCircle
 62
7
  6
CONTINUOUS
 10
10.2810736049
 20
4.4104284536
 40
5.3861329795
100
AcDbArc
 50
179.9345247551
 51
180.0654752449
  0
ARC
  5
35D
100
AcDbEntity
  8
ALL_FEATURES
100
AcDbCircle
 62
7
  6
CONTINUOUS
 10
10.2406458027
 20
4.7187600376
 40
5.3436448023
100
AcDbArc
 50
180.3206466784
 51
180.7983629553
  0
ARC
  5
35E
100
AcDbEntity
  8
ALL_FEATURES
100
AcDbCircle
 62
7
  6
CONTINUOUS
 10
10.1242198597
 20
4.7148474902
 40
5.2291585851
100
AcDbArc
 50
180.3408907243
 51
180.6699111689
  0
ARC
  5
35F
100
AcDbEntity
  8
ALL_FEATURES
100
AcDbCircle
 62
7
  6
CONTINUOUS
 10
9.7014839918
 20
4.4233456151
 40
4.8161134707
100
AcDbArc
 50
179.9267753143
 51
180.0732246857
  0
ARC
  5
360
100
AcDbEntity
  8
ALL_FEATURES
100
AcDbCircle
 62
7
  6
CONTINUOUS
 10
8.7576035688
 20
4.1197803459
 40
3.8606035175
100
AcDbArc
 50
179.1154290864
 51
179.5143534994
  0
ARC
  5
361
100
AcDbEntity
  8
ALL_FEATURES
100
AcDbCircle
 62
7
  6
CONTINUOUS
 10
8.7277027891
 20
4.1202988556
 40
3.8307016005
100
AcDbArc
 50
180.3782836801
 51
180.9427631272
  0
ARC
  5
362
100
AcDbEntity
  8
ALL_FEATURES
100
AcDbCircle
 62
7
  6
CONTINUOUS
 10
8.7155630797
 20
4.1201443632
 40
3.8185614117
100
AcDbArc
 50
179.6489305328
 51
179.9178931661
  0
ARC
  5
363
100
AcDbEntity
  8
ALL_FEATURES
100
AcDbCircle
 62
7
  6
CONTINUOUS
 10
8.6561352876
 20
4.1290892055
 40
3.7610747309
100
AcDbArc
 50
180.6357463752
 51
180.8681502332
  0
ARC
  5
364
100
AcDbEntity
  8
ALL_FEATURES
100
AcDbCircle
 62
7
  6
CONTINUOUS
 10
8.6497017701
 20
4.1286951917
 40
3.7546401102
100
AcDbArc
 50
179.3558477167
 51
179.7112941724
  0
ARC
  5
365
100
AcDbEntity
  8
ALL_FEATURES
100
AcDbCircle
 62
7
  6
CONTINUOUS
 10
1.4868787083
 20
5.6435572926
 40
3.4333403525
100
AcDbArc
 50
353.0146056643
 51
353.1300497823
  0
ARC
  5
366
100
AcDbEntity
  8
ALL_FEATURES
100
AcDbCircle
 62
7
  6
CONTINUOUS
 10
1.8474811607
 20
5.5614294064
 40
3.0652616373
100
AcDbArc
 50
352.3994139584
 51
352.5358595905
  0
ARC
  5
367
100
AcDbEntity
  8
ALL_FEATURES
100
AcDbCircle
 62
7
  6
CONTINUOUS
 10
6.5104572034
 20
5.6983145181
 40
1.9031496462
100
AcDbArc
 50
211.7078341048
 51
212.0244584211
  0
ARC
  5
368
100
AcDbEntity
  8
ALL_FEATURES
100
AcDbCircle
 62
7
  6
CONTINUOUS
 10
3.7949599636
 20
5.3632865806
 40
1.1085704156
100
AcDbArc
 50
353.5469825832
 51
353.7789262482
  0
ARC
  5
369
100
AcDbEntity
  8
ALL_FEATURES
100
AcDbCircle
 62
7
  6
CONTINUOUS
 10
3.9781366189
 20
5.2776465749
 40
0.9160766376
100
AcDbArc
 50
351.5047323531
 51
352.003968579
  0
ARC
  5
36A
100
AcDbEntity
  8
ALL_FEATURES
100
AcDbCircle
 62
7
  6
CONTINUOUS
 10
4.1642668347
 20
5.3230290843
 40
0.7370758248
100
AcDbArc
 50
353.7789640665
 51
353.9354946582
  0
ARC
  5
36B
100
AcDbEntity
  8
0
100
AcDbCircle
 62
7
  6
CONTINUOUS
 10
4.8287276354
 20
5.5173822107
 40
0.4925109075
100
AcDbArc
 50
270.000056693
 51
271.1214557203
  0
ARC
  5
36C
100
AcDbEntity
  8
0
100
AcDbCircle
 62
7
  6
CONTINUOUS
 10
4.748721454
 20
5.5166518612
 40
0.491780558
100
AcDbArc
 50
268.8775733667
 51
270.0007769503
  0
ARC
  5
36D
100
AcDbEntity
  8
0
100
AcDbCircle
 62
7
  6
CONTINUOUS
 10
4.1742996754
 20
5.3577872273
 40
0.4201914157
100
AcDbArc
 50
257.8170214999
 51
258.6048444507
  0
ARC
  5
36E
100
AcDbEntity
  8
0
100
AcDbCircle
 62
7
  6
CONTINUOUS
 10
4.1639613332
 20
5.3539051424
 40
0.416226855
100
AcDbArc
 50
281.3919668249
 51
281.9801024533
  0
ARC
  5
36F
100
AcDbEntity
  8
0
100
AcDbCircle
 62
7
  6
CONTINUOUS
 10
4.9739275634
 20
6.1874996115
 40
0.09
100
AcDbArc
 50
304.3459380797
 51
341.0181963849
  0
ARC
  5
370
100
AcDbEntity
  8
0
100
AcDbCircle
 62
7
  6
CONTINUOUS
 10
5.1495627684
 20
6.1449728261
 40
0.075
100
AcDbArc
 50
90.0
 51
160.5287793655
  0
ARC
  5
371
100
AcDbEntity
  8
0
100
AcDbCircle
 62
7
  6
CONTINUOUS
 10
5.0331673254
 20
6.1008067594
 40
0.015
100
AcDbArc
 50
124.3459380819
 51
180.0
  0
ARC
  5
372
100
AcDbEntity
  8
0
100
AcDbCircle
 62
7
  6
CONTINUOUS
 10
5.0684897558
 20
6.1549728261
 40
0.01
100
AcDbArc
 50
90.0
 51
161.0181963854
  0
ARC
  5
373
100
AcDbEntity
  8
0
100
AcDbCircle
 62
7
  6
CONTINUOUS
 10
5.0717810225
 20
6.1724728261
 40
0.0075
100
AcDbArc
 50
270.0
 51
340.5287793656
  0
ARC
  5
374
100
AcDbEntity
  8
0
100
AcDbCircle
 62
7
  6
CONTINUOUS
 10
4.9430627684
 20
5.3749728261
 40
0.0075
100
AcDbArc
 50
88.2508916584
 51
180.0
  0
ARC
  5
375
100
AcDbEntity
  8
0
100
AcDbCircle
 62
7
  6
CONTINUOUS
 10
4.9180596842
 20
5.3562228261
 40
0.0075
100
AcDbArc
 50
90.0
 51
172.6689922406
  0
ARC
  5
376
100
AcDbEntity
  8
0
100
AcDbCircle
 62
7
  6
CONTINUOUS
 10
4.9435208262
 20
5.3899728261
 40
0.0075
100
AcDbArc
 50
268.2508916584
 51
355.7376835351
  0
ARC
  5
377
100
AcDbEntity
  8
0
100
AcDbCircle
 62
7
  6
CONTINUOUS
 10
4.9280627684
 20
5.3712228261
 40
0.0075
100
AcDbArc
 50
270.0
 51
359.9999999999
  0
ARC
  5
378
100
AcDbEntity
  8
0
100
AcDbCircle
 62
7
  6
CONTINUOUS
 10
16.4491107719
 20
4.5322525413
 40
11.53
100
AcDbArc
 50
184.2612194869
 51
187.5158135903
  0
ARC
  5
379
100
AcDbEntity
  8
0
100
AcDbCircle
 62
7
  6
CONTINUOUS
 10
16.4491107719
 20
4.5324728261
 40
11.53
100
AcDbArc
 50
172.4841864097
 51
175.7376835351
  0
ARC
  5
37A
100
AcDbEntity
  8
ALL_FEATURES
100
AcDbCircle
 62
7
  6
CONTINUOUS
 10
15.277122203
 20
3.8586746675
 40
10.4725914656
100
AcDbArc
 50
172.7297581457
 51
172.8474487521
  0
ARC
  5
37B
100
AcDbEntity
  8
ALL_FEATURES
100
AcDbCircle
 62
7
  6
CONTINUOUS
 10
14.1993124418
 20
4.0106029715
 40
9.3842139988
100
AcDbArc
 50
172.5593400613
 51
172.6890888478
  0
ARC
  5
37C
100
AcDbEntity
  8
ALL_FEATURES
100
AcDbCircle
 62
7
  6
CONTINUOUS
 10
26.8984545428
 20
7.4510478167
 40
22.2499352005
100
AcDbArc
 50
188.3168605762
 51
188.4582048053
  0
SPLINE
  5
37D
100
AcDbEntity
  8
02___PRT_ALL_AXES
100
AcDbSpline
 62
7
  6
CONTINUOUS
 70
0
 71
3
 72
13
 73
9
 74
0
 42
0.0000001
 43
0.0000001
 44
0.0000000001
 40
0.0
 40
0.0
 40
0.0
 40
0.0
 40
0.1468955834
 40
0.3089715959
 40
0.5000179496
 40
0.691059898
 40
0.8531216518
 40
1.0
 40
1.0
 40
1.0
 40
1.0
 10
4.1609781227
 20
4.1174728261
 30
0.0
 10
4.1659234831
 20
4.1180779051
 30
0.0
 10
4.1763477042
 20
4.1191689641
 30
0.0
 10
4.1932723378
 20
4.1203045832
 30
0.0
 10
4.2117298008
 20
4.1207405472
 30
0.0
 10
4.2301867784
 20
4.120304479
 30
0.0
 10
4.2471101868
 20
4.1191688012
 30
0.0
 10
4.257533342
 20
4.1180778232
 30
0.0
 10
4.2624781227
 20
4.1174728261
 30
0.0
  0
SPLINE
  5
37E
100
AcDbEntity
  8
0
100
AcDbSpline
 62
7
  6
CONTINUOUS
 70
0
 71
3
 72
15
 73
11
 74
0
 42
0.0000001
 43
0.0000001
 44
0.0000000001
 40
0.0
 40
0.0
 40
0.0
 40
0.0
 40
0.1160726405
 40
0.2388519175
 40
0.3676097395
 40
0.4999908297
 40
0.6323739069
 40
0.7611363722
 40
0.8839215594
 40
1.0
 40
1.0
 40
1.0
 40
1.0
 10
3.5980042365
 20
4.933670091
 30
0.0
 10
3.5954483095
 20
4.9357132128
 30
0.0
 10
3.5898331262
 20
4.9394920245
 30
0.0
 10
3.5803574379
 20
4.9438019334
 30
0.0
 10
3.5698401971
 20
4.9465738049
 30
0.0
 10
3.5587327178
 20
4.9475336795
 30
0.0
 10
3.5476249707
 20
4.9465753627
 30
0.0
 10
3.5371069998
 20
4.943804862
 30
0.0
 10
3.5276302992
 20
4.9394960551
 30
0.0
 10
3.5220143422
 20
4.9357177943
 30
0.0
 10
3.5194580249
 20
4.9336748991
 30
0.0
  0
SPLINE
  5
37F
100
AcDbEntity
  8
0
100
AcDbSpline
 62
7
  6
CONTINUOUS
 70
0
 71
3
 72
15
 73
11
 74
0
 42
0.0000001
 43
0.0000001
 44
0.0000000001
 40
0.0
 40
0.0
 40
0.0
 40
0.0
 40
0.1160743661
 40
0.2388579749
 40
0.3676206744
 40
0.5000093025
 40
0.632396035
 40
0.7611539504
 40
0.8839315753
 40
1.0
 40
1.0
 40
1.0
 40
1.0
 10
3.5194580271
 20
4.1312707544
 30
0.0
 10
3.5220142584
 20
4.1292279361
 30
0.0
 10
3.5276300415
 20
4.1254496912
 30
0.0
 10
3.5371066332
 20
4.1211410715
 30
0.0
 10
3.5476246204
 20
4.1183700725
 30
0.0
 10
3.5587327316
 20
4.1174123018
 30
0.0
 10
3.5698405698
 20
4.1183716391
 30
0.0
 10
3.5803578239
 20
4.1211440057
 30
0.0
 10
3.5898333924
 20
4.1254537278
 30
0.0
 10
3.5954483965
 20
4.1292325201
 30
0.0
 10
3.5980042343
 20
4.1312755625
 30
0.0
  0
SPLINE
  5
380
100
AcDbEntity
  8
0
100
AcDbSpline
 62
7
  6
CONTINUOUS
 70
0
 71
3
 72
15
 73
11
 74
0
 42
0.0000001
 43
0.0000001
 44
0.0000000001
 40
0.0
 40
0.0
 40
0.0
 40
0.0
 40
0.113233371
 40
0.2352632835
 40
0.3652111367
 40
0.5000011028
 40
0.6347907631
 40
0.7647378341
 40
0.886767152
 40
1.0
 40
1.0
 40
1.0
 40
1.0
 10
3.5180015485
 20
4.1343989354
 30
0.0
 10
3.5206120738
 20
4.1324029548
 30
0.0
 10
3.5263953457
 20
4.1287073746
 30
0.0
 10
3.5361765464
 20
4.1245101467
 30
0.0
 10
3.5471204836
 20
4.1217991725
 30
0.0
 10
3.5587282106
 20
4.1208593478
 30
0.0
 10
3.5703359128
 20
4.1217991975
 30
0.0
 10
3.581279796
 20
4.124510183
 30
0.0
 10
3.591060941
 20
4.1287073991
 30
0.0
 10
3.5968441837
 20
4.132402964
 30
0.0
 10
3.5994546969
 20
4.1343989354
 30
0.0
  0
SPLINE
  5
381
100
AcDbEntity
  8
0
100
AcDbSpline
 62
7
  6
CONTINUOUS
 70
0
 71
3
 72
15
 73
11
 74
0
 42
0.0000001
 43
0.0000001
 44
0.0000000001
 40
0.0
 40
0.0
 40
0.0
 40
0.0
 40
0.1109062127
 40
0.2324235751
 40
0.36335801
 40
0.5000011198
 40
0.6366439136
 40
0.7675775456
 40
0.8890943043
 40
1.0
 40
1.0
 40
1.0
 40
1.0
 10
3.5180015485
 20
4.1401587139
 30
0.0
 10
3.5206376813
 20
4.1383935865
 30
0.0
 10
3.5264709925
 20
4.1351400504
 30
0.0
 10
3.5362382129
 20
4.1314814667
 30
0.0
 10
3.5471552895
 20
4.1291205987
 30
0.0
 10
3.5587282104
 20
4.1283025578
 30
0.0
 10
3.5703011066
 20
4.1291206205
 30
0.0
 10
3.58121813
 20
4.1314814985
 30
0.0
 10
3.5909852949
 20
4.1351400721
 30
0.0
 10
3.5968185765
 20
4.1383935947
 30
0.0
 10
3.5994546969
 20
4.1401587139
 30
0.0
  0
SPLINE
  5
382
100
AcDbEntity
  8
0
100
AcDbSpline
 62
7
  6
CONTINUOUS
 70
0
 71
3
 72
15
 73
11
 74
0
 42
0.0000001
 43
0.0000001
 44
0.0000000001
 40
0.0
 40
0.0
 40
0.0
 40
0.0
 40
0.1086071268
 40
0.2296423503
 40
0.361552867
 40
0.5000011364
 40
0.6384490797
 40
0.7703587738
 40
0.8913933845
 40
1.0
 40
1.0
 40
1.0
 40
1.0
 10
3.5180015485
 20
4.1496966918
 30
0.0
 10
3.5206656664
 20
4.1481830963
 30
0.0
 10
3.5265480058
 20
4.1454091102
 30
0.0
 10
3.536297487
 20
4.1423202636
 30
0.0
 10
3.5471875632
 20
4.1403279367
 30
0.0
 10
3.5587282101
 20
4.1396377268
 30
0.0
 10
3.5702688326
 20
4.1403279551
 30
0.0
 10
3.5811588564
 20
4.1423202906
 30
0.0
 10
3.5909082822
 20
4.1454091288
 30
0.0
 10
3.5967905916
 20
4.1481831034
 30
0.0
 10
3.5994546969
 20
4.1496966918
 30
0.0
  0
SPLINE
  5
383
100
AcDbEntity
  8
0
100
AcDbSpline
 62
7
  6
CONTINUOUS
 70
0
 71
3
 72
15
 73
11
 74
0
 42
0.0000001
 43
0.0000001
 44
0.0000000001
 40
0.0
 40
0.0
 40
0.0
 40
0.0
 40
0.1064545857
 40
0.2270602663
 40
0.3598854896
 40
0.5000011517
 40
0.6401164788
 40
0.7729408611
 40
0.8935459203
 40
1.0
 40
1.0
 40
1.0
 40
1.0
 10
3.5180015485
 20
4.1629210131
 30
0.0
 10
3.5206946499
 20
4.161678897
 30
0.0
 10
3.5266220085
 20
4.159417742
 30
0.0
 10
3.5363514656
 20
4.1569226008
 30
0.0
 10
3.5472160012
 20
4.1553132639
 30
0.0
 10
3.5587282099
 20
4.1547556906
 30
0.0
 10
3.5702403944
 20
4.1553132787
 30
0.0
 10
3.5811048781
 20
4.1569226227
 30
0.0
 10
3.5908342801
 20
4.1594177572
 30
0.0
 10
3.5967616083
 20
4.1616789029
 30
0.0
 10
3.5994546969
 20
4.1629210131
 30
0.0
  0
SPLINE
  5
384
100
AcDbEntity
  8
0
100
AcDbSpline
 62
7
  6
CONTINUOUS
 70
0
 71
3
 72
19
 73
15
 74
0
 42
0.0000001
 43
0.0000001
 44
0.0000000001
 40
0.0
 40
0.0
 40
0.0
 40
0.0
 40
0.0503018646
 40
0.1045993527
 40
0.1628471993
 40
0.2248617807
 40
0.3584680972
 40
0.500001165
 40
0.6415338899
 40
0.7751393501
 40
0.8371535974
 40
0.895401149
 40
0.9496982904
 40
1.0
 40
1.0
 40
1.0
 40
1.0
 10
3.5180015485
 20
4.1797043203
 30
0.0
 10
3.5193103855
 20
4.179246411
 30
0.0
 10
3.522058238
 20
4.178367968
 30
0.0
 10
3.526396561
 20
4.1772085722
 30
0.0
 10
3.5310982014
 20
4.1761766624
 30
0.0
 10
3.5379930729
 20
4.1749684268
 30
0.0
 10
3.5472396901
 20
4.1739322621
 30
0.0
 10
3.5587282097
 20
4.173510834
 30
0.0
 10
3.5702167054
 20
4.173932273
 30
0.0
 10
3.5794632792
 20
4.1749684434
 30
0.0
 10
3.58635811
 20
4.1761766747
 30
0.0
 10
3.5910597233
 20
4.1772085822
 30
0.0
 10
3.5953980248
 20
4.1783679731
 30
0.0
 10
3.598145864
 20
4.1792464124
 30
0.0
 10
3.5994546969
 20
4.1797043203
 30
0.0
  0
SPLINE
  5
385
100
AcDbEntity
  8
0
100
AcDbSpline
 62
7
  6
CONTINUOUS
 70
0
 71
3
 72
21
 73
17
 74
0
 42
0.0000001
 43
0.0000001
 44
0.0000000001
 40
0.0
 40
0.0
 40
0.0
 40
0.0
 40
0.0493800488
 40
0.1031243502
 40
0.1611287375
 40
0.2231315496
 40
0.2887629028
 40
0.3573764802
 40
0.4999998963
 40
0.6426233778
 40
0.7112370559
 40
0.7768684988
 40
0.8388713081
 40
0.8968756673
 40
0.9506199551
 40
1.0
 40
1.0
 40
1.0
 40
1.0
 10
3.5180015485
 20
4.1998849812
 30
0.0
 10
3.5193157966
 20
4.1995759638
 30
0.0
 10
3.5220732032
 20
4.198984109
 30
0.0
 10
3.5264099555
 20
4.1982054344
 30
0.0
 10
3.5311104205
 20
4.197512694
 30
0.0
 10
3.5361517448
 20
4.1969189293
 30
0.0
 10
3.5414964815
 20
4.196439025
 30
0.0
 10
3.5490518746
 20
4.1959605213
 30
0.0
 10
3.558728116
 20
4.1957229742
 30
0.0
 10
3.5684043602
 20
4.1959605207
 30
0.0
 10
3.5759597602
 20
4.1964390253
 30
0.0
 10
3.5813045021
 20
4.1969189292
 30
0.0
 10
3.586345828
 20
4.1975126942
 30
0.0
 10
3.5910462917
 20
4.1982054348
 30
0.0
 10
3.5953830428
 20
4.1989841092
 30
0.0
 10
3.598140449
 20
4.1995759638
 30
0.0
 10
3.5994546969
 20
4.1998849812
 30
0.0
  0
SPLINE
  5
386
100
AcDbEntity
  8
0
100
AcDbSpline
 62
7
  6
CONTINUOUS
 70
0
 71
3
 72
15
 73
11
 74
0
 42
0.0000001
 43
0.0000001
 44
0.0000000001
 40
0.0
 40
0.0
 40
0.0
 40
0.0
 40
0.1021881741
 40
0.2220050789
 40
0.3566442375
 40
0.5000011815
 40
0.6433577731
 40
0.7779960557
 40
0.8978123218
 40
1.0
 40
1.0
 40
1.0
 40
1.0
 10
3.5180015485
 20
4.2232686447
 30
0.0
 10
3.5207617349
 20
4.2229425752
 30
0.0
 10
3.5267732807
 20
4.222359763
 30
0.0
 10
3.5364541109
 20
4.221727339
 30
0.0
 10
3.5472676787
 20
4.2213190988
 30
0.0
 10
3.5587282096
 20
4.2211775295
 30
0.0
 10
3.5701887166
 20
4.2213191026
 30
0.0
 10
3.5810022334
 20
4.2217273446
 30
0.0
 10
3.5906830089
 20
4.2223597669
 30
0.0
 10
3.5966945239
 20
4.2229425768
 30
0.0
 10
3.5994546969
 20
4.2232686447
 30
0.0
  0
SPLINE
  5
387
100
AcDbEntity
  8
0
100
AcDbSpline
 62
7
  6
CONTINUOUS
 70
0
 71
3
 72
15
 73
11
 74
0
 42
0.0000001
 43
0.0000001
 44
0.0000000001
 40
0.0
 40
0.0
 40
0.0
 40
0.0
 40
0.1021917411
 40
0.2220108419
 40
0.356648566
 40
0.4999989325
 40
0.6433498239
 40
0.7779881657
 40
0.8978078617
 40
1.0
 40
1.0
 40
1.0
 40
1.0
 10
3.5994546969
 20
4.8416770074
 30
0.0
 10
3.5966944142
 20
4.8420030884
 30
0.0
 10
3.5906827116
 20
4.8425859082
 30
0.0
 10
3.581001764
 20
4.8432183458
 30
0.0
 10
3.5701883526
 20
4.8436265229
 30
0.0
 10
3.5587281956
 20
4.843768167
 30
0.0
 10
3.5472680216
 20
4.8436265272
 30
0.0
 10
3.536454563
 20
4.8432183497
 30
0.0
 10
3.5267735714
 20
4.8425859118
 30
0.0
 10
3.520761842
 20
4.8420030896
 30
0.0
 10
3.5180015485
 20
4.8416770074
 30
0.0
  0
SPLINE
  5
388
100
AcDbEntity
  8
0
100
AcDbSpline
 62
7
  6
CONTINUOUS
 70
0
 71
3
 72
21
 73
17
 74
0
 42
0.0000001
 43
0.0000001
 44
0.0000000001
 40
0.0
 40
0.0
 40
0.0
 40
0.0
 40
0.0493811257
 40
0.1031270003
 40
0.1611320409
 40
0.2231347868
 40
0.2887642207
 40
0.3573765566
 40
0.5000000503
 40
0.6426235007
 40
0.7112357671
 40
0.7768651338
 40
0.8388678955
 40
0.8968729716
 40
0.9506188665
 40
1.0
 40
1.0
 40
1.0
 40
1.0
 10
3.5994546969
 20
4.865060671
 30
0.0
 10
3.5981404202
 20
4.8653696951
 30
0.0
 10
3.5953829411
 20
4.8659615573
 30
0.0
 10
3.5910460999
 20
4.8667402478
 30
0.0
 10
3.5863455759
 20
4.8674329935
 30
0.0
 10
3.5813042861
 20
4.8680267388
 30
0.0
 10
3.5759596382
 20
4.868506646
 30
0.0
 10
3.5684043281
 20
4.8689851276
 30
0.0
 10
3.5587281198
 20
4.8692226811
 30
0.0
 10
3.5490519133
 20
4.8689851272
 30
0.0
 10
3.5414966081
 20
4.8685066465
 30
0.0
 10
3.5361519636
 20
4.868026739
 30
0.0
 10
3.5311106742
 20
4.867432994
 30
0.0
 10
3.5264101482
 20
4.8667402483
 30
0.0
 10
3.5220733053
 20
4.8659615576
 30
0.0
 10
3.5193158254
 20
4.8653696952
 30
0.0
 10
3.5180015485
 20
4.865060671
 30
0.0
  0
SPLINE
  5
389
100
AcDbEntity
  8
0
100
AcDbSpline
 62
7
  6
CONTINUOUS
 70
0
 71
3
 72
19
 73
15
 74
0
 42
0.0000001
 43
0.0000001
 44
0.0000000001
 40
0.0
 40
0.0
 40
0.0
 40
0.0
 40
0.0503048559
 40
0.1046029601
 40
0.1628525376
 40
0.2248675467
 40
0.3584723411
 40
0.499998947
 40
0.6415260661
 40
0.7751314655
 40
0.8371468027
 40
0.8953966378
 40
0.949695011
 40
1.0
 40
1.0
 40
1.0
 40
1.0
 10
3.5994546969
 20
4.8852413318
 30
0.0
 10
3.5981457821
 20
4.8856992684
 30
0.0
 10
3.5953978344
 20
4.8865777419
 30
0.0
 10
3.5910593635
 20
4.8877371544
 30
0.0
 10
3.5863576488
 20
4.8887690813
 30
0.0
 10
3.579462755
 20
4.8899773029
 30
0.0
 10
3.5702163339
 20
4.8910133006
 30
0.0
 10
3.5587281958
 20
4.8914349491
 30
0.0
 10
3.5472400403
 20
4.8910133132
 30
0.0
 10
3.537993579
 20
4.8899773148
 30
0.0
 10
3.5310986522
 20
4.888769092
 30
0.0
 10
3.5263969138
 20
4.8877371628
 30
0.0
 10
3.5220584252
 20
4.8865777461
 30
0.0
 10
3.5193104668
 20
4.8856992696
 30
0.0
 10
3.5180015485
 20
4.8852413318
 30
0.0
  0
SPLINE
  5
38A
100
AcDbEntity
  8
0
100
AcDbSpline
 62
7
  6
CONTINUOUS
 70
0
 71
3
 72
15
 73
11
 74
0
 42
0.0000001
 43
0.0000001
 44
0.0000000001
 40
0.0
 40
0.0
 40
0.0
 40
0.0
 40
0.106458222
 40
0.2270660293
 40
0.3598896634
 40
0.4999989588
 40
0.6401087581
 40
0.7729329871
 40
0.8935413724
 40
1.0
 40
1.0
 40
1.0
 40
1.0
 10
3.5994546969
 20
4.9020246391
 30
0.0
 10
3.5967615035
 20
4.9032667976
 30
0.0
 10
3.5908339859
 20
4.9055279837
 30
0.0
 10
3.5811044155
 20
4.9080231785
 30
0.0
 10
3.5702400162
 20
4.9096322713
 30
0.0
 10
3.558728196
 20
4.9101901335
 30
0.0
 10
3.5472163579
 20
4.9096322879
 30
0.0
 10
3.5363519115
 20
4.908023194
 30
0.0
 10
3.526622296
 20
4.9055279974
 30
0.0
 10
3.5206947522
 20
4.9032668024
 30
0.0
 10
3.5180015485
 20
4.9020246391
 30
0.0
  0
SPLINE
  5
38B
100
AcDbEntity
  8
0
100
AcDbSpline
 62
7
  6
CONTINUOUS
 70
0
 71
3
 72
15
 73
11
 74
0
 42
0.0000001
 43
0.0000001
 44
0.0000000001
 40
0.0
 40
0.0
 40
0.0
 40
0.0
 40
0.1086107992
 40
0.2296481146
 40
0.3615569602
 40
0.4999989723
 40
0.6384414773
 40
0.7703509062
 40
0.8913887907
 40
1.0
 40
1.0
 40
1.0
 40
1.0
 10
3.5994546969
 20
4.9152489604
 30
0.0
 10
3.5967904889
 20
4.9167626071
 30
0.0
 10
3.5909079897
 20
4.9195366319
 30
0.0
 10
3.5811583975
 20
4.9226255452
 30
0.0
 10
3.5702684467
 20
4.9246175723
 30
0.0
 10
3.5587281962
 20
4.9253081365
 30
0.0
 10
3.5471879273
 20
4.9246175928
 30
0.0
 10
3.5362979295
 20
4.9226255644
 30
0.0
 10
3.5265482916
 20
4.9195366487
 30
0.0
 10
3.5206657666
 20
4.9167626129
 30
0.0
 10
3.5180015485
 20
4.9152489604
 30
0.0
  0
SPLINE
  5
38C
100
AcDbEntity
  8
0
100
AcDbSpline
 62
7
  6
CONTINUOUS
 70
0
 71
3
 72
15
 73
11
 74
0
 42
0.0000001
 43
0.0000001
 44
0.0000000001
 40
0.0
 40
0.0
 40
0.0
 40
0.0
 40
0.1109099247
 40
0.2324293415
 40
0.363362015
 40
0.4999989869
 40
0.6366364397
 40
0.7675696836
 40
0.8890896603
 40
1.0
 40
1.0
 40
1.0
 40
1.0
 10
3.5994546969
 20
4.9247869382
 30
0.0
 10
3.5968184758
 20
4.9265521249
 30
0.0
 10
3.5909850043
 20
4.9298057071
 30
0.0
 10
3.5812176754
 20
4.9334643701
 30
0.0
 10
3.5703007121
 20
4.9358248861
 30
0.0
 10
3.5587281965
 20
4.9366433422
 30
0.0
 10
3.5471556619
 20
4.9358249104
 30
0.0
 10
3.5362386515
 20
4.9334643928
 30
0.0
 10
3.5264712763
 20
4.9298057266
 30
0.0
 10
3.5206377795
 20
4.9265521315
 30
0.0
 10
3.5180015485
 20
4.9247869382
 30
0.0
  0
SPLINE
  5
38D
100
AcDbEntity
  8
0
100
AcDbSpline
 62
7
  6
CONTINUOUS
 70
0
 71
3
 72
15
 73
11
 74
0
 42
0.0000001
 43
0.0000001
 44
0.0000000001
 40
0.0
 40
0.0
 40
0.0
 40
0.0
 40
0.1132371239
 40
0.2352690529
 40
0.3652150503
 40
0.4999990018
 40
0.6347834219
 40
0.7647299765
 40
0.8867624562
 40
1.0
 40
1.0
 40
1.0
 40
1.0
 10
3.5994546969
 20
4.9305467168
 30
0.0
 10
3.5968440849
 20
4.9325427636
 30
0.0
 10
3.5910606523
 20
4.9362383968
 30
0.0
 10
3.5812793461
 20
4.9404357163
 30
0.0
 10
3.5703355091
 20
4.9431462903
 30
0.0
 10
3.5587281968
 20
4.944086586
 30
0.0
 10
3.5471208648
 20
4.943146318
 30
0.0
 10
3.5361769807
 20
4.9404357423
 30
0.0
 10
3.5263956276
 20
4.9362384189
 30
0.0
 10
3.5206121702
 20
4.932542771
 30
0.0
 10
3.5180015485
 20
4.9305467168
 30
0.0
  0
SPLINE
  5
38E
100
AcDbEntity
  8
0
100
AcDbSpline
 62
7
  6
CONTINUOUS
 70
0
 71
3
 72
15
 73
11
 74
0
 42
0.0000001
 43
0.0000001
 44
0.0000000001
 40
0.0
 40
0.0
 40
0.0
 40
0.0
 40
0.1176029909
 40
0.2406627887
 40
0.368763434
 40
0.4999990305
 40
0.6312350712
 40
0.7593362484
 40
0.8823965794
 40
1.0
 40
1.0
 40
1.0
 40
1.0
 10
3.5994546969
 20
4.1343989354
 30
0.0
 10
3.5968859222
 20
4.1320057232
 30
0.0
 10
3.5911958832
 20
4.1275500663
 30
0.0
 10
3.5813993509
 20
4.1223961987
 30
0.0
 10
3.5704071552
 20
4.1190575796
 30
0.0
 10
3.5587281974
 20
4.1178972029
 30
0.0
 10
3.5470492185
 20
4.1190575457
 30
0.0
 10
3.5360569757
 20
4.122396167
 30
0.0
 10
3.5262603954
 20
4.1275500401
 30
0.0
 10
3.5205703326
 20
4.1320057144
 30
0.0
 10
3.5180015485
 20
4.1343989354
 30
0.0
  0
SPLINE
  5
38F
100
AcDbEntity
  8
0
100
AcDbSpline
 62
7
  6
CONTINUOUS
 70
0
 71
3
 72
23
 73
19
 74
0
 42
0.0000001
 43
0.0000001
 44
0.0000000001
 40
0.0
 40
0.0
 40
0.0
 40
0.0
 40
0.0592494777
 40
0.1194772546
 40
0.1807276115
 40
0.2430043895
 40
0.3062461693
 40
0.3703157211
 40
0.434995071
 40
0.4999990387
 40
0.5650031601
 40
0.6296827984
 40
0.6937526074
 40
0.7569946492
 40
0.8192717181
 40
0.8805223109
 40
0.940750372
 40
1.0
 40
1.0
 40
1.0
 40
1.0
 10
3.5994546969
 20
4.1401587139
 30
0.0
 10
3.5981875705
 20
4.1388889115
 30
0.0
 10
3.5955224823
 20
4.1364351937
 30
0.0
 10
3.5911803668
 20
4.1330937688
 30
0.0
 10
3.5864701502
 20
4.1301173235
 30
0.0
 10
3.5814136912
 20
4.1275656925
 30
0.0
 10
3.5760479012
 20
4.1254992416
 30
0.0
 10
3.570427693
 20
4.1239745977
 30
0.0
 10
3.5646255058
 20
4.1230387042
 30
0.0
 10
3.5587282055
 20
4.122723006
 30
0.0
 10
3.5528308943
 20
4.1230386756
 30
0.0
 10
3.5470286846
 20
4.1239745658
 30
0.0
 10
3.5414084511
 20
4.1254992092
 30
0.0
 10
3.5360426341
 20
4.1275656582
 30
0.0
 10
3.5309861502
 20
4.1301172931
 30
0.0
 10
3.5262759091
 20
4.1330937458
 30
0.0
 10
3.5219337766
 20
4.1364351822
 30
0.0
 10
3.5192686782
 20
4.1388889082
 30
0.0
 10
3.5180015485
 20
4.1401587139
 30
0.0
  0
SPLINE
  5
390
100
AcDbEntity
  8
0
100
AcDbSpline
 62
7
  6
CONTINUOUS
 70
0
 71
3
 72
23
 73
19
 74
0
 42
0.0000001
 43
0.0000001
 44
0.0000000001
 40
0.0
 40
0.0
 40
0.0
 40
0.0
 40
0.0602226318
 40
0.1211246989
 40
0.1827398827
 40
0.2450755233
 40
0.3080919137
 40
0.371694919
 40
0.4357313785
 40
0.4999990494
 40
0.5642668704
 40
0.6283036131
 40
0.6919068711
 40
0.754923518
 40
0.8172594453
 40
0.8788748628
 40
0.9397772159
 40
1.0
 40
1.0
 40
1.0
 40
1.0
 10
3.5994546969
 20
4.1496966918
 30
0.0
 10
3.598190762
 20
4.148353233
 30
0.0
 10
3.5955332127
 20
4.1457568519
 30
0.0
 10
3.5911921599
 20
4.1422118099
 30
0.0
 10
3.5864824032
 20
4.1390533656
 30
0.0
 10
3.5814255331
 20
4.1363450909
 30
0.0
 10
3.5760582526
 20
4.1341512483
 30
0.0
 10
3.5704354215
 20
4.1325322443
 30
0.0
 10
3.5646296501
 20
4.1315382493
 30
0.0
 10
3.5587282056
 20
4.1312029184
 30
0.0
 10
3.55282675
 20
4.131538219
 30
0.0
 10
3.5470209561
 20
4.1325322104
 30
0.0
 10
3.5413980998
 20
4.1341512139
 30
0.0
 10
3.5360307921
 20
4.1363450545
 30
0.0
 10
3.5309738971
 20
4.1390533334
 30
0.0
 10
3.5262641158
 20
4.1422117856
 30
0.0
 10
3.5219230462
 20
4.1457568398
 30
0.0
 10
3.5192654866
 20
4.1483532296
 30
0.0
 10
3.5180015485
 20
4.1496966918
 30
0.0
  0
SPLINE
  5
391
100
AcDbEntity
  8
0
100
AcDbSpline
 62
7
  6
CONTINUOUS
 70
0
 71
3
 72
23
 73
19
 74
0
 42
0.0000001
 43
0.0000001
 44
0.0000000001
 40
0.0
 40
0.0
 40
0.0
 40
0.0
 40
0.0610319174
 40
0.1224986371
 40
0.184422725
 40
0.2468120235
 40
0.3096428559
 40
0.372855813
 40
0.4363518135
 40
0.4999990584
 40
0.5636464503
 40
0.6271427297
 40
0.6903559356
 40
0.7531870198
 40
0.8155766017
 40
0.8775009213
 40
0.9389679286
 40
1.0
 40
1.0
 40
1.0
 40
1.0
 10
3.5994546969
 20
4.1629210131
 30
0.0
 10
3.5981932709
 20
4.1615164315
 30
0.0
 10
3.5955417784
 20
4.1588017815
 30
0.0
 10
3.5912017538
 20
4.1550874956
 30
0.0
 10
3.5864925625
 20
4.1517777161
 30
0.0
 10
3.5814355295
 20
4.1489391003
 30
0.0
 10
3.5760671298
 20
4.1466391585
 30
0.0
 10
3.5704421322
 20
4.1449414844
 30
0.0
 10
3.5646332774
 20
4.1438990048
 30
0.0
 10
3.5587282057
 20
4.1435472819
 30
0.0
 10
3.5528231227
 20
4.143898973
 30
0.0
 10
3.5470142454
 20
4.1449414489
 30
0.0
 10
3.5413892227
 20
4.1466391224
 30
0.0
 10
3.5360207956
 20
4.1489390621
 30
0.0
 10
3.5309637378
 20
4.1517776824
 30
0.0
 10
3.5262545218
 20
4.1550874703
 30
0.0
 10
3.5219144805
 20
4.1588017688
 30
0.0
 10
3.5192629778
 20
4.1615164279
 30
0.0
 10
3.5180015485
 20
4.1629210131
 30
0.0
  0
SPLINE
  5
392
100
AcDbEntity
  8
0
100
AcDbSpline
 62
7
  6
CONTINUOUS
 70
0
 71
3
 72
23
 73
19
 74
0
 42
0.0000001
 43
0.0000001
 44
0.0000000001
 40
0.0
 40
0.0
 40
0.0
 40
0.0
 40
0.061668029
 40
0.1235810107
 40
0.1857513916
 40
0.2481859038
 40
0.3108721518
 40
0.3737772576
 40
0.4368447225
 40
0.4999990656
 40
0.5631535532
 40
0.6262212935
 40
0.6891266449
 40
0.7518131411
 40
0.814247934
 40
0.8764185452
 40
0.9383318158
 40
1.0
 40
1.0
 40
1.0
 40
1.0
 10
3.5994546969
 20
4.1797043203
 30
0.0
 10
3.598195156
 20
4.1782516503
 30
0.0
 10
3.5955482914
 20
4.175444029
 30
0.0
 10
3.5912091581
 20
4.1715964563
 30
0.0
 10
3.5865005237
 20
4.168167461
 30
0.0
 10
3.5814434788
 20
4.1652261126
 30
0.0
 10
3.5760742821
 20
4.1628424801
 30
0.0
 10
3.5704475957
 20
4.1610826946
 30
0.0
 10
3.5646362506
 20
4.1600019033
 30
0.0
 10
3.5587282058
 20
4.1596372211
 30
0.0
 10
3.5528201495
 20
4.1600018704
 30
0.0
 10
3.5470087819
 20
4.1610826578
 30
0.0
 10
3.5413820704
 20
4.1628424427
 30
0.0
 10
3.5360128463
 20
4.1652260731
 30
0.0
 10
3.5309557765
 20
4.1681674261
 30
0.0
 10
3.5262471173
 20
4.1715964301
 30
0.0
 10
3.5219079674
 20
4.175444016
 30
0.0
 10
3.5192610926
 20
4.1782516467
 30
0.0
 10
3.5180015485
 20
4.1797043203
 30
0.0
  0
SPLINE
  5
393
100
AcDbEntity
  8
0
100
AcDbSpline
 62
7
  6
CONTINUOUS
 70
0
 71
3
 72
23
 73
19
 74
0
 42
0.0000001
 43
0.0000001
 44
0.0000000001
 40
0.0
 40
0.0
 40
0.0
 40
0.0
 40
0.0621253733
 40
0.1243605061
 40
0.1867098521
 40
0.2491785396
 40
0.3117615558
 40
0.3744446577
 40
0.4372019863
 40
0.4999990707
 40
0.5627962979
 40
0.6255538993
 40
0.6882372448
 40
0.7508205064
 40
0.8132894726
 40
0.875639048
 40
0.9378744706
 40
1.0
 40
1.0
 40
1.0
 40
1.0
 10
3.5994546969
 20
4.1998849812
 30
0.0
 10
3.5981964665
 20
4.1983976627
 30
0.0
 10
3.5955528581
 20
4.1955230959
 30
0.0
 10
3.5912144073
 20
4.1915794303
 30
0.0
 10
3.5865062325
 20
4.188064471
 30
0.0
 10
3.5814492428
 20
4.1850490156
 30
0.0
 10
3.5760795208
 20
4.1826049758
 30
0.0
 10
3.57045163
 20
4.1808003256
 30
0.0
 10
3.5646384577
 20
4.1796918416
 30
0.0
 10
3.5587282059
 20
4.179317788
 30
0.0
 10
3.5528179424
 20
4.1796918078
 30
0.0
 10
3.5470047475
 20
4.1808002879
 30
0.0
 10
3.5413768317
 20
4.1826049375
 30
0.0
 10
3.5360070822
 20
4.1850489751
 30
0.0
 10
3.5309500676
 20
4.1880644352
 30
0.0
 10
3.5262418681
 20
4.1915794035
 30
0.0
 10
3.5219034007
 20
4.1955230825
 30
0.0
 10
3.5192597821
 20
4.198397659
 30
0.0
 10
3.5180015485
 20
4.1998849812
 30
0.0
  0
SPLINE
  5
394
100
AcDbEntity
  8
0
100
AcDbSpline
 62
7
  6
CONTINUOUS
 70
0
 71
3
 72
23
 73
19
 74
0
 42
0.0000001
 43
0.0000001
 44
0.0000000001
 40
0.0
 40
0.0
 40
0.0
 40
0.0
 40
0.0624008062
 40
0.124830472
 40
0.1872883581
 40
0.2497783052
 40
0.31229945
 40
0.3748485881
 40
0.4374183167
 40
0.4999990739
 40
0.5625799727
 40
0.6251499726
 40
0.6876993529
 40
0.7502207415
 40
0.8127109662
 40
0.875169081
 40
0.9375990371
 40
1.0
 40
1.0
 40
1.0
 40
1.0
 10
3.5994546969
 20
4.2232686447
 30
0.0
 10
3.5981972382
 20
4.2217604158
 30
0.0
 10
3.5955555625
 20
4.2188454637
 30
0.0
 10
3.5912175386
 20
4.2148437863
 30
0.0
 10
3.586509664
 20
4.2112769246
 30
0.0
 10
3.5814527334
 20
4.2082167144
 30
0.0
 10
3.5760827151
 20
4.2057361784
 30
0.0
 10
3.5704541037
 20
4.2039044084
 30
0.0
 10
3.5646398159
 20
4.2027791763
 30
0.0
 10
3.5587282059
 20
4.2023994533
 30
0.0
 10
3.5528165842
 20
4.2027791421
 30
0.0
 10
3.5470022739
 20
4.2039043701
 30
0.0
 10
3.5413736375
 20
4.2057361395
 30
0.0
 10
3.5360035915
 20
4.2082166733
 30
0.0
 10
3.5309466362
 20
4.2112768883
 30
0.0
 10
3.5262387367
 20
4.2148437592
 30
0.0
 10
3.5219006963
 20
4.2188454502
 30
0.0
 10
3.5192590104
 20
4.221760412
 30
0.0
 10
3.5180015485
 20
4.2232686447
 30
0.0
  0
SPLINE
  5
395
100
AcDbEntity
  8
0
100
AcDbSpline
 62
7
  6
CONTINUOUS
 70
0
 71
3
 72
23
 73
19
 74
0
 42
0.0000001
 43
0.0000001
 44
0.0000000001
 40
0.0
 40
0.0
 40
0.0
 40
0.0
 40
0.062492772
 40
0.1249874778
 40
0.1874817318
 40
0.2499788913
 40
0.3124794285
 40
0.3749837933
 40
0.4374907452
 40
0.4999990749
 40
0.5625075459
 40
0.6250147686
 40
0.6875193751
 40
0.7500201556
 40
0.8125175923
 40
0.8750120748
 40
0.9375070711
 40
1.0
 40
1.0
 40
1.0
 40
1.0
 10
3.5994546969
 20
4.2496301136
 30
0.0
 10
3.598197493
 20
4.2481148941
 30
0.0
 10
3.5955564579
 20
4.2451864436
 30
0.0
 10
3.5912185791
 20
4.2411653696
 30
0.0
 10
3.5865108085
 20
4.237581153
 30
0.0
 10
3.5814539021
 20
4.2345059761
 30
0.0
 10
3.5760837882
 20
4.2320132327
 30
0.0
 10
3.5704549371
 20
4.2301723891
 30
0.0
 10
3.5646402744
 20
4.2290415522
 30
0.0
 10
3.5587282059
 20
4.2286599316
 30
0.0
 10
3.5528161257
 20
4.2290415178
 30
0.0
 10
3.5470014405
 20
4.2301723507
 30
0.0
 10
3.5413725643
 20
4.2320131936
 30
0.0
 10
3.5360024228
 20
4.2345059348
 30
0.0
 10
3.5309454916
 20
4.2375811165
 30
0.0
 10
3.5262376962
 20
4.2411653423
 30
0.0
 10
3.5218998009
 20
4.24518643
 30
0.0
 10
3.5192587556
 20
4.2481148903
 30
0.0
 10
3.5180015485
 20
4.2496301136
 30
0.0
  0
SPLINE
  5
396
100
AcDbEntity
  8
0
100
AcDbSpline
 62
7
  6
CONTINUOUS
 70
0
 71
3
 72
23
 73
19
 74
0
 42
0.0000001
 43
0.0000001
 44
0.0000000001
 40
0.0
 40
0.0
 40
0.0
 40
0.0
 40
0.0624008062
 40
0.124830472
 40
0.1872883581
 40
0.2497783052
 40
0.31229945
 40
0.3748485881
 40
0.4374183167
 40
0.4999990739
 40
0.5625799727
 40
0.6251499726
 40
0.6876993529
 40
0.7502207415
 40
0.8127109662
 40
0.875169081
 40
0.9375990371
 40
1.0
 40
1.0
 40
1.0
 40
1.0
 10
3.5994546969
 20
4.2787155124
 30
0.0
 10
3.5981972382
 20
4.2772072835
 30
0.0
 10
3.5955555625
 20
4.2742923314
 30
0.0
 10
3.5912175386
 20
4.270290654
 30
0.0
 10
3.586509664
 20
4.2667237923
 30
0.0
 10
3.5814527334
 20
4.2636635821
 30
0.0
 10
3.5760827151
 20
4.2611830461
 30
0.0
 10
3.5704541037
 20
4.2593512761
 30
0.0
 10
3.5646398159
 20
4.258226044
 30
0.0
 10
3.5587282059
 20
4.257846321
 30
0.0
 10
3.5528165842
 20
4.2582260098
 30
0.0
 10
3.5470022739
 20
4.2593512378
 30
0.0
 10
3.5413736375
 20
4.2611830072
 30
0.0
 10
3.5360035915
 20
4.263663541
 30
0.0
 10
3.5309466362
 20
4.266723756
 30
0.0
 10
3.5262387367
 20
4.2702906268
 30
0.0
 10
3.5219006963
 20
4.2742923178
 30
0.0
 10
3.5192590104
 20
4.2772072797
 30
0.0
 10
3.5180015485
 20
4.2787155124
 30
0.0
  0
SPLINE
  5
397
100
AcDbEntity
  8
0
100
AcDbSpline
 62
7
  6
CONTINUOUS
 70
0
 71
3
 72
15
 73
11
 74
0
 42
0.0000001
 43
0.0000001
 44
0.0000000001
 40
0.0
 40
0.0
 40
0.0
 40
0.0
 40
0.1021881741
 40
0.2220050789
 40
0.3566442375
 40
0.5000011815
 40
0.6433577731
 40
0.7779960557
 40
0.8978123218
 40
1.0
 40
1.0
 40
1.0
 40
1.0
 10
3.5180015485
 20
4.2787155124
 30
0.0
 10
3.5207617349
 20
4.279041582
 30
0.0
 10
3.5267732807
 20
4.2796243942
 30
0.0
 10
3.5364541109
 20
4.2802568182
 30
0.0
 10
3.5472676787
 20
4.2806650583
 30
0.0
 10
3.5587282096
 20
4.2808066277
 30
0.0
 10
3.5701887166
 20
4.2806650546
 30
0.0
 10
3.5810022334
 20
4.2802568126
 30
0.0
 10
3.5906830089
 20
4.2796243903
 30
0.0
 10
3.5966945239
 20
4.2790415804
 30
0.0
 10
3.5994546969
 20
4.2787155124
 30
0.0
  0
SPLINE
  5
398
100
AcDbEntity
  8
0
100
AcDbSpline
 62
7
  6
CONTINUOUS
 70
0
 71
3
 72
23
 73
19
 74
0
 42
0.0000001
 43
0.0000001
 44
0.0000000001
 40
0.0
 40
0.0
 40
0.0
 40
0.0
 40
0.0621253733
 40
0.1243605061
 40
0.1867098521
 40
0.2491785396
 40
0.3117615558
 40
0.3744446577
 40
0.4372019863
 40
0.4999990707
 40
0.5627962979
 40
0.6255538993
 40
0.6882372448
 40
0.7508205064
 40
0.8132894726
 40
0.875639048
 40
0.9378744706
 40
1.0
 40
1.0
 40
1.0
 40
1.0
 10
3.5994546969
 20
4.3102447329
 30
0.0
 10
3.5981964665
 20
4.3087574144
 30
0.0
 10
3.5955528581
 20
4.3058828476
 30
0.0
 10
3.5912144073
 20
4.301939182
 30
0.0
 10
3.5865062325
 20
4.2984242227
 30
0.0
 10
3.5814492428
 20
4.2954087673
 30
0.0
 10
3.5760795208
 20
4.2929647275
 30
0.0
 10
3.57045163
 20
4.2911600773
 30
0.0
 10
3.5646384577
 20
4.2900515933
 30
0.0
 10
3.5587282059
 20
4.2896775397
 30
0.0
 10
3.5528179424
 20
4.2900515595
 30
0.0
 10
3.5470047475
 20
4.2911600396
 30
0.0
 10
3.5413768317
 20
4.2929646892
 30
0.0
 10
3.5360070822
 20
4.2954087268
 30
0.0
 10
3.5309500676
 20
4.298424187
 30
0.0
 10
3.5262418681
 20
4.3019391552
 30
0.0
 10
3.5219034007
 20
4.3058828342
 30
0.0
 10
3.5192597821
 20
4.3087574107
 30
0.0
 10
3.5180015485
 20
4.3102447329
 30
0.0
  0
SPLINE
  5
399
100
AcDbEntity
  8
0
100
AcDbSpline
 62
7
  6
CONTINUOUS
 70
0
 71
3
 72
19
 73
15
 74
0
 42
0.0000001
 43
0.0000001
 44
0.0000000001
 40
0.0
 40
0.0
 40
0.0
 40
0.0
 40
0.0494007089
 40
0.1031287462
 40
0.1611071645
 40
0.2231169338
 40
0.3573526294
 40
0.5000011751
 40
0.6426493721
 40
0.7768841992
 40
0.8388936315
 40
0.896871752
 40
0.9505994441
 40
1.0
 40
1.0
 40
1.0
 40
1.0
 10
3.5180015485
 20
4.3102447329
 30
0.0
 10
3.5193163156
 20
4.3105538723
 30
0.0
 10
3.52207375
 20
4.3111458686
 30
0.0
 10
3.5264098575
 20
4.3119241845
 30
0.0
 10
3.5311092419
 20
4.312616997
 30
0.0
 10
3.5380129134
 20
4.3134296183
 30
0.0
 10
3.5472570217
 20
4.3141245453
 30
0.0
 10
3.5587282096
 20
4.3144069938
 30
0.0
 10
3.5701993736
 20
4.314124538
 30
0.0
 10
3.579443439
 20
4.3134296072
 30
0.0
 10
3.5863470694
 20
4.3126169887
 30
0.0
 10
3.5910464269
 20
4.3119241777
 30
0.0
 10
3.595382513
 20
4.3111458651
 30
0.0
 10
3.5981399339
 20
4.3105538713
 30
0.0
 10
3.5994546969
 20
4.3102447329
 30
0.0
  0
SPLINE
  5
39A
100
AcDbEntity
  8
0
100
AcDbSpline
 62
7
  6
CONTINUOUS
 70
0
 71
3
 72
23
 73
19
 74
0
 42
0.0000001
 43
0.0000001
 44
0.0000000001
 40
0.0
 40
0.0
 40
0.0
 40
0.0
 40
0.061668029
 40
0.1235810107
 40
0.1857513916
 40
0.2481859038
 40
0.3108721518
 40
0.3737772576
 40
0.4368447225
 40
0.4999990656
 40
0.5631535532
 40
0.6262212935
 40
0.6891266449
 40
0.7518131411
 40
0.814247934
 40
0.8764185452
 40
0.9383318158
 40
1.0
 40
1.0
 40
1.0
 40
1.0
 10
3.5994546969
 20
4.3439141314
 30
0.0
 10
3.598195156
 20
4.3424614614
 30
0.0
 10
3.5955482914
 20
4.33965384
 30
0.0
 10
3.5912091581
 20
4.3358062674
 30
0.0
 10
3.5865005237
 20
4.332377272
 30
0.0
 10
3.5814434788
 20
4.3294359236
 30
0.0
 10
3.5760742821
 20
4.3270522911
 30
0.0
 10
3.5704475957
 20
4.3252925056
 30
0.0
 10
3.5646362506
 20
4.3242117143
 30
0.0
 10
3.5587282058
 20
4.3238470321
 30
0.0
 10
3.5528201495
 20
4.3242116814
 30
0.0
 10
3.5470087819
 20
4.3252924688
 30
0.0
 10
3.5413820704
 20
4.3270522537
 30
0.0
 10
3.5360128463
 20
4.3294358841
 30
0.0
 10
3.5309557765
 20
4.3323772371
 30
0.0
 10
3.5262471173
 20
4.3358062411
 30
0.0
 10
3.5219079674
 20
4.339653827
 30
0.0
 10
3.5192610926
 20
4.3424614577
 30
0.0
 10
3.5180015485
 20
4.3439141314
 30
0.0
  0
SPLINE
  5
39B
100
AcDbEntity
  8
0
100
AcDbSpline
 62
7
  6
CONTINUOUS
 70
0
 71
3
 72
19
 73
15
 74
0
 42
0.0000001
 43
0.0000001
 44
0.0000000001
 40
0.0
 40
0.0
 40
0.0
 40
0.0
 40
0.0503018646
 40
0.1045993527
 40
0.1628471993
 40
0.2248617807
 40
0.3584680972
 40
0.500001165
 40
0.6415338899
 40
0.7751393501
 40
0.8371535974
 40
0.895401149
 40
0.9496982904
 40
1.0
 40
1.0
 40
1.0
 40
1.0
 10
3.5180015485
 20
4.3439141314
 30
0.0
 10
3.5193103855
 20
4.3443720407
 30
0.0
 10
3.522058238
 20
4.3452504837
 30
0.0
 10
3.526396561
 20
4.3464098795
 30
0.0
 10
3.5310982014
 20
4.3474417893
 30
0.0
 10
3.5379930729
 20
4.3486500249
 30
0.0
 10
3.5472396901
 20
4.3496861897
 30
0.0
 10
3.5587282097
 20
4.3501076177
 30
0.0
 10
3.5702167054
 20
4.3496861787
 30
0.0
 10
3.5794632792
 20
4.3486500083
 30
0.0
 10
3.58635811
 20
4.347441777
 30
0.0
 10
3.5910597233
 20
4.3464098695
 30
0.0
 10
3.5953980248
 20
4.3452504786
 30
0.0
 10
3.598145864
 20
4.3443720393
 30
0.0
 10
3.5994546969
 20
4.3439141314
 30
0.0
  0
SPLINE
  5
39C
100
AcDbEntity
  8
0
100
AcDbSpline
 62
7
  6
CONTINUOUS
 70
0
 71
3
 72
23
 73
19
 74
0
 42
0.0000001
 43
0.0000001
 44
0.0000000001
 40
0.0
 40
0.0
 40
0.0
 40
0.0
 40
0.0610319174
 40
0.1224986371
 40
0.184422725
 40
0.2468120235
 40
0.3096428559
 40
0.372855813
 40
0.4363518135
 40
0.4999990584
 40
0.5636464503
 40
0.6271427297
 40
0.6903559356
 40
0.7531870198
 40
0.8155766017
 40
0.8775009213
 40
0.9389679286
 40
1.0
 40
1.0
 40
1.0
 40
1.0
 10
3.5994546969
 20
4.3793994531
 30
0.0
 10
3.5981932709
 20
4.3779948715
 30
0.0
 10
3.5955417784
 20
4.3752802215
 30
0.0
 10
3.5912017538
 20
4.3715659357
 30
0.0
 10
3.5864925625
 20
4.3682561562
 30
0.0
 10
3.5814355295
 20
4.3654175404
 30
0.0
 10
3.5760671298
 20
4.3631175985
 30
0.0
 10
3.5704421322
 20
4.3614199245
 30
0.0
 10
3.5646332774
 20
4.3603774449
 30
0.0
 10
3.5587282057
 20
4.3600257219
 30
0.0
 10
3.5528231227
 20
4.3603774131
 30
0.0
 10
3.5470142454
 20
4.361419889
 30
0.0
 10
3.5413892227
 20
4.3631175625
 30
0.0
 10
3.5360207956
 20
4.3654175022
 30
0.0
 10
3.5309637378
 20
4.3682561225
 30
0.0
 10
3.5262545218
 20
4.3715659103
 30
0.0
 10
3.5219144805
 20
4.3752802089
 30
0.0
 10
3.5192629778
 20
4.377994868
 30
0.0
 10
3.5180015485
 20
4.3793994531
 30
0.0
  0
SPLINE
  5
39D
100
AcDbEntity
  8
0
100
AcDbSpline
 62
7
  6
CONTINUOUS
 70
0
 71
3
 72
15
 73
11
 74
0
 42
0.0000001
 43
0.0000001
 44
0.0000000001
 40
0.0
 40
0.0
 40
0.0
 40
0.0
 40
0.1064545857
 40
0.2270602663
 40
0.3598854896
 40
0.5000011517
 40
0.6401164788
 40
0.7729408611
 40
0.8935459203
 40
1.0
 40
1.0
 40
1.0
 40
1.0
 10
3.5180015485
 20
4.3793994531
 30
0.0
 10
3.5206946499
 20
4.3806415692
 30
0.0
 10
3.5266220085
 20
4.3829027242
 30
0.0
 10
3.5363514656
 20
4.3853978654
 30
0.0
 10
3.5472160012
 20
4.3870072024
 30
0.0
 10
3.5587282099
 20
4.3875647756
 30
0.0
 10
3.5702403944
 20
4.3870071876
 30
0.0
 10
3.5811048781
 20
4.3853978435
 30
0.0
 10
3.5908342801
 20
4.382902709
 30
0.0
 10
3.5967616083
 20
4.3806415633
 30
0.0
 10
3.5994546969
 20
4.3793994531
 30
0.0
  0
SPLINE
  5
39E
100
AcDbEntity
  8
0
100
AcDbSpline
 62
7
  6
CONTINUOUS
 70
0
 71
3
 72
21
 73
17
 74
0
 42
0.0000001
 43
0.0000001
 44
0.0000000001
 40
0.0
 40
0.0
 40
0.0
 40
0.0
 40
0.121032422
 40
0.1826625996
 40
0.2449979537
 40
0.3080276558
 40
0.3716499883
 40
0.4357087061
 40
0.4999996892
 40
0.5642906302
 40
0.6283493854
 40
0.6919716372
 40
0.7550013754
 40
0.8173367728
 40
0.8789672559
 40
1.0
 40
1.0
 40
1.0
 40
1.0
 10
3.5994546969
 20
4.4163589552
 30
0.0
 10
3.5969151174
 20
4.4136595911
 30
0.0
 10
3.5927217587
 20
4.4098991597
 30
0.0
 10
3.5864833166
 20
4.4057162636
 30
0.0
 10
3.5814263551
 20
4.4030080295
 30
0.0
 10
3.5760597979
 20
4.4008138391
 30
0.0
 10
3.5704364879
 20
4.3991954983
 30
0.0
 10
3.5646303601
 20
4.3982000517
 30
0.0
 10
3.5587281526
 20
4.3978663461
 30
0.0
 10
3.5528259446
 20
4.3982000495
 30
0.0
 10
3.5470198161
 20
4.399195479
 30
0.0
 10
3.5413965079
 20
4.400813825
 30
0.0
 10
3.5360299437
 20
4.4030079976
 30
0.0
 10
3.5309729731
 20
4.4057162406
 30
0.0
 10
3.524734508
 20
4.4098991388
 30
0.0
 10
3.5205411348
 20
4.4136595839
 30
0.0
 10
3.5180015485
 20
4.4163589552
 30
0.0
  0
SPLINE
  5
39F
100
AcDbEntity
  8
0
100
AcDbSpline
 62
7
  6
CONTINUOUS
 70
0
 71
3
 72
15
 73
11
 74
0
 42
0.0000001
 43
0.0000001
 44
0.0000000001
 40
0.0
 40
0.0
 40
0.0
 40
0.0
 40
0.1086071268
 40
0.2296423503
 40
0.361552867
 40
0.5000011364
 40
0.6384490797
 40
0.7703587738
 40
0.8913933845
 40
1.0
 40
1.0
 40
1.0
 40
1.0
 10
3.5180015485
 20
4.4163589552
 30
0.0
 10
3.5206656664
 20
4.4178725507
 30
0.0
 10
3.5265480058
 20
4.4206465367
 30
0.0
 10
3.536297487
 20
4.4237353833
 30
0.0
 10
3.5471875632
 20
4.4257277102
 30
0.0
 10
3.5587282101
 20
4.4264179202
 30
0.0
 10
3.5702688326
 20
4.4257276919
 30
0.0
 10
3.5811588564
 20
4.4237353563
 30
0.0
 10
3.5909082822
 20
4.4206465182
 30
0.0
 10
3.5967905916
 20
4.4178725436
 30
0.0
 10
3.5994546969
 20
4.4163589552
 30
0.0
  0
SPLINE
  5
3A0
100
AcDbEntity
  8
0
100
AcDbSpline
 62
7
  6
CONTINUOUS
 70
0
 71
3
 72
23
 73
19
 74
0
 42
0.0000001
 43
0.0000001
 44
0.0000000001
 40
0.0
 40
0.0
 40
0.0
 40
0.0
 40
0.0592494777
 40
0.1194772546
 40
0.1807276115
 40
0.2430043895
 40
0.3062461693
 40
0.3703157211
 40
0.434995071
 40
0.4999990387
 40
0.5650031601
 40
0.6296827984
 40
0.6937526074
 40
0.7569946492
 40
0.8192717181
 40
0.8805223109
 40
0.940750372
 40
1.0
 40
1.0
 40
1.0
 40
1.0
 10
3.5994546969
 20
4.4544366973
 30
0.0
 10
3.5981875705
 20
4.4531668948
 30
0.0
 10
3.5955224823
 20
4.450713177
 30
0.0
 10
3.5911803668
 20
4.4473717522
 30
0.0
 10
3.5864701502
 20
4.4443953068
 30
0.0
 10
3.5814136912
 20
4.4418436759
 30
0.0
 10
3.5760479012
 20
4.439777225
 30
0.0
 10
3.570427693
 20
4.4382525811
 30
0.0
 10
3.5646255058
 20
4.4373166875
 30
0.0
 10
3.5587282055
 20
4.4370009894
 30
0.0
 10
3.5528308943
 20
4.437316659
 30
0.0
 10
3.5470286846
 20
4.4382525491
 30
0.0
 10
3.5414084511
 20
4.4397771926
 30
0.0
 10
3.5360426341
 20
4.4418436415
 30
0.0
 10
3.5309861502
 20
4.4443952765
 30
0.0
 10
3.5262759091
 20
4.4473717292
 30
0.0
 10
3.5219337766
 20
4.4507131656
 30
0.0
 10
3.5192686782
 20
4.4531668916
 30
0.0
 10
3.5180015485
 20
4.4544366973
 30
0.0
  0
SPLINE
  5
3A1
100
AcDbEntity
  8
0
100
AcDbSpline
 62
7
  6
CONTINUOUS
 70
0
 71
3
 72
15
 73
11
 74
0
 42
0.0000001
 43
0.0000001
 44
0.0000000001
 40
0.0
 40
0.0
 40
0.0
 40
0.0
 40
0.1109062127
 40
0.2324235751
 40
0.36335801
 40
0.5000011198
 40
0.6366439136
 40
0.7675775456
 40
0.8890943043
 40
1.0
 40
1.0
 40
1.0
 40
1.0
 10
3.5180015485
 20
4.4544366973
 30
0.0
 10
3.5206376813
 20
4.4562018248
 30
0.0
 10
3.5264709925
 20
4.4594553608
 30
0.0
 10
3.5362382129
 20
4.4631139445
 30
0.0
 10
3.5471552895
 20
4.4654748125
 30
0.0
 10
3.5587282104
 20
4.4662928535
 30
0.0
 10
3.5703011066
 20
4.4654747907
 30
0.0
 10
3.58121813
 20
4.4631139127
 30
0.0
 10
3.5909852949
 20
4.4594553391
 30
0.0
 10
3.5968185765
 20
4.4562018165
 30
0.0
 10
3.5994546969
 20
4.4544366973
 30
0.0
  0
SPLINE
  5
3A2
100
AcDbEntity
  8
0
100
AcDbSpline
 62
7
  6
CONTINUOUS
 70
0
 71
3
 72
15
 73
11
 74
0
 42
0.0000001
 43
0.0000001
 44
0.0000000001
 40
0.0
 40
0.0
 40
0.0
 40
0.0
 40
0.1176029909
 40
0.2406627887
 40
0.368763434
 40
0.4999990305
 40
0.6312350712
 40
0.7593362484
 40
0.8823965794
 40
1.0
 40
1.0
 40
1.0
 40
1.0
 10
3.5994546969
 20
4.49326597
 30
0.0
 10
3.5968859222
 20
4.4908727577
 30
0.0
 10
3.5911958832
 20
4.4864171009
 30
0.0
 10
3.5813993509
 20
4.4812632333
 30
0.0
 10
3.5704071552
 20
4.4779246141
 30
0.0
 10
3.5587281974
 20
4.4767642374
 30
0.0
 10
3.5470492185
 20
4.4779245802
 30
0.0
 10
3.5360569757
 20
4.4812632015
 30
0.0
 10
3.5262603954
 20
4.4864170746
 30
0.0
 10
3.5205703326
 20
4.490872749
 30
0.0
 10
3.5180015485
 20
4.49326597
 30
0.0
  0
SPLINE
  5
3A3
100
AcDbEntity
  8
0
100
AcDbSpline
 62
7
  6
CONTINUOUS
 70
0
 71
3
 72
15
 73
11
 74
0
 42
0.0000001
 43
0.0000001
 44
0.0000000001
 40
0.0
 40
0.0
 40
0.0
 40
0.0
 40
0.113233371
 40
0.2352632835
 40
0.3652111367
 40
0.5000011028
 40
0.6347907631
 40
0.7647378341
 40
0.886767152
 40
1.0
 40
1.0
 40
1.0
 40
1.0
 10
3.5180015485
 20
4.49326597
 30
0.0
 10
3.5206120738
 20
4.4952619505
 30
0.0
 10
3.5263953457
 20
4.4989575308
 30
0.0
 10
3.5361765464
 20
4.5031547587
 30
0.0
 10
3.5471204836
 20
4.5058657329
 30
0.0
 10
3.5587282106
 20
4.5068055576
 30
0.0
 10
3.5703359128
 20
4.5058657079
 30
0.0
 10
3.581279796
 20
4.5031547224
 30
0.0
 10
3.591060941
 20
4.4989575063
 30
0.0
 10
3.5968441837
 20
4.4952619413
 30
0.0
 10
3.5994546969
 20
4.49326597
 30
0.0
  0
SPLINE
  5
3A4
100
AcDbEntity
  8
0
100
AcDbSpline
 62
7
  6
CONTINUOUS
 70
0
 71
3
 72
15
 73
11
 74
0
 42
0.0000001
 43
0.0000001
 44
0.0000000001
 40
0.0
 40
0.0
 40
0.0
 40
0.0
 40
0.1154938796
 40
0.2380463255
 40
0.367037362
 40
0.4999990166
 40
0.6329611272
 40
0.761952708
 40
0.8845056954
 40
1.0
 40
1.0
 40
1.0
 40
1.0
 10
3.5994546969
 20
4.5324728261
 30
0.0
 10
3.5968666366
 20
4.5302672135
 30
0.0
 10
3.5911316702
 20
4.5261701346
 30
0.0
 10
3.581340698
 20
4.5214722598
 30
0.0
 10
3.5703714567
 20
4.5184342448
 30
0.0
 10
3.5587281971
 20
4.5173795035
 30
0.0
 10
3.5470849172
 20
4.5184342138
 30
0.0
 10
3.5361156287
 20
4.5214722308
 30
0.0
 10
3.526324609
 20
4.5261701103
 30
0.0
 10
3.5205896184
 20
4.5302672054
 30
0.0
 10
3.5180015485
 20
4.5324728261
 30
0.0
  0
SPLINE
  5
3A5
100
AcDbEntity
  8
0
100
AcDbSpline
 62
7
  6
CONTINUOUS
 70
0
 71
3
 72
15
 73
11
 74
0
 42
0.0000001
 43
0.0000001
 44
0.0000000001
 40
0.0
 40
0.0
 40
0.0
 40
0.0
 40
0.0836395304
 40
0.201069019
 40
0.343668978
 40
0.5000059221
 40
0.6563419697
 40
0.798939427
 40
0.9163651447
 40
1.0
 40
1.0
 40
1.0
 40
1.0
 10
4.2461744196
 20
4.9458784236
 30
0.0
 10
4.241912755
 20
4.9450191471
 30
0.0
 10
4.2316354109
 20
4.9431106082
 30
0.0
 10
4.2139541537
 20
4.9405242574
 30
0.0
 10
4.1923950722
 20
4.9384985772
 30
0.0
 10
4.1687266116
 20
4.9377317317
 30
0.0
 10
4.1450582874
 20
4.9384987641
 30
0.0
 10
4.1234995923
 20
4.9405245646
 30
0.0
 10
4.1058189135
 20
4.9431109337
 30
0.0
 10
4.0955420088
 20
4.9450194328
 30
0.0
 10
4.0912805849
 20
4.9458786738
 30
0.0
  0
SPLINE
  5
3A6
100
AcDbEntity
  8
0
100
AcDbSpline
 62
7
  6
CONTINUOUS
 70
0
 71
3
 72
15
 73
11
 74
0
 42
0.0000001
 43
0.0000001
 44
0.0000000001
 40
0.0
 40
0.0
 40
0.0
 40
0.0
 40
0.1154900865
 40
0.2380405524
 40
0.3670335394
 40
0.5000010861
 40
0.6329683373
 40
0.7619605623
 40
0.8845104424
 40
1.0
 40
1.0
 40
1.0
 40
1.0
 10
3.5180015485
 20
4.5324728261
 30
0.0
 10
3.5205895237
 20
4.5346783661
 30
0.0
 10
3.526324329
 20
4.5387753859
 30
0.0
 10
3.5361151989
 20
4.5434731573
 30
0.0
 10
3.5470845269
 20
4.5465116166
 30
0.0
 10
3.5587282109
 20
4.5475658361
 30
0.0
 10
3.5703718697
 20
4.5465115886
 30
0.0
 10
3.5813411431
 20
4.5434731169
 30
0.0
 10
3.5911319571
 20
4.5387753589
 30
0.0
 10
3.5968667336
 20
4.534678356
 30
0.0
 10
3.5994546969
 20
4.5324728261
 30
0.0
  0
SPLINE
  5
3A7
100
AcDbEntity
  8
0
100
AcDbSpline
 62
7
  6
CONTINUOUS
 70
0
 71
3
 72
15
 73
11
 74
0
 42
0.0000001
 43
0.0000001
 44
0.0000000001
 40
0.0
 40
0.0
 40
0.0
 40
0.0
 40
0.1132371239
 40
0.2352690529
 40
0.3652150503
 40
0.4999990018
 40
0.6347834219
 40
0.7647299765
 40
0.8867624562
 40
1.0
 40
1.0
 40
1.0
 40
1.0
 10
3.5994546969
 20
4.5716796822
 30
0.0
 10
3.5968440849
 20
4.5696836353
 30
0.0
 10
3.5910606523
 20
4.5659880022
 30
0.0
 10
3.5812793461
 20
4.5617906826
 30
0.0
 10
3.5703355091
 20
4.5590801087
 30
0.0
 10
3.5587281968
 20
4.5581398129
 30
0.0
 10
3.5471208648
 20
4.559080081
 30
0.0
 10
3.5361769807
 20
4.5617906567
 30
0.0
 10
3.5263956276
 20
4.5659879801
 30
0.0
 10
3.5206121702
 20
4.5696836279
 30
0.0
 10
3.5180015485
 20
4.5716796822
 30
0.0
  0
SPLINE
  5
3A8
100
AcDbEntity
  8
0
100
AcDbSpline
 62
7
  6
CONTINUOUS
 70
0
 71
3
 72
15
 73
11
 74
0
 42
0.0000001
 43
0.0000001
 44
0.0000000001
 40
0.0
 40
0.0
 40
0.0
 40
0.0
 40
0.1175991596
 40
0.2406570116
 40
0.3687596985
 40
0.5000010702
 40
0.6312421564
 40
0.7593441006
 40
0.882401375
 40
1.0
 40
1.0
 40
1.0
 40
1.0
 10
3.5180015485
 20
4.5716796822
 30
0.0
 10
3.5205702393
 20
4.5740728163
 30
0.0
 10
3.5262601172
 20
4.5785284086
 30
0.0
 10
3.5360565503
 20
4.583682162
 30
0.0
 10
3.5470488194
 20
4.5870212648
 30
0.0
 10
3.5587282111
 20
4.5881810745
 30
0.0
 10
3.5704075775
 20
4.587021234
 30
0.0
 10
3.5813997912
 20
4.5836821179
 30
0.0
 10
3.5911961684
 20
4.5785283794
 30
0.0
 10
3.5968860178
 20
4.5740728054
 30
0.0
 10
3.5994546969
 20
4.5716796822
 30
0.0
  0
SPLINE
  5
3A9
100
AcDbEntity
  8
0
100
AcDbSpline
 62
7
  6
CONTINUOUS
 70
0
 71
3
 72
15
 73
11
 74
0
 42
0.0000001
 43
0.0000001
 44
0.0000000001
 40
0.0
 40
0.0
 40
0.0
 40
0.0
 40
0.1109099247
 40
0.2324293415
 40
0.363362015
 40
0.4999989869
 40
0.6366364397
 40
0.7675696836
 40
0.8890896603
 40
1.0
 40
1.0
 40
1.0
 40
1.0
 10
3.5994546969
 20
4.6105089549
 30
0.0
 10
3.5968184758
 20
4.6087437683
 30
0.0
 10
3.5909850043
 20
4.6054901861
 30
0.0
 10
3.5812176754
 20
4.601831523
 30
0.0
 10
3.5703007121
 20
4.599471007
 30
0.0
 10
3.5587281965
 20
4.598652551
 30
0.0
 10
3.5471556619
 20
4.5994709828
 30
0.0
 10
3.5362386515
 20
4.6018315003
 30
0.0
 10
3.5264712763
 20
4.6054901665
 30
0.0
 10
3.5206377795
 20
4.6087437617
 30
0.0
 10
3.5180015485
 20
4.6105089549
 30
0.0
  0
SPLINE
  5
3AA
100
AcDbEntity
  8
0
100
AcDbSpline
 62
7
  6
CONTINUOUS
 70
0
 71
3
 72
23
 73
19
 74
0
 42
0.0000001
 43
0.0000001
 44
0.0000000001
 40
0.0
 40
0.0
 40
0.0
 40
0.0
 40
0.0592460359
 40
0.119473385
 40
0.1807220125
 40
0.2429985961
 40
0.3062404303
 40
0.3703120615
 40
0.4349950269
 40
0.500001055
 40
0.5650070542
 40
0.6296897828
 40
0.6937609848
 40
0.7570025145
 40
0.8192787964
 40
0.8805271554
 40
0.9407541385
 40
1.0
 40
1.0
 40
1.0
 40
1.0
 10
3.5180015485
 20
4.6105089549
 30
0.0
 10
3.5192686011
 20
4.6117786834
 30
0.0
 10
3.5219336031
 20
4.6142323187
 30
0.0
 10
3.5262755512
 20
4.6175736822
 30
0.0
 10
3.530985709
 20
4.6205500855
 30
0.0
 10
3.5360420949
 20
4.6231017304
 30
0.0
 10
3.541407897
 20
4.6251682966
 30
0.0
 10
3.5470282291
 20
4.6266931713
 30
0.0
 10
3.5528306903
 20
4.6276289034
 30
0.0
 10
3.5587282182
 20
4.627944435
 30
0.0
 10
3.5646257394
 20
4.6276288989
 30
0.0
 10
3.570428175
 20
4.6266931366
 30
0.0
 10
3.5760484715
 20
4.6251682467
 30
0.0
 10
3.5814142433
 20
4.6231016898
 30
0.0
 10
3.5864706021
 20
4.6205500496
 30
0.0
 10
3.5911807313
 20
4.6175736545
 30
0.0
 10
3.5955226589
 20
4.6142323047
 30
0.0
 10
3.598187648
 20
4.6117786796
 30
0.0
 10
3.5994546969
 20
4.6105089549
 30
0.0
  0
SPLINE
  5
3AB
100
AcDbEntity
  8
0
100
AcDbSpline
 62
7
  6
CONTINUOUS
 70
0
 71
3
 72
15
 73
11
 74
0
 42
0.0000001
 43
0.0000001
 44
0.0000000001
 40
0.0
 40
0.0
 40
0.0
 40
0.0
 40
0.1086107992
 40
0.2296481146
 40
0.3615569602
 40
0.4999989723
 40
0.6384414773
 40
0.7703509062
 40
0.8913887907
 40
1.0
 40
1.0
 40
1.0
 40
1.0
 10
3.5994546969
 20
4.648586697
 30
0.0
 10
3.5967904889
 20
4.6470730502
 30
0.0
 10
3.5909079897
 20
4.6442990254
 30
0.0
 10
3.5811583975
 20
4.6412101122
 30
0.0
 10
3.5702684467
 20
4.6392180851
 30
0.0
 10
3.5587281962
 20
4.6385275209
 30
0.0
 10
3.5471879273
 20
4.6392180645
 30
0.0
 10
3.5362979295
 20
4.641210093
 30
0.0
 10
3.5265482916
 20
4.6442990087
 30
0.0
 10
3.5206657666
 20
4.6470730445
 30
0.0
 10
3.5180015485
 20
4.648586697
 30
0.0
  0
SPLINE
  5
3AC
100
AcDbEntity
  8
0
100
AcDbSpline
 62
7
  6
CONTINUOUS
 70
0
 71
3
 72
23
 73
19
 74
0
 42
0.0000001
 43
0.0000001
 44
0.0000000001
 40
0.0
 40
0.0
 40
0.0
 40
0.0
 40
0.0602224797
 40
0.1211227002
 40
0.1827346175
 40
0.2450628238
 40
0.3080749702
 40
0.3716802815
 40
0.4357240357
 40
0.5000000196
 40
0.5642759752
 40
0.6283196773
 40
0.6919249936
 40
0.7549371769
 40
0.8172653917
 40
0.878877294
 40
0.9397775188
 40
1.0
 40
1.0
 40
1.0
 40
1.0
 10
3.5180015485
 20
4.648586697
 30
0.0
 10
3.5192654803
 20
4.6499301525
 30
0.0
 10
3.5219229793
 20
4.652526499
 30
0.0
 10
3.5262639174
 20
4.6560714254
 30
0.0
 10
3.5309733171
 20
4.6592297102
 30
0.0
 10
3.5360297465
 20
4.661937833
 30
0.0
 10
3.5413966793
 20
4.6641317543
 30
0.0
 10
3.5470196117
 20
4.6657510263
 30
0.0
 10
3.5528259488
 20
4.6667450429
 30
0.0
 10
3.5587281237
 20
4.6670802691
 30
0.0
 10
3.5646302969
 20
4.6667450432
 30
0.0
 10
3.5704366316
 20
4.6657510263
 30
0.0
 10
3.576059564
 20
4.6641317554
 30
0.0
 10
3.5814264982
 20
4.6619378333
 30
0.0
 10
3.5864829285
 20
4.6592297101
 30
0.0
 10
3.5911923281
 20
4.6560714254
 30
0.0
 10
3.5955332659
 20
4.6525264992
 30
0.0
 10
3.5981907651
 20
4.6499301525
 30
0.0
 10
3.5994546969
 20
4.648586697
 30
0.0
  0
SPLINE
  5
3AD
100
AcDbEntity
  8
0
100
AcDbSpline
 62
7
  6
CONTINUOUS
 70
0
 71
3
 72
15
 73
11
 74
0
 42
0.0000001
 43
0.0000001
 44
0.0000000001
 40
0.0
 40
0.0
 40
0.0
 40
0.0
 40
0.106458222
 40
0.2270660293
 40
0.3598896634
 40
0.4999989588
 40
0.6401087581
 40
0.7729329871
 40
0.8935413724
 40
1.0
 40
1.0
 40
1.0
 40
1.0
 10
3.5994546969
 20
4.685546199
 30
0.0
 10
3.5967615035
 20
4.6843040405
 30
0.0
 10
3.5908339859
 20
4.6820428545
 30
0.0
 10
3.5811044155
 20
4.6795476596
 30
0.0
 10
3.5702400162
 20
4.6779385668
 30
0.0
 10
3.558728196
 20
4.6773807046
 30
0.0
 10
3.5472163579
 20
4.6779385502
 30
0.0
 10
3.5363519115
 20
4.6795476441
 30
0.0
 10
3.526622296
 20
4.6820428407
 30
0.0
 10
3.5206947522
 20
4.6843040357
 30
0.0
 10
3.5180015485
 20
4.685546199
 30
0.0
  0
SPLINE
  5
3AE
100
AcDbEntity
  8
0
100
AcDbSpline
 62
7
  6
CONTINUOUS
 70
0
 71
3
 72
23
 73
19
 74
0
 42
0.0000001
 43
0.0000001
 44
0.0000000001
 40
0.0
 40
0.0
 40
0.0
 40
0.0
 40
0.061028385
 40
0.1224947118
 40
0.1844170687
 40
0.2468062221
 40
0.3096372019
 40
0.3728522847
 40
0.4363517843
 40
0.5000010313
 40
0.5636502513
 40
0.6271495293
 40
0.6903642026
 40
0.7531948854
 40
0.8155837437
 40
0.8775058371
 40
0.9389717935
 40
1.0
 40
1.0
 40
1.0
 40
1.0
 10
3.5180015485
 20
4.685546199
 30
0.0
 10
3.5192629013
 20
4.686950699
 30
0.0
 10
3.5219143092
 20
4.6896652585
 30
0.0
 10
3.5262541632
 20
4.6933794735
 30
0.0
 10
3.5309632986
 20
4.6966892085
 30
0.0
 10
3.5360202586
 20
4.6995278393
 30
0.0
 10
3.5413886679
 20
4.7018279074
 30
0.0
 10
3.5470137822
 20
4.7035258373
 30
0.0
 10
3.552822921
 20
4.7045681402
 30
0.0
 10
3.5587282182
 20
4.7049196768
 30
0.0
 10
3.5646335093
 20
4.7045681351
 30
0.0
 10
3.5704426219
 20
4.7035257986
 30
0.0
 10
3.5760677
 20
4.701827852
 30
0.0
 10
3.5814360796
 20
4.6995277942
 30
0.0
 10
3.5864930124
 20
4.6966891685
 30
0.0
 10
3.591202119
 20
4.693379443
 30
0.0
 10
3.5955419527
 20
4.6896652431
 30
0.0
 10
3.5981933478
 20
4.6869506949
 30
0.0
 10
3.5994546969
 20
4.685546199
 30
0.0
  0
SPLINE
  5
3AF
100
AcDbEntity
  8
0
100
AcDbSpline
 62
7
  6
CONTINUOUS
 70
0
 71
3
 72
19
 73
15
 74
0
 42
0.0000001
 43
0.0000001
 44
0.0000000001
 40
0.0
 40
0.0
 40
0.0
 40
0.0
 40
0.0503048559
 40
0.1046029601
 40
0.1628525376
 40
0.2248675467
 40
0.3584723411
 40
0.499998947
 40
0.6415260661
 40
0.7751314655
 40
0.8371468027
 40
0.8953966378
 40
0.949695011
 40
1.0
 40
1.0
 40
1.0
 40
1.0
 10
3.5994546969
 20
4.7210315208
 30
0.0
 10
3.5981457821
 20
4.7205735842
 30
0.0
 10
3.5953978344
 20
4.7196951108
 30
0.0
 10
3.5910593635
 20
4.7185356982
 30
0.0
 10
3.5863576488
 20
4.7175037714
 30
0.0
 10
3.579462755
 20
4.7162955498
 30
0.0
 10
3.5702163339
 20
4.7152595521
 30
0.0
 10
3.5587281958
 20
4.7148379035
 30
0.0
 10
3.5472400403
 20
4.7152595395
 30
0.0
 10
3.537993579
 20
4.7162955379
 30
0.0
 10
3.5310986522
 20
4.7175037607
 30
0.0
 10
3.5263969138
 20
4.7185356899
 30
0.0
 10
3.5220584252
 20
4.7196951066
 30
0.0
 10
3.5193104668
 20
4.720573583
 30
0.0
 10
3.5180015485
 20
4.7210315208
 30
0.0
  0
SPLINE
  5
3B0
100
AcDbEntity
  8
0
100
AcDbSpline
 62
7
  6
CONTINUOUS
 70
0
 71
3
 72
23
 73
19
 74
0
 42
0.0000001
 43
0.0000001
 44
0.0000000001
 40
0.0
 40
0.0
 40
0.0
 40
0.0
 40
0.0616644641
 40
0.1235770653
 40
0.1857457145
 40
0.2481800993
 40
0.3108665287
 40
0.3737737775
 40
0.4368446988
 40
0.5000010226
 40
0.5631573202
 40
0.6262280257
 40
0.6891348721
 40
0.7518210071
 40
0.8142550992
 40
0.8764234867
 40
0.9383357158
 40
1.0
 40
1.0
 40
1.0
 40
1.0
 10
3.5180015485
 20
4.7210315208
 30
0.0
 10
3.5192610163
 20
4.7224841065
 30
0.0
 10
3.5219077969
 20
4.7252916345
 30
0.0
 10
3.5262467585
 20
4.7291391328
 30
0.0
 10
3.530955338
 20
4.7325680828
 30
0.0
 10
3.5360123101
 20
4.7355094465
 30
0.0
 10
3.5413815155
 20
4.7378932091
 30
0.0
 10
3.5470083159
 20
4.7396532595
 30
0.0
 10
3.5528199487
 20
4.7407338687
 30
0.0
 10
3.5587282182
 20
4.7410983574
 30
0.0
 10
3.5646364818
 20
4.7407338634
 30
0.0
 10
3.5704480883
 20
4.7396532193
 30
0.0
 10
3.5760748522
 20
4.7378931519
 30
0.0
 10
3.5814440281
 20
4.7355093998
 30
0.0
 10
3.586500973
 20
4.7325680414
 30
0.0
 10
3.5912095236
 20
4.7291391013
 30
0.0
 10
3.5955484649
 20
4.7252916185
 30
0.0
 10
3.5981952328
 20
4.7224841023
 30
0.0
 10
3.5994546969
 20
4.7210315208
 30
0.0
  0
SPLINE
  5
3B1
100
AcDbEntity
  8
0
100
AcDbSpline
 62
7
  6
CONTINUOUS
 70
0
 71
3
 72
19
 73
15
 74
0
 42
0.0000001
 43
0.0000001
 44
0.0000000001
 40
0.0
 40
0.0
 40
0.0
 40
0.0
 40
0.0494036556
 40
0.103132329
 40
0.161112479
 40
0.2231226982
 40
0.3573569253
 40
0.4999989381
 40
0.6426414713
 40
0.7768763112
 40
0.838886862
 40
0.8968672719
 40
0.9505962131
 40
1.0
 40
1.0
 40
1.0
 40
1.0
 10
3.5994546969
 20
4.7547009193
 30
0.0
 10
3.5981398514
 20
4.7543917614
 30
0.0
 10
3.5953823211
 20
4.7537997446
 30
0.0
 10
3.5910460678
 20
4.7530214178
 30
0.0
 10
3.5863466074
 20
4.7523285936
 30
0.0
 10
3.5794429142
 20
4.7515159819
 30
0.0
 10
3.5701990068
 20
4.7508211672
 30
0.0
 10
3.5587281957
 20
4.7505385701
 30
0.0
 10
3.5472573674
 20
4.7508211588
 30
0.0
 10
3.5380134198
 20
4.7515159739
 30
0.0
 10
3.5311096936
 20
4.7523285864
 30
0.0
 10
3.5264102097
 20
4.7530214122
 30
0.0
 10
3.5220739386
 20
4.7537997418
 30
0.0
 10
3.5193163975
 20
4.7543917606
 30
0.0
 10
3.5180015485
 20
4.7547009193
 30
0.0
  0
SPLINE
  5
3B2
100
AcDbEntity
  8
0
100
AcDbSpline
 62
7
  6
CONTINUOUS
 70
0
 71
3
 72
23
 73
19
 74
0
 42
0.0000001
 43
0.0000001
 44
0.0000000001
 40
0.0
 40
0.0
 40
0.0
 40
0.0
 40
0.0621217851
 40
0.1243565461
 40
0.1867041599
 40
0.2491727329
 40
0.311755955
 40
0.3744412128
 40
0.4372019668
 40
0.5000010164
 40
0.5628000402
 40
0.6255605825
 40
0.6882454431
 40
0.7508283729
 40
0.8132966547
 40
0.8756440081
 40
0.9378783959
 40
1.0
 40
1.0
 40
1.0
 40
1.0
 10
3.5180015485
 20
4.7547009193
 30
0.0
 10
3.519259706
 20
4.7561881515
 30
0.0
 10
3.5219032308
 20
4.7590626229
 30
0.0
 10
3.5262415091
 20
4.7630062117
 30
0.0
 10
3.5309496297
 20
4.766521125
 30
0.0
 10
3.5360065467
 20
4.769536596
 30
0.0
 10
3.5413762767
 20
4.7719807686
 30
0.0
 10
3.5470042794
 20
4.77378569
 30
0.0
 10
3.5528177422
 20
4.7748939882
 30
0.0
 10
3.5587282182
 20
4.7752678432
 30
0.0
 10
3.5646386884
 20
4.7748939828
 30
0.0
 10
3.5704521248
 20
4.7737856488
 30
0.0
 10
3.5760800908
 20
4.77198071
 30
0.0
 10
3.5814497916
 20
4.7695365481
 30
0.0
 10
3.5865066813
 20
4.7665210826
 30
0.0
 10
3.5912147729
 20
4.7630061794
 30
0.0
 10
3.595553031
 20
4.7590626066
 30
0.0
 10
3.5981965431
 20
4.7561881471
 30
0.0
 10
3.5994546969
 20
4.7547009193
 30
0.0
  0
SPLINE
  5
3B3
100
AcDbEntity
  8
0
100
AcDbSpline
 62
7
  6
CONTINUOUS
 70
0
 71
3
 72
15
 73
11
 74
0
 42
0.0000001
 43
0.0000001
 44
0.0000000001
 40
0.0
 40
0.0
 40
0.0
 40
0.0
 40
0.1021917411
 40
0.2220108419
 40
0.356648566
 40
0.4999989325
 40
0.6433498239
 40
0.7779881657
 40
0.8978078617
 40
1.0
 40
1.0
 40
1.0
 40
1.0
 10
3.5994546969
 20
4.7862301398
 30
0.0
 10
3.5966944142
 20
4.7859040588
 30
0.0
 10
3.5906827116
 20
4.785321239
 30
0.0
 10
3.581001764
 20
4.7846888014
 30
0.0
 10
3.5701883526
 20
4.7842806242
 30
0.0
 10
3.5587281956
 20
4.7841389802
 30
0.0
 10
3.5472680216
 20
4.78428062
 30
0.0
 10
3.536454563
 20
4.7846887975
 30
0.0
 10
3.5267735714
 20
4.7853212354
 30
0.0
 10
3.520761842
 20
4.7859040575
 30
0.0
 10
3.5180015485
 20
4.7862301398
 30
0.0
  0
SPLINE
  5
3B4
100
AcDbEntity
  8
0
100
AcDbSpline
 62
7
  6
CONTINUOUS
 70
0
 71
3
 72
23
 73
19
 74
0
 42
0.0000001
 43
0.0000001
 44
0.0000000001
 40
0.0
 40
0.0
 40
0.0
 40
0.0
 40
0.0623972039
 40
0.1248265032
 40
0.1872826568
 40
0.2497724971
 40
0.3122938628
 40
0.3748451645
 40
0.4374182996
 40
0.5000010126
 40
0.5625837001
 40
0.625156626
 40
0.6877075338
 40
0.7502286082
 40
0.8127181584
 40
0.8751740523
 40
0.9376029776
 40
1.0
 40
1.0
 40
1.0
 40
1.0
 10
3.5180015485
 20
4.7862301398
 30
0.0
 10
3.5192589343
 20
4.7877382813
 30
0.0
 10
3.5219005267
 20
4.7906531368
 30
0.0
 10
3.5262383776
 20
4.7946547357
 30
0.0
 10
3.5309461985
 20
4.7982215511
 30
0.0
 10
3.5360030564
 20
4.8012817771
 30
0.0
 10
3.5413730824
 20
4.8037624475
 30
0.0
 10
3.5470018045
 20
4.8055944927
 30
0.0
 10
3.5528163843
 20
4.8067195366
 30
0.0
 10
3.5587282182
 20
4.8070990578
 30
0.0
 10
3.5646400463
 20
4.8067195311
 30
0.0
 10
3.5704545997
 20
4.8055944508
 30
0.0
 10
3.576083285
 20
4.8037623881
 30
0.0
 10
3.5814532819
 20
4.8012817286
 30
0.0
 10
3.5865101124
 20
4.7982215081
 30
0.0
 10
3.5912179043
 20
4.794654703
 30
0.0
 10
3.595555735
 20
4.7906531202
 30
0.0
 10
3.5981973147
 20
4.7877382769
 30
0.0
 10
3.5994546969
 20
4.7862301398
 30
0.0
  0
SPLINE
  5
3B5
100
AcDbEntity
  8
0
100
AcDbSpline
 62
7
  6
CONTINUOUS
 70
0
 71
3
 72
21
 73
17
 74
0
 42
0.0000001
 43
0.0000001
 44
0.0000000001
 40
0.0
 40
0.0
 40
0.0
 40
0.0
 40
0.1248896414
 40
0.1873978042
 40
0.2499105021
 40
0.3124269087
 40
0.3749490846
 40
0.4374750827
 40
0.5000010108
 40
0.5625269137
 40
0.6250527033
 40
0.6875744862
 40
0.7500906019
 40
0.8126030099
 40
0.8751109132
 40
1.0
 40
1.0
 40
1.0
 40
1.0
 10
3.5180015485
 20
4.8153155386
 30
0.0
 10
3.5205133977
 20
4.8183428938
 30
0.0
 10
3.5246730858
 20
4.8225897549
 30
0.0
 10
3.530944732
 20
4.827363819
 30
0.0
 10
3.5360019741
 20
4.8304394809
 30
0.0
 10
3.5413719861
 20
4.8329322335
 30
0.0
 10
3.5470009768
 20
4.8347733872
 30
0.0
 10
3.5528159245
 20
4.8359040262
 30
0.0
 10
3.5587282182
 20
4.836285447
 30
0.0
 10
3.5646405062
 20
4.8359040206
 30
0.0
 10
3.5704554274
 20
4.8347733452
 30
0.0
 10
3.5760843813
 20
4.8329321738
 30
0.0
 10
3.5814543642
 20
4.8304394321
 30
0.0
 10
3.5865115789
 20
4.8273637757
 30
0.0
 10
3.59278319
 20
4.8225897234
 30
0.0
 10
3.5969428589
 20
4.8183428804
 30
0.0
 10
3.5994546969
 20
4.8153155386
 30
0.0
  0
SPLINE
  5
3B6
100
AcDbEntity
  8
0
100
AcDbSpline
 62
7
  6
CONTINUOUS
 70
0
 71
3
 72
23
 73
19
 74
0
 42
0.0000001
 43
0.0000001
 44
0.0000000001
 40
0.0
 40
0.0
 40
0.0
 40
0.0
 40
0.0623972039
 40
0.1248265032
 40
0.1872826568
 40
0.2497724971
 40
0.3122938628
 40
0.3748451645
 40
0.4374182996
 40
0.5000010126
 40
0.5625837001
 40
0.625156626
 40
0.6877075338
 40
0.7502286082
 40
0.8127181584
 40
0.8751740523
 40
0.9376029776
 40
1.0
 40
1.0
 40
1.0
 40
1.0
 10
3.5180015485
 20
4.8416770074
 30
0.0
 10
3.5192589343
 20
4.8431851489
 30
0.0
 10
3.5219005267
 20
4.8461000044
 30
0.0
 10
3.5262383776
 20
4.8501016034
 30
0.0
 10
3.5309461985
 20
4.8536684188
 30
0.0
 10
3.5360030564
 20
4.8567286448
 30
0.0
 10
3.5413730824
 20
4.8592093152
 30
0.0
 10
3.5470018045
 20
4.8610413603
 30
0.0
 10
3.5528163843
 20
4.8621664043
 30
0.0
 10
3.5587282182
 20
4.8625459255
 30
0.0
 10
3.5646400463
 20
4.8621663988
 30
0.0
 10
3.5704545997
 20
4.8610413185
 30
0.0
 10
3.576083285
 20
4.8592092558
 30
0.0
 10
3.5814532819
 20
4.8567285963
 30
0.0
 10
3.5865101124
 20
4.8536683758
 30
0.0
 10
3.5912179043
 20
4.8501015707
 30
0.0
 10
3.595555735
 20
4.8460999879
 30
0.0
 10
3.5981973147
 20
4.8431851445
 30
0.0
 10
3.5994546969
 20
4.8416770074
 30
0.0
  0
SPLINE
  5
3B7
100
AcDbEntity
  8
0
100
AcDbSpline
 62
7
  6
CONTINUOUS
 70
0
 71
3
 72
23
 73
19
 74
0
 42
0.0000001
 43
0.0000001
 44
0.0000000001
 40
0.0
 40
0.0
 40
0.0
 40
0.0
 40
0.0621217851
 40
0.1243565461
 40
0.1867041599
 40
0.2491727329
 40
0.311755955
 40
0.3744412128
 40
0.4372019668
 40
0.5000010164
 40
0.5628000402
 40
0.6255605825
 40
0.6882454431
 40
0.7508283729
 40
0.8132966547
 40
0.8756440081
 40
0.9378783959
 40
1.0
 40
1.0
 40
1.0
 40
1.0
 10
3.5180015485
 20
4.865060671
 30
0.0
 10
3.519259706
 20
4.8665479032
 30
0.0
 10
3.5219032308
 20
4.8694223747
 30
0.0
 10
3.5262415091
 20
4.8733659634
 30
0.0
 10
3.5309496297
 20
4.8768808767
 30
0.0
 10
3.5360065467
 20
4.8798963477
 30
0.0
 10
3.5413762767
 20
4.8823405203
 30
0.0
 10
3.5470042794
 20
4.8841454418
 30
0.0
 10
3.5528177422
 20
4.88525374
 30
0.0
 10
3.5587282182
 20
4.8856275949
 30
0.0
 10
3.5646386884
 20
4.8852537345
 30
0.0
 10
3.5704521248
 20
4.8841454005
 30
0.0
 10
3.5760800908
 20
4.8823404617
 30
0.0
 10
3.5814497916
 20
4.8798962998
 30
0.0
 10
3.5865066813
 20
4.8768808343
 30
0.0
 10
3.5912147729
 20
4.8733659311
 30
0.0
 10
3.595553031
 20
4.8694223584
 30
0.0
 10
3.5981965431
 20
4.8665478989
 30
0.0
 10
3.5994546969
 20
4.865060671
 30
0.0
  0
SPLINE
  5
3B8
100
AcDbEntity
  8
0
100
AcDbSpline
 62
7
  6
CONTINUOUS
 70
0
 71
3
 72
23
 73
19
 74
0
 42
0.0000001
 43
0.0000001
 44
0.0000000001
 40
0.0
 40
0.0
 40
0.0
 40
0.0
 40
0.0616644641
 40
0.1235770653
 40
0.1857457145
 40
0.2481800993
 40
0.3108665287
 40
0.3737737775
 40
0.4368446988
 40
0.5000010226
 40
0.5631573202
 40
0.6262280257
 40
0.6891348721
 40
0.7518210071
 40
0.8142550992
 40
0.8764234867
 40
0.9383357158
 40
1.0
 40
1.0
 40
1.0
 40
1.0
 10
3.5180015485
 20
4.8852413318
 30
0.0
 10
3.5192610163
 20
4.8866939175
 30
0.0
 10
3.5219077969
 20
4.8895014455
 30
0.0
 10
3.5262467585
 20
4.8933489438
 30
0.0
 10
3.530955338
 20
4.8967778938
 30
0.0
 10
3.5360123101
 20
4.8997192575
 30
0.0
 10
3.5413815155
 20
4.9021030201
 30
0.0
 10
3.5470083159
 20
4.9038630705
 30
0.0
 10
3.5528199487
 20
4.9049436797
 30
0.0
 10
3.5587282182
 20
4.9053081684
 30
0.0
 10
3.5646364818
 20
4.9049436744
 30
0.0
 10
3.5704480883
 20
4.9038630303
 30
0.0
 10
3.5760748522
 20
4.9021029629
 30
0.0
 10
3.5814440281
 20
4.8997192109
 30
0.0
 10
3.586500973
 20
4.8967778524
 30
0.0
 10
3.5912095236
 20
4.8933489123
 30
0.0
 10
3.5955484649
 20
4.8895014295
 30
0.0
 10
3.5981952328
 20
4.8866939133
 30
0.0
 10
3.5994546969
 20
4.8852413318
 30
0.0
  0
SPLINE
  5
3B9
100
AcDbEntity
  8
0
100
AcDbSpline
 62
7
  6
CONTINUOUS
 70
0
 71
3
 72
23
 73
19
 74
0
 42
0.0000001
 43
0.0000001
 44
0.0000000001
 40
0.0
 40
0.0
 40
0.0
 40
0.0
 40
0.061028385
 40
0.1224947118
 40
0.1844170687
 40
0.2468062221
 40
0.3096372019
 40
0.3728522847
 40
0.4363517843
 40
0.5000010313
 40
0.5636502513
 40
0.6271495293
 40
0.6903642026
 40
0.7531948854
 40
0.8155837437
 40
0.8775058371
 40
0.9389717935
 40
1.0
 40
1.0
 40
1.0
 40
1.0
 10
3.5180015485
 20
4.9020246391
 30
0.0
 10
3.5192629013
 20
4.9034291391
 30
0.0
 10
3.5219143092
 20
4.9061436986
 30
0.0
 10
3.5262541632
 20
4.9098579136
 30
0.0
 10
3.5309632986
 20
4.9131676485
 30
0.0
 10
3.5360202586
 20
4.9160062793
 30
0.0
 10
3.5413886679
 20
4.9183063474
 30
0.0
 10
3.5470137822
 20
4.9200042774
 30
0.0
 10
3.552822921
 20
4.9210465802
 30
0.0
 10
3.5587282182
 20
4.9213981169
 30
0.0
 10
3.5646335093
 20
4.9210465751
 30
0.0
 10
3.5704426219
 20
4.9200042387
 30
0.0
 10
3.5760677
 20
4.9183062921
 30
0.0
 10
3.5814360796
 20
4.9160062342
 30
0.0
 10
3.5864930124
 20
4.9131676086
 30
0.0
 10
3.591202119
 20
4.909857883
 30
0.0
 10
3.5955419527
 20
4.9061436832
 30
0.0
 10
3.5981933478
 20
4.903429135
 30
0.0
 10
3.5994546969
 20
4.9020246391
 30
0.0
  0
SPLINE
  5
3BA
100
AcDbEntity
  8
0
100
AcDbSpline
 62
7
  6
CONTINUOUS
 70
0
 71
3
 72
23
 73
19
 74
0
 42
0.0000001
 43
0.0000001
 44
0.0000000001
 40
0.0
 40
0.0
 40
0.0
 40
0.0
 40
0.0602191405
 40
0.121120799
 40
0.1827342526
 40
0.2450697256
 40
0.3080862208
 40
0.3716913304
 40
0.4357313424
 40
0.5000010421
 40
0.5642707141
 40
0.6283104975
 40
0.6919151885
 40
0.7549313833
 40
0.8172665581
 40
0.8788797461
 40
0.9397810361
 40
1.0
 40
1.0
 40
1.0
 40
1.0
 10
3.5180015485
 20
4.9152489604
 30
0.0
 10
3.5192654099
 20
4.916592341
 30
0.0
 10
3.5219228739
 20
4.9191886353
 30
0.0
 10
3.5262637575
 20
4.9227336107
 30
0.0
 10
3.530973457
 20
4.9258920116
 30
0.0
 10
3.536030254
 20
4.9286003007
 30
0.0
 10
3.5413975453
 20
4.9307942647
 30
0.0
 10
3.5470204965
 20
4.9324135133
 30
0.0
 10
3.5528265472
 20
4.9334073384
 30
0.0
 10
3.5587282182
 20
4.9337424919
 30
0.0
 10
3.5646298828
 20
4.9334073335
 30
0.0
 10
3.5704359076
 20
4.9324134764
 30
0.0
 10
3.5760588228
 20
4.9307942118
 30
0.0
 10
3.5814260842
 20
4.9286002577
 30
0.0
 10
3.586482854
 20
4.9258919734
 30
0.0
 10
3.5911925249
 20
4.9227335814
 30
0.0
 10
3.595533388
 20
4.9191886205
 30
0.0
 10
3.5981908393
 20
4.916592337
 30
0.0
 10
3.5994546969
 20
4.9152489604
 30
0.0
  0
SPLINE
  5
3BB
100
AcDbEntity
  8
0
100
AcDbSpline
 62
7
  6
CONTINUOUS
 70
0
 71
3
 72
23
 73
19
 74
0
 42
0.0000001
 43
0.0000001
 44
0.0000000001
 40
0.0
 40
0.0
 40
0.0
 40
0.0
 40
0.0592460359
 40
0.119473385
 40
0.1807220125
 40
0.2429985961
 40
0.3062404303
 40
0.3703120615
 40
0.4349950269
 40
0.500001055
 40
0.5650070542
 40
0.6296897828
 40
0.6937609848
 40
0.7570025145
 40
0.8192787964
 40
0.8805271554
 40
0.9407541385
 40
1.0
 40
1.0
 40
1.0
 40
1.0
 10
3.5180015485
 20
4.9247869382
 30
0.0
 10
3.5192686011
 20
4.9260566667
 30
0.0
 10
3.5219336031
 20
4.928510302
 30
0.0
 10
3.5262755512
 20
4.9318516655
 30
0.0
 10
3.530985709
 20
4.9348280689
 30
0.0
 10
3.5360420949
 20
4.9373797137
 30
0.0
 10
3.541407897
 20
4.93944628
 30
0.0
 10
3.5470282291
 20
4.9409711547
 30
0.0
 10
3.5528306903
 20
4.9419068867
 30
0.0
 10
3.5587282182
 20
4.9422224183
 30
0.0
 10
3.5646257394
 20
4.9419068822
 30
0.0
 10
3.570428175
 20
4.9409711199
 30
0.0
 10
3.5760484715
 20
4.93944623
 30
0.0
 10
3.5814142433
 20
4.9373796732
 30
0.0
 10
3.5864706021
 20
4.9348280329
 30
0.0
 10
3.5911807313
 20
4.9318516378
 30
0.0
 10
3.5955226589
 20
4.928510288
 30
0.0
 10
3.598187648
 20
4.926056663
 30
0.0
 10
3.5994546969
 20
4.9247869382
 30
0.0
  0
SPLINE
  5
3BC
100
AcDbEntity
  8
0
100
AcDbSpline
 62
7
  6
CONTINUOUS
 70
0
 71
3
 72
15
 73
11
 74
0
 42
0.0000001
 43
0.0000001
 44
0.0000000001
 40
0.0
 40
0.0
 40
0.0
 40
0.0
 40
0.1175991596
 40
0.2406570116
 40
0.3687596985
 40
0.5000010702
 40
0.6312421564
 40
0.7593441006
 40
0.882401375
 40
1.0
 40
1.0
 40
1.0
 40
1.0
 10
3.5180015485
 20
4.9305467168
 30
0.0
 10
3.5205702393
 20
4.9329398508
 30
0.0
 10
3.5262601172
 20
4.9373954432
 30
0.0
 10
3.5360565503
 20
4.9425491965
 30
0.0
 10
3.5470488194
 20
4.9458882993
 30
0.0
 10
3.5587282111
 20
4.947048109
 30
0.0
 10
3.5704075775
 20
4.9458882685
 30
0.0
 10
3.5813997912
 20
4.9425491524
 30
0.0
 10
3.5911961684
 20
4.9373954139
 30
0.0
 10
3.5968860178
 20
4.9329398399
 30
0.0
 10
3.5994546969
 20
4.9305467168
 30
0.0
  0
LINE
  5
3BD
100
AcDbEntity
  8
ALL_FEATURES
100
AcDbLine
 62
7
  6
CONTINUOUS
 10
4.8855588432
 20
5.1520146086
 11
4.8853068902
 21
5.1502161832
  0
LINE
  5
3BE
100
AcDbEntity
  8
ALL_FEATURES
100
AcDbLine
 62
7
  6
CONTINUOUS
 10
4.8841621262
 20
5.1423166594
 11
4.8830411822
 21
5.135485657
  0
LINE
  5
3BF
100
AcDbEntity
  8
ALL_FEATURES
100
AcDbLine
 62
7
  6
CONTINUOUS
 10
4.8830411822
 20
5.135485657
 11
4.882689598
 21
5.1341878413
  0
LINE
  5
3C0
100
AcDbEntity
  8
ALL_FEATURES
100
AcDbLine
 62
7
  6
CONTINUOUS
 10
4.8911656848
 20
5.1944888929
 11
4.8855588432
 21
5.1520146086
  0
LINE
  5
3C1
100
AcDbEntity
  8
ALL_FEATURES
100
AcDbLine
 62
7
  6
CONTINUOUS
 10
4.896228051
 20
5.2362423151
 11
4.8911656848
 21
5.1944888929
  0
LINE
  5
3C2
100
AcDbEntity
  8
ALL_FEATURES
100
AcDbLine
 62
7
  6
CONTINUOUS
 10
4.8978690374
 20
5.2530704125
 11
4.8972176764
 21
5.2451584534
  0
LINE
  5
3C3
100
AcDbEntity
  8
ALL_FEATURES
100
AcDbLine
 62
7
  6
CONTINUOUS
 10
4.8965068633
 20
5.2386960742
 11
4.896228051
 21
5.2362423151
  0
LINE
  5
3C4
100
AcDbEntity
  8
ALL_FEATURES
100
AcDbLine
 62
7
  6
CONTINUOUS
 10
4.8949441423
 20
5.0668509952
 11
4.8853744543
 21
5.0098672714
  0
SPLINE
  5
3C5
100
AcDbEntity
  8
ALL_FEATURES
100
AcDbSpline
 62
7
  6
CONTINUOUS
 70
0
 71
3
 72
10
 73
6
 74
0
 42
0.0000001
 43
0.0000001
 44
0.0000000001
 40
0.0
 40
0.0
 40
0.0
 40
0.0
 40
0.2048925307
 40
0.4457428181
 40
1.0
 40
1.0
 40
1.0
 40
1.0
 10
4.8883191335
 20
4.7693362769
 30
0.0
 10
4.8884485385
 20
4.7687715599
 30
0.0
 10
4.8886745623
 20
4.7675305766
 30
0.0
 10
4.8890704224
 20
4.76473072
 30
0.0
 10
4.8893017811
 20
4.7624936176
 30
0.0
 10
4.8894486293
 20
4.7609332955
 30
0.0
  0
SPLINE
  5
3C6
100
AcDbEntity
  8
ALL_FEATURES
100
AcDbSpline
 62
7
  6
CONTINUOUS
 70
0
 71
3
 72
11
 73
7
 74
0
 42
0.0000001
 43
0.0000001
 44
0.0000000001
 40
0.0
 40
0.0
 40
0.0
 40
0.0
 40
0.3428709831
 40
0.6186781332
 40
0.8315276666
 40
1.0
 40
1.0
 40
1.0
 40
1.0
 10
4.8857975442
 20
4.7031371245
 30
0.0
 10
4.885719472
 20
4.7029800512
 30
0.0
 10
4.8855677726
 20
4.702701434
 30
0.0
 10
4.885315893
 20
4.7023567308
 30
0.0
 10
4.8850623813
 20
4.702129203
 30
0.0
 10
4.8848654242
 20
4.7020685678
 30
0.0
 10
4.8847792962
 20
4.7020717625
 30
0.0
  0
SPLINE
  5
3C7
100
AcDbEntity
  8
ALL_FEATURES
100
AcDbSpline
 62
7
  6
CONTINUOUS
 70
0
 71
3
 72
12
 73
8
 74
0
 42
0.0000001
 43
0.0000001
 44
0.0000000001
 40
0.0
 40
0.0
 40
0.0
 40
0.0
 40
0.3216574626
 40
0.602763192
 40
0.8320617145
 40
0.9242165233
 40
1.0
 40
1.0
 40
1.0
 40
1.0
 10
4.8880234386
 20
4.7125735171
 30
0.0
 10
4.8878621616
 20
4.7115439623
 30
0.0
 10
4.8875402713
 20
4.7096174689
 30
0.0
 10
4.887009828
 20
4.7069741672
 30
0.0
 10
4.8865280629
 20
4.7050800014
 30
0.0
 10
4.886117214
 20
4.7038598656
 30
0.0
 10
4.8859068256
 20
4.7033569876
 30
0.0
 10
4.8857975442
 20
4.7031371245
 30
0.0
  0
LINE
  5
3C8
100
AcDbEntity
  8
ALL_FEATURES
100
AcDbLine
 62
7
  6
CONTINUOUS
 10
4.8901297982
 20
4.7326423699
 11
4.8886830337
 21
4.7175324926
  0
LINE
  5
3C9
100
AcDbEntity
  8
ALL_FEATURES
100
AcDbLine
 62
7
  6
CONTINUOUS
 10
4.8886830337
 20
4.7175324926
 11
4.8880234386
 21
4.7125735171
  0
SPLINE
  5
3CA
100
AcDbEntity
  8
ALL_FEATURES
100
AcDbSpline
 62
7
  6
CONTINUOUS
 70
0
 71
3
 72
11
 73
7
 74
0
 42
0.0000001
 43
0.0000001
 44
0.0000000001
 40
0.0
 40
0.0
 40
0.0
 40
0.0
 40
0.3442026994
 40
0.6173554508
 40
0.8288404072
 40
1.0
 40
1.0
 40
1.0
 40
1.0
 10
4.8940859213
 20
4.7227227854
 30
0.0
 10
4.8940253849
 20
4.722600987
 30
0.0
 10
4.8939073433
 20
4.722386719
 30
0.0
 10
4.8937085493
 20
4.7221245762
 30
0.0
 10
4.8935065638
 20
4.721956124
 30
0.0
 10
4.8933541598
 20
4.7219129962
 30
0.0
 10
4.893286537
 20
4.7219142442
 30
0.0
  0
SPLINE
  5
3CB
100
AcDbEntity
  8
ALL_FEATURES
100
AcDbSpline
 62
7
  6
CONTINUOUS
 70
0
 71
3
 72
13
 73
9
 74
0
 42
0.0000001
 43
0.0000001
 44
0.0000000001
 40
0.0
 40
0.0
 40
0.0
 40
0.0
 40
0.3416763314
 40
0.6326242869
 40
0.7527490081
 40
0.8536988109
 40
0.9356766045
 40
1.0
 40
1.0
 40
1.0
 40
1.0
 10
4.8963846673
 20
4.7355316125
 30
0.0
 10
4.896250374
 20
4.7340503241
 30
0.0
 10
4.8959690532
 20
4.7313105199
 30
0.0
 10
4.8955081004
 20
4.7280644547
 30
0.0
 10
4.8950817223
 20
4.7258762089
 30
0.0
 10
4.8947702744
 20
4.7245935312
 30
0.0
 10
4.8944512211
 20
4.7235648964
 30
0.0
 10
4.8942105471
 20
4.7229735306
 30
0.0
 10
4.8940859213
 20
4.7227227854
 30
0.0
  0
SPLINE
  5
3CC
100
AcDbEntity
  8
ALL_FEATURES
100
AcDbSpline
 62
7
  6
CONTINUOUS
 70
0
 71
3
 72
10
 73
6
 74
0
 42
0.0000001
 43
0.0000001
 44
0.0000000001
 40
0.0
 40
0.0
 40
0.0
 40
0.0
 40
0.5028968783
 40
0.7565666248
 40
1.0
 40
1.0
 40
1.0
 40
1.0
 10
4.8973942079
 20
4.7598229086
 30
0.0
 10
4.8973629253
 20
4.7557465284
 30
0.0
 10
4.8972453667
 20
4.7496135702
 30
0.0
 10
4.8968572046
 20
4.7415163255
 30
0.0
 10
4.8965628338
 20
4.7374968325
 30
0.0
 10
4.8963846673
 20
4.7355316125
 30
0.0
  0
SPLINE
  5
3CD
100
AcDbEntity
  8
ALL_FEATURES
100
AcDbSpline
 62
7
  6
CONTINUOUS
 70
0
 71
3
 72
11
 73
7
 74
0
 42
0.0000001
 43
0.0000001
 44
0.0000000001
 40
0.0
 40
0.0
 40
0.0
 40
0.0
 40
0.1964003046
 40
0.4342029313
 40
0.704901208
 40
1.0
 40
1.0
 40
1.0
 40
1.0
 10
4.89655161
 20
4.7807541158
 30
0.0
 10
4.8966818724
 20
4.7799448696
 30
0.0
 10
4.8968976178
 20
4.7781443693
 30
0.0
 10
4.897124747
 20
4.7752109228
 30
0.0
 10
4.8972805043
 20
4.7718603322
 30
0.0
 10
4.8973405084
 20
4.7694996624
 30
0.0
 10
4.8973625323
 20
4.7682682848
 30
0.0
  0
LINE
  5
3CE
100
AcDbEntity
  8
ALL_FEATURES
100
AcDbLine
 62
7
  6
CONTINUOUS
 10
4.8973625323
 20
4.7682682848
 11
4.8973942079
 21
4.7598229086
  0
SPLINE
  5
3CF
100
AcDbEntity
  8
ALL_FEATURES
100
AcDbSpline
 62
7
  6
CONTINUOUS
 70
0
 71
3
 72
13
 73
9
 74
0
 42
0.0000001
 43
0.0000001
 44
0.0000000001
 40
0.0
 40
0.0
 40
0.0
 40
0.0
 40
0.3762795727
 40
0.6629366033
 40
0.7729418422
 40
0.8626019927
 40
0.9360442058
 40
1.0
 40
1.0
 40
1.0
 40
1.0
 10
4.8843143669
 20
4.6399230247
 30
0.0
 10
4.8844101548
 20
4.6395512028
 30
0.0
 10
4.8845993392
 20
4.6389014753
 30
0.0
 10
4.8848986079
 20
4.6381673502
 30
0.0
 10
4.8851616737
 20
4.6377448615
 30
0.0
 10
4.8853471105
 20
4.6375344521
 30
0.0
 10
4.8855401858
 20
4.637400562
 30
0.0
 10
4.8856801575
 20
4.6373652258
 30
0.0
 10
4.8857453776
 20
4.6373628996
 30
0.0
  0
SPLINE
  5
3D0
100
AcDbEntity
  8
ALL_FEATURES
100
AcDbSpline
 62
7
  6
CONTINUOUS
 70
0
 71
3
 72
11
 73
7
 74
0
 42
0.0000001
 43
0.0000001
 44
0.0000000001
 40
0.0
 40
0.0
 40
0.0
 40
0.0
 40
0.32268028
 40
0.6033345978
 40
0.8288665004
 40
1.0
 40
1.0
 40
1.0
 40
1.0
 10
4.8831400707
 20
4.6528663989
 30
0.0
 10
4.8831517116
 20
4.6514657838
 30
0.0
 10
4.8832125133
 20
4.6488469695
 30
0.0
 10
4.8834447164
 20
4.6452551462
 30
0.0
 10
4.883795906
 20
4.6423344742
 30
0.0
 10
4.8841290482
 20
4.6406423794
 30
0.0
 10
4.8843143669
 20
4.6399230247
 30
0.0
  0
LINE
  5
3D1
100
AcDbEntity
  8
ALL_FEATURES
100
AcDbLine
 62
7
  6
CONTINUOUS
 10
4.8840566833
 20
4.6721403106
 11
4.8834652473
 21
4.6634816382
  0
LINE
  5
3D2
100
AcDbEntity
  8
ALL_FEATURES
100
AcDbLine
 62
7
  6
CONTINUOUS
 10
4.8843519795
 20
4.6804103816
 11
4.8840566833
 21
4.6721403106
  0
SPLINE
  5
3D3
100
AcDbEntity
  8
ALL_FEATURES
100
AcDbSpline
 62
7
  6
CONTINUOUS
 70
0
 71
3
 72
12
 73
8
 74
0
 42
0.0000001
 43
0.0000001
 44
0.0000000001
 40
0.0
 40
0.0
 40
0.0
 40
0.0
 40
0.0821678592
 40
0.1823380906
 40
0.4241447532
 40
0.7020356124
 40
1.0
 40
1.0
 40
1.0
 40
1.0
 10
4.8840392877
 20
4.685810261
 30
0.0
 10
4.8840703318
 20
4.6856652264
 30
0.0
 10
4.8841242386
 20
4.6853402326
 30
0.0
 10
4.884214154
 20
4.6845798169
 30
0.0
 10
4.8842912824
 20
4.6834629745
 30
0.0
 10
4.8843402263
 20
4.6819877337
 30
0.0
 10
4.8843504947
 20
4.6809482301
 30
0.0
 10
4.8843519795
 20
4.6804103816
 30
0.0
  0
SPLINE
  5
3D4
100
AcDbEntity
  8
ALL_FEATURES
100
AcDbSpline
 62
7
  6
CONTINUOUS
 70
0
 71
3
 72
12
 73
8
 74
0
 42
0.0000001
 43
0.0000001
 44
0.0000000001
 40
0.0
 40
0.0
 40
0.0
 40
0.0
 40
0.3405376821
 40
0.6150415994
 40
0.728869694
 40
0.8289277459
 40
1.0
 40
1.0
 40
1.0
 40
1.0
 10
4.8881378106
 20
4.6274017765
 30
0.0
 10
4.888025548
 20
4.6271744237
 30
0.0
 10
4.8878062404
 20
4.6267716923
 30
0.0
 10
4.8874845547
 20
4.6263304135
 30
0.0
 10
4.8872189055
 20
4.62607986
 30
0.0
 10
4.8869825456
 20
4.6259174317
 30
0.0
 10
4.8867774634
 20
4.6258574679
 30
0.0
 10
4.8866501702
 20
4.6258621083
 30
0.0
  0
SPLINE
  5
3D5
100
AcDbEntity
  8
ALL_FEATURES
100
AcDbSpline
 62
7
  6
CONTINUOUS
 70
0
 71
3
 72
13
 73
9
 74
0
 42
0.0000001
 43
0.0000001
 44
0.0000000001
 40
0.0
 40
0.0
 40
0.0
 40
0.0
 40
0.3387839353
 40
0.6249101234
 40
0.7441392747
 40
0.8461850081
 40
0.9311803835
 40
1.0
 40
1.0
 40
1.0
 40
1.0
 10
4.8916689347
 20
4.6455548159
 30
0.0
 10
4.8914532054
 20
4.6434703039
 30
0.0
 10
4.8910070784
 20
4.6396300669
 30
0.0
 10
4.8902940065
 20
4.635079928
 30
0.0
 10
4.8896483343
 20
4.6320076622
 30
0.0
 10
4.8891760255
 20
4.6301719924
 30
0.0
 10
4.8886906262
 20
4.6286645837
 30
0.0
 10
4.8883262897
 20
4.627783482
 30
0.0
 10
4.8881378106
 20
4.6274017765
 30
0.0
  0
LINE
  5
3D6
100
AcDbEntity
  8
ALL_FEATURES
100
AcDbLine
 62
7
  6
CONTINUOUS
 10
4.893383523
 20
4.6868966136
 11
4.8933548041
 21
4.6846266261
  0
SPLINE
  5
3D7
100
AcDbEntity
  8
ALL_FEATURES
100
AcDbSpline
 62
7
  6
CONTINUOUS
 70
0
 71
3
 72
9
 73
5
 74
0
 42
0.0000001
 43
0.0000001
 44
0.0000000001
 40
0.0
 40
0.0
 40
0.0
 40
0.0
 40
0.5042629123
 40
1.0
 40
1.0
 40
1.0
 40
1.0
 10
4.8932480368
 20
4.678098298
 30
0.0
 10
4.8931709483
 20
4.674124534
 30
0.0
 10
4.8929715198
 20
4.6662450791
 30
0.0
 10
4.892624319
 20
4.658369735
 30
0.0
 10
4.8923829393
 20
4.6544698853
 30
0.0
  0
LINE
  5
3D8
100
AcDbEntity
  8
ALL_FEATURES
100
AcDbLine
 62
7
  6
CONTINUOUS
 10
4.8923829393
 20
4.6544698853
 11
4.8916689347
 21
4.6455548159
  0
LINE
  5
3D9
100
AcDbEntity
  8
ALL_FEATURES
100
AcDbLine
 62
7
  6
CONTINUOUS
 10
4.8853744543
 20
4.4295006636
 11
4.8949441423
 21
4.416583502
  0
LINE
  5
3DA
100
AcDbEntity
  8
ALL_FEATURES
100
AcDbLine
 62
7
  6
CONTINUOUS
 10
4.8941017073
 20
4.2037804848
 11
4.8974601348
 21
4.1793805809
  0
SPLINE
  5
3DB
100
AcDbEntity
  8
ALL_FEATURES
100
AcDbSpline
 62
7
  6
CONTINUOUS
 70
0
 71
3
 72
13
 73
9
 74
0
 42
0.0000001
 43
0.0000001
 44
0.0000000001
 40
0.0
 40
0.0
 40
0.0
 40
0.0
 40
0.3697717467
 40
0.6648457659
 40
0.7806104161
 40
0.8744929724
 40
0.9470864377
 40
1.0
 40
1.0
 40
1.0
 40
1.0
 10
4.8868887258
 20
4.1169889865
 30
0.0
 10
4.8870546445
 20
4.1162458937
 30
0.0
 10
4.887372831
 20
4.1149143416
 30
0.0
 10
4.887819134
 20
4.1133683392
 30
0.0
 10
4.8881818665
 20
4.1123940299
 30
0.0
 10
4.8884238828
 20
4.1118644094
 30
0.0
 10
4.8886553187
 20
4.1114761679
 30
0.0
 10
4.8888296848
 20
4.1112792451
 30
0.0
 10
4.8889180051
 20
4.1112154456
 30
0.0
  0
LINE
  5
3DC
100
AcDbEntity
  8
ALL_FEATURES
100
AcDbLine
 62
7
  6
CONTINUOUS
 10
4.8889180051
 20
4.1112154456
 11
4.8891808903
 21
4.1111282415
  0
SPLINE
  5
3DD
100
AcDbEntity
  8
ALL_FEATURES
100
AcDbSpline
 62
7
  6
CONTINUOUS
 70
0
 71
3
 72
10
 73
6
 74
0
 42
0.0000001
 43
0.0000001
 44
0.0000000001
 40
0.0
 40
0.0
 40
0.0
 40
0.0
 40
0.5631061646
 40
0.7993311272
 40
1.0
 40
1.0
 40
1.0
 40
1.0
 10
4.8843143669
 20
4.1336011863
 30
0.0
 10
4.8846605304
 20
4.1304635817
 30
0.0
 10
4.8852251482
 20
4.1260162552
 30
0.0
 10
4.886159027
 20
4.1204881927
 30
0.0
 10
4.8866435923
 20
4.1180868557
 30
0.0
 10
4.8868887258
 20
4.1169889865
 30
0.0
  0
SPLINE
  5
3DE
100
AcDbEntity
  8
ALL_FEATURES
100
AcDbSpline
 62
7
  6
CONTINUOUS
 70
0
 71
3
 72
9
 73
5
 74
0
 42
0.0000001
 43
0.0000001
 44
0.0000000001
 40
0.0
 40
0.0
 40
0.0
 40
0.0
 40
0.4831905289
 40
1.0
 40
1.0
 40
1.0
 40
1.0
 10
4.8831400707
 20
4.1509036693
 30
0.0
 10
4.8831674795
 20
4.1481097688
 30
0.0
 10
4.8834448229
 20
4.142329759
 30
0.0
 10
4.8839866492
 20
4.1365715983
 30
0.0
 10
4.8843143669
 20
4.1336011863
 30
0.0
  0
LINE
  5
3DF
100
AcDbEntity
  8
ALL_FEATURES
100
AcDbLine
 62
7
  6
CONTINUOUS
 10
4.8834652473
 20
4.1574541955
 11
4.8833550005
 21
4.1567276049
  0
LINE
  5
3E0
100
AcDbEntity
  8
ALL_FEATURES
100
AcDbLine
 62
7
  6
CONTINUOUS
 10
4.8833550005
 20
4.1567276049
 11
4.8831400707
 21
4.1509036693
  0
LINE
  5
3E1
100
AcDbEntity
  8
ALL_FEATURES
100
AcDbLine
 62
7
  6
CONTINUOUS
 10
4.8840566833
 20
4.1609039704
 11
4.8834652473
 21
4.1574541955
  0
LINE
  5
3E2
100
AcDbEntity
  8
ALL_FEATURES
100
AcDbLine
 62
7
  6
CONTINUOUS
 10
4.8843519795
 20
4.1659243711
 11
4.8840566833
 21
4.1609039704
  0
LINE
  5
3E3
100
AcDbEntity
  8
ALL_FEATURES
100
AcDbLine
 62
7
  6
CONTINUOUS
 10
4.8840392877
 20
4.1723522174
 11
4.8843519795
 21
4.1659243711
  0
LINE
  5
3E4
100
AcDbEntity
  8
ALL_FEATURES
100
AcDbLine
 62
7
  6
CONTINUOUS
 10
4.8833617492
 20
4.1770131725
 11
4.8840392877
 21
4.1723522174
  0
LINE
  5
3E5
100
AcDbEntity
  8
ALL_FEATURES
100
AcDbLine
 62
7
  6
CONTINUOUS
 10
4.8916689347
 20
4.0935269491
 11
4.8911683305
 21
4.09316491
  0
LINE
  5
3E6
100
AcDbEntity
  8
ALL_FEATURES
100
AcDbLine
 62
7
  6
CONTINUOUS
 10
4.893383523
 20
4.116003172
 11
4.8931080331
 21
4.1055768831
  0
SPLINE
  5
3E7
100
AcDbEntity
  8
ALL_FEATURES
100
AcDbSpline
 62
7
  6
CONTINUOUS
 70
0
 71
3
 72
10
 73
6
 74
0
 42
0.0000001
 43
0.0000001
 44
0.0000000001
 40
0.0
 40
0.0
 40
0.0
 40
0.0
 40
0.5623189797
 40
0.8004989756
 40
1.0
 40
1.0
 40
1.0
 40
1.0
 10
4.8931080331
 20
4.1055768831
 30
0.0
 10
4.8930321581
 20
4.1037368251
 30
0.0
 10
4.8928998127
 20
4.1011176126
 30
0.0
 10
4.8926138122
 20
4.0978548889
 30
0.0
 10
4.8924344311
 20
4.0964317834
 30
0.0
 10
4.892326939
 20
4.0957873108
 30
0.0
  0
SPLINE
  5
3E8
100
AcDbEntity
  8
ALL_FEATURES
100
AcDbSpline
 62
7
  6
CONTINUOUS
 70
0
 71
3
 72
11
 73
7
 74
0
 42
0.0000001
 43
0.0000001
 44
0.0000000001
 40
0.0
 40
0.0
 40
0.0
 40
0.0
 40
0.3282547013
 40
0.6065384999
 40
0.8311170844
 40
1.0
 40
1.0
 40
1.0
 40
1.0
 10
4.892326939
 20
4.0957873108
 30
0.0
 10
4.8922843306
 20
4.09553185
 30
0.0
 10
4.8921976843
 20
4.0950611219
 30
0.0
 10
4.89204536
 20
4.0944225668
 30
0.0
 10
4.8918812151
 20
4.0939185608
 30
0.0
 10
4.8917454686
 20
4.0936360239
 30
0.0
 10
4.8916689347
 20
4.0935269491
 30
0.0
  0
LINE
  5
3E9
100
AcDbEntity
  8
ALL_FEATURES
100
AcDbLine
 62
7
  6
CONTINUOUS
 10
4.8922999016
 20
4.1305996855
 11
4.8942405564
 21
4.116118389
  0
LINE
  5
3EA
100
AcDbEntity
  8
ALL_FEATURES
100
AcDbLine
 62
7
  6
CONTINUOUS
 10
4.896925596
 20
3.8161571172
 11
4.8974813933
 21
3.8118253681
  0
LINE
  5
3EB
100
AcDbEntity
  8
ALL_FEATURES
100
AcDbLine
 62
7
  6
CONTINUOUS
 10
4.8963135877
 20
3.8201434647
 11
4.896925596
 21
3.8161571172
  0
LINE
  5
3EC
100
AcDbEntity
  8
ALL_FEATURES
100
AcDbLine
 62
7
  6
CONTINUOUS
 10
4.894419229
 20
3.8347178259
 11
4.8963135877
 21
3.8201434647
  0
LINE
  5
3ED
100
AcDbEntity
  8
ALL_FEATURES
100
AcDbLine
 62
7
  6
CONTINUOUS
 10
4.8910277287
 20
3.8611194056
 11
4.8924181274
 21
3.8502952901
  0
LINE
  5
3EE
100
AcDbEntity
  8
ALL_FEATURES
100
AcDbLine
 62
7
  6
CONTINUOUS
 10
4.8879132786
 20
3.8900223289
 11
4.8929724425
 21
3.8503664964
  0
LINE
  5
3EF
100
AcDbEntity
  8
ALL_FEATURES
100
AcDbLine
 62
7
  6
CONTINUOUS
 10
4.8840787306
 20
3.915232022
 11
4.8842869181
 21
3.9136042523
  0
LINE
  5
3F0
100
AcDbEntity
  8
ALL_FEATURES
100
AcDbLine
 62
7
  6
CONTINUOUS
 10
4.8833586325
 20
3.9271180519
 11
4.8866862202
 21
3.9011266365
  0
LINE
  5
3F1
100
AcDbEntity
  8
ALL_FEATURES
100
AcDbLine
 62
7
  6
CONTINUOUS
 10
4.8946573678
 20
4.7718822547
 11
4.8944039545
 21
4.7712418135
  0
LINE
  5
3F2
100
AcDbEntity
  8
ALL_FEATURES
100
AcDbLine
 62
7
  6
CONTINUOUS
 10
4.8944039545
 20
4.7712418135
 11
4.8936618456
 21
4.7680479863
  0
SPLINE
  5
3F3
100
AcDbEntity
  8
ALL_FEATURES
100
AcDbSpline
 62
7
  6
CONTINUOUS
 70
0
 71
3
 72
11
 73
7
 74
0
 42
0.0000001
 43
0.0000001
 44
0.0000000001
 40
0.0
 40
0.0
 40
0.0
 40
0.0
 40
0.2189773587
 40
0.4656360961
 40
0.7280239515
 40
1.0
 40
1.0
 40
1.0
 40
1.0
 10
4.8936618456
 20
4.7680479863
 30
0.0
 10
4.8934335408
 20
4.7667803502
 30
0.0
 10
4.8930322834
 20
4.7640699685
 30
0.0
 10
4.8925148807
 20
4.7598190428
 30
0.0
 10
4.892037282
 20
4.7552497203
 30
0.0
 10
4.8917461724
 20
4.75212005
 30
0.0
 10
4.8916045803
 20
4.7505265573
 30
0.0
  0
SPLINE
  5
3F4
100
AcDbEntity
  8
ALL_FEATURES
100
AcDbSpline
 62
7
  6
CONTINUOUS
 70
0
 71
3
 72
11
 73
7
 74
0
 42
0.0000001
 43
0.0000001
 44
0.0000000001
 40
0.0
 40
0.0
 40
0.0
 40
0.0
 40
0.3357444922
 40
0.6050815916
 40
0.8193318082
 40
1.0
 40
1.0
 40
1.0
 40
1.0
 10
4.8927175136
 20
4.7359776914
 30
0.0
 10
4.8927629038
 20
4.7358809621
 30
0.0
 10
4.8928530685
 20
4.7357101193
 30
0.0
 10
4.89301005
 20
4.7355001268
 30
0.0
 10
4.893175855
 20
4.7353637698
 30
0.0
 10
4.8933009454
 20
4.735326367
 30
0.0
 10
4.8933583993
 20
4.7353241405
 30
0.0
  0
LINE
  5
3F5
100
AcDbEntity
  8
ALL_FEATURES
100
AcDbLine
 62
7
  6
CONTINUOUS
 10
4.8911747817
 20
4.7454537696
 11
4.8922486763
 21
4.7376387319
  0
LINE
  5
3F6
100
AcDbEntity
  8
ALL_FEATURES
100
AcDbLine
 62
7
  6
CONTINUOUS
 10
4.8922486763
 20
4.7376387319
 11
4.8926059338
 21
4.7362550337
  0
LINE
  5
3F7
100
AcDbEntity
  8
ALL_FEATURES
100
AcDbLine
 62
7
  6
CONTINUOUS
 10
4.8926059338
 20
4.7362550337
 11
4.8927175136
 21
4.7359776914
  0
SPLINE
  5
3F8
100
AcDbEntity
  8
ALL_FEATURES
100
AcDbSpline
 62
7
  6
CONTINUOUS
 70
0
 71
3
 72
14
 73
10
 74
0
 42
0.0000001
 43
0.0000001
 44
0.0000000001
 40
0.0
 40
0.0
 40
0.0
 40
0.0
 40
0.3996307231
 40
0.5601890701
 40
0.6935065204
 40
0.8005233639
 40
0.8837930634
 40
0.9476244478
 40
1.0
 40
1.0
 40
1.0
 40
1.0
 10
4.8834310581
 20
4.7165728536
 30
0.0
 10
4.88348538
 20
4.7162225314
 30
0.0
 10
4.8835734758
 20
4.7157327157
 30
0.0
 10
4.883729266
 20
4.7151372205
 30
0.0
 10
4.8838436213
 20
4.71480006
 30
0.0
 10
4.8839635808
 20
4.7145383984
 30
0.0
 10
4.8840888533
 20
4.7143495487
 30
0.0
 10
4.8842224889
 20
4.7142286199
 30
0.0
 10
4.8843253838
 20
4.7141968368
 30
0.0
 10
4.884371821
 20
4.7141953247
 30
0.0
  0
SPLINE
  5
3F9
100
AcDbEntity
  8
ALL_FEATURES
100
AcDbSpline
 62
7
  6
CONTINUOUS
 70
0
 71
3
 72
11
 73
7
 74
0
 42
0.0000001
 43
0.0000001
 44
0.0000000001
 40
0.0
 40
0.0
 40
0.0
 40
0.0
 40
0.2949637808
 40
0.5683280714
 40
0.8068114811
 40
1.0
 40
1.0
 40
1.0
 40
1.0
 10
4.8829006599
 20
4.7280565757
 30
0.0
 10
4.8828910271
 20
4.7269253321
 30
0.0
 10
4.8828917255
 20
4.7247454363
 30
0.0
 10
4.8829702432
 20
4.7216515344
 30
0.0
 10
4.8831341151
 20
4.7189518809
 30
0.0
 10
4.8833175224
 20
4.7173050458
 30
0.0
 10
4.8834310581
 20
4.7165728536
 30
0.0
  0
SPLINE
  5
3FA
100
AcDbEntity
  8
ALL_FEATURES
100
AcDbSpline
 62
7
  6
CONTINUOUS
 70
0
 71
3
 72
9
 73
5
 74
0
 42
0.0000001
 43
0.0000001
 44
0.0000000001
 40
0.0
 40
0.0
 40
0.0
 40
0.0
 40
0.2352804225
 40
1.0
 40
1.0
 40
1.0
 40
1.0
 10
4.8839670769
 20
4.7463295384
 30
0.0
 10
4.8838051963
 20
4.7449027932
 30
0.0
 10
4.8832016424
 20
4.7388292902
 30
0.0
 10
4.8829403994
 20
4.7327234349
 30
0.0
 10
4.8829006599
 20
4.7280565757
 30
0.0
  0
LINE
  5
3FB
100
AcDbEntity
  8
ALL_FEATURES
100
AcDbLine
 62
7
  6
CONTINUOUS
 10
4.886196299
 20
4.7573958338
 11
4.8853954851
 21
4.7550590845
  0
LINE
  5
3FC
100
AcDbEntity
  8
ALL_FEATURES
100
AcDbLine
 62
7
  6
CONTINUOUS
 10
4.8853954851
 20
4.7550590845
 11
4.8850163408
 21
4.7533961791
  0
LINE
  5
3FD
100
AcDbEntity
  8
ALL_FEATURES
100
AcDbLine
 62
7
  6
CONTINUOUS
 10
4.8850163408
 20
4.7533961791
 11
4.884651615
 21
4.7513819482
  0
LINE
  5
3FE
100
AcDbEntity
  8
ALL_FEATURES
100
AcDbLine
 62
7
  6
CONTINUOUS
 10
4.884651615
 20
4.7513819482
 11
4.8839670769
 21
4.7463295384
  0
LINE
  5
3FF
100
AcDbEntity
  8
ALL_FEATURES
100
AcDbLine
 62
7
  6
CONTINUOUS
 10
4.8952271349
 20
5.2342725356
 11
4.8950074794
 21
5.2326169981
  0
LINE
  5
400
100
AcDbEntity
  8
ALL_FEATURES
100
AcDbLine
 62
7
  6
CONTINUOUS
 10
4.8950074794
 20
5.2326169981
 11
4.8941180958
 21
5.2258521466
  0
LINE
  5
401
100
AcDbEntity
  8
ALL_FEATURES
100
AcDbLine
 62
7
  6
CONTINUOUS
 10
4.8913899728
 20
5.204777031
 11
4.8903335796
 21
5.1965436498
  0
LINE
  5
402
100
AcDbEntity
  8
ALL_FEATURES
100
AcDbLine
 62
7
  6
CONTINUOUS
 10
4.8954731423
 20
5.2361159738
 11
4.8952271349
 21
5.2342725356
  0
LINE
  5
403
100
AcDbEntity
  8
ALL_FEATURES
100
AcDbLine
 62
7
  6
CONTINUOUS
 10
4.8903335796
 20
5.1965436498
 11
4.8894902089
 21
5.1899522995
  0
LINE
  5
404
100
AcDbEntity
  8
ALL_FEATURES
100
AcDbLine
 62
7
  6
CONTINUOUS
 10
4.8894902089
 20
5.1899522995
 11
4.8887271963
 21
5.1839750823
  0
SPLINE
  5
405
100
AcDbEntity
  8
ALL_FEATURES
100
AcDbSpline
 62
7
  6
CONTINUOUS
 70
0
 71
3
 72
13
 73
9
 74
0
 42
0.0000001
 43
0.0000001
 44
0.0000000001
 40
0.0
 40
0.0
 40
0.0
 40
0.0
 40
0.0991514302
 40
0.1831002831
 40
0.2941182159
 40
0.4331650336
 40
0.5987933553
 40
1.0
 40
1.0
 40
1.0
 40
1.0
 10
4.8827881806
 20
4.1784366482
 30
0.0
 10
4.8828400623
 20
4.1784396442
 30
0.0
 10
4.8829228294
 20
4.1783579676
 30
0.0
 10
4.8829966082
 20
4.1782295035
 30
0.0
 10
4.8830687059
 20
4.1780672792
 30
0.0
 10
4.8831403479
 20
4.1778622227
 30
0.0
 10
4.8832461442
 20
4.1775072358
 30
0.0
 10
4.8833157275
 20
4.1772183583
 30
0.0
 10
4.8833617492
 20
4.1770131725
 30
0.0
  0
LINE
  5
406
100
AcDbEntity
  8
ALL_FEATURES
100
AcDbLine
 62
7
  6
CONTINUOUS
 10
4.8836328622
 20
4.6866797396
 11
4.8840392877
 21
4.685810261
  0
LINE
  5
407
100
AcDbEntity
  8
ALL_FEATURES
100
AcDbLine
 62
7
  6
CONTINUOUS
 10
4.8951886202
 20
4.772437716
 11
4.8946573678
 21
4.7718822547
  0
SPLINE
  5
408
100
AcDbEntity
  8
ALL_FEATURES
100
AcDbSpline
 62
7
  6
CONTINUOUS
 70
0
 71
3
 72
11
 73
7
 74
0
 42
0.0000001
 43
0.0000001
 44
0.0000000001
 40
0.0
 40
0.0
 40
0.0
 40
0.0
 40
0.176479752
 40
0.3907208785
 40
0.6624036379
 40
1.0
 40
1.0
 40
1.0
 40
1.0
 10
4.8870124117
 20
4.758243537
 30
0.0
 10
4.8869518613
 20
4.7582448314
 30
0.0
 10
4.8868165583
 20
4.7582096234
 30
0.0
 10
4.8866336087
 20
4.7580694034
 30
0.0
 10
4.886452418
 20
4.7578508065
 30
0.0
 10
4.8863433202
 20
4.7576717652
 30
0.0
 10
4.8862873321
 20
4.7575703357
 30
0.0
  0
LINE
  5
409
100
AcDbEntity
  8
ALL_FEATURES
100
AcDbLine
 62
7
  6
CONTINUOUS
 10
4.8862873321
 20
4.7575703357
 11
4.886196299
 21
4.7573958338
  0
SPLINE
  5
40A
100
AcDbEntity
  8
ALL_FEATURES
100
AcDbSpline
 62
7
  6
CONTINUOUS
 70
0
 71
3
 72
15
 73
11
 74
0
 42
0.0000001
 43
0.0000001
 44
0.0000000001
 40
0.0
 40
0.0
 40
0.0
 40
0.0
 40
0.051835969
 40
0.1176812172
 40
0.2048496598
 40
0.3162833017
 40
0.4528183362
 40
0.6134180172
 40
0.7964285749
 40
1.0
 40
1.0
 40
1.0
 40
1.0
 10
4.8950560284
 20
4.7847305109
 30
0.0
 10
4.8951319788
 20
4.7847276111
 30
0.0
 10
4.8953021718
 20
4.7846621779
 30
0.0
 10
4.8955109902
 20
4.7844397391
 30
0.0
 10
4.8957083438
 20
4.7841041958
 30
0.0
 10
4.89589633
 20
4.7836489734
 30
0.0
 10
4.8960754009
 20
4.7830768379
 30
0.0
 10
4.8962459571
 20
4.7823934803
 30
0.0
 10
4.8964075271
 20
4.7816074352
 30
0.0
 10
4.8965041732
 20
4.781048814
 30
0.0
 10
4.89655161
 20
4.7807541158
 30
0.0
  0
SPLINE
  5
40B
100
AcDbEntity
  8
ALL_FEATURES
100
AcDbSpline
 62
7
  6
CONTINUOUS
 70
0
 71
3
 72
14
 73
10
 74
0
 42
0.0000001
 43
0.0000001
 44
0.0000000001
 40
0.0
 40
0.0
 40
0.0
 40
0.0
 40
0.0630857567
 40
0.1361694889
 40
0.2260743344
 40
0.3362099056
 40
0.4681753011
 40
0.6226809752
 40
1.0
 40
1.0
 40
1.0
 40
1.0
 10
4.8872185277
 20
4.7714458725
 30
0.0
 10
4.8872707365
 20
4.7714440958
 30
0.0
 10
4.8873834314
 20
4.7714142239
 30
0.0
 10
4.8875354026
 20
4.7713000044
 30
0.0
 10
4.8876793683
 20
4.771123925
 30
0.0
 10
4.8878182264
 20
4.770885769
 30
0.0
 10
4.8879526562
 20
4.7705856608
 30
0.0
 10
4.888138213
 20
4.7700678794
 30
0.0
 10
4.8882493456
 20
4.7696408278
 30
0.0
 10
4.8883191335
 20
4.7693362769
 30
0.0
  0
SPLINE
  5
40C
100
AcDbEntity
  8
ALL_FEATURES
100
AcDbSpline
 62
7
  6
CONTINUOUS
 70
0
 71
3
 72
11
 73
7
 74
0
 42
0.0000001
 43
0.0000001
 44
0.0000000001
 40
0.0
 40
0.0
 40
0.0
 40
0.0
 40
0.1783600054
 40
0.4112683684
 40
0.6877940989
 40
1.0
 40
1.0
 40
1.0
 40
1.0
 10
4.8898262312
 20
4.1119430611
 30
0.0
 10
4.8899106114
 20
4.1121647663
 30
0.0
 10
4.8900488489
 20
4.1126962833
 30
0.0
 10
4.8902116141
 20
4.1135962329
 30
0.0
 10
4.8903572304
 20
4.1146797449
 30
0.0
 10
4.8904393753
 20
4.1154584535
 30
0.0
 10
4.8904791567
 20
4.1158717791
 30
0.0
  0
LINE
  5
40D
100
AcDbEntity
  8
ALL_FEATURES
100
AcDbLine
 62
7
  6
CONTINUOUS
 10
4.8904791567
 20
4.1158717791
 11
4.8908206299
 21
4.1206287687
  0
LINE
  5
40E
100
AcDbEntity
  8
ALL_FEATURES
100
AcDbLine
 62
7
  6
CONTINUOUS
 10
4.8908753679
 20
4.1216705829
 11
4.8913730946
 21
4.1375392535
  0
SPLINE
  5
40F
100
AcDbEntity
  8
ALL_FEATURES
100
AcDbSpline
 62
7
  6
CONTINUOUS
 70
0
 71
3
 72
10
 73
6
 74
0
 42
0.0000001
 43
0.0000001
 44
0.0000000001
 40
0.0
 40
0.0
 40
0.0
 40
0.0
 40
0.3478118746
 40
0.6276959439
 40
1.0
 40
1.0
 40
1.0
 40
1.0
 10
4.8862406629
 20
4.770391792
 30
0.0
 10
4.8863166911
 20
4.77054589
 30
0.0
 10
4.8864670084
 20
4.7708216383
 30
0.0
 10
4.88674148
 20
4.7712167764
 30
0.0
 10
4.8870347012
 20
4.7714521281
 30
0.0
 10
4.8872185277
 20
4.7714458725
 30
0.0
  0
LINE
  5
410
100
AcDbEntity
  8
ALL_FEATURES
100
AcDbLine
 62
7
  6
CONTINUOUS
 10
4.8834567457
 20
4.7552773081
 11
4.8839814911
 21
4.7599544922
  0
LINE
  5
411
100
AcDbEntity
  8
ALL_FEATURES
100
AcDbLine
 62
7
  6
CONTINUOUS
 10
4.8842650684
 20
4.7620451138
 11
4.8848840393
 21
4.7657164005
  0
SPLINE
  5
412
100
AcDbEntity
  8
ALL_FEATURES
100
AcDbSpline
 62
7
  6
CONTINUOUS
 70
0
 71
3
 72
10
 73
6
 74
0
 42
0.0000001
 43
0.0000001
 44
0.0000000001
 40
0.0
 40
0.0
 40
0.0
 40
0.0
 40
0.5965001585
 40
0.8212340976
 40
1.0
 40
1.0
 40
1.0
 40
1.0
 10
4.8848840393
 20
4.7657164005
 30
0.0
 10
4.8850721758
 20
4.7666680088
 30
0.0
 10
4.8853630011
 20
4.7679743452
 30
0.0
 10
4.8858615278
 20
4.7695231257
 30
0.0
 10
4.8861120374
 20
4.7701310869
 30
0.0
 10
4.8862406629
 20
4.770391792
 30
0.0
  0
LINE
  5
413
100
AcDbEntity
  8
ALL_FEATURES
100
AcDbLine
 62
7
  6
CONTINUOUS
 10
4.8830878602
 20
4.7065607463
 11
4.882466938
 21
4.7125228875
  0
LINE
  5
414
100
AcDbEntity
  8
ALL_FEATURES
100
AcDbLine
 62
7
  6
CONTINUOUS
 10
4.882466938
 20
4.7125228875
 11
4.8822348152
 21
4.717488087
  0
LINE
  5
415
100
AcDbEntity
  8
ALL_FEATURES
100
AcDbLine
 62
7
  6
CONTINUOUS
 10
4.882332217
 20
4.1766950432
 11
4.8826956695
 21
4.1783773493
  0
LINE
  5
416
100
AcDbEntity
  8
ALL_FEATURES
100
AcDbLine
 62
7
  6
CONTINUOUS
 10
4.8826956695
 20
4.1783773493
 11
4.8827881806
 21
4.1784366482
  0
LINE
  5
417
100
AcDbEntity
  8
ALL_FEATURES
100
AcDbLine
 62
7
  6
CONTINUOUS
 10
4.8820223847
 20
4.1650257127
 11
4.8820365151
 21
4.1703458284
  0
LINE
  5
418
100
AcDbEntity
  8
ALL_FEATURES
100
AcDbLine
 62
7
  6
CONTINUOUS
 10
4.8820365151
 20
4.1703458284
 11
4.8822767462
 21
4.1761241286
  0
SPLINE
  5
419
100
AcDbEntity
  8
ALL_FEATURES
100
AcDbSpline
 62
7
  6
CONTINUOUS
 70
0
 71
3
 72
9
 73
5
 74
0
 42
0.0000001
 43
0.0000001
 44
0.0000000001
 40
0.0
 40
0.0
 40
0.0
 40
0.0
 40
0.4478638833
 40
1.0
 40
1.0
 40
1.0
 40
1.0
 10
4.8881378106
 20
4.1009415441
 30
0.0
 10
4.8876661583
 20
4.103058356
 30
0.0
 10
4.8867551081
 20
4.1078164573
 30
0.0
 10
4.8860333835
 20
4.1126056258
 30
0.0
 10
4.8856703569
 20
4.1152545101
 30
0.0
  0
LINE
  5
41A
100
AcDbEntity
  8
ALL_FEATURES
100
AcDbLine
 62
7
  6
CONTINUOUS
 10
4.893383523
 20
4.116003172
 11
4.8951538266
 21
4.102624216
  0
LINE
  5
41B
100
AcDbEntity
  8
ALL_FEATURES
100
AcDbLine
 62
7
  6
CONTINUOUS
 10
4.8954922926
 20
4.072103281
 11
4.8975197479
 21
4.0572701074
  0
SPLINE
  5
41C
100
AcDbEntity
  8
ALL_FEATURES
100
AcDbSpline
 62
7
  6
CONTINUOUS
 70
0
 71
3
 72
11
 73
7
 74
0
 42
0.0000001
 43
0.0000001
 44
0.0000000001
 40
0.0
 40
0.0
 40
0.0
 40
0.0
 40
0.3453885762
 40
0.6221613426
 40
0.8342158543
 40
1.0
 40
1.0
 40
1.0
 40
1.0
 10
4.8941010683
 20
4.7837148362
 30
0.0
 10
4.8941750807
 20
4.7838645936
 30
0.0
 10
4.8943183807
 20
4.7841299542
 30
0.0
 10
4.8945552703
 20
4.7844582723
 30
0.0
 10
4.8947915929
 20
4.7846749771
 30
0.0
 10
4.8949759047
 20
4.7847335699
 30
0.0
 10
4.8950560284
 20
4.7847305109
 30
0.0
  0
SPLINE
  5
41D
100
AcDbEntity
  8
ALL_FEATURES
100
AcDbSpline
 62
7
  6
CONTINUOUS
 70
0
 71
3
 72
11
 73
7
 74
0
 42
0.0000001
 43
0.0000001
 44
0.0000000001
 40
0.0
 40
0.0
 40
0.0
 40
0.0
 40
0.3098575852
 40
0.5820100491
 40
0.8125265927
 40
1.0
 40
1.0
 40
1.0
 40
1.0
 10
4.8923165695
 20
4.7767940934
 30
0.0
 10
4.8924263322
 20
4.7774457984
 30
0.0
 10
4.8926472561
 20
4.7786675037
 30
0.0
 10
4.893009469
 20
4.780362672
 30
0.0
 10
4.8933789811
 20
4.7817879962
 30
0.0
 10
4.8936547934
 20
4.7826369055
 30
0.0
 10
4.8937974777
 20
4.7830104363
 30
0.0
  0
LINE
  5
41E
100
AcDbEntity
  8
ALL_FEATURES
100
AcDbLine
 62
7
  6
CONTINUOUS
 10
4.8937974777
 20
4.7830104363
 11
4.8941010683
 21
4.7837148362
  0
LINE
  5
41F
100
AcDbEntity
  8
ALL_FEATURES
100
AcDbLine
 62
7
  6
CONTINUOUS
 10
4.8904428529
 20
4.7607343693
 11
4.8922136831
 21
4.7761582345
  0
LINE
  5
420
100
AcDbEntity
  8
ALL_FEATURES
100
AcDbLine
 62
7
  6
CONTINUOUS
 10
4.8914222775
 20
3.861568643
 11
4.8905961021
 21
3.8664036513
  0
SPLINE
  5
421
100
AcDbEntity
  8
ALL_FEATURES
100
AcDbSpline
 62
7
  6
CONTINUOUS
 70
0
 71
3
 72
10
 73
6
 74
0
 42
0.0000001
 43
0.0000001
 44
0.0000000001
 40
0.0
 40
0.0
 40
0.0
 40
0.0
 40
0.2382501148
 40
0.4885075868
 40
1.0
 40
1.0
 40
1.0
 40
1.0
 10
4.8898262312
 20
4.6548816353
 30
0.0
 10
4.8899832342
 20
4.6566151464
 30
0.0
 10
4.890239876
 20
4.6601754011
 30
0.0
 10
4.8906251627
 20
4.6674711645
 30
0.0
 10
4.8908178619
 20
4.6730334562
 30
0.0
 10
4.8909269201
 20
4.6767687228
 30
0.0
  0
LINE
  5
422
100
AcDbEntity
  8
ALL_FEATURES
100
AcDbLine
 62
7
  6
CONTINUOUS
 10
4.8868887258
 20
4.6385560728
 11
4.8880061824
 21
4.6419630645
  0
LINE
  5
423
100
AcDbEntity
  8
ALL_FEATURES
100
AcDbLine
 62
7
  6
CONTINUOUS
 10
4.8880061824
 20
4.6419630645
 11
4.8883553042
 21
4.6435883169
  0
LINE
  5
424
100
AcDbEntity
  8
ALL_FEATURES
100
AcDbLine
 62
7
  6
CONTINUOUS
 10
4.8883553042
 20
4.6435883169
 11
4.8892979751
 21
4.6498032547
  0
LINE
  5
425
100
AcDbEntity
  8
ALL_FEATURES
100
AcDbLine
 62
7
  6
CONTINUOUS
 10
4.889364154
 20
3.8775934042
 11
4.887842968
 21
3.8900132832
  0
LINE
  5
426
100
AcDbEntity
  8
ALL_FEATURES
100
AcDbLine
 62
7
  6
CONTINUOUS
 10
4.8896359167
 20
3.8739011708
 11
4.889364154
 21
3.8775934042
  0
SPLINE
  5
427
100
AcDbEntity
  8
ALL_FEATURES
100
AcDbSpline
 62
7
  6
CONTINUOUS
 70
0
 71
3
 72
17
 73
13
 74
0
 42
0.0000001
 43
0.0000001
 44
0.0000000001
 40
0.0
 40
0.0
 40
0.0
 40
0.0
 40
0.0211328144
 40
0.0444807515
 40
0.0718195448
 40
0.1043915396
 40
0.1877937898
 40
0.2974121542
 40
0.4339191882
 40
0.597345957
 40
0.786697279
 40
1.0
 40
1.0
 40
1.0
 40
1.0
 10
4.8911683305
 20
4.09316491
 30
0.0
 10
4.8911219897
 20
4.0931614603
 30
0.0
 10
4.891022591
 20
4.0931711755
 30
0.0
 10
4.8908759919
 20
4.0932347703
 30
0.0
 10
4.8907286274
 20
4.0933454469
 30
0.0
 10
4.8905118349
 20
4.093575597
 30
0.0
 10
4.8902430864
 20
4.0939963436
 30
0.0
 10
4.8899286789
 20
4.0946496638
 30
0.0
 10
4.8896022074
 20
4.0954898501
 30
0.0
 10
4.8892660179
 20
4.0965121438
 30
0.0
 10
4.8889219012
 20
4.0977086294
 30
0.0
 10
4.8887005132
 20
4.0985659931
 30
0.0
 10
4.8885878072
 20
4.0990212825
 30
0.0
  0
LINE
  5
428
100
AcDbEntity
  8
ALL_FEATURES
100
AcDbLine
 62
7
  6
CONTINUOUS
 10
4.8847751881
 20
3.9147290611
 11
4.8838808316
 21
3.9195642186
  0
LINE
  5
429
100
AcDbEntity
  8
ALL_FEATURES
100
AcDbLine
 62
7
  6
CONTINUOUS
 10
4.8866061494
 20
3.9011163352
 11
4.8847751881
 21
3.9147290611
  0
LINE
  5
42A
100
AcDbEntity
  8
ALL_FEATURES
100
AcDbLine
 62
7
  6
CONTINUOUS
 10
4.8833617492
 20
4.6863990848
 11
4.8836328622
 21
4.6866797396
  0
SPLINE
  5
42B
100
AcDbEntity
  8
ALL_FEATURES
100
AcDbSpline
 62
7
  6
CONTINUOUS
 70
0
 71
3
 72
11
 73
7
 74
0
 42
0.0000001
 43
0.0000001
 44
0.0000000001
 40
0.0
 40
0.0
 40
0.0
 40
0.0
 40
0.1709185165
 40
0.383860313
 40
0.6583033405
 40
1.0
 40
1.0
 40
1.0
 40
1.0
 10
4.8891808903
 20
4.1111282415
 30
0.0
 10
4.8892423807
 20
4.1111329773
 30
0.0
 10
4.8893769988
 20
4.1111888213
 30
0.0
 10
4.8895414486
 20
4.1113647684
 30
0.0
 10
4.8896951724
 20
4.1116227425
 30
0.0
 10
4.8897823747
 20
4.1118278303
 30
0.0
 10
4.8898262312
 20
4.1119430611
 30
0.0
  0
LINE
  5
42C
100
AcDbEntity
  8
ALL_FEATURES
100
AcDbLine
 62
7
  6
CONTINUOUS
 10
4.8854018992
 20
3.9040944872
 11
4.88524236
 21
3.9053348362
  0
LINE
  5
42D
100
AcDbEntity
  8
ALL_FEATURES
100
AcDbLine
 62
7
  6
CONTINUOUS
 10
4.88524236
 20
3.9053348362
 11
4.8843612229
 21
3.9121692529
  0
LINE
  5
42E
100
AcDbEntity
  8
ALL_FEATURES
100
AcDbLine
 62
7
  6
CONTINUOUS
 10
4.8843612229
 20
3.9121692529
 11
4.8836340448
 21
3.9177667407
  0
SPLINE
  5
42F
100
AcDbEntity
  8
ALL_FEATURES
100
AcDbSpline
 62
7
  6
CONTINUOUS
 70
0
 71
3
 72
15
 73
11
 74
0
 42
0.0000001
 43
0.0000001
 44
0.0000000001
 40
0.0
 40
0.0
 40
0.0
 40
0.0
 40
0.0584705349
 40
0.128972454
 40
0.2181615017
 40
0.3290876528
 40
0.4630825505
 40
0.6203423689
 40
0.7997975578
 40
1.0
 40
1.0
 40
1.0
 40
1.0
 10
4.8866501702
 20
4.6258621083
 30
0.0
 10
4.8865435605
 20
4.6258659946
 30
0.0
 10
4.8863098088
 20
4.6259396981
 30
0.0
 10
4.8860021676
 20
4.6262012243
 30
0.0
 10
4.8857070314
 20
4.6266000965
 30
0.0
 10
4.885419717
 20
4.627139389
 30
0.0
 10
4.8851396805
 20
4.6278184789
 30
0.0
 10
4.8848681727
 20
4.628633767
 30
0.0
 10
4.8846047103
 20
4.6295775729
 30
0.0
 10
4.8844433604
 20
4.6302513588
 30
0.0
 10
4.8843631994
 20
4.6306077271
 30
0.0
  0
LINE
  5
430
100
AcDbEntity
  8
ALL_FEATURES
100
AcDbLine
 62
7
  6
CONTINUOUS
 10
4.8843631994
 20
4.6306077271
 11
4.8839667984
 21
4.6325679594
  0
LINE
  5
431
100
AcDbEntity
  8
ALL_FEATURES
100
AcDbLine
 62
7
  6
CONTINUOUS
 10
4.8961908283
 20
3.8201272253
 11
4.8961022396
 21
3.8208275437
  0
LINE
  5
432
100
AcDbEntity
  8
ALL_FEATURES
100
AcDbLine
 62
7
  6
CONTINUOUS
 10
4.8961022396
 20
3.8208275437
 11
4.8956748904
 21
3.8241831364
  0
LINE
  5
433
100
AcDbEntity
  8
ALL_FEATURES
100
AcDbLine
 62
7
  6
CONTINUOUS
 10
4.8956748904
 20
3.8241831364
 11
4.8943250787
 21
3.8347057364
  0
LINE
  5
434
100
AcDbEntity
  8
ALL_FEATURES
100
AcDbLine
 62
7
  6
CONTINUOUS
 10
4.8962830237
 20
3.819394454
 11
4.8961908283
 21
3.8201272253
  0
LINE
  5
435
100
AcDbEntity
  8
ALL_FEATURES
100
AcDbLine
 62
7
  6
CONTINUOUS
 10
4.882332217
 20
4.6784665667
 11
4.8829718098
 21
4.6850423787
  0
LINE
  5
436
100
AcDbEntity
  8
ALL_FEATURES
100
AcDbLine
 62
7
  6
CONTINUOUS
 10
4.8829718098
 20
4.6850423787
 11
4.8832637157
 21
4.6861696219
  0
LINE
  5
437
100
AcDbEntity
  8
ALL_FEATURES
100
AcDbLine
 62
7
  6
CONTINUOUS
 10
4.8832637157
 20
4.6861696219
 11
4.8833617492
 21
4.6863990848
  0
SPLINE
  5
438
100
AcDbEntity
  8
ALL_FEATURES
100
AcDbSpline
 62
7
  6
CONTINUOUS
 70
0
 71
3
 72
11
 73
7
 74
0
 42
0.0000001
 43
0.0000001
 44
0.0000000001
 40
0.0
 40
0.0
 40
0.0
 40
0.0
 40
0.1702954926
 40
0.3837629675
 40
0.6591766894
 40
1.0
 40
1.0
 40
1.0
 40
1.0
 10
4.8857453776
 20
4.6373628996
 30
0.0
 10
4.8858430855
 20
4.6373594146
 30
0.0
 10
4.8860659093
 20
4.6374260856
 30
0.0
 10
4.886351677
 20
4.6376824846
 30
0.0
 10
4.8866329585
 20
4.6380688983
 30
0.0
 10
4.8868019455
 20
4.6383806952
 30
0.0
 10
4.8868887258
 20
4.6385560728
 30
0.0
  0
LINE
  5
439
100
AcDbEntity
  8
ALL_FEATURES
100
AcDbLine
 62
7
  6
CONTINUOUS
 10
4.8839667984
 20
4.6325679594
 11
4.882929627
 21
4.6403974734
  0
LINE
  5
43A
100
AcDbEntity
  8
ALL_FEATURES
100
AcDbLine
 62
7
  6
CONTINUOUS
 10
4.8826672242
 20
4.6435289951
 11
4.8822758616
 21
4.650468271
  0
LINE
  5
43B
100
AcDbEntity
  8
ALL_FEATURES
100
AcDbLine
 62
7
  6
CONTINUOUS
 10
4.8933583993
 20
4.7353241405
 11
4.8939669976
 21
4.7357736845
  0
LINE
  5
43C
100
AcDbEntity
  8
ALL_FEATURES
100
AcDbLine
 62
7
  6
CONTINUOUS
 10
4.8939669976
 20
4.7357736845
 11
4.8942363913
 21
4.7362412537
  0
LINE
  5
43D
100
AcDbEntity
  8
ALL_FEATURES
100
AcDbLine
 62
7
  6
CONTINUOUS
 10
4.8848850162
 20
5.154791882
 11
4.8851473383
 21
5.1569352646
  0
LINE
  5
43E
100
AcDbEntity
  8
ALL_FEATURES
100
AcDbLine
 62
7
  6
CONTINUOUS
 10
4.8851473383
 20
5.1569352646
 11
4.8856932716
 21
5.1613583788
  0
LINE
  5
43F
100
AcDbEntity
  8
ALL_FEATURES
100
AcDbLine
 62
7
  6
CONTINUOUS
 10
4.8856932716
 20
5.1613583788
 11
4.8859741952
 21
5.1636180199
  0
LINE
  5
440
100
AcDbEntity
  8
ALL_FEATURES
100
AcDbLine
 62
7
  6
CONTINUOUS
 10
4.8886733199
 20
5.1849764382
 11
4.8889981963
 21
5.1875182225
  0
LINE
  5
441
100
AcDbEntity
  8
ALL_FEATURES
100
AcDbLine
 62
7
  6
CONTINUOUS
 10
4.8889981963
 20
5.1875182225
 11
4.8896665896
 21
5.1927342226
  0
SPLINE
  5
442
100
AcDbEntity
  8
ALL_FEATURES
100
AcDbSpline
 62
7
  6
CONTINUOUS
 70
0
 71
3
 72
19
 73
15
 74
0
 42
0.0000001
 43
0.0000001
 44
0.0000000001
 40
0.0
 40
0.0
 40
0.0
 40
0.0
 40
0.0048543143
 40
0.0165981258
 40
0.0359964403
 40
0.0633636364
 40
0.098950909
 40
0.1428940062
 40
0.1950874724
 40
0.2553878939
 40
0.3997244631
 40
0.5741148547
 40
0.775341634
 40
1.0
 40
1.0
 40
1.0
 40
1.0
 10
4.882689598
 20
5.1341878413
 30
0.0
 10
4.8826769167
 20
5.1341894728
 30
0.0
 10
4.8826616914
 20
5.1342444115
 30
0.0
 10
4.8826542209
 20
5.1343281356
 30
0.0
 10
4.882650669
 20
5.1344882779
 30
0.0
 10
4.8826564077
 20
5.1347024863
 30
0.0
 10
4.8826700705
 20
5.1349847768
 30
0.0
 10
4.8826927903
 20
5.1353306059
 30
0.0
 10
4.8827242314
 20
5.1357415807
 30
0.0
 10
4.8827814297
 20
5.1364155717
 30
0.0
 10
4.8828754827
 20
5.137409504
 30
0.0
 10
4.8830149352
 20
5.1387718814
 30
0.0
 10
4.8831841023
 20
5.1403438783
 30
0.0
 10
4.8833083424
 20
5.1414587144
 30
0.0
 10
4.8833746719
 20
5.1420467115
 30
0.0
  0
LINE
  5
443
100
AcDbEntity
  8
ALL_FEATURES
100
AcDbLine
 62
7
  6
CONTINUOUS
 10
4.893383523
 20
4.6868966136
 11
4.8948563219
 21
4.6842662082
  0
LINE
  5
444
100
AcDbEntity
  8
ALL_FEATURES
100
AcDbLine
 62
7
  6
CONTINUOUS
 10
4.8954922926
 20
4.6477056016
 11
4.8975197479
 21
4.6443037681
  0
LINE
  5
445
100
AcDbEntity
  8
ALL_FEATURES
100
AcDbLine
 62
7
  6
CONTINUOUS
 10
4.8949441423
 20
4.4042734051
 11
4.8869626587
 21
4.4150467997
  0
SPLINE
  5
446
100
AcDbEntity
  8
ALL_FEATURES
100
AcDbSpline
 62
7
  6
CONTINUOUS
 70
0
 71
3
 72
15
 73
11
 74
0
 42
0.0000001
 43
0.0000001
 44
0.0000000001
 40
0.0
 40
0.0
 40
0.0
 40
0.0
 40
0.2034593478
 40
0.3871093627
 40
0.5489670745
 40
0.6872074076
 40
0.8003334384
 40
0.8876385077
 40
0.9512718562
 40
1.0
 40
1.0
 40
1.0
 40
1.0
 10
4.89609766
 20
4.7697906805
 30
0.0
 10
4.896069781
 20
4.7699849689
 30
0.0
 10
4.8960125766
 20
4.77035406
 30
0.0
 10
4.8959160238
 20
4.7708748658
 30
0.0
 10
4.8958132464
 20
4.7713302615
 30
0.0
 10
4.8957046811
 20
4.7717140509
 30
0.0
 10
4.8955910798
 20
4.7720210768
 30
0.0
 10
4.8954718886
 20
4.7722471354
 30
0.0
 10
4.8953432908
 20
4.7723954082
 30
0.0
 10
4.8952356202
 20
4.7724368303
 30
0.0
 10
4.8951886202
 20
4.772437716
 30
0.0
  0
LINE
  5
447
100
AcDbEntity
  8
ALL_FEATURES
100
AcDbLine
 62
7
  6
CONTINUOUS
 10
4.8966056746
 20
4.7586328381
 11
4.8965769066
 21
4.7629582037
  0
LINE
  5
448
100
AcDbEntity
  8
ALL_FEATURES
100
AcDbLine
 62
7
  6
CONTINUOUS
 10
4.8965769066
 20
4.7629582037
 11
4.8962733589
 21
4.7683324991
  0
LINE
  5
449
100
AcDbEntity
  8
ALL_FEATURES
100
AcDbLine
 62
7
  6
CONTINUOUS
 10
4.8962733589
 20
4.7683324991
 11
4.89609766
 21
4.7697906805
  0
LINE
  5
44A
100
AcDbEntity
  8
ALL_FEATURES
100
AcDbLine
 62
7
  6
CONTINUOUS
 10
4.8962723945
 20
4.748968248
 11
4.8966056746
 21
4.7586328381
  0
SPLINE
  5
44B
100
AcDbEntity
  8
ALL_FEATURES
100
AcDbSpline
 62
7
  6
CONTINUOUS
 70
0
 71
3
 72
10
 73
6
 74
0
 42
0.0000001
 43
0.0000001
 44
0.0000000001
 40
0.0
 40
0.0
 40
0.0
 40
0.0
 40
0.1789069351
 40
0.4030813784
 40
1.0
 40
1.0
 40
1.0
 40
1.0
 10
4.8942363913
 20
4.7362412537
 30
0.0
 10
4.8943287311
 20
4.7364271313
 30
0.0
 10
4.8945086865
 20
4.7368598228
 30
0.0
 10
4.8948642284
 20
4.7379648248
 30
0.0
 10
4.8950678143
 20
4.7388976119
 30
0.0
 10
4.895198319
 20
4.7395776899
 30
0.0
  0
LINE
  5
44C
100
AcDbEntity
  8
ALL_FEATURES
100
AcDbLine
 62
7
  6
CONTINUOUS
 10
4.8953811864
 20
4.7406083374
 11
4.8957264988
 21
4.7430474743
  0
LINE
  5
44D
100
AcDbEntity
  8
ALL_FEATURES
100
AcDbLine
 62
7
  6
CONTINUOUS
 10
4.884371821
 20
4.7141953247
 11
4.8849673115
 21
4.7147176741
  0
LINE
  5
44E
100
AcDbEntity
  8
ALL_FEATURES
100
AcDbLine
 62
7
  6
CONTINUOUS
 10
4.8849673115
 20
4.7147176741
 11
4.8851300809
 21
4.7150171613
  0
LINE
  5
44F
100
AcDbEntity
  8
ALL_FEATURES
100
AcDbLine
 62
7
  6
CONTINUOUS
 10
4.8889338399
 20
4.7443349172
 11
4.8890457686
 21
4.74563321
  0
LINE
  5
450
100
AcDbEntity
  8
ALL_FEATURES
100
AcDbLine
 62
7
  6
CONTINUOUS
 10
4.8890457686
 20
4.74563321
 11
4.8892651895
 21
4.7482180547
  0
LINE
  5
451
100
AcDbEntity
  8
ALL_FEATURES
100
AcDbLine
 62
7
  6
CONTINUOUS
 10
4.8851300809
 20
4.7150171613
 11
4.8856565563
 21
4.7164711836
  0
LINE
  5
452
100
AcDbEntity
  8
ALL_FEATURES
100
AcDbLine
 62
7
  6
CONTINUOUS
 10
4.8856565563
 20
4.7164711836
 11
4.8861532277
 21
4.7186242377
  0
LINE
  5
453
100
AcDbEntity
  8
ALL_FEATURES
100
AcDbLine
 62
7
  6
CONTINUOUS
 10
4.8863910308
 20
4.7199555695
 11
4.8868346616
 21
4.7230041688
  0
LINE
  5
454
100
AcDbEntity
  8
ALL_FEATURES
100
AcDbLine
 62
7
  6
CONTINUOUS
 10
4.8868346616
 20
4.7230041688
 11
4.8872424425
 21
4.7265141119
  0
LINE
  5
455
100
AcDbEntity
  8
ALL_FEATURES
100
AcDbLine
 62
7
  6
CONTINUOUS
 10
4.8941017073
 20
4.2037804848
 11
4.8938842078
 21
4.201927252
  0
LINE
  5
456
100
AcDbEntity
  8
ALL_FEATURES
100
AcDbLine
 62
7
  6
CONTINUOUS
 10
4.8951725653
 20
4.1883161927
 11
4.8948496004
 21
4.1923788167
  0
LINE
  5
457
100
AcDbEntity
  8
ALL_FEATURES
100
AcDbLine
 62
7
  6
CONTINUOUS
 10
4.8948496004
 20
4.1923788167
 11
4.8938842078
 21
4.201927252
  0
LINE
  5
458
100
AcDbEntity
  8
ALL_FEATURES
100
AcDbLine
 62
7
  6
CONTINUOUS
 10
4.8953541396
 20
4.175561438
 11
4.895353236
 21
4.183405718
  0
LINE
  5
459
100
AcDbEntity
  8
ALL_FEATURES
100
AcDbLine
 62
7
  6
CONTINUOUS
 10
4.895353236
 20
4.183405718
 11
4.8952193439
 21
4.1875239785
  0
SPLINE
  5
45A
100
AcDbEntity
  8
ALL_FEATURES
100
AcDbSpline
 62
7
  6
CONTINUOUS
 70
0
 71
3
 72
15
 73
11
 74
0
 42
0.0000001
 43
0.0000001
 44
0.0000000001
 40
0.0
 40
0.0
 40
0.0
 40
0.0
 40
0.0554868698
 40
0.1241474691
 40
0.2139565549
 40
0.3273425478
 40
0.4640150394
 40
0.622778339
 40
0.8020378462
 40
1.0
 40
1.0
 40
1.0
 40
1.0
 10
4.893286537
 20
4.7219142442
 30
0.0
 10
4.8932186358
 20
4.7219154974
 30
0.0
 10
4.8930669045
 20
4.7219653719
 30
0.0
 10
4.8928743942
 20
4.7221496111
 30
0.0
 10
4.8926944812
 20
4.722431284
 30
0.0
 10
4.892521334
 20
4.7228104596
 30
0.0
 10
4.8923537095
 20
4.7232823204
 30
0.0
 10
4.8921920359
 20
4.7238406314
 30
0.0
 10
4.8920366264
 20
4.7244781147
 30
0.0
 10
4.8919417915
 20
4.7249300414
 30
0.0
 10
4.8918948982
 20
4.7251677545
 30
0.0
  0
LINE
  5
45B
100
AcDbEntity
  8
ALL_FEATURES
100
AcDbLine
 62
7
  6
CONTINUOUS
 10
4.8918948982
 20
4.7251677545
 11
4.8909250232
 21
4.7327239643
  0
SPLINE
  5
45C
100
AcDbEntity
  8
ALL_FEATURES
100
AcDbSpline
 62
7
  6
CONTINUOUS
 70
0
 71
3
 72
14
 73
10
 74
0
 42
0.0000001
 43
0.0000001
 44
0.0000000001
 40
0.0
 40
0.0
 40
0.0
 40
0.0
 40
0.0578418696
 40
0.127477891
 40
0.2158393803
 40
0.3261908329
 40
0.4600361411
 40
0.6176903717
 40
1.0
 40
1.0
 40
1.0
 40
1.0
 10
4.8847792962
 20
4.7020717625
 30
0.0
 10
4.8847095837
 20
4.7020743483
 30
0.0
 10
4.8845567867
 20
4.7021227999
 30
0.0
 10
4.8843571742
 20
4.7022960091
 30
0.0
 10
4.8841676245
 20
4.7025603626
 30
0.0
 10
4.8839847557
 20
4.7029184488
 30
0.0
 10
4.8838081493
 20
4.7033703493
 30
0.0
 10
4.8835663383
 20
4.704146647
 30
0.0
 10
4.8834207466
 20
4.7047823376
 30
0.0
 10
4.8833284864
 20
4.7052340993
 30
0.0
  0
LINE
  5
45D
100
AcDbEntity
  8
ALL_FEATURES
100
AcDbLine
 62
7
  6
CONTINUOUS
 10
4.8833284864
 20
4.7052340993
 11
4.8830878602
 21
4.7065607463
  0
SPLINE
  5
45E
100
AcDbEntity
  8
ALL_FEATURES
100
AcDbSpline
 62
7
  6
CONTINUOUS
 70
0
 71
3
 72
10
 73
6
 74
0
 42
0.0000001
 43
0.0000001
 44
0.0000000001
 40
0.0
 40
0.0
 40
0.0
 40
0.0
 40
0.566721581
 40
0.8035551606
 40
1.0
 40
1.0
 40
1.0
 40
1.0
 10
4.8890816335
 20
4.7500171824
 30
0.0
 10
4.8889447572
 20
4.7512739461
 30
0.0
 10
4.8887265787
 20
4.7530543235
 30
0.0
 10
4.888340912
 20
4.755251728
 30
0.0
 10
4.8881233604
 20
4.7561946644
 30
0.0
 10
4.8880018595
 20
4.7566156964
 30
0.0
  0
LINE
  5
45F
100
AcDbEntity
  8
ALL_FEATURES
100
AcDbLine
 62
7
  6
CONTINUOUS
 10
4.8880018595
 20
4.7566156964
 11
4.8877383339
 21
4.7573888311
  0
LINE
  5
460
100
AcDbEntity
  8
ALL_FEATURES
100
AcDbLine
 62
7
  6
CONTINUOUS
 10
4.8877383339
 20
4.7573888311
 11
4.8871593171
 21
4.7582084353
  0
LINE
  5
461
100
AcDbEntity
  8
ALL_FEATURES
100
AcDbLine
 62
7
  6
CONTINUOUS
 10
4.8871593171
 20
4.7582084353
 11
4.8870124117
 21
4.758243537
  0
LINE
  5
462
100
AcDbEntity
  8
ALL_FEATURES
100
AcDbLine
 62
7
  6
CONTINUOUS
 10
4.8965062869
 20
5.2446841116
 11
4.8974477829
 21
5.2510721807
  0
LINE
  5
463
100
AcDbEntity
  8
ALL_FEATURES
100
AcDbLine
 62
7
  6
CONTINUOUS
 10
4.8968060775
 20
4.7766452043
 11
4.8962492859
 21
4.7724090681
  0
LINE
  5
464
100
AcDbEntity
  8
ALL_FEATURES
100
AcDbLine
 62
7
  6
CONTINUOUS
 10
4.8872812236
 20
4.7136280391
 11
4.8875715378
 21
4.709893852
  0
LINE
  5
465
100
AcDbEntity
  8
ALL_FEATURES
100
AcDbLine
 62
7
  6
CONTINUOUS
 10
4.8890746278
 20
4.764502762
 11
4.888731642
 21
4.7622588921
  0
LINE
  5
466
100
AcDbEntity
  8
ALL_FEATURES
100
AcDbLine
 62
7
  6
CONTINUOUS
 10
4.8961830883
 20
4.6905132293
 11
4.8961469138
 21
4.6888842208
  0
LINE
  5
467
100
AcDbEntity
  8
ALL_FEATURES
100
AcDbLine
 62
7
  6
CONTINUOUS
 10
4.8961469138
 20
4.6888842208
 11
4.8960978802
 21
4.6868121067
  0
LINE
  5
468
100
AcDbEntity
  8
ALL_FEATURES
100
AcDbLine
 62
7
  6
CONTINUOUS
 10
4.8907744642
 20
5.1943698663
 11
4.8947340138
 21
5.2260070646
  0
LINE
  5
469
100
AcDbEntity
  8
ALL_FEATURES
100
AcDbLine
 62
7
  6
CONTINUOUS
 10
4.8885435022
 20
4.6324148032
 11
4.8890530136
 21
4.6297775184
  0
LINE
  5
46A
100
AcDbEntity
  8
ALL_FEATURES
100
AcDbLine
 62
7
  6
CONTINUOUS
 10
4.8855738852
 20
5.1542195516
 11
4.8858119838
 21
5.1559978899
  0
LINE
  5
46B
100
AcDbEntity
  8
ALL_FEATURES
100
AcDbLine
 62
7
  6
CONTINUOUS
 10
4.8867688723
 20
5.1632345913
 11
4.8907744642
 21
5.1943698663
  0
LINE
  5
46C
100
AcDbEntity
  8
ALL_FEATURES
100
AcDbLine
 62
7
  6
CONTINUOUS
 10
4.8906300539
 20
4.6372849559
 11
4.8903450464
 21
4.6372094643
  0
LINE
  5
46D
100
AcDbEntity
  8
ALL_FEATURES
100
AcDbLine
 62
7
  6
CONTINUOUS
 10
4.8853107141
 20
5.1522692741
 11
4.8855738852
 21
5.1542195516
  0
LINE
  5
46E
100
AcDbEntity
  8
ALL_FEATURES
100
AcDbLine
 62
7
  6
CONTINUOUS
 10
4.8896665896
 20
5.1927342226
 11
4.8903396563
 21
5.1979697884
  0
LINE
  5
46F
100
AcDbEntity
  8
ALL_FEATURES
100
AcDbLine
 62
7
  6
CONTINUOUS
 10
4.8903396563
 20
5.1979697884
 11
4.8909992846
 21
5.2030834693
  0
LINE
  5
470
100
AcDbEntity
  8
ALL_FEATURES
100
AcDbLine
 62
7
  6
CONTINUOUS
 10
4.8940788881
 20
5.2266756124
 11
4.8950918859
 21
5.2342970681
  0
LINE
  5
471
100
AcDbEntity
  8
ALL_FEATURES
100
AcDbLine
 62
7
  6
CONTINUOUS
 10
4.8853744543
 20
5.0179021166
 11
4.8917429383
 21
5.0558239923
  0
LINE
  5
472
100
AcDbEntity
  8
ALL_FEATURES
100
AcDbLine
 62
7
  6
CONTINUOUS
 10
4.8915238384
 20
4.1064175237
 11
4.8925515478
 21
4.1012672442
  0
ENDSEC
  0
SECTION
  2
OBJECTS
  0
DICTIONARY
  5
C
100
AcDbDictionary
280
0
281
1
  3
ACAD_GROUP
350
D
  3
ACAD_MLINESTYLE
350
17
  3
ACAD_LAYOUT
350
1A
  3
ACAD_PLOTSETTINGS
350
19
  3
ACAD_PLOTSTYLENAME
350
E
  0
DICTIONARY
  5
D
102
{ACAD_REACTORS
330
C
102
}
100
AcDbDictionary
280
0
281
1
  0
ACDBDICTIONARYWDFLT
  5
E
102
{ACAD_REACTORS
330
C
102
}
100
AcDbDictionary
281
1
  3
Normal
350
F
100
AcDbDictionaryWithDefault
340
F
  0
DICTIONARY
  5
17
102
{ACAD_REACTORS
330
C
102
}
100
AcDbDictionary
280
0
281
1
  3
Standard
350
18
  0
DICTIONARY
  5
19
102
{ACAD_REACTORS
330
C
102
}
100
AcDbDictionary
281
1
  0
DICTIONARY
  5
1A
102
{ACAD_REACTORS
330
C
102
}
100
AcDbDictionary
281
1
  3
Model
350
473
  3
Layout1
350
474
  0
ACDBPLACEHOLDER
  5
F
102
{ACAD_REACTORS
330
E
102
}
  0
MLINESTYLE
  5
18
102
{ACAD_REACTORS
330
17
102
}
100
AcDbMlineStyle
  2
STANDARD
 70
0
  3

 62
256
 51
90.0
 52
90.0
 71
2
 49
0.5
 62
256
  6
BYLAYER
 49
-0.5
 62
256
  6
BYLAYER
  0
LAYOUT
  5
473
102
{ACAD_REACTORS
330
1A
102
}
100
AcDbPlotSettings
  1

  2
none_device
  4
ANSI_A_(11.00_x_8.50_Inches)
  6

 40
0.0
 41
0.0
 42
0.0
 43
0.0
 44
279.4
 45
215.9
 46
0.0
 47
0.0
 48
0.0
 49
0.0
140
0.0
141
0.0
142
1.0
143
1.0
 70
1024
 72
0
 73
0
 74
0
  7

 75
0
147
1.0
148
0.0
149
0.0
100
AcDbLayout
  1
Model
 70
0
 71
0
 10
0.0
 20
0.0
 11
11.0
 21
8.5
 12
0.0
 22
0.0
 32
0.0
 14
0.0
 24
0.0
 34
0.0
 15
0.0
 25
0.0
 35
0.0
146
0.0
 13
0.0
 23
0.0
 33
0.0
 16
1.0
 26
0.0
 36
0.0
 17
0.0
 27
1.0
 37
0.0
 76
0
330
222
345
0
346
0
  0
LAYOUT
  5
474
102
{ACAD_REACTORS
330
1A
102
}
100
AcDbPlotSettings
  1

  2
none_device
  4
ANSI_A_(11.00_x_8.50_Inches)
  6

 40
0.0
 41
0.0
 42
0.0
 43
0.0
 44
279.4
 45
215.9
 46
0.0
 47
0.0
 48
0.0
 49
0.0
140
0.0
141
0.0
142
1.0
143
1.0
 70
0
 72
0
 73
0
 74
0
  7

 75
0
147
1.0
148
0.0
149
0.0
100
AcDbLayout
  1
Layout1
 70
0
 71
1
 10
0.0
 20
0.0
 11
11.0
 21
8.5
 12
0.0
 22
0.0
 32
0.0
 14
0.0
 24
0.0
 34
0.0
 15
0.0
 25
0.0
 35
0.0
146
0.0
 13
0.0
 23
0.0
 33
0.0
 16
1.0
 26
0.0
 36
0.0
 17
0.0
 27
1.0
 37
0.0
 76
0
330
223
345
0
346
0
  0
ENDSEC
  0
EOF
