999
DXF file: 3-2554tr_TOP.dxf
999
Pro/ENGINEER 2018400 by Parametric Technology Corporation
  0
SECTION
  2
HEADER
  9
$ACADVER
  1
AC1027
  9
$DWGCODEPAGE
  3
ANSI_1252
  9
$EXTMAX
 10
11.0
 20
8.5
 30
0.0
  9
$EXTMIN
 10
0.0
 20
0.0
 30
0.0
  9
$LIMMIN
 10
0.0
 20
0.0
  9
$LIMMAX
 10
11.0
 20
8.5
  9
$VIEWCTR
 10
5.5
 20
4.25
  9
$VIEWSIZE
 40
8.5
  9
$CLAYER
  8
0
  9
$LTSCALE
 40
0.605
  9
$CELTYPE
  6
BYLAYER
  9
$DIMSCALE
 40
1.0
  9
$DIMASZ
 40
0.1
  9
$DIMEXO
 40
0.0625
  9
$DIMDLI
 40
0.418
  9
$DIMEXE
 40
0.125
  9
$DIMCEN
 40
0.099
  9
$DIMLFAC
 40
1.0
  9
$DIMBLK
  1
_FILLED
  9
$DIMALT
 70
1
  9
$DIMALTD
 70
2
  9
$DIMALTTD
 70
2
  9
$DIMALTF
 40
25.4
  9
$DIMTXT
 40
0.08
  9
$DIMTOL
 70
1
  9
$DIMLIM
 70
0
  9
$DIMTFAC
 40
1.0
  9
$DIMTP
 40
0.001
  9
$DIMTM
 40
0.001
  9
$DIMGAP
 40
0.09
  9
$DIMDSEP
 70
46
  9
$AUNITS
 70
0
  9
$PDMODE
 70
3
  9
$PDSIZE
 40
0.3125
  9
$HANDSEED
  5
4CB
  9
$TILEMODE
 70
1
  9
$MEASUREMENT
 70
0
  9
$INSUNITS
 70
1
  0
ENDSEC
  0
SECTION
  2
CLASSES
  0
CLASS
  1
ACDBDICTIONARYWDFLT
  2
AcDbDictionaryWithDefault
  3
AutoCAD 2000
 90
0
 91
1
280
0
281
0
  0
CLASS
  1
ACDBPLACEHOLDER
  2
AcDbPlaceHolder
  3
AutoCAD 2000
 90
0
 91
1
280
0
281
0
  0
CLASS
  1
LAYOUT
  2
AcDbLayout
  3
AutoCAD 2000
 90
0
 91
0
280
0
281
0
  0
ENDSEC
  0
SECTION
  2
TABLES
  0
TABLE
  2
VPORT
  5
8
100
AcDbSymbolTable
 70
2
  0
VPORT
  5
1F4
100
AcDbSymbolTableRecord
100
AcDbViewportTableRecord
  2
*ACTIVE
 70
0
 10
0.0
 20
0.0
 11
1.0
 21
1.0
 12
5.5
 22
4.25
 13
0.0
 23
0.0
 14
1.0
 24
1.0
 15
0.0
 25
0.0
 16
0.0
 26
0.0
 36
1.0
 17
0.0
 27
0.0
 37
0.0
 40
8.5
 41
1.2941176471
 42
50.0
 43
0.0
 44
0.0
 50
0.0
 51
0.0
 71
0
 72
100
 73
1
 74
1
 75
0
 76
0
 77
0
 78
0
  0
ENDTAB
  0
TABLE
  2
LTYPE
  5
5
100
AcDbSymbolTable
 70
6
  0
LTYPE
  5
14
100
AcDbSymbolTableRecord
100
AcDbLinetypeTableRecord
  2
BYBLOCK
 70
0
  3

 72
65
 73
0
 40
0.0
  0
LTYPE
  5
15
100
AcDbSymbolTableRecord
100
AcDbLinetypeTableRecord
  2
BYLAYER
 70
0
  3

 72
65
 73
0
 40
0.0
  0
LTYPE
  5
16
100
AcDbSymbolTableRecord
100
AcDbLinetypeTableRecord
  2
CONTINUOUS
 70
64
  3
Solid line
 72
65
 73
0
 40
0.0
  0
LTYPE
  5
1F5
100
AcDbSymbolTableRecord
100
AcDbLinetypeTableRecord
  2
CENTER
 70
64
  3
____ _ ____ _ ____ _ ____ _ ____ _ ____ _ ____
 72
65
 73
4
 40
0.6
 49
0.375
 74
0
 49
-0.075
 74
0
 49
0.075
 74
0
 49
-0.075
 74
0
  0
LTYPE
  5
1F6
100
AcDbSymbolTableRecord
100
AcDbLinetypeTableRecord
  2
HIDDEN
 70
64
  3
- - - - - - - - - - - - - - - - - - - -
 72
65
 73
2
 40
0.2
 49
0.1
 74
0
 49
-0.1
 74
0
  0
LTYPE
  5
1F7
100
AcDbSymbolTableRecord
100
AcDbLinetypeTableRecord
  2
PHANTOM
 70
64
  3
_____ _ _ _____ _ _ _____ _ _ _____
 72
65
 73
6
 40
0.8
 49
0.45
 74
0
 49
-0.05
 74
0
 49
0.1
 74
0
 49
-0.05
 74
0
 49
0.1
 74
0
 49
-0.05
 74
0
  0
LTYPE
  5
1F8
100
AcDbSymbolTableRecord
100
AcDbLinetypeTableRecord
  2
DOT
 70
64
  3
. . . . . . . . . . . . . . . . . . . .
 72
65
 73
2
 40
0.2
 49
0.1
 74
0
 49
-0.1
 74
0
  0
LTYPE
  5
1F9
100
AcDbSymbolTableRecord
100
AcDbLinetypeTableRecord
  2
DASHED
 70
64
  3
- - - - - - - - - - - - - - - - - - - -
 72
65
 73
2
 40
0.2
 49
0.1
 74
0
 49
-0.1
 74
0
  0
ENDTAB
  0
TABLE
  2
LAYER
  5
2
100
AcDbSymbolTable
 70
36
  0
LAYER
  5
10
100
AcDbSymbolTableRecord
100
AcDbLayerTableRecord
  2
0
 70
0
 62
7
  6
CONTINUOUS
370
-3
390
F
  0
LAYER
  5
1FA
100
AcDbSymbolTableRecord
100
AcDbLayerTableRecord
  2
DEFAULT_1
 70
0
 62
7
  6
CENTER
370
-3
390
F
  0
LAYER
  5
1FB
100
AcDbSymbolTableRecord
100
AcDbLayerTableRecord
  2
DEFAULT_2
 70
0
 62
8
  6
HIDDEN
370
-3
390
F
  0
LAYER
  5
1FC
100
AcDbSymbolTableRecord
100
AcDbLayerTableRecord
  2
DEFAULT_3
 70
0
 62
7
  6
PHANTOM
370
-3
390
F
  0
LAYER
  5
1FD
100
AcDbSymbolTableRecord
100
AcDbLayerTableRecord
  2
01___PRT_ALL_DTM_PLN
 70
0
 62
7
  6
CONTINUOUS
370
-3
390
F
  0
LAYER
  5
1FE
100
AcDbSymbolTableRecord
100
AcDbLayerTableRecord
  2
01___PRT_DEF_DTM_PLN
 70
0
 62
7
  6
CONTINUOUS
370
-3
390
F
  0
LAYER
  5
1FF
100
AcDbSymbolTableRecord
100
AcDbLayerTableRecord
  2
02___PRT_ALL_AXES
 70
0
 62
7
  6
CONTINUOUS
370
-3
390
F
  0
LAYER
  5
200
100
AcDbSymbolTableRecord
100
AcDbLayerTableRecord
  2
03___PRT_ALL_CURVES
 70
0
 62
7
  6
CONTINUOUS
370
-3
390
F
  0
LAYER
  5
201
100
AcDbSymbolTableRecord
100
AcDbLayerTableRecord
  2
04___PRT_ALL_DTM_PNT
 70
0
 62
7
  6
CONTINUOUS
370
-3
390
F
  0
LAYER
  5
202
100
AcDbSymbolTableRecord
100
AcDbLayerTableRecord
  2
05___PRT_ALL_DTM_CSYS
 70
0
 62
7
  6
CONTINUOUS
370
-3
390
F
  0
LAYER
  5
203
100
AcDbSymbolTableRecord
100
AcDbLayerTableRecord
  2
05___PRT_DEF_DTM_CSYS
 70
0
 62
7
  6
CONTINUOUS
370
-3
390
F
  0
LAYER
  5
204
100
AcDbSymbolTableRecord
100
AcDbLayerTableRecord
  2
06___PRT_ALL_SURFS
 70
0
 62
7
  6
CONTINUOUS
370
-3
390
F
  0
LAYER
  5
205
100
AcDbSymbolTableRecord
100
AcDbLayerTableRecord
  2
ALL_ASSEMBLY_MEMBERS
 70
0
 62
7
  6
CONTINUOUS
370
-3
390
F
  0
LAYER
  5
206
100
AcDbSymbolTableRecord
100
AcDbLayerTableRecord
  2
ALL_FEATURES
 70
0
 62
7
  6
CONTINUOUS
370
-3
390
F
  0
LAYER
  5
207
100
AcDbSymbolTableRecord
100
AcDbLayerTableRecord
  2
AXES_FEATURES
 70
0
 62
7
  6
CONTINUOUS
370
-3
390
F
  0
LAYER
  5
208
100
AcDbSymbolTableRecord
100
AcDbLayerTableRecord
  2
BROACH_SKETCH
 70
0
 62
7
  6
CONTINUOUS
370
-3
390
F
  0
LAYER
  5
209
100
AcDbSymbolTableRecord
100
AcDbLayerTableRecord
  2
CHAMFER_FEATURES
 70
0
 62
7
  6
CONTINUOUS
370
-3
390
F
  0
LAYER
  5
20A
100
AcDbSymbolTableRecord
100
AcDbLayerTableRecord
  2
COSMETIC_SKETCHES
 70
0
 62
7
  6
CONTINUOUS
370
-3
390
F
  0
LAYER
  5
20B
100
AcDbSymbolTableRecord
100
AcDbLayerTableRecord
  2
CUT_FEATURES
 70
0
 62
7
  6
CONTINUOUS
370
-3
390
F
  0
LAYER
  5
20C
100
AcDbSymbolTableRecord
100
AcDbLayerTableRecord
  2
DATUM_CURVES
 70
0
 62
7
  6
CONTINUOUS
370
-3
390
F
  0
LAYER
  5
20D
100
AcDbSymbolTableRecord
100
AcDbLayerTableRecord
  2
DATUM_PLANES
 70
0
 62
7
  6
CONTINUOUS
370
-3
390
F
  0
LAYER
  5
20E
100
AcDbSymbolTableRecord
100
AcDbLayerTableRecord
  2
DATUM_POINTS
 70
0
 62
7
  6
CONTINUOUS
370
-3
390
F
  0
LAYER
  5
20F
100
AcDbSymbolTableRecord
100
AcDbLayerTableRecord
  2
DEFAULT_COORDINATE_SYSTEM
 70
0
 62
7
  6
CONTINUOUS
370
-3
390
F
  0
LAYER
  5
210
100
AcDbSymbolTableRecord
100
AcDbLayerTableRecord
  2
DEFAULT_DATUM_AXES
 70
0
 62
7
  6
CONTINUOUS
370
-3
390
F
  0
LAYER
  5
211
100
AcDbSymbolTableRecord
100
AcDbLayerTableRecord
  2
DEFAULT_DATUM_CURVES
 70
0
 62
7
  6
CONTINUOUS
370
-3
390
F
  0
LAYER
  5
212
100
AcDbSymbolTableRecord
100
AcDbLayerTableRecord
  2
DEFAULT_DATUM_PLANES
 70
0
 62
7
  6
CONTINUOUS
370
-3
390
F
  0
LAYER
  5
213
100
AcDbSymbolTableRecord
100
AcDbLayerTableRecord
  2
DEFAULT_SURFACES
 70
0
 62
7
  6
CONTINUOUS
370
-3
390
F
  0
LAYER
  5
214
100
AcDbSymbolTableRecord
100
AcDbLayerTableRecord
  2
DIMENSIONS
 70
0
 62
7
  6
CONTINUOUS
370
-3
390
F
  0
LAYER
  5
215
100
AcDbSymbolTableRecord
100
AcDbLayerTableRecord
  2
HOLE_FEATURES
 70
0
 62
7
  6
CONTINUOUS
370
-3
390
F
  0
LAYER
  5
216
100
AcDbSymbolTableRecord
100
AcDbLayerTableRecord
  2
PART_REFERENCE_DIMENSIONS
 70
0
 62
7
  6
CONTINUOUS
370
-3
390
F
  0
LAYER
  5
217
100
AcDbSymbolTableRecord
100
AcDbLayerTableRecord
  2
PLATED_SURFACE_AREA
 70
0
 62
7
  6
CONTINUOUS
370
-3
390
F
  0
LAYER
  5
218
100
AcDbSymbolTableRecord
100
AcDbLayerTableRecord
  2
POINTS
 70
0
 62
7
  6
CONTINUOUS
370
-3
390
F
  0
LAYER
  5
219
100
AcDbSymbolTableRecord
100
AcDbLayerTableRecord
  2
PROTRUSION
 70
0
 62
7
  6
CONTINUOUS
370
-3
390
F
  0
LAYER
  5
21A
100
AcDbSymbolTableRecord
100
AcDbLayerTableRecord
  2
PROTRUSION_FEATURES
 70
0
 62
7
  6
CONTINUOUS
370
-3
390
F
  0
LAYER
  5
21B
100
AcDbSymbolTableRecord
100
AcDbLayerTableRecord
  2
QUILT
 70
0
 62
7
  6
CONTINUOUS
370
-3
390
F
  0
LAYER
  5
21C
100
AcDbSymbolTableRecord
100
AcDbLayerTableRecord
  2
REFERENCE_DIMENSIONS
 70
0
 62
7
  6
CONTINUOUS
370
-3
390
F
  0
LAYER
  5
21D
100
AcDbSymbolTableRecord
100
AcDbLayerTableRecord
  2
ROUND_FEATURES
 70
0
 62
7
  6
CONTINUOUS
370
-3
390
F
  0
LAYER
  5
21E
100
AcDbSymbolTableRecord
100
AcDbLayerTableRecord
  2
WETTED_SURFACES
 70
0
 62
7
  6
CONTINUOUS
370
-3
390
F
  0
LAYER
  5
21F
100
AcDbSymbolTableRecord
100
AcDbLayerTableRecord
  2
XSEC_DATUMS
 70
0
 62
7
  6
CONTINUOUS
370
-3
390
F
  0
ENDTAB
  0
TABLE
  2
STYLE
  5
3
100
AcDbSymbolTable
 70
1
  0
STYLE
  5
11
100
AcDbSymbolTableRecord
100
AcDbTextStyleTableRecord
  2
STANDARD
 70
0
 40
0.0
 41
0.8
 50
0.0
 71
0
 42
0.2
  3
txt
  4

  0
STYLE
  5
220
100
AcDbSymbolTableRecord
100
AcDbTextStyleTableRecord
  2
TEXTSTYLE_1
 70
0
 40
0.0
 41
0.8
 50
0.0
 71
0
 42
0.2
  3
gdt
  4

  0
ENDTAB
  0
TABLE
  2
VIEW
  5
6
100
AcDbSymbolTable
 70
0
  0
ENDTAB
  0
TABLE
  2
UCS
  5
7
100
AcDbSymbolTable
 70
0
  0
ENDTAB
  0
TABLE
  2
APPID
  5
9
100
AcDbSymbolTable
 70
1
  0
APPID
  5
221
100
AcDbSymbolTableRecord
100
AcDbRegAppTableRecord
  2
ACAD
 70
0
  0
ENDTAB
  0
TABLE
  2
BLOCK_RECORD
  5
1
100
AcDbSymbolTable
 70
0
  0
BLOCK_RECORD
  5
222
100
AcDbSymbolTableRecord
100
AcDbBlockTableRecord
  2
*Model_Space
  0
BLOCK_RECORD
  5
223
100
AcDbSymbolTableRecord
100
AcDbBlockTableRecord
  2
*Paper_Space
  0
BLOCK_RECORD
  5
224
100
AcDbSymbolTableRecord
100
AcDbBlockTableRecord
  2
_FILLED
  0
ENDTAB
  0
TABLE
  2
DIMSTYLE
  5
A
100
AcDbSymbolTable
 70
1
100
AcDbDimStyleTable
 71
0
  0
DIMSTYLE
105
225
100
AcDbSymbolTableRecord
100
AcDbDimStyleTableRecord
  2
STANDARD
 70
0
  3

  4

 40
1.0
 41
0.1
 42
0.0625
 43
0.38
 44
0.125
 45
0.0
 46
0.0
 47
0.001
 48
0.001
140
0.08
141
0.09
142
0.0
143
25.4
144
1.0
145
0.0
146
1.0
147
0.09
 71
1.0
 72
0.0
 73
1
 74
1
 75
0
 76
0
 77
0
 78
4
 79
1
170
1
171
2
172
0
173
0
174
0
175
0
176
0
177
0
178
0
270
2
179
3
271
3
272
3
273
2
274
2
275
0
280
0
281
0
282
0
283
1
284
4
285
0
286
0
287
3
288
0
340
11
278
46
341
224
342
224
343
224
344
224
  0
ENDTAB
  0
ENDSEC
  0
SECTION
  2
BLOCKS
  0
BLOCK
  5
20
100
AcDbEntity
  8
0
100
AcDbBlockBegin
  2
*Model_Space
 70
0
 10
0.0
 20
0.0
 30
0.0
  3
*Model_Space
  1

  0
ENDBLK
  5
21
100
AcDbEntity
  8
0
100
AcDbBlockEnd
  0
BLOCK
  5
1C
100
AcDbEntity
  8
0
100
AcDbBlockBegin
  2
*Paper_Space
 70
0
 10
0.0
 20
0.0
 30
0.0
  3
*Paper_Space
  1

  0
ENDBLK
  5
1D
100
AcDbEntity
  8
0
100
AcDbBlockEnd
  0
BLOCK
  5
226
100
AcDbEntity
  8
0
100
AcDbBlockBegin
  2
_FILLED
 70
64
 10
0.0
 20
0.0
  3
_FILLED
  1

  0
SOLID
  5
227
100
AcDbEntity
  8
0
  6
BYBLOCK
 62
0
100
AcDbTrace
 10
0.0
 20
0.0
 11
-1.0
 21
0.2
 12
-1.0
 22
-0.2
 13
-1.0
 23
-0.2
  0
ENDBLK
  5
228
100
AcDbEntity
  8
0
  6
BYBLOCK
 62
0
100
AcDbBlockEnd
  0
ENDSEC
  0
SECTION
  2
ENTITIES
  0
MTEXT
  5
229
100
AcDbEntity
  8
0
100
AcDbMText
 62
2
  6
CONTINUOUS
  7
STANDARD
 71
3
 72
1
 10
4.3412849379
 20
3.4550296413
 30
0.0
 11
1.0
 21
0.0
 31
0.0
 73
2
 44
0.9
  1
SCALE  .500
 40
0.08
 41
0.704
  0
LINE
  5
22A
100
AcDbEntity
  8
0
100
AcDbLine
 62
7
  6
CONTINUOUS
 10
0.0
 20
0.0
 11
0.0
 21
8.5
  0
LINE
  5
22B
100
AcDbEntity
  8
0
100
AcDbLine
 62
7
  6
CONTINUOUS
 10
0.0
 20
0.0
 11
11.0
 21
0.0
  0
LINE
  5
22C
100
AcDbEntity
  8
0
100
AcDbLine
 62
7
  6
CONTINUOUS
 10
0.0
 20
8.5
 11
11.0
 21
8.5
  0
LINE
  5
22D
100
AcDbEntity
  8
0
100
AcDbLine
 62
7
  6
CONTINUOUS
 10
11.0
 20
0.0
 11
11.0
 21
8.5
  0
LINE
  5
22E
100
AcDbEntity
  8
0
100
AcDbLine
 62
7
  6
CONTINUOUS
 10
2.7087849379
 20
5.2629689107
 11
2.7087849379
 21
5.259677644
  0
LINE
  5
22F
100
AcDbEntity
  8
0
100
AcDbLine
 62
7
  6
CONTINUOUS
 10
4.7087849369
 20
3.6049160109
 11
3.9737849388
 21
3.6049160109
  0
LINE
  5
230
100
AcDbEntity
  8
0
100
AcDbLine
 62
7
  6
CONTINUOUS
 10
4.7237849379
 20
3.6199160109
 11
3.9587849379
 21
3.6199160109
  0
LINE
  5
231
100
AcDbEntity
  8
ALL_FEATURES
100
AcDbLine
 62
7
  6
CONTINUOUS
 10
3.5100349379
 20
5.1092475724
 11
3.5100349379
 21
5.1192506566
  0
LINE
  5
232
100
AcDbEntity
  8
ALL_FEATURES
100
AcDbLine
 62
7
  6
CONTINUOUS
 10
3.6381815549
 20
5.087337472
 11
3.6382762945
 21
5.0881117647
  0
LINE
  5
233
100
AcDbEntity
  8
02___PRT_ALL_AXES
100
AcDbLine
 62
7
  6
CONTINUOUS
 10
3.9587855194
 20
3.6499160109
 11
4.7237843563
 21
3.6499160109
  0
LINE
  5
234
100
AcDbEntity
  8
0
100
AcDbLine
 62
7
  6
CONTINUOUS
 10
4.7237849379
 20
3.6649160109
 11
3.9587849379
 21
3.6649160109
  0
LINE
  5
235
100
AcDbEntity
  8
0
100
AcDbLine
 62
7
  6
CONTINUOUS
 10
3.9587849379
 20
3.6949160109
 11
4.7237849379
 21
3.6949160109
  0
LINE
  5
236
100
AcDbEntity
  8
ALL_FEATURES
100
AcDbLine
 62
7
  6
CONTINUOUS
 10
3.6411126883
 20
5.0877303066
 11
3.6410405087
 21
5.0871403937
  0
LINE
  5
237
100
AcDbEntity
  8
ALL_FEATURES
100
AcDbLine
 62
7
  6
CONTINUOUS
 10
3.6645292902
 20
5.0863211475
 11
3.6646845231
 21
5.0875898423
  0
LINE
  5
238
100
AcDbEntity
  8
ALL_FEATURES
100
AcDbLine
 62
7
  6
CONTINUOUS
 10
3.667520652
 20
5.0872062146
 11
3.6674036305
 21
5.0862498158
  0
LINE
  5
239
100
AcDbEntity
  8
ALL_FEATURES
100
AcDbLine
 62
7
  6
CONTINUOUS
 10
3.6679968472
 20
5.086325608
 11
3.6680950878
 21
5.0871285137
  0
LINE
  5
23A
100
AcDbEntity
  8
ALL_FEATURES
100
AcDbLine
 62
7
  6
CONTINUOUS
 10
3.6765779029
 20
5.0853640103
 11
3.6766521773
 21
5.0859710439
  0
LINE
  5
23B
100
AcDbEntity
  8
ALL_FEATURES
100
AcDbLine
 62
7
  6
CONTINUOUS
 10
3.6951079111
 20
5.0867503225
 11
3.6954263656
 21
5.0893530028
  0
LINE
  5
23C
100
AcDbEntity
  8
ALL_FEATURES
100
AcDbLine
 62
7
  6
CONTINUOUS
 10
3.7154541561
 20
5.0828076469
 11
3.7156825417
 21
5.0846742081
  0
LINE
  5
23D
100
AcDbEntity
  8
ALL_FEATURES
100
AcDbLine
 62
7
  6
CONTINUOUS
 10
3.7337923078
 20
5.0745940542
 11
3.7338799035
 21
5.0753099607
  0
LINE
  5
23E
100
AcDbEntity
  8
ALL_FEATURES
100
AcDbLine
 62
7
  6
CONTINUOUS
 10
3.7413537559
 20
5.081597694
 11
3.7414901179
 21
5.0827121596
  0
LINE
  5
23F
100
AcDbEntity
  8
ALL_FEATURES
100
AcDbLine
 62
7
  6
CONTINUOUS
 10
3.7482741097
 20
5.0756658394
 11
3.748348423
 21
5.0762731907
  0
LINE
  5
240
100
AcDbEntity
  8
ALL_FEATURES
100
AcDbLine
 62
7
  6
CONTINUOUS
 10
3.7579388341
 20
5.0741738695
 11
3.7580384011
 21
5.0749876156
  0
LINE
  5
241
100
AcDbEntity
  8
ALL_FEATURES
100
AcDbLine
 62
7
  6
CONTINUOUS
 10
3.7582238138
 20
5.0740606931
 11
3.7583327035
 21
5.0749506322
  0
LINE
  5
242
100
AcDbEntity
  8
ALL_FEATURES
100
AcDbLine
 62
7
  6
CONTINUOUS
 10
3.7601211428
 20
5.0734232511
 11
3.7602851993
 21
5.0747640603
  0
LINE
  5
243
100
AcDbEntity
  8
ALL_FEATURES
100
AcDbLine
 62
7
  6
CONTINUOUS
 10
3.7672703825
 20
5.0787691659
 11
3.767379861
 21
5.0796639177
  0
LINE
  5
244
100
AcDbEntity
  8
ALL_FEATURES
100
AcDbLine
 62
7
  6
CONTINUOUS
 10
3.7688372051
 20
5.0754738103
 11
3.76892116
 21
5.0761599612
  0
LINE
  5
245
100
AcDbEntity
  8
0
100
AcDbLine
 62
7
  6
CONTINUOUS
 10
3.9587849379
 20
3.8049160109
 11
4.7237849379
 21
3.8049160109
  0
LINE
  5
246
100
AcDbEntity
  8
0
100
AcDbLine
 62
7
  6
CONTINUOUS
 10
4.7237849379
 20
3.8349160109
 11
3.9587849379
 21
3.8349160109
  0
LINE
  5
247
100
AcDbEntity
  8
0
100
AcDbLine
 62
7
  6
CONTINUOUS
 10
4.7087849379
 20
3.8499160109
 11
3.9737849379
 21
3.8499160109
  0
LINE
  5
248
100
AcDbEntity
  8
0
100
AcDbLine
 62
7
  6
CONTINUOUS
 10
4.1671428023
 20
3.8860862619
 11
4.5154270735
 21
3.8860862619
  0
LINE
  5
249
100
AcDbEntity
  8
ALL_FEATURES
100
AcDbLine
 62
7
  6
CONTINUOUS
 10
3.7732031303
 20
5.0747806428
 11
3.7733062492
 21
5.0756234178
  0
LINE
  5
24A
100
AcDbEntity
  8
ALL_FEATURES
100
AcDbLine
 62
7
  6
CONTINUOUS
 10
3.7827644995
 20
5.073808056
 11
3.7828848258
 21
5.0747914649
  0
LINE
  5
24B
100
AcDbEntity
  8
ALL_FEATURES
100
AcDbLine
 62
7
  6
CONTINUOUS
 10
3.7837456678
 20
5.0761597891
 11
3.7838451884
 21
5.0769731563
  0
LINE
  5
24C
100
AcDbEntity
  8
ALL_FEATURES
100
AcDbLine
 62
7
  6
CONTINUOUS
 10
3.7905981061
 20
5.0736449939
 11
3.7907227932
 21
5.0746640429
  0
LINE
  5
24D
100
AcDbEntity
  8
02___PRT_ALL_AXES
100
AcDbLine
 62
7
  6
CONTINUOUS
 10
3.8487849379
 20
4.8849160109
 11
3.8487849379
 21
4.6990828002
  0
LINE
  5
24E
100
AcDbEntity
  8
0
100
AcDbLine
 62
7
  6
CONTINUOUS
 10
3.8487849379
 20
4.8849160109
 11
3.8487849379
 21
5.0632506566
  0
LINE
  5
24F
100
AcDbEntity
  8
0
100
AcDbLine
 62
7
  6
CONTINUOUS
 10
3.8912849379
 20
4.1449160109
 11
3.8912849379
 21
4.1559160109
  0
LINE
  5
250
100
AcDbEntity
  8
0
100
AcDbLine
 62
7
  6
CONTINUOUS
 10
3.8912849379
 20
4.2139160109
 11
3.8912849379
 21
4.2249160109
  0
LINE
  5
251
100
AcDbEntity
  8
02___PRT_ALL_AXES
100
AcDbLine
 62
7
  6
CONTINUOUS
 10
3.9262849379
 20
4.6099550829
 11
3.9262849379
 21
4.2399160109
  0
LINE
  5
252
100
AcDbEntity
  8
02___PRT_ALL_AXES
100
AcDbLine
 62
7
  6
CONTINUOUS
 10
3.9587849379
 20
3.6499160109
 11
3.9587849379
 21
3.6199160109
  0
LINE
  5
253
100
AcDbEntity
  8
0
100
AcDbLine
 62
7
  6
CONTINUOUS
 10
3.9587849379
 20
3.6649160109
 11
3.9587849379
 21
3.6949160109
  0
LINE
  5
254
100
AcDbEntity
  8
0
100
AcDbLine
 62
7
  6
CONTINUOUS
 10
3.9587849379
 20
3.8049160109
 11
3.9587849379
 21
3.8349160109
  0
LINE
  5
255
100
AcDbEntity
  8
ALL_FEATURES
100
AcDbLine
 62
7
  6
CONTINUOUS
 10
3.9580896985
 20
5.0765623425
 11
3.9582522343
 21
5.0786616005
  0
LINE
  5
256
100
AcDbEntity
  8
0
100
AcDbLine
 62
7
  6
CONTINUOUS
 10
4.164513883
 20
4.0841286769
 11
4.5180559928
 21
4.0841286769
  0
LINE
  5
257
100
AcDbEntity
  8
0
100
AcDbLine
 62
7
  6
CONTINUOUS
 10
4.7762798409
 20
4.1299160109
 11
3.9062900349
 21
4.1299160109
  0
LINE
  5
258
100
AcDbEntity
  8
0
100
AcDbLine
 62
7
  6
CONTINUOUS
 10
4.7912849379
 20
4.1449160109
 11
3.8912849379
 21
4.1449160109
  0
LINE
  5
259
100
AcDbEntity
  8
0
100
AcDbLine
 62
7
  6
CONTINUOUS
 10
3.8912849379
 20
4.1559160109
 11
4.7912849379
 21
4.1559160109
  0
LINE
  5
25A
100
AcDbEntity
  8
0
100
AcDbLine
 62
7
  6
CONTINUOUS
 10
4.0584422254
 20
3.7906425851
 11
4.0584422254
 21
3.7091894367
  0
LINE
  5
25B
100
AcDbEntity
  8
0
100
AcDbLine
 62
7
  6
CONTINUOUS
 10
4.0875276242
 20
3.7091894367
 11
4.0875276242
 21
3.7906425851
  0
LINE
  5
25C
100
AcDbEntity
  8
0
100
AcDbLine
 62
7
  6
CONTINUOUS
 10
3.8912849379
 20
4.2139160109
 11
4.7912849379
 21
4.2139160109
  0
LINE
  5
25D
100
AcDbEntity
  8
0
100
AcDbLine
 62
7
  6
CONTINUOUS
 10
4.7912849379
 20
4.2249160109
 11
3.8912849379
 21
4.2249160109
  0
LINE
  5
25E
100
AcDbEntity
  8
0
100
AcDbLine
 62
7
  6
CONTINUOUS
 10
4.7762798409
 20
4.2399160109
 11
3.9062900349
 21
4.2399160109
  0
LINE
  5
25F
100
AcDbEntity
  8
0
100
AcDbLine
 62
7
  6
CONTINUOUS
 10
4.1190568447
 20
3.7091894367
 11
4.1190568447
 21
3.7906425851
  0
LINE
  5
260
100
AcDbEntity
  8
0
100
AcDbLine
 62
7
  6
CONTINUOUS
 10
4.1527262432
 20
3.7091894367
 11
4.1527262432
 21
3.7906425851
  0
LINE
  5
261
100
AcDbEntity
  8
0
100
AcDbLine
 62
7
  6
CONTINUOUS
 10
4.1882115649
 20
3.7091894367
 11
4.1882115649
 21
3.7906425851
  0
LINE
  5
262
100
AcDbEntity
  8
0
100
AcDbLine
 62
7
  6
CONTINUOUS
 10
4.225171067
 20
3.7091894367
 11
4.225171067
 21
3.7906425851
  0
LINE
  5
263
100
AcDbEntity
  8
ALL_FEATURES
100
AcDbLine
 62
7
  6
CONTINUOUS
 10
4.2320637385
 20
5.0869244071
 11
4.2320637385
 21
5.087337472
  0
LINE
  5
264
100
AcDbEntity
  8
ALL_FEATURES
100
AcDbLine
 62
7
  6
CONTINUOUS
 10
4.2327356237
 20
5.0745940542
 11
4.2327356237
 21
5.0751321698
  0
LINE
  5
265
100
AcDbEntity
  8
ALL_FEATURES
100
AcDbLine
 62
7
  6
CONTINUOUS
 10
4.2394488735
 20
5.0871157868
 11
4.2394488735
 21
5.0876930355
  0
LINE
  5
266
100
AcDbEntity
  8
ALL_FEATURES
100
AcDbLine
 62
7
  6
CONTINUOUS
 10
4.24432566
 20
5.0871550081
 11
4.24432566
 21
5.0879332398
  0
LINE
  5
267
100
AcDbEntity
  8
ALL_FEATURES
100
AcDbLine
 62
7
  6
CONTINUOUS
 10
4.249280819
 20
5.0765191247
 11
4.249280819
 21
5.0881821111
  0
LINE
  5
268
100
AcDbEntity
  8
0
100
AcDbLine
 62
7
  6
CONTINUOUS
 10
4.2632488091
 20
3.7091894367
 11
4.2632488091
 21
3.7906425851
  0
LINE
  5
269
100
AcDbEntity
  8
ALL_FEATURES
100
AcDbLine
 62
7
  6
CONTINUOUS
 10
4.2639783291
 20
5.076268007
 11
4.2639783291
 21
5.088948636
  0
LINE
  5
26A
100
AcDbEntity
  8
ALL_FEATURES
100
AcDbLine
 62
7
  6
CONTINUOUS
 10
4.2805235244
 20
5.073754453
 11
4.2805235244
 21
5.0742983196
  0
LINE
  5
26B
100
AcDbEntity
  8
0
100
AcDbLine
 62
7
  6
CONTINUOUS
 10
4.3020780818
 20
3.7091894367
 11
4.3020780818
 21
3.7906425851
  0
LINE
  5
26C
100
AcDbEntity
  8
ALL_FEATURES
100
AcDbLine
 62
7
  6
CONTINUOUS
 10
4.3117849379
 20
4.4233725978
 11
4.3117849379
 21
4.4178362146
  0
LINE
  5
26D
100
AcDbEntity
  8
ALL_FEATURES
100
AcDbLine
 62
7
  6
CONTINUOUS
 10
4.3122507237
 20
5.0753283831
 11
4.3122507237
 21
5.0802012696
  0
LINE
  5
26E
100
AcDbEntity
  8
ALL_FEATURES
100
AcDbLine
 62
7
  6
CONTINUOUS
 10
4.3182331296
 20
5.081199316
 11
4.3182331296
 21
5.0861078264
  0
LINE
  5
26F
100
AcDbEntity
  8
ALL_FEATURES
100
AcDbLine
 62
7
  6
CONTINUOUS
 10
4.3232722774
 20
5.0860326125
 11
4.3232722774
 21
5.08783831
  0
LINE
  5
270
100
AcDbEntity
  8
0
100
AcDbLine
 62
7
  6
CONTINUOUS
 10
4.3312854532
 20
5.0199160109
 11
4.3312854532
 21
4.9399160109
  0
LINE
  5
271
100
AcDbEntity
  8
ALL_FEATURES
100
AcDbLine
 62
7
  6
CONTINUOUS
 10
4.3399854466
 20
5.0731327846
 11
4.3399854466
 21
5.0739263768
  0
LINE
  5
272
100
AcDbEntity
  8
ALL_FEATURES
100
AcDbLine
 62
7
  6
CONTINUOUS
 10
4.3400694388
 20
5.0876324335
 11
4.3400694388
 21
5.0884244795
  0
LINE
  5
273
100
AcDbEntity
  8
0
100
AcDbLine
 62
7
  6
CONTINUOUS
 10
4.3412849379
 20
3.7091894367
 11
4.3412849379
 21
3.7906425851
  0
LINE
  5
274
100
AcDbEntity
  8
0
100
AcDbLine
 62
7
  6
CONTINUOUS
 10
4.3512844225
 20
5.0199160109
 11
4.3512844225
 21
4.9399160109
  0
LINE
  5
275
100
AcDbEntity
  8
ALL_FEATURES
100
AcDbLine
 62
7
  6
CONTINUOUS
 10
4.3570345558
 20
5.0858543016
 11
4.3570345558
 21
5.0878749942
  0
LINE
  5
276
100
AcDbEntity
  8
ALL_FEATURES
100
AcDbLine
 62
7
  6
CONTINUOUS
 10
4.3154124309
 20
4.4249160109
 11
4.3671575609
 21
4.4249160109
  0
LINE
  5
277
100
AcDbEntity
  8
ALL_FEATURES
100
AcDbLine
 62
7
  6
CONTINUOUS
 10
4.362325653
 20
5.0809230868
 11
4.362325653
 21
5.0858399093
  0
LINE
  5
278
100
AcDbEntity
  8
ALL_FEATURES
100
AcDbLine
 62
7
  6
CONTINUOUS
 10
4.3693981954
 20
5.0755161138
 11
4.3693981954
 21
5.0803945778
  0
LINE
  5
279
100
AcDbEntity
  8
ALL_FEATURES
100
AcDbLine
 62
7
  6
CONTINUOUS
 10
4.3707849379
 20
4.4233726671
 11
4.3707849379
 21
4.4178362146
  0
LINE
  5
27A
100
AcDbEntity
  8
0
100
AcDbLine
 62
7
  6
CONTINUOUS
 10
4.380491794
 20
3.7091894367
 11
4.380491794
 21
3.7906425851
  0
LINE
  5
27B
100
AcDbEntity
  8
ALL_FEATURES
100
AcDbLine
 62
7
  6
CONTINUOUS
 10
4.3979162049
 20
5.0755697544
 11
4.3979162049
 21
5.08020127
  0
LINE
  5
27C
100
AcDbEntity
  8
ALL_FEATURES
100
AcDbLine
 62
7
  6
CONTINUOUS
 10
4.40389862
 20
5.0815214531
 11
4.40389862
 21
5.0861078264
  0
LINE
  5
27D
100
AcDbEntity
  8
ALL_FEATURES
100
AcDbLine
 62
7
  6
CONTINUOUS
 10
4.4089377546
 20
5.0864150954
 11
4.4089377546
 21
5.0882133824
  0
LINE
  5
27E
100
AcDbEntity
  8
0
100
AcDbLine
 62
7
  6
CONTINUOUS
 10
4.4193210667
 20
3.7091894367
 11
4.4193210667
 21
3.7906425851
  0
LINE
  5
27F
100
AcDbEntity
  8
ALL_FEATURES
100
AcDbLine
 62
7
  6
CONTINUOUS
 10
4.4256509229
 20
5.0738774861
 11
4.4256509229
 21
5.0746777251
  0
LINE
  5
280
100
AcDbEntity
  8
ALL_FEATURES
100
AcDbLine
 62
7
  6
CONTINUOUS
 10
4.4257349152
 20
5.0882617924
 11
4.4257349152
 21
5.0890569256
  0
LINE
  5
281
100
AcDbEntity
  8
ALL_FEATURES
100
AcDbLine
 62
7
  6
CONTINUOUS
 10
4.4427000338
 20
5.0867562975
 11
4.4427000338
 21
5.0887586275
  0
LINE
  5
282
100
AcDbEntity
  8
ALL_FEATURES
100
AcDbLine
 62
7
  6
CONTINUOUS
 10
4.4479911434
 20
5.0819623524
 11
4.4479911434
 21
5.0858399093
  0
LINE
  5
283
100
AcDbEntity
  8
ALL_FEATURES
100
AcDbLine
 62
7
  6
CONTINUOUS
 10
4.4550636718
 20
5.0767467314
 11
4.4550636718
 21
5.0803945778
  0
LINE
  5
284
100
AcDbEntity
  8
0
100
AcDbLine
 62
7
  6
CONTINUOUS
 10
4.4573988088
 20
3.7091894367
 11
4.4573988088
 21
3.7906425851
  0
LINE
  5
285
100
AcDbEntity
  8
0
100
AcDbLine
 62
7
  6
CONTINUOUS
 10
3.9262849379
 20
4.609955096
 11
4.7562849379
 21
4.609955096
  0
LINE
  5
286
100
AcDbEntity
  8
0
100
AcDbLine
 62
7
  6
CONTINUOUS
 10
4.4943583108
 20
3.7091894367
 11
4.4943583108
 21
3.7906425851
  0
LINE
  5
287
100
AcDbEntity
  8
0
100
AcDbLine
 62
7
  6
CONTINUOUS
 10
4.5298436326
 20
3.7091894367
 11
4.5298436326
 21
3.7906425851
  0
LINE
  5
288
100
AcDbEntity
  8
0
100
AcDbLine
 62
7
  6
CONTINUOUS
 10
4.5635130311
 20
3.7091894367
 11
4.5635130311
 21
3.7906425851
  0
LINE
  5
289
100
AcDbEntity
  8
0
100
AcDbLine
 62
7
  6
CONTINUOUS
 10
4.5950422516
 20
3.7091894367
 11
4.5950422516
 21
3.7906425851
  0
LINE
  5
28A
100
AcDbEntity
  8
0
100
AcDbLine
 62
7
  6
CONTINUOUS
 10
3.8573960495
 20
4.6891797204
 11
4.8251738262
 21
4.6891797204
  0
LINE
  5
28B
100
AcDbEntity
  8
0
100
AcDbLine
 62
7
  6
CONTINUOUS
 10
3.8487849379
 20
4.6990828002
 11
4.8337849379
 21
4.6990828002
  0
LINE
  5
28C
100
AcDbEntity
  8
0
100
AcDbLine
 62
7
  6
CONTINUOUS
 10
4.6241276504
 20
3.7091894367
 11
4.6241276504
 21
3.7906425851
  0
LINE
  5
28D
100
AcDbEntity
  8
02___PRT_ALL_AXES
100
AcDbLine
 62
7
  6
CONTINUOUS
 10
4.7237849379
 20
3.6499160109
 11
4.7237849379
 21
3.6199160109
  0
LINE
  5
28E
100
AcDbEntity
  8
0
100
AcDbLine
 62
7
  6
CONTINUOUS
 10
4.7237849379
 20
3.6649160109
 11
4.7237849379
 21
3.6949160109
  0
LINE
  5
28F
100
AcDbEntity
  8
0
100
AcDbLine
 62
7
  6
CONTINUOUS
 10
4.7237849379
 20
3.8049160109
 11
4.7237849379
 21
3.8349160109
  0
LINE
  5
290
100
AcDbEntity
  8
ALL_FEATURES
100
AcDbLine
 62
7
  6
CONTINUOUS
 10
3.8487849379
 20
4.8849160109
 11
4.8337849379
 21
4.8849160109
  0
LINE
  5
291
100
AcDbEntity
  8
02___PRT_ALL_AXES
100
AcDbLine
 62
7
  6
CONTINUOUS
 10
3.8487870512
 20
4.8849160109
 11
4.8337828245
 21
4.8849160109
  0
LINE
  5
292
100
AcDbEntity
  8
0
100
AcDbLine
 62
7
  6
CONTINUOUS
 10
4.3512844225
 20
4.9399160109
 11
4.3312854532
 21
4.9399160109
  0
LINE
  5
293
100
AcDbEntity
  8
ALL_FEATURES
100
AcDbLine
 62
7
  6
CONTINUOUS
 10
3.6381815549
 20
5.087337472
 11
3.6371584373
 21
5.0875920176
  0
LINE
  5
294
100
AcDbEntity
  8
ALL_FEATURES
100
AcDbLine
 62
7
  6
CONTINUOUS
 10
3.6381815549
 20
5.087337472
 11
3.6371584275
 21
5.0875919353
  0
LINE
  5
295
100
AcDbEntity
  8
ALL_FEATURES
100
AcDbLine
 62
7
  6
CONTINUOUS
 10
3.6645292902
 20
5.0863211475
 11
3.6635192374
 21
5.0866592409
  0
LINE
  5
296
100
AcDbEntity
  8
ALL_FEATURES
100
AcDbLine
 62
7
  6
CONTINUOUS
 10
3.6645292902
 20
5.0863211475
 11
3.6635192288
 21
5.0866591702
  0
LINE
  5
297
100
AcDbEntity
  8
ALL_FEATURES
100
AcDbLine
 62
7
  6
CONTINUOUS
 10
4.7500252365
 20
5.0765623425
 11
4.7498693336
 21
5.0784475824
  0
LINE
  5
298
100
AcDbEntity
  8
02___PRT_ALL_AXES
100
AcDbLine
 62
7
  6
CONTINUOUS
 10
4.7562849379
 20
4.6099550829
 11
4.7562849379
 21
4.2399160109
  0
LINE
  5
299
100
AcDbEntity
  8
0
100
AcDbLine
 62
7
  6
CONTINUOUS
 10
4.7912849379
 20
4.1449160109
 11
4.7912849379
 21
4.1559160109
  0
LINE
  5
29A
100
AcDbEntity
  8
0
100
AcDbLine
 62
7
  6
CONTINUOUS
 10
4.7912849379
 20
4.2139160109
 11
4.7912849379
 21
4.2249160109
  0
LINE
  5
29B
100
AcDbEntity
  8
02___PRT_ALL_AXES
100
AcDbLine
 62
7
  6
CONTINUOUS
 10
4.8337849379
 20
4.8849160109
 11
4.8337849379
 21
4.6990828002
  0
LINE
  5
29C
100
AcDbEntity
  8
0
100
AcDbLine
 62
7
  6
CONTINUOUS
 10
4.8337849379
 20
4.8849160109
 11
4.8337849379
 21
5.0632506566
  0
LINE
  5
29D
100
AcDbEntity
  8
ALL_FEATURES
100
AcDbLine
 62
7
  6
CONTINUOUS
 10
4.940982264
 20
5.0746976715
 11
4.9407664378
 21
5.0746531355
  0
LINE
  5
29E
100
AcDbEntity
  8
ALL_FEATURES
100
AcDbLine
 62
7
  6
CONTINUOUS
 10
4.7978402581
 20
5.0861320305
 11
4.781848061
 21
5.0829313453
  0
LINE
  5
29F
100
AcDbEntity
  8
ALL_FEATURES
100
AcDbLine
 62
7
  6
CONTINUOUS
 10
4.8662849379
 20
5.0632506566
 11
5.1659919483
 21
5.1018088809
  0
LINE
  5
2A0
100
AcDbEntity
  8
ALL_FEATURES
100
AcDbLine
 62
7
  6
CONTINUOUS
 10
5.0389464772
 20
5.0866801808
 11
5.0554553329
 21
5.0887076361
  0
LINE
  5
2A1
100
AcDbEntity
  8
ALL_FEATURES
100
AcDbLine
 62
7
  6
CONTINUOUS
 10
5.0268521974
 20
5.0860442094
 11
5.0293372608
 21
5.0863417148
  0
LINE
  5
2A2
100
AcDbEntity
  8
ALL_FEATURES
100
AcDbLine
 62
7
  6
CONTINUOUS
 10
5.0243736354
 20
5.0857476864
 11
5.0268521973
 21
5.0860442101
  0
LINE
  5
2A3
100
AcDbEntity
  8
ALL_FEATURES
100
AcDbLine
 62
7
  6
CONTINUOUS
 10
5.0145244033
 20
5.0845714112
 11
5.0243736354
 21
5.0857476864
  0
LINE
  5
2A4
100
AcDbEntity
  8
ALL_FEATURES
100
AcDbLine
 62
7
  6
CONTINUOUS
 10
4.9957630873
 20
5.0825609828
 11
5.0435757229
 21
5.0882725672
  0
LINE
  5
2A5
100
AcDbEntity
  8
0
100
AcDbLine
 62
7
  6
CONTINUOUS
 10
5.1982275693
 20
5.1421797668
 11
5.8495170654
 21
5.2093552136
  0
LINE
  5
2A6
100
AcDbEntity
  8
ALL_FEATURES
100
AcDbLine
 62
7
  6
CONTINUOUS
 10
5.0309416035
 20
5.0863808913
 11
5.0325448211
 21
5.0864269813
  0
LINE
  5
2A7
100
AcDbEntity
  8
ALL_FEATURES
100
AcDbLine
 62
7
  6
CONTINUOUS
 10
5.0293372608
 20
5.0863417148
 11
5.0309416003
 21
5.0863809165
  0
LINE
  5
2A8
100
AcDbEntity
  8
0
100
AcDbLine
 62
7
  6
CONTINUOUS
 10
4.3312854532
 20
5.0199160109
 11
4.3512844225
 21
5.0199160109
  0
LINE
  5
2A9
100
AcDbEntity
  8
ALL_FEATURES
100
AcDbLine
 62
7
  6
CONTINUOUS
 10
3.8162992478
 20
5.0632506566
 11
4.8662706279
 21
5.0632506566
  0
LINE
  5
2AA
100
AcDbEntity
  8
ALL_FEATURES
100
AcDbLine
 62
7
  6
CONTINUOUS
 10
3.7601211428
 20
5.0734232511
 11
3.7625785434
 21
5.0733916999
  0
LINE
  5
2AB
100
AcDbEntity
  8
ALL_FEATURES
100
AcDbLine
 62
7
  6
CONTINUOUS
 10
3.7460050987
 20
5.0738622874
 11
3.7484568507
 21
5.073754453
  0
LINE
  5
2AC
100
AcDbEntity
  8
ALL_FEATURES
100
AcDbLine
 62
7
  6
CONTINUOUS
 10
3.7460050801
 20
5.0738621405
 11
3.7484568507
 21
5.073754453
  0
LINE
  5
2AD
100
AcDbEntity
  8
ALL_FEATURES
100
AcDbLine
 62
7
  6
CONTINUOUS
 10
3.7435563961
 20
5.0739828423
 11
3.7460050801
 21
5.0738621405
  0
LINE
  5
2AE
100
AcDbEntity
  8
ALL_FEATURES
100
AcDbLine
 62
7
  6
CONTINUOUS
 10
3.7411107885
 20
5.0741164751
 11
3.7435563961
 21
5.0739828423
  0
LINE
  5
2AF
100
AcDbEntity
  8
ALL_FEATURES
100
AcDbLine
 62
7
  6
CONTINUOUS
 10
3.7411107885
 20
5.0741164751
 11
3.7435564113
 21
5.0739829614
  0
LINE
  5
2B0
100
AcDbEntity
  8
ALL_FEATURES
100
AcDbLine
 62
7
  6
CONTINUOUS
 10
3.7337923078
 20
5.0745940542
 11
3.7362287367
 21
5.0744220215
  0
LINE
  5
2B1
100
AcDbEntity
  8
ALL_FEATURES
100
AcDbLine
 62
7
  6
CONTINUOUS
 10
3.7337923078
 20
5.0745940542
 11
3.7362287571
 21
5.0744221796
  0
LINE
  5
2B2
100
AcDbEntity
  8
0
100
AcDbLine
 62
7
  6
CONTINUOUS
 10
3.4843423389
 20
5.1421797644
 11
2.8330528103
 21
5.2093552136
  0
LINE
  5
2B3
100
AcDbEntity
  8
ALL_FEATURES
100
AcDbLine
 62
7
  6
CONTINUOUS
 10
3.8162849379
 20
5.0632506566
 11
3.5165779275
 21
5.1018088809
  0
LINE
  5
2B4
100
AcDbEntity
  8
ALL_FEATURES
100
AcDbLine
 62
7
  6
CONTINUOUS
 10
3.6983427497
 20
5.0796736205
 11
3.6942337374
 21
5.0802240061
  0
LINE
  5
2B5
100
AcDbEntity
  8
ALL_FEATURES
100
AcDbLine
 62
7
  6
CONTINUOUS
 10
3.7049805903
 20
5.0787847293
 11
3.6983427463
 21
5.0796735928
  0
LINE
  5
2B6
100
AcDbEntity
  8
ALL_FEATURES
100
AcDbLine
 62
7
  6
CONTINUOUS
 10
3.7219064233
 20
5.0765191247
 11
3.7049806033
 21
5.0787848367
  0
LINE
  5
2B7
100
AcDbEntity
  8
ALL_FEATURES
100
AcDbLine
 62
7
  6
CONTINUOUS
 10
3.6623620015
 20
5.0844948601
 11
3.6501990221
 21
5.0861258055
  0
LINE
  5
2B8
100
AcDbEntity
  8
ALL_FEATURES
100
AcDbLine
 62
7
  6
CONTINUOUS
 10
3.6670820564
 20
5.0838621333
 11
3.6623620054
 21
5.0844948923
  0
LINE
  5
2B9
100
AcDbEntity
  8
ALL_FEATURES
100
AcDbLine
 62
7
  6
CONTINUOUS
 10
3.695489502
 20
5.0804213662
 11
3.6942794087
 21
5.0805839522
  0
LINE
  5
2BA
100
AcDbEntity
  8
ALL_FEATURES
100
AcDbLine
 62
7
  6
CONTINUOUS
 10
3.7050257902
 20
5.0791403689
 11
3.6954894966
 21
5.0804213212
  0
LINE
  5
2BB
100
AcDbEntity
  8
ALL_FEATURES
100
AcDbLine
 62
7
  6
CONTINUOUS
 10
3.7264174779
 20
5.076268007
 11
3.7050258072
 21
5.0791405087
  0
LINE
  5
2BC
100
AcDbEntity
  8
ALL_FEATURES
100
AcDbLine
 62
7
  6
CONTINUOUS
 10
3.6411182143
 20
5.0877295195
 11
3.6320536019
 21
5.088948636
  0
LINE
  5
2BD
100
AcDbEntity
  8
ALL_FEATURES
100
AcDbLine
 62
7
  6
CONTINUOUS
 10
3.6640348767
 20
5.0846482425
 11
3.6411182196
 21
5.0877295627
  0
LINE
  5
2BE
100
AcDbEntity
  8
ALL_FEATURES
100
AcDbLine
 62
7
  6
CONTINUOUS
 10
3.6671309256
 20
5.0842321099
 11
3.6640348818
 21
5.0846482843
  0
LINE
  5
2BF
100
AcDbEntity
  8
ALL_FEATURES
100
AcDbLine
 62
7
  6
CONTINUOUS
 10
3.7450900565
 20
5.0742076152
 11
3.7444161865
 21
5.0742983196
  0
LINE
  5
2C0
100
AcDbEntity
  8
ALL_FEATURES
100
AcDbLine
 62
7
  6
CONTINUOUS
 10
3.7567544973
 20
5.0738783451
 11
3.7560807603
 21
5.0739694195
  0
LINE
  5
2C1
100
AcDbEntity
  8
ALL_FEATURES
100
AcDbLine
 62
7
  6
CONTINUOUS
 10
3.7708492603
 20
5.0739794617
 11
3.7748896515
 21
5.0734333638
  0
LINE
  5
2C2
100
AcDbEntity
  8
ALL_FEATURES
100
AcDbLine
 62
7
  6
CONTINUOUS
 10
3.7482741097
 20
5.0756658394
 11
3.6765779029
 21
5.0853640103
  0
LINE
  5
2C3
100
AcDbEntity
  8
ALL_FEATURES
100
AcDbLine
 62
7
  6
CONTINUOUS
 10
3.6584624129
 20
5.0884314734
 11
3.7528162578
 21
5.0756688625
  0
LINE
  5
2C4
100
AcDbEntity
  8
ALL_FEATURES
100
AcDbLine
 62
7
  6
CONTINUOUS
 10
3.7154541561
 20
5.0828076469
 11
3.6922506307
 21
5.0866749534
  0
LINE
  5
2C5
100
AcDbEntity
  8
ALL_FEATURES
100
AcDbLine
 62
7
  6
CONTINUOUS
 10
3.6922506285
 20
5.0866749356
 11
3.6803761092
 21
5.0886632567
  0
LINE
  5
2C6
100
AcDbEntity
  8
ALL_FEATURES
100
AcDbLine
 62
7
  6
CONTINUOUS
 10
3.9282977518
 20
5.0829308266
 11
3.9133225034
 21
5.0861320305
  0
LINE
  5
2C7
100
AcDbEntity
  8
ALL_FEATURES
100
AcDbLine
 62
7
  6
CONTINUOUS
 10
3.705656438
 20
5.0873047212
 11
3.7067069801
 21
5.0873708587
  0
LINE
  5
2C8
100
AcDbEntity
  8
ALL_FEATURES
100
AcDbLine
 62
7
  6
CONTINUOUS
 10
4.2533407939
 20
5.0883892773
 11
4.2639783291
 21
5.088948636
  0
LINE
  5
2C9
100
AcDbEntity
  8
ALL_FEATURES
100
AcDbLine
 62
7
  6
CONTINUOUS
 10
3.6951079111
 20
5.0867503225
 11
3.6989744324
 21
5.0869302274
  0
LINE
  5
2CA
100
AcDbEntity
  8
ALL_FEATURES
100
AcDbLine
 62
7
  6
CONTINUOUS
 10
3.7724242158
 20
5.0733984417
 11
3.7748896515
 21
5.0734333638
  0
LINE
  5
2CB
100
AcDbEntity
  8
ALL_FEATURES
100
AcDbLine
 62
7
  6
CONTINUOUS
 10
4.249280819
 20
5.0783275022
 11
4.2639783291
 21
5.0783275022
  0
LINE
  5
2CC
100
AcDbEntity
  8
0
100
AcDbLine
 62
7
  6
CONTINUOUS
 10
5.1659919483
 20
5.1018088809
 11
3.5165779275
 21
5.1018088809
  0
LINE
  5
2CD
100
AcDbEntity
  8
0
100
AcDbLine
 62
7
  6
CONTINUOUS
 10
5.1725349379
 20
5.1092475724
 11
3.5100349379
 21
5.1092475724
  0
LINE
  5
2CE
100
AcDbEntity
  8
0
100
AcDbLine
 62
7
  6
CONTINUOUS
 10
3.5100349379
 20
5.1192506566
 11
5.1725349379
 21
5.1192506566
  0
LINE
  5
2CF
100
AcDbEntity
  8
0
100
AcDbLine
 62
7
  6
CONTINUOUS
 10
5.1837849379
 20
5.1267506566
 11
3.4987849379
 21
5.1267506566
  0
LINE
  5
2D0
100
AcDbEntity
  8
0
100
AcDbLine
 62
7
  6
CONTINUOUS
 10
5.1912815674
 20
5.1344754807
 11
4.3412849379
 21
5.1344795788
  0
LINE
  5
2D1
100
AcDbEntity
  8
0
100
AcDbLine
 62
7
  6
CONTINUOUS
 10
4.3412849379
 20
5.1344795788
 11
3.4912883085
 21
5.1344754812
  0
LINE
  5
2D2
100
AcDbEntity
  8
0
100
AcDbLine
 62
7
  6
CONTINUOUS
 10
3.4843422919
 20
5.1421797679
 11
4.3412849379
 21
5.1421879711
  0
LINE
  5
2D3
100
AcDbEntity
  8
0
100
AcDbLine
 62
7
  6
CONTINUOUS
 10
4.3412849379
 20
5.1421879711
 11
5.1982275801
 21
5.1421797676
  0
LINE
  5
2D4
100
AcDbEntity
  8
ALL_FEATURES
100
AcDbLine
 62
7
  6
CONTINUOUS
 10
4.2645748905
 20
5.0739829614
 11
4.2805235244
 21
5.073754453
  0
LINE
  5
2D5
100
AcDbEntity
  8
ALL_FEATURES
100
AcDbLine
 62
7
  6
CONTINUOUS
 10
4.2675936043
 20
5.0739372659
 11
4.2725467908
 21
5.0738622874
  0
LINE
  5
2D6
100
AcDbEntity
  8
ALL_FEATURES
100
AcDbLine
 62
7
  6
CONTINUOUS
 10
4.2406881936
 20
5.0744221796
 11
4.2492391456
 21
5.0742519184
  0
LINE
  5
2D7
100
AcDbEntity
  8
ALL_FEATURES
100
AcDbLine
 62
7
  6
CONTINUOUS
 10
4.2327356237
 20
5.0745940542
 11
4.2406881903
 21
5.0744220215
  0
LWPOLYLINE
  5
2D8
100
AcDbEntity
  8
0
100
AcDbPolyline
 62
7
  6
CONTINUOUS
 90
51
 70
0
 10
3.484342337
 20
5.142179767
 10
3.4843744924
 20
5.1421773013
 10
3.4845569765
 20
5.142160668
 10
3.4847348548
 20
5.1421401118
 10
3.4849174645
 20
5.1421145114
 10
3.4851035086
 20
5.1420836951
 10
3.485292611
 20
5.1420474133
 10
3.4854847951
 20
5.142005342
 10
3.4856793589
 20
5.1419573186
 10
3.4858762273
 20
5.1419030531
 10
3.4860750386
 20
5.1418423288
 10
3.4862746684
 20
5.1417752112
 10
3.4864748703
 20
5.1417015411
 10
3.4866754177
 20
5.1416211543
 10
3.4868752501
 20
5.1415342629
 10
3.4870741089
 20
5.1414408052
 10
3.4872717808
 20
5.1413407035
 10
3.4874673228
 20
5.1412342917
 10
3.4876603397
 20
5.141121689
 10
3.4878507973
 20
5.1410028178
 10
3.4880383311
 20
5.1408778038
 10
3.4882225837
 20
5.1407468006
 10
3.4884034924
 20
5.1406097655
 10
3.4885811226
 20
5.140466529
 10
3.4887552646
 20
5.1403171132
 10
3.4889256548
 20
5.1401615928
 10
3.4890922394
 20
5.1399998459
 10
3.4892547621
 20
5.1398319278
 10
3.4894129644
 20
5.1396579042
 10
3.489566753
 20
5.1394776503
 10
3.4897158475
 20
5.1392912376
 10
3.4898599658
 20
5.1390987504
 10
3.4899989707
 20
5.1389000686
 10
3.4901325572
 20
5.1386952864
 10
3.490260417
 20
5.1384845147
 10
3.4903823634
 20
5.1382676532
 10
3.4904980779
 20
5.1380448031
 10
3.4906072132
 20
5.1378161343
 10
3.4907095012
 20
5.1375816539
 10
3.4908046021
 20
5.1373415118
 10
3.4908921586
 20
5.1370959223
 10
3.4909718519
 20
5.1368450056
 10
3.4910433294
 20
5.1365889894
 10
3.4911062413
 20
5.1363281234
 10
3.4911602591
 20
5.1360625867
 10
3.4912050329
 20
5.1357926692
 10
3.4912402192
 20
5.1355186829
 10
3.4912654887
 20
5.1352408702
 10
3.491280504
 20
5.134959588
 10
3.4912849376
 20
5.1346752167
 10
3.4912816098
 20
5.1344756822
  0
LINE
  5
2D9
100
AcDbEntity
  8
ALL_FEATURES
100
AcDbLine
 62
7
  6
CONTINUOUS
 10
4.9115164856
 20
5.0733240081
 11
4.9113769019
 21
5.0744472438
  0
LINE
  5
2DA
100
AcDbEntity
  8
ALL_FEATURES
100
AcDbLine
 62
7
  6
CONTINUOUS
 10
4.9172597546
 20
5.0751783019
 11
4.9173752222
 21
5.0742491293
  0
LINE
  5
2DB
100
AcDbEntity
  8
ALL_FEATURES
100
AcDbLine
 62
7
  6
CONTINUOUS
 10
4.920603801
 20
5.0751551892
 11
4.9204953368
 21
5.0760280043
  0
LINE
  5
2DC
100
AcDbEntity
  8
ALL_FEATURES
100
AcDbLine
 62
7
  6
CONTINUOUS
 10
4.9296158988
 20
5.0732102754
 11
4.9295414637
 21
5.0738092575
  0
LINE
  5
2DD
100
AcDbEntity
  8
ALL_FEATURES
100
AcDbLine
 62
7
  6
CONTINUOUS
 10
4.9349629473
 20
5.0773841465
 11
4.9348857997
 21
5.0780049561
  0
LINE
  5
2DE
100
AcDbEntity
  8
ALL_FEATURES
100
AcDbLine
 62
7
  6
CONTINUOUS
 10
4.9396884415
 20
5.0750147218
 11
4.9397687302
 21
5.0743686359
  0
LINE
  5
2DF
100
AcDbEntity
  8
ALL_FEATURES
100
AcDbLine
 62
7
  6
CONTINUOUS
 10
4.940766343
 20
5.0746531159
 11
4.9406852625
 21
5.075305574
  0
LINE
  5
2E0
100
AcDbEntity
  8
0
100
AcDbLine
 62
7
  6
CONTINUOUS
 10
5.9096188712
 20
5.2093552136
 11
2.7729510046
 21
5.2093552136
  0
LINE
  5
2E1
100
AcDbEntity
  8
0
100
AcDbLine
 62
7
  6
CONTINUOUS
 10
5.9220035643
 20
5.2158923905
 11
2.7605663114
 21
5.2158923905
  0
LINE
  5
2E2
100
AcDbEntity
  8
0
100
AcDbLine
 62
7
  6
CONTINUOUS
 10
5.9670376162
 20
5.2502214247
 11
2.7155322596
 21
5.2502214247
  0
LINE
  5
2E3
100
AcDbEntity
  8
0
100
AcDbLine
 62
7
  6
CONTINUOUS
 10
5.9737849379
 20
5.259677644
 11
2.7087849379
 21
5.259677644
  0
LINE
  5
2E4
100
AcDbEntity
  8
0
100
AcDbLine
 62
7
  6
CONTINUOUS
 10
2.7087849379
 20
5.2629689107
 11
5.9737849379
 21
5.2629689107
  0
LINE
  5
2E5
100
AcDbEntity
  8
0
100
AcDbLine
 62
7
  6
CONTINUOUS
 10
2.7037849384
 20
5.2700399783
 11
5.9787849374
 21
5.2700399783
  0
LINE
  5
2E6
100
AcDbEntity
  8
ALL_FEATURES
100
AcDbLine
 62
7
  6
CONTINUOUS
 10
4.9495546282
 20
5.0769854131
 11
4.9494499136
 21
5.0778280549
  0
LINE
  5
2E7
100
AcDbEntity
  8
ALL_FEATURES
100
AcDbLine
 62
7
  6
CONTINUOUS
 10
4.9648571217
 20
5.0792113191
 11
4.9646512566
 21
5.0808679235
  0
LINE
  5
2E8
100
AcDbEntity
  8
ALL_FEATURES
100
AcDbLine
 62
7
  6
CONTINUOUS
 10
4.9776213933
 20
5.0817267471
 11
4.9774168927
 21
5.0833723712
  0
LINE
  5
2E9
100
AcDbEntity
  8
ALL_FEATURES
100
AcDbLine
 62
7
  6
CONTINUOUS
 10
4.9802802543
 20
5.0823626699
 11
4.9801131416
 21
5.0837074322
  0
LINE
  5
2EA
100
AcDbEntity
  8
ALL_FEATURES
100
AcDbLine
 62
7
  6
CONTINUOUS
 10
4.9972363787
 20
5.0821610808
 11
4.9971650331
 21
5.0827352016
  0
LINE
  5
2EB
100
AcDbEntity
  8
ALL_FEATURES
100
AcDbLine
 62
7
  6
CONTINUOUS
 10
5.0091742312
 20
5.0828566854
 11
5.0090151514
 21
5.0841368068
  0
LINE
  5
2EC
100
AcDbEntity
  8
ALL_FEATURES
100
AcDbLine
 62
7
  6
CONTINUOUS
 10
5.0203837915
 20
5.0877935712
 11
5.0203087139
 21
5.0883977238
  0
LINE
  5
2ED
100
AcDbEntity
  8
ALL_FEATURES
100
AcDbLine
 62
7
  6
CONTINUOUS
 10
5.0212091101
 20
5.0876620694
 11
5.0211120033
 21
5.0884434913
  0
LINE
  5
2EE
100
AcDbEntity
  8
ALL_FEATURES
100
AcDbLine
 62
7
  6
CONTINUOUS
 10
5.0258540771
 20
5.0875725508
 11
5.0257395532
 21
5.0884941286
  0
LINE
  5
2EF
100
AcDbEntity
  8
ALL_FEATURES
100
AcDbLine
 62
7
  6
CONTINUOUS
 10
5.0389464772
 20
5.0866801808
 11
5.0388220035
 21
5.0876818258
  0
LWPOLYLINE
  5
2F0
100
AcDbEntity
  8
0
100
AcDbPolyline
 62
7
  6
CONTINUOUS
 90
37
 70
0
 10
5.1912882959
 20
5.1344756824
 10
5.1912854024
 20
5.1346159196
 10
5.1912918709
 20
5.1350232048
 10
5.1913199099
 20
5.1354240695
 10
5.1913685587
 20
5.135817424
 10
5.1914369194
 20
5.1362027741
 10
5.1915240381
 20
5.1365792073
 10
5.1916289333
 20
5.1369458968
 10
5.1917507778
 20
5.1373025765
 10
5.1918886509
 20
5.1376486243
 10
5.1920415727
 20
5.1379833703
 10
5.1922087225
 20
5.1383065507
 10
5.1923892205
 20
5.1386177707
 10
5.1925820874
 20
5.1389165236
 10
5.1927863908
 20
5.1392024596
 10
5.1930012103
 20
5.1394752986
 10
5.1932256252
 20
5.1397348069
 10
5.1934587142
 20
5.1399807975
 10
5.1936995887
 20
5.1402131601
 10
5.1939473783
 20
5.1404318359
 10
5.1942012116
 20
5.1406367988
 10
5.1944603638
 20
5.1408281623
 10
5.1947239374
 20
5.1410059307
 10
5.19499081
 20
5.1411700263
 10
5.1952604351
 20
5.1413207758
 10
5.1955318631
 20
5.141458286
 10
5.1958033254
 20
5.141582371
 10
5.1960741664
 20
5.1416934875
 10
5.1963436556
 20
5.1417920648
 10
5.1966098645
 20
5.1418781877
 10
5.1968724694
 20
5.1419525757
 10
5.197130622
 20
5.1420157834
 10
5.1973815824
 20
5.142068045
 10
5.1976282006
 20
5.1421107685
 10
5.197866742
 20
5.1421440898
 10
5.1980844673
 20
5.1421677249
 10
5.1982275655
 20
5.1421797672
  0
LINE
  5
2F1
100
AcDbEntity
  8
ALL_FEATURES
100
AcDbLine
 62
7
  6
CONTINUOUS
 10
5.1725349379
 20
5.1092475724
 11
5.1725349379
 21
5.1192506566
  0
LINE
  5
2F2
100
AcDbEntity
  8
0
100
AcDbLine
 62
7
  6
CONTINUOUS
 10
2.6537857771
 20
5.3407506566
 11
6.0287840987
 21
5.3407506566
  0
LINE
  5
2F3
100
AcDbEntity
  8
0
100
AcDbLine
 62
7
  6
CONTINUOUS
 10
5.9737849379
 20
5.2629689107
 11
5.9737849379
 21
5.259677644
  0
ARC
  5
2F4
100
AcDbEntity
  8
0
100
AcDbCircle
 62
7
  6
CONTINUOUS
 10
2.6862581525
 20
5.1651154516
 40
0.09
100
AcDbArc
 50
34.3459380797
 51
71.0181963849
  0
ARC
  5
2F5
100
AcDbEntity
  8
0
100
AcDbCircle
 62
7
  6
CONTINUOUS
 10
2.7287849379
 20
5.3407506566
 40
0.075
100
AcDbArc
 50
180.0
 51
250.5287793655
  0
ARC
  5
2F6
100
AcDbEntity
  8
0
100
AcDbCircle
 62
7
  6
CONTINUOUS
 10
2.7729510046
 20
5.2243552136
 40
0.015
100
AcDbArc
 50
214.3459380797
 51
270.0
  0
ARC
  5
2F7
100
AcDbEntity
  8
0
100
AcDbCircle
 62
7
  6
CONTINUOUS
 10
2.7187849379
 20
5.259677644
 40
0.01
100
AcDbArc
 50
180.0
 51
251.0181963849
  0
ARC
  5
2F8
100
AcDbEntity
  8
0
100
AcDbCircle
 62
7
  6
CONTINUOUS
 10
3.4987849379
 20
5.1342506566
 40
0.0075
100
AcDbArc
 50
178.2822092534
 51
270.0
  0
ARC
  5
2F9
100
AcDbEntity
  8
0
100
AcDbCircle
 62
7
  6
CONTINUOUS
 10
3.5025349379
 20
5.1192506566
 40
0.0075
100
AcDbArc
 50
0.0
 51
90.0
  0
ARC
  5
2FA
100
AcDbEntity
  8
0
100
AcDbCircle
 62
7
  6
CONTINUOUS
 10
2.7012849379
 20
5.2629689107
 40
0.0075
100
AcDbArc
 50
0.0
 51
70.5287793655
  0
ARC
  5
2FB
100
AcDbEntity
  8
ALL_FEATURES
100
AcDbCircle
 62
7
  6
CONTINUOUS
 10
3.5708355436
 20
3.9520371096
 40
1.1345843366
100
AcDbArc
 50
82.1606233312
 51
82.2990713734
  0
ARC
  5
2FC
100
AcDbEntity
  8
ALL_FEATURES
100
AcDbCircle
 62
7
  6
CONTINUOUS
 10
3.670826328
 20
4.3829963002
 40
0.7032765621
100
AcDbArc
 50
82.4164654464
 51
84.9406723826
  0
ARC
  5
2FD
100
AcDbEntity
  8
ALL_FEATURES
100
AcDbCircle
 62
7
  6
CONTINUOUS
 10
3.6328868594
 20
4.4024352084
 40
0.67993193
100
AcDbArc
 50
82.0244034314
 51
82.1638853374
  0
ARC
  5
2FE
100
AcDbEntity
  8
ALL_FEATURES
100
AcDbCircle
 62
7
  6
CONTINUOUS
 10
3.664859315
 20
4.4632181299
 40
0.6181016268
100
AcDbArc
 50
81.8996162793
 51
82.1537426415
  0
ARC
  5
2FF
100
AcDbEntity
  8
ALL_FEATURES
100
AcDbCircle
 62
7
  6
CONTINUOUS
 10
3.6938737531
 20
4.5289872217
 40
0.5546595816
100
AcDbArc
 50
82.3958985917
 51
83.006601142
  0
ARC
  5
300
100
AcDbEntity
  8
ALL_FEATURES
100
AcDbCircle
 62
7
  6
CONTINUOUS
 10
3.6958564312
 20
4.5452995614
 40
0.5382272019
100
AcDbArc
 50
83.0046656803
 51
83.9545920369
  0
ARC
  5
301
100
AcDbEntity
  8
ALL_FEATURES
100
AcDbCircle
 62
7
  6
CONTINUOUS
 10
3.6975959964
 20
4.56225836
 40
0.5211795136
100
AcDbArc
 50
83.9484189596
 51
85.1838286401
  0
ARC
  5
302
100
AcDbEntity
  8
ALL_FEATURES
100
AcDbCircle
 62
7
  6
CONTINUOUS
 10
3.707684344
 20
4.5929383855
 40
0.489930876
100
AcDbArc
 50
88.3137009085
 51
89.0913083343
  0
ARC
  5
303
100
AcDbEntity
  8
ALL_FEATURES
100
AcDbCircle
 62
7
  6
CONTINUOUS
 10
3.7089887173
 20
4.6394987269
 40
0.4431199286
100
AcDbArc
 50
81.6065579009
 51
82.4422335871
  0
ARC
  5
304
100
AcDbEntity
  8
0
100
AcDbCircle
 62
7
  6
CONTINUOUS
 10
4.0037849379
 20
3.8249160109
 40
0.305
100
AcDbArc
 50
58.1983582632
 51
90.0
  0
ARC
  5
305
100
AcDbEntity
  8
0
100
AcDbCircle
 62
7
  6
CONTINUOUS
 10
4.0462849379
 20
4.0699160109
 40
0.22
100
AcDbArc
 50
270.0
 51
303.3227010842
  0
ARC
  5
306
100
AcDbEntity
  8
0
100
AcDbCircle
 62
7
  6
CONTINUOUS
 10
4.1025937156
 20
3.9842680597
 40
0.1175
100
AcDbArc
 50
303.3227010842
 51
58.1983582632
  0
ARC
  5
307
100
AcDbEntity
  8
0
100
AcDbCircle
 62
7
  6
CONTINUOUS
 10
3.8462849379
 20
4.6099550829
 40
0.08
100
AcDbArc
 50
0.0
 51
82.0164438544
  0
ARC
  5
308
100
AcDbEntity
  8
0
100
AcDbCircle
 62
7
  6
CONTINUOUS
 10
3.9890733994
 20
3.7499160109
 40
0.0627884615
100
AcDbArc
 50
118.841546255
 51
139.561497618
  0
ARC
  5
309
100
AcDbEntity
  8
0
100
AcDbCircle
 62
7
  6
CONTINUOUS
 10
3.9890733994
 20
3.7499160109
 40
0.0627884615
100
AcDbArc
 50
220.438502382
 51
241.158453745
  0
ARC
  5
30A
100
AcDbEntity
  8
0
100
AcDbCircle
 62
7
  6
CONTINUOUS
 10
3.9868444732
 20
3.7480153611
 40
0.0598591986
100
AcDbArc
 50
218.6334813294
 51
220.4377005392
  0
ARC
  5
30B
100
AcDbEntity
  8
0
100
AcDbCircle
 62
7
  6
CONTINUOUS
 10
3.9868420231
 20
3.7518187788
 40
0.05985596
100
AcDbArc
 50
139.5623213737
 51
141.359268101
  0
ARC
  5
30C
100
AcDbEntity
  8
0
100
AcDbCircle
 62
7
  6
CONTINUOUS
 10
3.9868173087
 20
3.7518390807
 40
0.0598239814
100
AcDbArc
 50
139.5617675918
 51
141.3596741757
  0
ARC
  5
30D
100
AcDbEntity
  8
0
100
AcDbCircle
 62
7
  6
CONTINUOUS
 10
3.9868141885
 20
3.7479902639
 40
0.0598198701
100
AcDbArc
 50
218.6328128772
 51
220.4382191535
  0
ARC
  5
30E
100
AcDbEntity
  8
0
100
AcDbCircle
 62
7
  6
CONTINUOUS
 10
3.9065635093
 20
4.1849160109
 40
0.0327785714
100
AcDbArc
 50
117.7823823429
 51
242.2176176571
  0
ARC
  5
30F
100
AcDbEntity
  8
0
100
AcDbCircle
 62
7
  6
CONTINUOUS
 10
3.9737849379
 20
3.6199160109
 40
0.015
100
AcDbArc
 50
180.0
 51
270.0
  0
ARC
  5
310
100
AcDbEntity
  8
0
100
AcDbCircle
 62
7
  6
CONTINUOUS
 10
3.9062849379
 20
4.2249160109
 40
0.015
100
AcDbArc
 50
90.0
 51
180.0
  0
ARC
  5
311
100
AcDbEntity
  8
0
100
AcDbCircle
 62
7
  6
CONTINUOUS
 10
3.9062849379
 20
4.1449160109
 40
0.015
100
AcDbArc
 50
180.0
 51
270.0
  0
ARC
  5
312
100
AcDbEntity
  8
0
100
AcDbCircle
 62
7
  6
CONTINUOUS
 10
3.9737849379
 20
3.8349160109
 40
0.015
100
AcDbArc
 50
90.0
 51
180.0
  0
ARC
  5
313
100
AcDbEntity
  8
0
100
AcDbCircle
 62
7
  6
CONTINUOUS
 10
3.9737849379
 20
3.6649160109
 40
0.015
100
AcDbArc
 50
180.0
 51
264.0
  0
ARC
  5
314
100
AcDbEntity
  8
ALL_FEATURES
100
AcDbCircle
 62
7
  6
CONTINUOUS
 10
3.8324506582
 20
5.6642278949
 40
0.5939220254
100
AcDbArc
 50
262.2944457666
 51
262.5760885412
  0
ARC
  5
315
100
AcDbEntity
  8
ALL_FEATURES
100
AcDbCircle
 62
7
  6
CONTINUOUS
 10
3.656815066
 20
5.6569083756
 40
0.5687333628
100
AcDbArc
 50
272.374284427
 51
273.8214110006
  0
ARC
  5
316
100
AcDbEntity
  8
ALL_FEATURES
100
AcDbCircle
 62
7
  6
CONTINUOUS
 10
3.6710265005
 20
5.6453986728
 40
0.5591673197
100
AcDbArc
 50
272.8649135107
 51
273.5506721337
  0
ARC
  5
317
100
AcDbEntity
  8
ALL_FEATURES
100
AcDbCircle
 62
7
  6
CONTINUOUS
 10
3.7676188952
 20
5.5365803065
 40
0.4632229215
100
AcDbArc
 50
266.1143939904
 51
266.7194351959
  0
ARC
  5
318
100
AcDbEntity
  8
ALL_FEATURES
100
AcDbCircle
 62
7
  6
CONTINUOUS
 10
3.7671826941
 20
5.5300908811
 40
0.4567225085
100
AcDbArc
 50
270.0395758605
 51
270.6575627878
  0
ARC
  5
319
100
AcDbEntity
  8
ALL_FEATURES
100
AcDbCircle
 62
7
  6
CONTINUOUS
 10
3.7671854118
 20
5.5282151566
 40
0.4548467826
100
AcDbArc
 50
269.4196757956
 51
270.0393967202
  0
ARC
  5
31A
100
AcDbEntity
  8
ALL_FEATURES
100
AcDbCircle
 62
7
  6
CONTINUOUS
 10
3.7103340335
 20
4.6800380413
 40
0.4027909769
100
AcDbArc
 50
87.374024325
 51
88.3258546271
  0
ARC
  5
31B
100
AcDbEntity
  8
ALL_FEATURES
100
AcDbCircle
 62
7
  6
CONTINUOUS
 10
3.7001034576
 20
4.7105676402
 40
0.3682538185
100
AcDbArc
 50
81.6481471849
 51
81.9056859045
  0
ARC
  5
31C
100
AcDbEntity
  8
ALL_FEATURES
100
AcDbCircle
 62
7
  6
CONTINUOUS
 10
3.7141725404
 20
4.7571445656
 40
0.3255896974
100
AcDbArc
 50
85.2112009781
 51
87.4271289577
  0
ARC
  5
31D
100
AcDbEntity
  8
ALL_FEATURES
100
AcDbCircle
 62
7
  6
CONTINUOUS
 10
4.3399935035
 20
5.3934651337
 40
0.3203324827
100
AcDbArc
 50
269.9985586643
 51
270.2309910655
  0
ARC
  5
31E
100
AcDbEntity
  8
ALL_FEATURES
100
AcDbCircle
 62
7
  6
CONTINUOUS
 10
4.3405748114
 20
4.7949337357
 40
0.293491614
100
AcDbArc
 50
89.8613681306
 51
90.000283874
  0
ARC
  5
31F
100
AcDbEntity
  8
ALL_FEATURES
100
AcDbCircle
 62
7
  6
CONTINUOUS
 10
4.3406055371
 20
4.7997774523
 40
0.2886478268
100
AcDbArc
 50
89.2995546596
 51
89.8651407413
  0
ARC
  5
320
100
AcDbEntity
  8
ALL_FEATURES
100
AcDbCircle
 62
7
  6
CONTINUOUS
 10
3.7032214506
 20
4.8037327452
 40
0.2812135387
100
AcDbArc
 50
88.4331732837
 51
89.4738096797
  0
ARC
  5
321
100
AcDbEntity
  8
ALL_FEATURES
100
AcDbCircle
 62
7
  6
CONTINUOUS
 10
4.3403955216
 20
5.3316249796
 40
0.2584912995
100
AcDbArc
 50
270.1971435858
 51
271.4606917752
  0
ARC
  5
322
100
AcDbEntity
  8
ALL_FEATURES
100
AcDbCircle
 62
7
  6
CONTINUOUS
 10
4.3400417316
 20
5.3141916878
 40
0.2410589097
100
AcDbArc
 50
269.418929239
 51
269.9866216329
  0
ARC
  5
323
100
AcDbEntity
  8
ALL_FEATURES
100
AcDbCircle
 62
7
  6
CONTINUOUS
 10
3.7368250424
 20
5.3039189585
 40
0.2292936064
100
AcDbArc
 50
250.0160612166
 51
251.3550460608
  0
ARC
  5
324
100
AcDbEntity
  8
ALL_FEATURES
100
AcDbCircle
 62
7
  6
CONTINUOUS
 10
4.3399143964
 20
5.3013926333
 40
0.228259222
100
AcDbArc
 50
268.8357236294
 51
269.418308741
  0
ARC
  5
325
100
AcDbEntity
  8
ALL_FEATURES
100
AcDbCircle
 62
7
  6
CONTINUOUS
 10
4.3393789486
 20
5.275678733
 40
0.2025397511
100
AcDbArc
 50
267.5783182943
 51
268.8393601472
  0
ARC
  5
326
100
AcDbEntity
  8
ALL_FEATURES
100
AcDbCircle
 62
7
  6
CONTINUOUS
 10
3.685882288
 20
5.2812063093
 40
0.1996510466
100
AcDbArc
 50
254.3587103883
 51
255.8745905929
  0
ARC
  5
327
100
AcDbEntity
  8
ALL_FEATURES
100
AcDbCircle
 62
7
  6
CONTINUOUS
 10
3.7948079715
 20
5.2349778929
 40
0.1616475433
100
AcDbArc
 50
262.3191597223
 51
262.5818849571
  0
ARC
  5
328
100
AcDbEntity
  8
ALL_FEATURES
100
AcDbCircle
 62
7
  6
CONTINUOUS
 10
4.339975168
 20
4.930592766
 40
0.1570396954
100
AcDbArc
 50
89.9656126482
 51
90.8778481341
  0
ARC
  5
329
100
AcDbEntity
  8
ALL_FEATURES
100
AcDbCircle
 62
7
  6
CONTINUOUS
 10
3.7934604376
 20
5.2243632991
 40
0.1509478144
100
AcDbArc
 50
262.568909099
 51
263.4614996305
  0
ARC
  5
32A
100
AcDbEntity
  8
ALL_FEATURES
100
AcDbCircle
 62
7
  6
CONTINUOUS
 10
4.3400727574
 20
4.948479962
 40
0.1391524711
100
AcDbArc
 50
88.4497304884
 51
90.0013745874
  0
ARC
  5
32B
100
AcDbEntity
  8
ALL_FEATURES
100
AcDbCircle
 62
7
  6
CONTINUOUS
 10
3.7779458381
 20
5.212246674
 40
0.1386510269
100
AcDbArc
 50
263.9837116782
 51
264.4215890634
  0
ARC
  5
32C
100
AcDbEntity
  8
ALL_FEATURES
100
AcDbCircle
 62
7
  6
CONTINUOUS
 10
4.3396811726
 20
4.9506797697
 40
0.1369505457
100
AcDbArc
 50
90.8836161239
 51
91.3939547885
  0
ARC
  5
32D
100
AcDbEntity
  8
ALL_FEATURES
100
AcDbCircle
 62
7
  6
CONTINUOUS
 10
3.7914862917
 20
5.2058643436
 40
0.1323444662
100
AcDbArc
 50
263.3986442766
 51
265.8812553115
  0
ARC
  5
32E
100
AcDbEntity
  8
ALL_FEATURES
100
AcDbCircle
 62
7
  6
CONTINUOUS
 10
3.7909016833
 20
5.198456723
 40
0.124913996
100
AcDbArc
 50
266.264456103
 51
266.6058300728
  0
ARC
  5
32F
100
AcDbEntity
  8
ALL_FEATURES
100
AcDbCircle
 62
7
  6
CONTINUOUS
 10
3.7907226621
 20
5.1958470649
 40
0.1222982192
100
AcDbArc
 50
265.9010157677
 51
266.2684935912
  0
ARC
  5
330
100
AcDbEntity
  8
ALL_FEATURES
100
AcDbCircle
 62
7
  6
CONTINUOUS
 10
3.7899710051
 20
5.1823145377
 40
0.108745029
100
AcDbArc
 50
266.5917891174
 51
267.3087074569
  0
ARC
  5
331
100
AcDbEntity
  8
ALL_FEATURES
100
AcDbCircle
 62
7
  6
CONTINUOUS
 10
4.3408437369
 20
4.9803286508
 40
0.1072946202
100
AcDbArc
 50
87.4664676487
 51
88.4011695703
  0
ARC
  5
332
100
AcDbEntity
  8
ALL_FEATURES
100
AcDbCircle
 62
7
  6
CONTINUOUS
 10
4.3311388396
 20
5.1819900188
 40
0.1035325295
100
AcDbArc
 50
261.0482222099
 51
263.0402296394
  0
ARC
  5
333
100
AcDbEntity
  8
ALL_FEATURES
100
AcDbCircle
 62
7
  6
CONTINUOUS
 10
4.2426913435
 20
4.987156083
 40
0.1000122792
100
AcDbArc
 50
89.0636789193
 51
91.857895954
  0
ARC
  5
334
100
AcDbEntity
  8
ALL_FEATURES
100
AcDbCircle
 62
7
  6
CONTINUOUS
 10
4.3285753401
 20
5.1659167257
 40
0.0872561317
100
AcDbArc
 50
259.2170806434
 51
261.0687227214
  0
ARC
  5
335
100
AcDbEntity
  8
ALL_FEATURES
100
AcDbCircle
 62
7
  6
CONTINUOUS
 10
4.3285001572
 20
5.1581159136
 40
0.0843671696
100
AcDbArc
 50
258.8953326133
 51
259.7682803277
  0
ARC
  5
336
100
AcDbEntity
  8
ALL_FEATURES
100
AcDbCircle
 62
7
  6
CONTINUOUS
 10
3.7703167665
 20
5.0105746684
 40
0.0669458247
100
AcDbArc
 50
77.496611278
 51
78.4283290909
  0
ARC
  5
337
100
AcDbEntity
  8
ALL_FEATURES
100
AcDbCircle
 62
7
  6
CONTINUOUS
 10
4.3245790299
 20
5.145260522
 40
0.0662170179
100
AcDbArc
 50
257.4222360096
 51
259.2700440259
  0
ARC
  5
338
100
AcDbEntity
  8
ALL_FEATURES
100
AcDbCircle
 62
7
  6
CONTINUOUS
 10
3.7751011053
 20
5.106367071
 40
0.0315218923
100
AcDbArc
 50
258.5397340588
 51
259.5904446945
  0
ARC
  5
339
100
AcDbEntity
  8
0
100
AcDbCircle
 62
7
  6
CONTINUOUS
 10
3.8587849379
 20
4.6990828002
 40
0.01
100
AcDbArc
 50
180.0
 51
262.0164438544
  0
ARC
  5
33A
100
AcDbEntity
  8
0
100
AcDbCircle
 62
7
  6
CONTINUOUS
 10
3.5175349379
 20
5.1092475724
 40
0.0075
100
AcDbArc
 50
180.0
 51
262.6689922406
  0
ARC
  5
33B
100
AcDbEntity
  8
ALL_FEATURES
100
AcDbCircle
 62
7
  6
CONTINUOUS
 10
3.9945489974
 20
10.1077762948
 40
5.0260540413
100
AcDbArc
 50
272.7086183979
 51
272.9514679585
  0
ARC
  5
33C
100
AcDbEntity
  8
ALL_FEATURES
100
AcDbCircle
 62
7
  6
CONTINUOUS
 10
3.9183139753
 20
8.6283164787
 40
3.542187965
100
AcDbArc
 50
269.9192616617
 51
270.0807383383
  0
ARC
  5
33D
100
AcDbEntity
  8
ALL_FEATURES
100
AcDbCircle
 62
7
  6
CONTINUOUS
 10
3.9630811704
 20
8.2438736932
 40
3.1673152838
100
AcDbArc
 50
269.9097057387
 51
270.0902942613
  0
ARC
  5
33E
100
AcDbEntity
  8
0
100
AcDbCircle
 62
7
  6
CONTINUOUS
 10
4.6787849379
 20
3.8249160109
 40
0.305
100
AcDbArc
 50
90.0
 51
121.8016417368
  0
ARC
  5
33F
100
AcDbEntity
  8
0
100
AcDbCircle
 62
7
  6
CONTINUOUS
 10
4.6362849379
 20
4.0699160109
 40
0.22
100
AcDbArc
 50
236.6772989158
 51
270.0
  0
ARC
  5
340
100
AcDbEntity
  8
0
100
AcDbCircle
 62
7
  6
CONTINUOUS
 10
4.5799761602
 20
3.9842680597
 40
0.1175
100
AcDbArc
 50
121.8016417368
 51
236.6772989158
  0
CIRCLE
  5
341
100
AcDbEntity
  8
0
100
AcDbCircle
 62
7
  6
CONTINUOUS
 10
4.3412849379
 20
4.3599160109
 40
0.07
  0
CIRCLE
  5
342
100
AcDbEntity
  8
ALL_FEATURES
100
AcDbCircle
 62
7
  6
CONTINUOUS
 10
4.3412849379
 20
4.3599160109
 40
0.065
  0
ARC
  5
343
100
AcDbEntity
  8
0
100
AcDbCircle
 62
7
  6
CONTINUOUS
 10
4.6934964763
 20
3.7499160109
 40
0.0627884615
100
AcDbArc
 50
40.438502382
 51
61.158453745
  0
ARC
  5
344
100
AcDbEntity
  8
0
100
AcDbCircle
 62
7
  6
CONTINUOUS
 10
4.6934964763
 20
3.7499160109
 40
0.0627884615
100
AcDbArc
 50
298.841546255
 51
319.561497618
  0
ARC
  5
345
100
AcDbEntity
  8
0
100
AcDbCircle
 62
7
  6
CONTINUOUS
 10
4.6957254026
 20
3.7480153611
 40
0.0598591986
100
AcDbArc
 50
319.5622994609
 51
321.3665186705
  0
ARC
  5
346
100
AcDbEntity
  8
0
100
AcDbCircle
 62
7
  6
CONTINUOUS
 10
4.6957278527
 20
3.7518187788
 40
0.05985596
100
AcDbArc
 50
38.640731899
 51
40.4376786264
  0
ARC
  5
347
100
AcDbEntity
  8
0
100
AcDbCircle
 62
7
  6
CONTINUOUS
 10
4.6957525671
 20
3.7518390807
 40
0.0598239814
100
AcDbArc
 50
38.6403258243
 51
40.4382324082
  0
ARC
  5
348
100
AcDbEntity
  8
0
100
AcDbCircle
 62
7
  6
CONTINUOUS
 10
4.6957556872
 20
3.7479902639
 40
0.0598198701
100
AcDbArc
 50
319.5617808466
 51
321.3671871227
  0
CIRCLE
  5
349
100
AcDbEntity
  8
ALL_FEATURES
100
AcDbCircle
 62
7
  6
CONTINUOUS
 10
4.3412849379
 20
4.3599160109
 40
0.0445454545
  0
ARC
  5
34A
100
AcDbEntity
  8
0
100
AcDbCircle
 62
7
  6
CONTINUOUS
 10
4.7087849379
 20
3.6199160109
 40
0.015
100
AcDbArc
 50
270.0
 51
360.0
  0
ARC
  5
34B
100
AcDbEntity
  8
0
100
AcDbCircle
 62
7
  6
CONTINUOUS
 10
4.7087849379
 20
3.8349160109
 40
0.015
100
AcDbArc
 50
0.0
 51
90.0
  0
ARC
  5
34C
100
AcDbEntity
  8
0
100
AcDbCircle
 62
7
  6
CONTINUOUS
 10
4.7087849379
 20
3.6649160109
 40
0.015
100
AcDbArc
 50
276.0
 51
360.0
  0
ARC
  5
34D
100
AcDbEntity
  8
02___PRT_ALL_AXES
100
AcDbCircle
 62
7
  6
CONTINUOUS
 10
4.3412849379
 20
4.6775296413
 40
1.1275
100
AcDbArc
 50
252.048972056
 51
287.951027944
  0
ARC
  5
34E
100
AcDbEntity
  8
ALL_FEATURES
100
AcDbCircle
 62
7
  6
CONTINUOUS
 10
4.4280176974
 20
4.9317567202
 40
0.1565217196
100
AcDbArc
 50
90.8356567078
 51
92.2248883964
  0
ARC
  5
34F
100
AcDbEntity
  8
ALL_FEATURES
100
AcDbCircle
 62
7
  6
CONTINUOUS
 10
4.4142408302
 20
5.1659167729
 40
0.0872561794
100
AcDbArc
 50
259.2170806341
 51
261.0687224422
  0
ARC
  5
350
100
AcDbEntity
  8
ALL_FEATURES
100
AcDbCircle
 62
7
  6
CONTINUOUS
 10
4.4125693244
 20
5.1578020732
 40
0.0835276673
100
AcDbArc
 50
259.8959288223
 51
260.8236610021
  0
ARC
  5
351
100
AcDbEntity
  8
ALL_FEATURES
100
AcDbCircle
 62
7
  6
CONTINUOUS
 10
4.4102445047
 20
5.1452604888
 40
0.0662169837
100
AcDbArc
 50
257.4222357302
 51
259.2700440088
  0
ARC
  5
352
100
AcDbEntity
  8
ALL_FEATURES
100
AcDbCircle
 62
7
  6
CONTINUOUS
 10
5.0298720703
 20
4.2352386162
 40
0.8482300774
100
AcDbArc
 50
94.4803189057
 51
95.230012
  0
ARC
  5
353
100
AcDbEntity
  8
ALL_FEATURES
100
AcDbCircle
 62
7
  6
CONTINUOUS
 10
5.0262645405
 20
4.3387599761
 40
0.7443302648
100
AcDbArc
 50
94.8244920945
 51
95.1574073236
  0
ARC
  5
354
100
AcDbEntity
  8
ALL_FEATURES
100
AcDbCircle
 62
7
  6
CONTINUOUS
 10
5.0217975202
 20
4.3888710093
 40
0.694020558
100
AcDbArc
 50
95.1620021675
 51
95.3451040004
  0
ARC
  5
355
100
AcDbEntity
  8
0
100
AcDbCircle
 62
7
  6
CONTINUOUS
 10
4.7760063665
 20
4.1849160109
 40
0.0327785714
100
AcDbArc
 50
297.7823823429
 51
62.2176176571
  0
ARC
  5
356
100
AcDbEntity
  8
0
100
AcDbCircle
 62
7
  6
CONTINUOUS
 10
4.7762849379
 20
4.2249160109
 40
0.015
100
AcDbArc
 50
0.0
 51
90.0
  0
ARC
  5
357
100
AcDbEntity
  8
0
100
AcDbCircle
 62
7
  6
CONTINUOUS
 10
4.7762849379
 20
4.1449160109
 40
0.015
100
AcDbArc
 50
270.0
 51
360.0
  0
ARC
  5
358
100
AcDbEntity
  8
ALL_FEATURES
100
AcDbCircle
 62
7
  6
CONTINUOUS
 10
5.0132858109
 20
4.4780428619
 40
0.6044435738
100
AcDbArc
 50
95.3291841823
 51
96.9540176363
  0
ARC
  5
359
100
AcDbEntity
  8
ALL_FEATURES
100
AcDbCircle
 62
7
  6
CONTINUOUS
 10
5.0061471369
 20
4.4953330674
 40
0.5870558326
100
AcDbArc
 50
95.2380683141
 51
95.6795452691
  0
ARC
  5
35A
100
AcDbEntity
  8
ALL_FEATURES
100
AcDbCircle
 62
7
  6
CONTINUOUS
 10
5.0074855969
 20
4.5290814595
 40
0.5530783476
100
AcDbArc
 50
96.9977176096
 51
97.2656024999
  0
ARC
  5
35B
100
AcDbEntity
  8
ALL_FEATURES
100
AcDbCircle
 62
7
  6
CONTINUOUS
 10
5.0046111879
 20
4.5516261085
 40
0.5303511959
100
AcDbArc
 50
97.2655887107
 51
97.5461172969
  0
ARC
  5
35C
100
AcDbEntity
  8
ALL_FEATURES
100
AcDbCircle
 62
7
  6
CONTINUOUS
 10
5.0475866465
 20
4.7250724531
 40
0.3639323048
100
AcDbArc
 50
97.1965273019
 51
97.5552934819
  0
ARC
  5
35D
100
AcDbEntity
  8
ALL_FEATURES
100
AcDbCircle
 62
7
  6
CONTINUOUS
 10
5.0435614904
 20
4.7417531675
 40
0.3479746906
100
AcDbArc
 50
102.4811760093
 51
102.7782151101
  0
ARC
  5
35E
100
AcDbEntity
  8
ALL_FEATURES
100
AcDbCircle
 62
7
  6
CONTINUOUS
 10
5.0433095266
 20
4.7604993969
 40
0.3282486936
100
AcDbArc
 50
96.1034716627
 51
97.2304976872
  0
ARC
  5
35F
100
AcDbEntity
  8
ALL_FEATURES
100
AcDbCircle
 62
7
  6
CONTINUOUS
 10
5.0400361752
 20
4.7914912612
 40
0.2970844725
100
AcDbArc
 50
95.3417189091
 51
96.1112617655
  0
ARC
  5
360
100
AcDbEntity
  8
ALL_FEATURES
100
AcDbCircle
 62
7
  6
CONTINUOUS
 10
5.0351710115
 20
4.8439185306
 40
0.244431963
100
AcDbArc
 50
94.8887910303
 51
95.3503243547
  0
ARC
  5
361
100
AcDbEntity
  8
ALL_FEATURES
100
AcDbCircle
 62
7
  6
CONTINUOUS
 10
4.9660171275
 20
4.8378048835
 40
0.2388381808
100
AcDbArc
 50
96.4681948479
 51
97.591583642
  0
ARC
  5
362
100
AcDbEntity
  8
ALL_FEATURES
100
AcDbCircle
 62
7
  6
CONTINUOUS
 10
4.9655273272
 20
4.8412215591
 40
0.235386747
100
AcDbArc
 50
97.5832766301
 51
97.7620044262
  0
ARC
  5
363
100
AcDbEntity
  8
ALL_FEATURES
100
AcDbCircle
 62
7
  6
CONTINUOUS
 10
4.9631385153
 20
4.8625106387
 40
0.2139654225
100
AcDbArc
 50
96.1935346701
 51
96.4475371495
  0
ARC
  5
364
100
AcDbEntity
  8
ALL_FEATURES
100
AcDbCircle
 62
7
  6
CONTINUOUS
 10
5.0242548959
 20
4.8880094625
 40
0.19932237
100
AcDbArc
 50
99.4839646048
 51
100.272050423
  0
ARC
  5
365
100
AcDbEntity
  8
ALL_FEATURES
100
AcDbCircle
 62
7
  6
CONTINUOUS
 10
5.0290561443
 20
4.9161335956
 40
0.1719585072
100
AcDbArc
 50
94.3395610944
 51
94.909346259
  0
ARC
  5
366
100
AcDbEntity
  8
ALL_FEATURES
100
AcDbCircle
 62
7
  6
CONTINUOUS
 10
5.0192787975
 20
4.9156078144
 40
0.1712790134
100
AcDbArc
 50
100.2804326853
 51
101.1042160076
  0
ARC
  5
367
100
AcDbEntity
  8
ALL_FEATURES
100
AcDbCircle
 62
7
  6
CONTINUOUS
 10
5.0072371571
 20
4.9724322084
 40
0.1131873711
100
AcDbArc
 50
103.3157187976
 51
103.7780709517
  0
ARC
  5
368
100
AcDbEntity
  8
ALL_FEATURES
100
AcDbCircle
 62
7
  6
CONTINUOUS
 10
4.9411340623
 20
4.9712100034
 40
0.1059532653
100
AcDbArc
 50
100.1979111098
 51
101.1733531789
  0
ARC
  5
369
100
AcDbEntity
  8
0
100
AcDbCircle
 62
7
  6
CONTINUOUS
 10
4.8362849379
 20
4.6099550829
 40
0.08
100
AcDbArc
 50
97.9835561456
 51
180.0
  0
ARC
  5
36A
100
AcDbEntity
  8
ALL_FEATURES
100
AcDbCircle
 62
7
  6
CONTINUOUS
 10
5.0059217333
 20
5.1560143138
 40
0.070186489
100
AcDbArc
 50
280.0948540133
 51
280.8247675674
  0
ARC
  5
36B
100
AcDbEntity
  8
ALL_FEATURES
100
AcDbCircle
 62
7
  6
CONTINUOUS
 10
4.9279979479
 20
5.1327049935
 40
0.0595182532
100
AcDbArc
 50
272.2902619019
 51
272.7261102423
  0
ARC
  5
36C
100
AcDbEntity
  8
ALL_FEATURES
100
AcDbCircle
 62
7
  6
CONTINUOUS
 10
4.9126110269
 20
5.1216268561
 40
0.0483205137
100
AcDbArc
 50
269.8483878659
 51
271.1702357741
  0
ARC
  5
36D
100
AcDbEntity
  8
ALL_FEATURES
100
AcDbCircle
 62
7
  6
CONTINUOUS
 10
4.928583986
 20
5.1179552705
 40
0.0447568932
100
AcDbArc
 50
271.3210189423
 51
272.2952007055
  0
ARC
  5
36E
100
AcDbEntity
  8
ALL_FEATURES
100
AcDbCircle
 62
7
  6
CONTINUOUS
 10
4.9370218638
 20
5.1028846638
 40
0.0283956311
100
AcDbArc
 50
282.9506828443
 51
283.2467076583
  0
ARC
  5
36F
100
AcDbEntity
  8
ALL_FEATURES
100
AcDbCircle
 62
7
  6
CONTINUOUS
 10
4.9404916865
 20
5.0882018046
 40
0.0133083628
100
AcDbArc
 50
283.1907250069
 51
284.2012586258
  0
ARC
  5
370
100
AcDbEntity
  8
0
100
AcDbCircle
 62
7
  6
CONTINUOUS
 10
4.8237849379
 20
4.6990828002
 40
0.01
100
AcDbArc
 50
277.9835561456
 51
360.0
  0
ARC
  5
371
100
AcDbEntity
  8
0
100
AcDbCircle
 62
7
  6
CONTINUOUS
 10
5.1650349379
 20
5.1092475724
 40
0.0075
100
AcDbArc
 50
277.3310077594
 51
360.0
  0
ARC
  5
372
100
AcDbEntity
  8
ALL_FEATURES
100
AcDbCircle
 62
7
  6
CONTINUOUS
 10
4.4202614621
 20
5.3806350862
 40
0.3068049405
100
AcDbArc
 50
271.0065328124
 51
271.1663736749
  0
ARC
  5
373
100
AcDbEntity
  8
ALL_FEATURES
100
AcDbCircle
 62
7
  6
CONTINUOUS
 10
4.4211186847
 20
5.3444454452
 40
0.2706053753
100
AcDbArc
 50
271.1408851554
 51
272.2215019926
  0
ARC
  5
374
100
AcDbEntity
  8
ALL_FEATURES
100
AcDbCircle
 62
7
  6
CONTINUOUS
 10
4.4213532324
 20
5.3178684627
 40
0.2440288237
100
AcDbArc
 50
270.4754922122
 51
271.0091113602
  0
ARC
  5
375
100
AcDbEntity
  8
ALL_FEATURES
100
AcDbCircle
 62
7
  6
CONTINUOUS
 10
4.4214640834
 20
5.3048260218
 40
0.230985912
100
AcDbArc
 50
269.9221542711
 51
270.4748446888
  0
ARC
  5
376
100
AcDbEntity
  8
ALL_FEATURES
100
AcDbCircle
 62
7
  6
CONTINUOUS
 10
4.4234420669
 20
5.2883740115
 40
0.214486073
100
AcDbArc
 50
272.1819266756
 51
273.7416010068
  0
ARC
  5
377
100
AcDbEntity
  8
ALL_FEATURES
100
AcDbCircle
 62
7
  6
CONTINUOUS
 10
4.4214168651
 20
5.2792431183
 40
0.2054029683
100
AcDbArc
 50
268.7131853239
 51
269.9256298335
  0
ARC
  5
378
100
AcDbEntity
  8
ALL_FEATURES
100
AcDbCircle
 62
7
  6
CONTINUOUS
 10
4.341958264
 20
5.2753072164
 40
0.2021520405
100
AcDbArc
 50
271.4248006352
 51
272.9967801474
  0
ARC
  5
379
100
AcDbEntity
  8
ALL_FEATURES
100
AcDbCircle
 62
7
  6
CONTINUOUS
 10
4.4255898998
 20
5.254834638
 40
0.1808780336
100
AcDbArc
 50
273.7559882195
 51
274.3460946595
  0
ARC
  5
37A
100
AcDbEntity
  8
ALL_FEATURES
100
AcDbCircle
 62
7
  6
CONTINUOUS
 10
4.3435603716
 20
5.243888973
 40
0.1706930097
100
AcDbArc
 50
273.011087546
 51
273.6025986409
  0
ARC
  5
37B
100
AcDbEntity
  8
ALL_FEATURES
100
AcDbCircle
 62
7
  6
CONTINUOUS
 10
4.4168643508
 20
5.1823894409
 40
0.103936427
100
AcDbArc
 50
261.0497952854
 51
263.1370130106
  0
ARC
  5
37C
100
AcDbEntity
  8
ALL_FEATURES
100
AcDbCircle
 62
7
  6
CONTINUOUS
 10
4.8905976631
 20
5.5431553374
 40
0.4698494656
100
AcDbArc
 50
278.798076724
 51
279.0937052616
  0
ARC
  5
37D
100
AcDbEntity
  8
ALL_FEATURES
100
AcDbCircle
 62
7
  6
CONTINUOUS
 10
4.8951902931
 20
5.523876902
 40
0.4520984418
100
AcDbArc
 50
275.4937562652
 51
275.830808354
  0
ARC
  5
37E
100
AcDbEntity
  8
ALL_FEATURES
100
AcDbCircle
 62
7
  6
CONTINUOUS
 10
4.9222750456
 20
5.5134497124
 40
0.4381857592
100
AcDbArc
 50
278.322975402
 51
278.854324512
  0
ARC
  5
37F
100
AcDbEntity
  8
ALL_FEATURES
100
AcDbCircle
 62
7
  6
CONTINUOUS
 10
4.8871874976
 20
5.4664539966
 40
0.3941579234
100
AcDbArc
 50
275.375917618
 51
275.7448858799
  0
ARC
  5
380
100
AcDbEntity
  8
ALL_FEATURES
100
AcDbCircle
 62
7
  6
CONTINUOUS
 10
4.9049438093
 20
5.4632438027
 40
0.3905935411
100
AcDbArc
 50
275.9471261383
 51
276.4074843844
  0
ARC
  5
381
100
AcDbEntity
  8
ALL_FEATURES
100
AcDbCircle
 62
7
  6
CONTINUOUS
 10
4.9075873736
 20
5.3954297012
 40
0.3230543857
100
AcDbArc
 50
275.0629873411
 51
275.4861386975
  0
ARC
  5
382
100
AcDbEntity
  8
ALL_FEATURES
100
AcDbCircle
 62
7
  6
CONTINUOUS
 10
4.8944106491
 20
5.3900066923
 40
0.3173701431
100
AcDbArc
 50
274.9569932237
 51
275.370674355
  0
ARC
  5
383
100
AcDbEntity
  8
ALL_FEATURES
100
AcDbCircle
 62
7
  6
CONTINUOUS
 10
4.9022729217
 20
5.346517756
 40
0.2730884749
100
AcDbArc
 50
280.9820023176
 51
281.3553980568
  0
ARC
  5
384
100
AcDbEntity
  8
ALL_FEATURES
100
AcDbCircle
 62
7
  6
CONTINUOUS
 10
4.9011167121
 20
5.3130475822
 40
0.2401194173
100
AcDbArc
 50
274.4586111708
 51
274.9495720458
  0
ARC
  5
385
100
AcDbEntity
  8
ALL_FEATURES
100
AcDbCircle
 62
7
  6
CONTINUOUS
 10
4.9212234812
 20
5.3068380525
 40
0.2333428301
100
AcDbArc
 50
275.6139413758
 51
275.9503790782
  0
ARC
  5
386
100
AcDbEntity
  8
ALL_FEATURES
100
AcDbCircle
 62
7
  6
CONTINUOUS
 10
4.9294613433
 20
5.300434413
 40
0.2240368695
100
AcDbArc
 50
279.0903120641
 51
279.4474174149
  0
ARC
  5
387
100
AcDbEntity
  8
ALL_FEATURES
100
AcDbCircle
 62
7
  6
CONTINUOUS
 10
4.9324782716
 20
5.2823463062
 40
0.2056988922
100
AcDbArc
 50
279.4454721508
 51
279.8111272426
  0
ARC
  5
388
100
AcDbEntity
  8
ALL_FEATURES
100
AcDbCircle
 62
7
  6
CONTINUOUS
 10
4.9298789812
 20
5.2182032077
 40
0.1442863975
100
AcDbArc
 50
275.1633877579
 51
275.6364662986
  0
ARC
  5
389
100
AcDbEntity
  8
ALL_FEATURES
100
AcDbCircle
 62
7
  6
CONTINUOUS
 10
4.9287183782
 20
5.2117760108
 40
0.135777802
100
AcDbArc
 50
279.9061784744
 51
280.4029162727
  0
ARC
  5
38A
100
AcDbEntity
  8
ALL_FEATURES
100
AcDbCircle
 62
7
  6
CONTINUOUS
 10
4.9332127595
 20
5.1872098784
 40
0.110803935
100
AcDbArc
 50
280.4108707785
 51
280.9690820781
  0
ARC
  5
38B
100
AcDbEntity
  8
ALL_FEATURES
100
AcDbCircle
 62
7
  6
CONTINUOUS
 10
4.833153983
 20
5.9509041938
 40
0.8816366281
100
AcDbArc
 50
277.240699705
 51
277.5868025745
  0
ARC
  5
38C
100
AcDbEntity
  8
ALL_FEATURES
100
AcDbCircle
 62
7
  6
CONTINUOUS
 10
4.8526442082
 20
5.9282702279
 40
0.8587247625
100
AcDbArc
 50
276.108312493
 51
276.3213409456
  0
ARC
  5
38D
100
AcDbEntity
  8
ALL_FEATURES
100
AcDbCircle
 62
7
  6
CONTINUOUS
 10
4.8543866132
 20
5.9131943463
 40
0.8433759791
100
AcDbArc
 50
276.5283542847
 51
276.6557036885
  0
ARC
  5
38E
100
AcDbEntity
  8
ALL_FEATURES
100
AcDbCircle
 62
7
  6
CONTINUOUS
 10
4.8682207691
 20
5.8866253886
 40
0.8152567205
100
AcDbArc
 50
277.9449612211
 51
278.1205460915
  0
ARC
  5
38F
100
AcDbEntity
  8
ALL_FEATURES
100
AcDbCircle
 62
7
  6
CONTINUOUS
 10
4.8417146868
 20
5.8838415922
 40
0.81402985
100
AcDbArc
 50
277.051878888
 51
277.2378840506
  0
ARC
  5
390
100
AcDbEntity
  8
ALL_FEATURES
100
AcDbCircle
 62
7
  6
CONTINUOUS
 10
4.9118254489
 20
5.8649670205
 40
0.7855918223
100
AcDbArc
 50
275.1613645552
 51
275.7037302377
  0
ARC
  5
391
100
AcDbEntity
  8
ALL_FEATURES
100
AcDbCircle
 62
7
  6
CONTINUOUS
 10
4.8470433311
 20
5.8409081688
 40
0.7707670141
100
AcDbArc
 50
276.8534695421
 51
277.0505791486
  0
ARC
  5
392
100
AcDbEntity
  8
ALL_FEATURES
100
AcDbCircle
 62
7
  6
CONTINUOUS
 10
4.850121934
 20
5.815270936
 40
0.7449455986
100
AcDbArc
 50
276.6506857037
 51
276.8536772616
  0
ARC
  5
393
100
AcDbEntity
  8
ALL_FEATURES
100
AcDbCircle
 62
7
  6
CONTINUOUS
 10
4.8552337493
 20
5.7852709003
 40
0.7145381435
100
AcDbArc
 50
277.5853403682
 51
277.8041053386
  0
ARC
  5
394
100
AcDbEntity
  8
ALL_FEATURES
100
AcDbCircle
 62
7
  6
CONTINUOUS
 10
4.9009168378
 20
5.7757829297
 40
0.7013383626
100
AcDbArc
 50
278.108314595
 51
278.5262613953
  0
ARC
  5
395
100
AcDbEntity
  8
ALL_FEATURES
100
AcDbCircle
 62
7
  6
CONTINUOUS
 10
4.9203479383
 20
5.7671071571
 40
0.687829249
100
AcDbArc
 50
277.0161192182
 51
277.2891374573
  0
ARC
  5
396
100
AcDbEntity
  8
ALL_FEATURES
100
AcDbCircle
 62
7
  6
CONTINUOUS
 10
4.9180711193
 20
5.762042035
 40
0.6825944336
100
AcDbArc
 50
277.0683831858
 51
277.5875853093
  0
ARC
  5
397
100
AcDbEntity
  8
ALL_FEATURES
100
AcDbCircle
 62
7
  6
CONTINUOUS
 10
4.9223443269
 20
5.7508879744
 40
0.6714881402
100
AcDbArc
 50
277.5840574368
 51
277.7139068055
  0
ARC
  5
398
100
AcDbEntity
  8
ALL_FEATURES
100
AcDbCircle
 62
7
  6
CONTINUOUS
 10
4.8591502866
 20
5.7376883525
 40
0.6668394653
100
AcDbArc
 50
276.2186733357
 51
276.6522062303
  0
ARC
  5
399
100
AcDbEntity
  8
ALL_FEATURES
100
AcDbCircle
 62
7
  6
CONTINUOUS
 10
4.9234875552
 20
5.7415397457
 40
0.6620697912
100
AcDbArc
 50
276.744008923
 51
277.0167177346
  0
ARC
  5
39A
100
AcDbEntity
  8
ALL_FEATURES
100
AcDbCircle
 62
7
  6
CONTINUOUS
 10
4.8911313663
 20
5.7258538789
 40
0.6528609917
100
AcDbArc
 50
278.1231003955
 51
278.3290775431
  0
ARC
  5
39B
100
AcDbEntity
  8
ALL_FEATURES
100
AcDbCircle
 62
7
  6
CONTINUOUS
 10
4.9253693727
 20
5.7281513725
 40
0.6485511839
100
AcDbArc
 50
277.2857558164
 51
277.5842523436
  0
ARC
  5
39C
100
AcDbEntity
  8
ALL_FEATURES
100
AcDbCircle
 62
7
  6
CONTINUOUS
 10
4.8649139628
 20
5.7154133826
 40
0.6440132037
100
AcDbArc
 50
277.7947776672
 51
278.2644157575
  0
ARC
  5
39D
100
AcDbEntity
  8
ALL_FEATURES
100
AcDbCircle
 62
7
  6
CONTINUOUS
 10
4.8774383039
 20
5.7113754856
 40
0.6402449119
100
AcDbArc
 50
276.3754919026
 51
276.5322522257
  0
ARC
  5
39E
100
AcDbEntity
  8
ALL_FEATURES
100
AcDbCircle
 62
7
  6
CONTINUOUS
 10
4.8770393157
 20
5.7007729773
 40
0.629923283
100
AcDbArc
 50
275.838628562
 51
276.1038553961
  0
ARC
  5
39F
100
AcDbEntity
  8
ALL_FEATURES
100
AcDbCircle
 62
7
  6
CONTINUOUS
 10
4.9273433234
 20
5.7092624244
 40
0.6295630096
100
AcDbArc
 50
276.4646444687
 51
276.7404915632
  0
ARC
  5
3A0
100
AcDbEntity
  8
ALL_FEATURES
100
AcDbCircle
 62
7
  6
CONTINUOUS
 10
4.9277367957
 20
5.7055828166
 40
0.6258624979
100
AcDbArc
 50
275.6968606695
 51
276.4667790707
  0
ARC
  5
3A1
100
AcDbEntity
  8
ALL_FEATURES
100
AcDbCircle
 62
7
  6
CONTINUOUS
 10
4.8654355687
 20
5.6806398449
 40
0.6094458085
100
AcDbArc
 50
275.9853492366
 51
276.2122229241
  0
ARC
  5
3A2
100
AcDbEntity
  8
ALL_FEATURES
100
AcDbCircle
 62
7
  6
CONTINUOUS
 10
4.9280316038
 20
5.6810101654
 40
0.6009527369
100
AcDbArc
 50
276.4873227445
 51
277.0766302793
  0
ARC
  5
3A3
100
AcDbEntity
  8
ALL_FEATURES
100
AcDbCircle
 62
7
  6
CONTINUOUS
 10
4.9327517438
 20
5.6561499862
 40
0.5761760117
100
AcDbArc
 50
275.1815313584
 51
275.6885853365
  0
ARC
  5
3A4
100
AcDbEntity
  8
ALL_FEATURES
100
AcDbCircle
 62
7
  6
CONTINUOUS
 10
4.8701943347
 20
5.6353468501
 40
0.5639035081
100
AcDbArc
 50
275.7450652754
 51
275.9843397584
  0
ARC
  5
3A5
100
AcDbEntity
  8
ALL_FEATURES
100
AcDbCircle
 62
7
  6
CONTINUOUS
 10
4.876871894
 20
5.6329838553
 40
0.5607208341
100
AcDbArc
 50
278.2659283043
 51
278.5262393475
  0
ARC
  5
3A6
100
AcDbEntity
  8
ALL_FEATURES
100
AcDbCircle
 62
7
  6
CONTINUOUS
 10
4.8668630557
 20
5.6279217578
 40
0.5565197139
100
AcDbArc
 50
276.982251007
 51
277.4937287509
  0
ARC
  5
3A7
100
AcDbEntity
  8
ALL_FEATURES
100
AcDbCircle
 62
7
  6
CONTINUOUS
 10
4.8836523324
 20
5.587884362
 40
0.5151144941
100
AcDbArc
 50
278.5241320456
 51
278.8005443616
  0
ARC
  5
3A8
100
AcDbEntity
  8
ALL_FEATURES
100
AcDbCircle
 62
7
  6
CONTINUOUS
 10
4.9306854636
 20
5.5772054125
 40
0.5005419447
100
AcDbArc
 50
278.5264923111
 51
278.7847070518
  0
ARC
  5
3A9
100
AcDbEntity
  8
ALL_FEATURES
100
AcDbCircle
 62
7
  6
CONTINUOUS
 10
4.9576052803
 20
5.4965130044
 40
0.4146802544
100
AcDbArc
 50
278.0004719581
 51
278.2752101138
  0
ARC
  5
3AA
100
AcDbEntity
  8
ALL_FEATURES
100
AcDbCircle
 62
7
  6
CONTINUOUS
 10
5.0356418362
 20
5.4673129782
 40
0.379123436
100
AcDbArc
 50
271.1991118561
 51
272.9957186297
  0
ARC
  5
3AB
100
AcDbEntity
  8
ALL_FEATURES
100
AcDbCircle
 62
7
  6
CONTINUOUS
 10
4.9493752919
 20
5.4566237
 40
0.3785204096
100
AcDbArc
 50
278.7763676375
 51
279.0898507902
  0
ARC
  5
3AC
100
AcDbEntity
  8
ALL_FEATURES
100
AcDbCircle
 62
7
  6
CONTINUOUS
 10
5.0210645668
 20
5.4577360876
 40
0.3714865391
100
AcDbArc
 50
271.7709251595
 51
272.7590611401
  0
ARC
  5
3AD
100
AcDbEntity
  8
ALL_FEATURES
100
AcDbCircle
 62
7
  6
CONTINUOUS
 10
4.9550616836
 20
5.4437356763
 40
0.3621435988
100
AcDbArc
 50
276.3212209628
 51
276.479581277
  0
ARC
  5
3AE
100
AcDbEntity
  8
ALL_FEATURES
100
AcDbCircle
 62
7
  6
CONTINUOUS
 10
4.9702468032
 20
5.4098037291
 40
0.3270543142
100
AcDbArc
 50
278.2699537828
 51
278.5952693044
  0
ARC
  5
3AF
100
AcDbEntity
  8
ALL_FEATURES
100
AcDbCircle
 62
7
  6
CONTINUOUS
 10
4.9467959125
 20
5.3548950664
 40
0.277746364
100
AcDbArc
 50
278.8907380606
 51
279.2479543814
  0
ARC
  5
3B0
100
AcDbEntity
  8
ALL_FEATURES
100
AcDbCircle
 62
7
  6
CONTINUOUS
 10
4.9878936216
 20
5.294543812
 40
0.2104516483
100
AcDbArc
 50
278.5346659895
 51
279.4195664265
  0
ARC
  5
3B1
100
AcDbEntity
  8
ALL_FEATURES
100
AcDbCircle
 62
7
  6
CONTINUOUS
 10
4.9594897723
 20
5.2767620716
 40
0.1985889393
100
AcDbArc
 50
279.2559399938
 51
279.7031745318
  0
ARC
  5
3B2
100
AcDbEntity
  8
ALL_FEATURES
100
AcDbCircle
 62
7
  6
CONTINUOUS
 10
4.9796288303
 20
5.2676506037
 40
0.1871409254
100
AcDbArc
 50
279.0840207528
 51
279.4004724058
  0
ARC
  5
3B3
100
AcDbEntity
  8
ALL_FEATURES
100
AcDbCircle
 62
7
  6
CONTINUOUS
 10
4.9459867877
 20
5.2119935518
 40
0.1340552947
100
AcDbArc
 50
282.0876489092
 51
282.4962537287
  0
ARC
  5
3B4
100
AcDbEntity
  8
ALL_FEATURES
100
AcDbCircle
 62
7
  6
CONTINUOUS
 10
4.9476121243
 20
5.2046960015
 40
0.1265789391
100
AcDbArc
 50
282.4927142665
 51
282.9120029241
  0
ARC
  5
3B5
100
AcDbEntity
  8
ALL_FEATURES
100
AcDbCircle
 62
7
  6
CONTINUOUS
 10
4.950169521
 20
5.1936275519
 40
0.1152189021
100
AcDbArc
 50
282.9023365154
 51
283.7837729905
  0
ARC
  5
3B6
100
AcDbEntity
  8
ALL_FEATURES
100
AcDbCircle
 62
7
  6
CONTINUOUS
 10
4.9355426134
 20
5.6253558991
 40
0.545255715
100
AcDbArc
 50
274.6730584273
 51
275.1816992007
  0
ARC
  5
3B7
100
AcDbEntity
  8
ALL_FEATURES
100
AcDbCircle
 62
7
  6
CONTINUOUS
 10
4.9413936272
 20
5.6114243332
 40
0.530729504
100
AcDbArc
 50
277.7772956526
 51
278.0069882808
  0
ARC
  5
3B8
100
AcDbEntity
  8
ALL_FEATURES
100
AcDbCircle
 62
7
  6
CONTINUOUS
 10
4.9376972244
 20
5.5995711489
 40
0.5193811445
100
AcDbArc
 50
274.5176257747
 51
274.6678991197
  0
ARC
  5
3B9
100
AcDbEntity
  8
ALL_FEATURES
100
AcDbCircle
 62
7
  6
CONTINUOUS
 10
4.9384039934
 20
5.5972413572
 40
0.5165501703
100
AcDbArc
 50
275.7215698515
 51
276.2829607629
  0
ARC
  5
3BA
100
AcDbEntity
  8
ALL_FEATURES
100
AcDbCircle
 62
7
  6
CONTINUOUS
 10
4.7619154183
 20
6.7222391739
 40
1.6578637822
100
AcDbArc
 50
276.7789844834
 51
276.9049185214
  0
ARC
  5
3BB
100
AcDbEntity
  8
ALL_FEATURES
100
AcDbCircle
 62
7
  6
CONTINUOUS
 10
4.7756607225
 20
6.6067355063
 40
1.5415451234
100
AcDbArc
 50
276.6465717768
 51
276.7784200955
  0
ARC
  5
3BC
100
AcDbEntity
  8
ALL_FEATURES
100
AcDbCircle
 62
7
  6
CONTINUOUS
 10
4.7851431886
 20
6.5975834124
 40
1.5312560762
100
AcDbArc
 50
277.7219922378
 51
277.839505824
  0
ARC
  5
3BD
100
AcDbEntity
  8
ALL_FEATURES
100
AcDbCircle
 62
7
  6
CONTINUOUS
 10
4.7793275241
 20
6.5325656544
 40
1.467282958
100
AcDbArc
 50
277.2094571917
 51
277.3912169018
  0
ARC
  5
3BE
100
AcDbEntity
  8
ALL_FEATURES
100
AcDbCircle
 62
7
  6
CONTINUOUS
 10
4.8001479197
 20
6.3674269669
 40
1.3008369618
100
AcDbArc
 50
277.007522331
 51
277.2124795198
  0
ARC
  5
3BF
100
AcDbEntity
  8
ALL_FEATURES
100
AcDbCircle
 62
7
  6
CONTINUOUS
 10
4.8041187547
 20
6.3506677618
 40
1.2837053524
100
AcDbArc
 50
277.5449781596
 51
277.9157692341
  0
ARC
  5
3C0
100
AcDbEntity
  8
ALL_FEATURES
100
AcDbCircle
 62
7
  6
CONTINUOUS
 10
4.8216619219
 20
6.3326681565
 40
1.2638356051
100
AcDbArc
 50
277.8375409036
 51
277.9743627512
  0
ARC
  5
3C1
100
AcDbEntity
  8
ALL_FEATURES
100
AcDbCircle
 62
7
  6
CONTINUOUS
 10
4.8244296608
 20
6.1823937168
 40
1.1144097351
100
AcDbArc
 50
276.3245726819
 51
276.5032321102
  0
ARC
  5
3C2
100
AcDbEntity
  8
ALL_FEATURES
100
AcDbCircle
 62
7
  6
CONTINUOUS
 10
4.8244423079
 20
6.168525664
 40
1.1004573344
100
AcDbArc
 50
276.7793850824
 51
276.8967761609
  0
ARC
  5
3C3
100
AcDbEntity
  8
ALL_FEATURES
100
AcDbCircle
 62
7
  6
CONTINUOUS
 10
4.8540907898
 20
6.1015801526
 40
1.030483311
100
AcDbArc
 50
277.9712239256
 51
278.1308830307
  0
ARC
  5
3C4
100
AcDbEntity
  8
ALL_FEATURES
100
AcDbCircle
 62
7
  6
CONTINUOUS
 10
4.8370473349
 20
6.0622882359
 40
0.993474732
100
AcDbArc
 50
276.6523594036
 51
276.7807740508
  0
ARC
  5
3C5
100
AcDbEntity
  8
0
100
AcDbCircle
 62
7
  6
CONTINUOUS
 10
5.9963117233
 20
5.1651154516
 40
0.09
100
AcDbArc
 50
108.9818036151
 51
145.6540619203
  0
ARC
  5
3C6
100
AcDbEntity
  8
0
100
AcDbCircle
 62
7
  6
CONTINUOUS
 10
5.1837849379
 20
5.1342506566
 40
0.0075
100
AcDbArc
 50
270.0
 51
1.7177872386
  0
ARC
  5
3C7
100
AcDbEntity
  8
0
100
AcDbCircle
 62
7
  6
CONTINUOUS
 10
5.1800349379
 20
5.1192506566
 40
0.0075
100
AcDbArc
 50
90.0
 51
180.0
  0
ARC
  5
3C8
100
AcDbEntity
  8
0
100
AcDbCircle
 62
7
  6
CONTINUOUS
 10
5.9537849379
 20
5.3407506566
 40
0.075
100
AcDbArc
 50
289.4712206345
 51
360.0
  0
ARC
  5
3C9
100
AcDbEntity
  8
0
100
AcDbCircle
 62
7
  6
CONTINUOUS
 10
5.9096188712
 20
5.2243552136
 40
0.015
100
AcDbArc
 50
270.0
 51
325.6540619203
  0
ARC
  5
3CA
100
AcDbEntity
  8
0
100
AcDbCircle
 62
7
  6
CONTINUOUS
 10
5.9637849379
 20
5.259677644
 40
0.01
100
AcDbArc
 50
288.9818036151
 51
360.0
  0
ARC
  5
3CB
100
AcDbEntity
  8
0
100
AcDbCircle
 62
7
  6
CONTINUOUS
 10
5.9812849379
 20
5.2629689107
 40
0.0075
100
AcDbArc
 50
109.4712206345
 51
180.0
  0
ARC
  5
3CC
100
AcDbEntity
  8
ALL_FEATURES
100
AcDbCircle
 62
7
  6
CONTINUOUS
 10
4.3428986144
 20
9.9811207366
 40
4.9077629242
100
AcDbArc
 50
268.9065041434
 51
269.0855692271
  0
ARC
  5
3CD
100
AcDbEntity
  8
ALL_FEATURES
100
AcDbCircle
 62
7
  6
CONTINUOUS
 10
4.7930524803
 20
8.3451134892
 40
3.2589849755
100
AcDbArc
 50
269.9158266883
 51
270.0841733117
  0
ARC
  5
3CE
100
AcDbEntity
  8
ALL_FEATURES
100
AcDbCircle
 62
7
  6
CONTINUOUS
 10
4.7452374587
 20
7.9906424026
 40
2.9140839932
100
AcDbArc
 50
269.9058642155
 51
270.0941357845
  0
ARC
  5
3CF
100
AcDbEntity
  8
ALL_FEATURES
100
AcDbCircle
 62
7
  6
CONTINUOUS
 10
4.706572956
 20
7.1713819905
 40
2.1104038828
100
AcDbArc
 50
277.1387230931
 51
277.3497172534
  0
ARC
  5
3D0
100
AcDbEntity
  8
ALL_FEATURES
100
AcDbCircle
 62
7
  6
CONTINUOUS
 10
4.7427185654
 20
6.8803921914
 40
1.8171776056
100
AcDbArc
 50
276.9063101617
 51
277.025487724
  0
SPLINE
  5
3D1
100
AcDbEntity
  8
0
100
AcDbSpline
 62
7
  6
CONTINUOUS
 70
0
 71
3
 72
19
 73
15
 74
0
 42
0.0000001
 43
0.0000001
 44
0.0000000001
 40
0.0
 40
0.0
 40
0.0
 40
0.0
 40
0.1249158798
 40
0.1874766357
 40
0.2500078059
 40
0.3749226349
 40
0.4998388355
 40
0.5623760549
 40
0.624922107
 40
0.6874570601
 40
0.7499641082
 40
0.8124888753
 40
0.8750775682
 40
1.0
 40
1.0
 40
1.0
 40
1.0
 10
4.3512844225
 20
5.0199160109
 30
0.0
 10
4.3512844225
 20
5.0205696998
 30
0.0
 10
4.3511873082
 20
5.0215542923
 30
0.0
 10
4.3508688879
 20
5.0228248015
 30
0.0
 10
4.3504274305
 20
5.0240584091
 30
0.0
 10
4.3496515683
 20
5.0255098151
 30
0.0
 10
4.3486067925
 20
5.0267815677
 30
0.0
 10
4.347635879
 20
5.0276610297
 30
0.0
 10
4.3468458222
 20
5.0282466781
 30
0.0
 10
4.3460023661
 20
5.0287520061
 30
0.0
 10
4.3451130085
 20
5.0291710278
 30
0.0
 10
4.3441864681
 20
5.0295008827
 30
0.0
 10
4.3429167608
 20
5.0298215075
 30
0.0
 10
4.3419324278
 20
5.0299257317
 30
0.0
 10
4.3412787046
 20
5.0299257317
 30
0.0
  0
SPLINE
  5
3D2
100
AcDbEntity
  8
0
100
AcDbSpline
 62
7
  6
CONTINUOUS
 70
0
 71
3
 72
19
 73
15
 74
0
 42
0.0000001
 43
0.0000001
 44
0.0000000001
 40
0.0
 40
0.0
 40
0.0
 40
0.0
 40
0.1249852322
 40
0.1876498082
 40
0.2502234468
 40
0.3127340834
 40
0.3752485557
 40
0.4377807889
 40
0.5003042382
 40
0.6251763742
 40
0.750059398
 40
0.8125725634
 40
0.8751106733
 40
1.0
 40
1.0
 40
1.0
 40
1.0
 10
4.3412787046
 20
5.0299257317
 30
0.0
 10
4.3406251604
 20
5.0299257317
 30
0.0
 10
4.3396407139
 20
5.0298215598
 30
0.0
 10
4.3383717368
 20
5.0294979821
 30
0.0
 10
4.337446113
 20
5.0291659346
 30
0.0
 10
4.3365577129
 20
5.0287463641
 30
0.0
 10
4.3357153776
 20
5.0282409433
 30
0.0
 10
4.3349267376
 20
5.0276550826
 30
0.0
 10
4.3339576284
 20
5.0267757132
 30
0.0
 10
4.3329149212
 20
5.0255045544
 30
0.0
 10
4.3321406683
 20
5.0240543225
 30
0.0
 10
4.3317001532
 20
5.0228218675
 30
0.0
 10
4.3313823171
 20
5.0215526257
 30
0.0
 10
4.3312854532
 20
5.0205690536
 30
0.0
 10
4.3312854532
 20
5.0199160109
 30
0.0
  0
SPLINE
  5
3D3
100
AcDbEntity
  8
0
100
AcDbSpline
 62
7
  6
CONTINUOUS
 70
0
 71
3
 72
19
 73
15
 74
0
 42
0.0000001
 43
0.0000001
 44
0.0000000001
 40
0.0
 40
0.0
 40
0.0
 40
0.0
 40
0.1248897374
 40
0.1874284864
 40
0.2499423405
 40
0.3748263175
 40
0.4996987803
 40
0.5622219563
 40
0.6247539668
 40
0.6872683074
 40
0.7497784126
 40
0.8123512284
 40
0.8750150897
 40
1.0
 40
1.0
 40
1.0
 40
1.0
 10
4.3312854532
 20
4.9399160109
 30
0.0
 10
4.3312854532
 20
4.9392629638
 30
0.0
 10
4.3313823187
 20
4.9382793827
 30
0.0
 10
4.3317001611
 20
4.9370101284
 30
0.0
 10
4.3321406854
 20
4.9357776591
 30
0.0
 10
4.332914955
 20
4.9343274175
 30
0.0
 10
4.3339576777
 20
4.9330562572
 30
0.0
 10
4.3349267957
 20
4.9321768917
 30
0.0
 10
4.3357154411
 20
4.9315910385
 30
0.0
 10
4.3365577743
 20
4.9310856169
 30
0.0
 10
4.3374461745
 20
4.9306660555
 30
0.0
 10
4.3383717976
 20
4.9303340278
 30
0.0
 10
4.3396407734
 20
4.930010468
 30
0.0
 10
4.3406252168
 20
4.929906293
 30
0.0
 10
4.3412787616
 20
4.929906293
 30
0.0
  0
SPLINE
  5
3D4
100
AcDbEntity
  8
0
100
AcDbSpline
 62
7
  6
CONTINUOUS
 70
0
 71
3
 72
19
 73
15
 74
0
 42
0.0000001
 43
0.0000001
 44
0.0000000001
 40
0.0
 40
0.0
 40
0.0
 40
0.0
 40
0.1249225465
 40
0.1875115499
 40
0.2500366903
 40
0.3125439719
 40
0.3750791332
 40
0.4376254688
 40
0.5001629066
 40
0.625079081
 40
0.7499938268
 40
0.8125248195
 40
0.8750850005
 40
1.0
 40
1.0
 40
1.0
 40
1.0
 10
4.3412787616
 20
4.929906293
 30
0.0
 10
4.341932483
 20
4.929906293
 30
0.0
 10
4.3429168154
 20
4.9300105168
 30
0.0
 10
4.3441865191
 20
4.930331155
 30
0.0
 10
4.345113057
 20
4.9306610199
 30
0.0
 10
4.3460024151
 20
4.9310800419
 30
0.0
 10
4.346845869
 20
4.9315853743
 30
0.0
 10
4.3476359233
 20
4.9321710265
 30
0.0
 10
4.3486068281
 20
4.9330504947
 30
0.0
 10
4.3496515964
 20
4.9343222461
 30
0.0
 10
4.3504274474
 20
4.9357736501
 30
0.0
 10
4.3508688952
 20
4.9370072512
 30
0.0
 10
4.3511873137
 20
4.9382777472
 30
0.0
 10
4.3512844225
 20
4.939262329
 30
0.0
 10
4.3512844225
 20
4.9399160109
 30
0.0
  0
SPLINE
  5
3D5
100
AcDbEntity
  8
0
100
AcDbSpline
 62
7
  6
CONTINUOUS
 70
0
 71
3
 72
15
 73
11
 74
0
 42
0.0000001
 43
0.0000001
 44
0.0000000001
 40
0.0
 40
0.0
 40
0.0
 40
0.0
 40
0.1021917411
 40
0.2220108419
 40
0.356648566
 40
0.4999989325
 40
0.6433498239
 40
0.7779881657
 40
0.8978078617
 40
1.0
 40
1.0
 40
1.0
 40
1.0
 10
4.0320807565
 20
3.7906425851
 30
0.0
 10
4.0317546756
 20
3.7878823024
 30
0.0
 10
4.0311718558
 20
3.7818705998
 30
0.0
 10
4.0305394182
 20
3.7721896522
 30
0.0
 10
4.030131241
 20
3.7613762408
 30
0.0
 10
4.029989597
 20
3.7499160838
 30
0.0
 10
4.0301312368
 20
3.7384559098
 30
0.0
 10
4.0305394143
 20
3.7276424512
 30
0.0
 10
4.0311718522
 20
3.7179614596
 30
0.0
 10
4.0317546743
 20
3.7119497302
 30
0.0
 10
4.0320807565
 20
3.7091894367
 30
0.0
  0
SPLINE
  5
3D6
100
AcDbEntity
  8
0
100
AcDbSpline
 62
7
  6
CONTINUOUS
 70
0
 71
3
 72
19
 73
15
 74
0
 42
0.0000001
 43
0.0000001
 44
0.0000000001
 40
0.0
 40
0.0
 40
0.0
 40
0.0
 40
0.0494036556
 40
0.103132329
 40
0.161112479
 40
0.2231226982
 40
0.3573569253
 40
0.4999989381
 40
0.6426414713
 40
0.7768763112
 40
0.838886862
 40
0.8968672719
 40
0.9505962131
 40
1.0
 40
1.0
 40
1.0
 40
1.0
 10
4.008697093
 20
3.7906425851
 30
0.0
 10
4.0083879351
 20
3.7893277396
 30
0.0
 10
4.0077959183
 20
3.7865702093
 30
0.0
 10
4.0070175915
 20
3.782233956
 30
0.0
 10
4.0063247672
 20
3.7775344956
 30
0.0
 10
4.0055121556
 20
3.7706308024
 30
0.0
 10
4.0048173409
 20
3.761386895
 30
0.0
 10
4.0045347438
 20
3.7499160839
 30
0.0
 10
4.0048173325
 20
3.7384452556
 30
0.0
 10
4.0055121476
 20
3.729201308
 30
0.0
 10
4.00632476
 20
3.7222975818
 30
0.0
 10
4.0070175859
 20
3.7175980979
 30
0.0
 10
4.0077959155
 20
3.7132618268
 30
0.0
 10
4.0083879343
 20
3.7105042857
 30
0.0
 10
4.008697093
 20
3.7091894367
 30
0.0
  0
SPLINE
  5
3D7
100
AcDbEntity
  8
0
100
AcDbSpline
 62
7
  6
CONTINUOUS
 70
0
 71
3
 72
19
 73
15
 74
0
 42
0.0000001
 43
0.0000001
 44
0.0000000001
 40
0.0
 40
0.0
 40
0.0
 40
0.0
 40
0.0503048559
 40
0.1046029601
 40
0.1628525376
 40
0.2248675467
 40
0.3584723411
 40
0.499998947
 40
0.6415260661
 40
0.7751314655
 40
0.8371468027
 40
0.8953966378
 40
0.949695011
 40
1.0
 40
1.0
 40
1.0
 40
1.0
 10
3.9885164321
 20
3.7906425851
 30
0.0
 10
3.9880584956
 20
3.7893336703
 30
0.0
 10
3.9871800221
 20
3.7865857226
 30
0.0
 10
3.9860206095
 20
3.7822472517
 30
0.0
 10
3.9849886827
 20
3.777545537
 30
0.0
 10
3.9837804611
 20
3.7706506432
 30
0.0
 10
3.9827444634
 20
3.7614042221
 30
0.0
 10
3.9823228148
 20
3.749916084
 30
0.0
 10
3.9827444508
 20
3.7384279285
 30
0.0
 10
3.9837804492
 20
3.7291814672
 30
0.0
 10
3.984988672
 20
3.7222865404
 30
0.0
 10
3.9860206012
 20
3.717584802
 30
0.0
 10
3.9871800179
 20
3.7132463134
 30
0.0
 10
3.9880584944
 20
3.710498355
 30
0.0
 10
3.9885164321
 20
3.7091894367
 30
0.0
  0
SPLINE
  5
3D8
100
AcDbEntity
  8
0
100
AcDbSpline
 62
7
  6
CONTINUOUS
 70
0
 71
3
 72
15
 73
11
 74
0
 42
0.0000001
 43
0.0000001
 44
0.0000000001
 40
0.0
 40
0.0
 40
0.0
 40
0.0
 40
0.106458222
 40
0.2270660293
 40
0.3598896634
 40
0.4999989588
 40
0.6401087581
 40
0.7729329871
 40
0.8935413724
 40
1.0
 40
1.0
 40
1.0
 40
1.0
 10
3.9717331249
 20
3.7906425851
 30
0.0
 10
3.9704909663
 20
3.7879493917
 30
0.0
 10
3.9682297803
 20
3.7820218741
 30
0.0
 10
3.9657345855
 20
3.7722923037
 30
0.0
 10
3.9641254927
 20
3.7614279044
 30
0.0
 10
3.9635676305
 20
3.7499160842
 30
0.0
 10
3.9641254761
 20
3.7384042461
 30
0.0
 10
3.9657345699
 20
3.7275397997
 30
0.0
 10
3.9682297666
 20
3.7178101842
 30
0.0
 10
3.9704909616
 20
3.7118826404
 30
0.0
 10
3.9717331249
 20
3.7091894367
 30
0.0
  0
SPLINE
  5
3D9
100
AcDbEntity
  8
0
100
AcDbSpline
 62
7
  6
CONTINUOUS
 70
0
 71
3
 72
15
 73
11
 74
0
 42
0.0000001
 43
0.0000001
 44
0.0000000001
 40
0.0
 40
0.0
 40
0.0
 40
0.0
 40
0.1086092841
 40
0.2296316914
 40
0.3615423798
 40
0.4999996596
 40
0.6384569526
 40
0.7703676355
 40
0.8913904124
 40
1.0
 40
1.0
 40
1.0
 40
1.0
 10
3.9585088036
 20
3.7906425851
 30
0.0
 10
3.95699518
 20
3.7879784178
 30
0.0
 10
3.9542213347
 20
3.7820963556
 30
0.0
 10
3.951132544
 20
3.7723471765
 30
0.0
 10
3.9491404584
 20
3.7614571814
 30
0.0
 10
3.9484499835
 20
3.7499160393
 30
0.0
 10
3.9491404504
 20
3.738374897
 30
0.0
 10
3.9511325305
 20
3.7274848899
 30
0.0
 10
3.9542213242
 20
3.7177356918
 30
0.0
 10
3.9569951757
 20
3.7118536115
 30
0.0
 10
3.9585088036
 20
3.7091894367
 30
0.0
  0
SPLINE
  5
3DA
100
AcDbEntity
  8
0
100
AcDbSpline
 62
7
  6
CONTINUOUS
 70
0
 71
3
 72
15
 73
11
 74
0
 42
0.0000001
 43
0.0000001
 44
0.0000000001
 40
0.0
 40
0.0
 40
0.0
 40
0.0
 40
0.1109099247
 40
0.2324293415
 40
0.363362015
 40
0.4999989869
 40
0.6366364397
 40
0.7675696836
 40
0.8890896603
 40
1.0
 40
1.0
 40
1.0
 40
1.0
 10
3.9489708257
 20
3.7906425851
 30
0.0
 10
3.9472056391
 20
3.788006364
 30
0.0
 10
3.9439520569
 20
3.7821728925
 30
0.0
 10
3.9402933939
 20
3.7724055636
 30
0.0
 10
3.9379328778
 20
3.7614886003
 30
0.0
 10
3.9371144218
 20
3.7499160847
 30
0.0
 10
3.9379328536
 20
3.7383435501
 30
0.0
 10
3.9402933712
 20
3.7274265397
 30
0.0
 10
3.9439520374
 20
3.7176591645
 30
0.0
 10
3.9472056325
 20
3.7118256677
 30
0.0
 10
3.9489708257
 20
3.7091894367
 30
0.0
  0
SPLINE
  5
3DB
100
AcDbEntity
  8
0
100
AcDbSpline
 62
7
  6
CONTINUOUS
 70
0
 71
3
 72
15
 73
11
 74
0
 42
0.0000001
 43
0.0000001
 44
0.0000000001
 40
0.0
 40
0.0
 40
0.0
 40
0.0
 40
0.1132371239
 40
0.2352690529
 40
0.3652150503
 40
0.4999990018
 40
0.6347834219
 40
0.7647299765
 40
0.8867624562
 40
1.0
 40
1.0
 40
1.0
 40
1.0
 10
3.9432110472
 20
3.7906425851
 30
0.0
 10
3.9412150004
 20
3.7880319731
 30
0.0
 10
3.9375193672
 20
3.7822485405
 30
0.0
 10
3.9333220476
 20
3.7724672343
 30
0.0
 10
3.9306114737
 20
3.7615233973
 30
0.0
 10
3.9296711779
 20
3.749916085
 30
0.0
 10
3.930611446
 20
3.738308753
 30
0.0
 10
3.9333220217
 20
3.7273648689
 30
0.0
 10
3.9375193451
 20
3.7175835158
 30
0.0
 10
3.9412149929
 20
3.7118000584
 30
0.0
 10
3.9432110472
 20
3.7091894367
 30
0.0
  0
SPLINE
  5
3DC
100
AcDbEntity
  8
0
100
AcDbSpline
 62
7
  6
CONTINUOUS
 70
0
 71
3
 72
15
 73
11
 74
0
 42
0.0000001
 43
0.0000001
 44
0.0000000001
 40
0.0
 40
0.0
 40
0.0
 40
0.0
 40
0.1160715258
 40
0.2388503751
 40
0.3676086433
 40
0.4999908303
 40
0.6323750044
 40
0.7611379158
 40
0.8839226748
 40
1.0
 40
1.0
 40
1.0
 40
1.0
 10
3.9400899227
 20
3.7891949389
 30
0.0
 10
3.9380464935
 20
3.7866389423
 30
0.0
 10
3.9342670817
 20
3.7810235159
 30
0.0
 10
3.9299564453
 20
3.7715472126
 30
0.0
 10
3.9271840765
 20
3.7610291051
 30
0.0
 10
3.9262240242
 20
3.7499206055
 30
0.0
 10
3.9271825187
 20
3.7388118381
 30
0.0
 10
3.9299535167
 20
3.7282930005
 30
0.0
 10
3.9342630512
 20
3.7188156848
 30
0.0
 10
3.9380419121
 20
3.7131994848
 30
0.0
 10
3.9400851148
 20
3.7106430978
 30
0.0
  0
SPLINE
  5
3DD
100
AcDbEntity
  8
0
100
AcDbSpline
 62
7
  6
CONTINUOUS
 70
0
 71
3
 72
15
 73
11
 74
0
 42
0.0000001
 43
0.0000001
 44
0.0000000001
 40
0.0
 40
0.0
 40
0.0
 40
0.0
 40
0.1160733853
 40
0.2388567549
 40
0.3676198504
 40
0.5000092871
 40
0.6323968355
 40
0.7611551557
 40
0.8839325503
 40
1.0
 40
1.0
 40
1.0
 40
1.0
 10
4.7424847596
 20
3.7106431
 30
0.0
 10
4.7445278878
 20
3.7131994038
 30
0.0
 10
4.7483067375
 20
3.718815438
 30
0.0
 10
4.7526160844
 20
3.7282926537
 30
0.0
 10
4.7553875764
 20
3.7388115043
 30
0.0
 10
4.7563455219
 20
3.7499206182
 30
0.0
 10
4.7553860104
 20
3.7610294595
 30
0.0
 10
4.7526131506
 20
3.7715475777
 30
0.0
 10
4.7483027015
 20
3.7810237707
 30
0.0
 10
4.7445233041
 20
3.7866390263
 30
0.0
 10
4.7424799517
 20
3.7891949367
 30
0.0
  0
SPLINE
  5
3DE
100
AcDbEntity
  8
0
100
AcDbSpline
 62
7
  6
CONTINUOUS
 70
0
 71
3
 72
15
 73
11
 74
0
 42
0.0000001
 43
0.0000001
 44
0.0000000001
 40
0.0
 40
0.0
 40
0.0
 40
0.0
 40
0.113233371
 40
0.2352632835
 40
0.3652111367
 40
0.5000011028
 40
0.6347907631
 40
0.7647378341
 40
0.886767152
 40
1.0
 40
1.0
 40
1.0
 40
1.0
 10
4.7393588286
 20
3.7091894367
 30
0.0
 10
4.7413548091
 20
3.711799962
 30
0.0
 10
4.7450503894
 20
3.7175832339
 30
0.0
 10
4.7492476173
 20
3.7273644346
 30
0.0
 10
4.7519585915
 20
3.7383083718
 30
0.0
 10
4.7528984162
 20
3.7499160988
 30
0.0
 10
4.7519585665
 20
3.761523801
 30
0.0
 10
4.749247581
 20
3.7724676842
 30
0.0
 10
4.7450503649
 20
3.7822488292
 30
0.0
 10
4.7413547999
 20
3.7880320719
 30
0.0
 10
4.7393588286
 20
3.7906425851
 30
0.0
  0
SPLINE
  5
3DF
100
AcDbEntity
  8
0
100
AcDbSpline
 62
7
  6
CONTINUOUS
 70
0
 71
3
 72
15
 73
11
 74
0
 42
0.0000001
 43
0.0000001
 44
0.0000000001
 40
0.0
 40
0.0
 40
0.0
 40
0.0
 40
0.1109062127
 40
0.2324235751
 40
0.36335801
 40
0.5000011198
 40
0.6366439136
 40
0.7675775456
 40
0.8890943043
 40
1.0
 40
1.0
 40
1.0
 40
1.0
 10
4.73359905
 20
3.7091894367
 30
0.0
 10
4.7353641775
 20
3.7118255695
 30
0.0
 10
4.7386177136
 20
3.7176588807
 30
0.0
 10
4.7422762973
 20
3.7274261011
 30
0.0
 10
4.7446371652
 20
3.7383431777
 30
0.0
 10
4.7454552062
 20
3.7499160986
 30
0.0
 10
4.7446371435
 20
3.7614889948
 30
0.0
 10
4.7422762655
 20
3.7724060182
 30
0.0
 10
4.7386176919
 20
3.7821731831
 30
0.0
 10
4.7353641693
 20
3.7880064647
 30
0.0
 10
4.73359905
 20
3.7906425851
 30
0.0
  0
SPLINE
  5
3E0
100
AcDbEntity
  8
0
100
AcDbSpline
 62
7
  6
CONTINUOUS
 70
0
 71
3
 72
15
 73
11
 74
0
 42
0.0000001
 43
0.0000001
 44
0.0000000001
 40
0.0
 40
0.0
 40
0.0
 40
0.0
 40
0.1086089587
 40
0.2296351893
 40
0.3615410796
 40
0.5000000214
 40
0.6384588763
 40
0.7703648113
 40
0.8913910359
 40
1.0
 40
1.0
 40
1.0
 40
1.0
 10
4.7240610722
 20
3.7091894367
 30
0.0
 10
4.7255746934
 20
3.7118535997
 30
0.0
 10
4.7283485665
 20
3.7177357674
 30
0.0
 10
4.7314374166
 20
3.7274848952
 30
0.0
 10
4.7334297452
 20
3.738374887
 30
0.0
 10
4.7341200998
 20
3.7499160103
 30
0.0
 10
4.733429745
 20
3.7614571347
 30
0.0
 10
4.731437417
 20
3.7723471253
 30
0.0
 10
4.7283485666
 20
3.7820962543
 30
0.0
 10
4.7255746934
 20
3.787978422
 30
0.0
 10
4.7240610722
 20
3.7906425851
 30
0.0
  0
SPLINE
  5
3E1
100
AcDbEntity
  8
0
100
AcDbSpline
 62
7
  6
CONTINUOUS
 70
0
 71
3
 72
15
 73
11
 74
0
 42
0.0000001
 43
0.0000001
 44
0.0000000001
 40
0.0
 40
0.0
 40
0.0
 40
0.0
 40
0.1064545857
 40
0.2270602663
 40
0.3598854896
 40
0.5000011517
 40
0.6401164788
 40
0.7729408611
 40
0.8935459203
 40
1.0
 40
1.0
 40
1.0
 40
1.0
 10
4.7108367509
 20
3.7091894367
 30
0.0
 10
4.712078867
 20
3.7118825381
 30
0.0
 10
4.714340022
 20
3.7178098967
 30
0.0
 10
4.7168351632
 20
3.7275393538
 30
0.0
 10
4.7184445001
 20
3.7384038894
 30
0.0
 10
4.7190020733
 20
3.7499160981
 30
0.0
 10
4.7184444853
 20
3.7614282826
 30
0.0
 10
4.7168351412
 20
3.7722927663
 30
0.0
 10
4.7143400068
 20
3.7820221683
 30
0.0
 10
4.7120788611
 20
3.7879494965
 30
0.0
 10
4.7108367509
 20
3.7906425851
 30
0.0
  0
SPLINE
  5
3E2
100
AcDbEntity
  8
0
100
AcDbSpline
 62
7
  6
CONTINUOUS
 70
0
 71
3
 72
19
 73
15
 74
0
 42
0.0000001
 43
0.0000001
 44
0.0000000001
 40
0.0
 40
0.0
 40
0.0
 40
0.0
 40
0.0503018646
 40
0.1045993527
 40
0.1628471993
 40
0.2248617807
 40
0.3584680972
 40
0.500001165
 40
0.6415338899
 40
0.7751393501
 40
0.8371535974
 40
0.895401149
 40
0.9496982904
 40
1.0
 40
1.0
 40
1.0
 40
1.0
 10
4.6940534436
 20
3.7091894367
 30
0.0
 10
4.694511353
 20
3.7104982737
 30
0.0
 10
4.695389796
 20
3.7132461262
 30
0.0
 10
4.6965491918
 20
3.7175844492
 30
0.0
 10
4.6975811016
 20
3.7222860896
 30
0.0
 10
4.6987893372
 20
3.7291809611
 30
0.0
 10
4.6998255019
 20
3.7384275783
 30
0.0
 10
4.7002469299
 20
3.7499160979
 30
0.0
 10
4.699825491
 20
3.7614045936
 30
0.0
 10
4.6987893206
 20
3.7706511674
 30
0.0
 10
4.6975810893
 20
3.7775459981
 30
0.0
 10
4.6965491817
 20
3.7822476115
 30
0.0
 10
4.6953897909
 20
3.786585913
 30
0.0
 10
4.6945113515
 20
3.7893337522
 30
0.0
 10
4.6940534436
 20
3.7906425851
 30
0.0
  0
SPLINE
  5
3E3
100
AcDbEntity
  8
0
100
AcDbSpline
 62
7
  6
CONTINUOUS
 70
0
 71
3
 72
19
 73
15
 74
0
 42
0.0000001
 43
0.0000001
 44
0.0000000001
 40
0.0
 40
0.0
 40
0.0
 40
0.0
 40
0.0494007089
 40
0.1031287462
 40
0.1611071645
 40
0.2231169338
 40
0.3573526294
 40
0.5000011751
 40
0.6426493721
 40
0.7768841992
 40
0.8388936315
 40
0.896871752
 40
0.9505994441
 40
1.0
 40
1.0
 40
1.0
 40
1.0
 10
4.6738727828
 20
3.7091894367
 30
0.0
 10
4.6741819222
 20
3.7105042038
 30
0.0
 10
4.6747739185
 20
3.7132616382
 30
0.0
 10
4.6755522344
 20
3.7175977457
 30
0.0
 10
4.6762450469
 20
3.7222971301
 30
0.0
 10
4.6770576682
 20
3.7292008016
 30
0.0
 10
4.6777525952
 20
3.7384449099
 30
0.0
 10
4.6780350438
 20
3.7499160978
 30
0.0
 10
4.6777525879
 20
3.7613872618
 30
0.0
 10
4.6770576571
 20
3.7706313272
 30
0.0
 10
4.6762450387
 20
3.7775349576
 30
0.0
 10
4.6755522276
 20
3.7822343151
 30
0.0
 10
4.6747739151
 20
3.7865704012
 30
0.0
 10
4.6741819213
 20
3.7893278221
 30
0.0
 10
4.6738727828
 20
3.7906425851
 30
0.0
  0
SPLINE
  5
3E4
100
AcDbEntity
  8
0
100
AcDbSpline
 62
7
  6
CONTINUOUS
 70
0
 71
3
 72
15
 73
11
 74
0
 42
0.0000001
 43
0.0000001
 44
0.0000000001
 40
0.0
 40
0.0
 40
0.0
 40
0.0
 40
0.1021881741
 40
0.2220050789
 40
0.3566442375
 40
0.5000011815
 40
0.6433577731
 40
0.7779960557
 40
0.8978123218
 40
1.0
 40
1.0
 40
1.0
 40
1.0
 10
4.6504891192
 20
3.7091894367
 30
0.0
 10
4.6508151888
 20
3.7119496231
 30
0.0
 10
4.651398001
 20
3.7179611689
 30
0.0
 10
4.652030425
 20
3.7276419991
 30
0.0
 10
4.6524386651
 20
3.7384555669
 30
0.0
 10
4.6525802345
 20
3.7499160978
 30
0.0
 10
4.6524386614
 20
3.7613766048
 30
0.0
 10
4.6520304194
 20
3.7721901216
 30
0.0
 10
4.6513979971
 20
3.7818708971
 30
0.0
 10
4.6508151872
 20
3.7878824121
 30
0.0
 10
4.6504891192
 20
3.7906425851
 30
0.0
  0
SPLINE
  5
3E5
100
AcDbEntity
  8
0
100
AcDbSpline
 62
7
  6
CONTINUOUS
 70
0
 71
3
 72
23
 73
19
 74
0
 42
0.0000001
 43
0.0000001
 44
0.0000000001
 40
0.0
 40
0.0
 40
0.0
 40
0.0
 40
0.0621217851
 40
0.1243565461
 40
0.1867041599
 40
0.2491727329
 40
0.311755955
 40
0.3744412128
 40
0.4372019668
 40
0.5000010164
 40
0.5628000402
 40
0.6255605825
 40
0.6882454431
 40
0.7508283729
 40
0.8132966547
 40
0.8756440081
 40
0.9378783959
 40
1.0
 40
1.0
 40
1.0
 40
1.0
 10
4.008697093
 20
3.7091894367
 30
0.0
 10
4.0072098608
 20
3.7104475942
 30
0.0
 10
4.0043353893
 20
3.713091119
 30
0.0
 10
4.0003918006
 20
3.7174293973
 30
0.0
 10
3.9968768873
 20
3.7221375179
 30
0.0
 10
3.9938614163
 20
3.7271944349
 30
0.0
 10
3.9914172437
 20
3.7325641649
 30
0.0
 10
3.9896123222
 20
3.7381921676
 30
0.0
 10
3.988504024
 20
3.7440056304
 30
0.0
 10
3.9881301691
 20
3.7499161064
 30
0.0
 10
3.9885040295
 20
3.7558265766
 30
0.0
 10
3.9896123634
 20
3.761640013
 30
0.0
 10
3.9914173023
 20
3.767267979
 30
0.0
 10
3.9938614641
 20
3.7726376798
 30
0.0
 10
3.9968769297
 20
3.7776945695
 30
0.0
 10
4.0003918329
 20
3.7824026611
 30
0.0
 10
4.0043354056
 20
3.7867409192
 30
0.0
 10
4.0072098651
 20
3.7893844313
 30
0.0
 10
4.008697093
 20
3.7906425851
 30
0.0
  0
SPLINE
  5
3E6
100
AcDbEntity
  8
0
100
AcDbSpline
 62
7
  6
CONTINUOUS
 70
0
 71
3
 72
23
 73
19
 74
0
 42
0.0000001
 43
0.0000001
 44
0.0000000001
 40
0.0
 40
0.0
 40
0.0
 40
0.0
 40
0.0616644641
 40
0.1235770653
 40
0.1857457145
 40
0.2481800993
 40
0.3108665287
 40
0.3737737775
 40
0.4368446988
 40
0.5000010226
 40
0.5631573202
 40
0.6262280257
 40
0.6891348721
 40
0.7518210071
 40
0.8142550992
 40
0.8764234867
 40
0.9383357158
 40
1.0
 40
1.0
 40
1.0
 40
1.0
 10
3.9885164321
 20
3.7091894367
 30
0.0
 10
3.9870638465
 20
3.7104489045
 30
0.0
 10
3.9842563185
 20
3.7130956851
 30
0.0
 10
3.9804088201
 20
3.7174346467
 30
0.0
 10
3.9769798702
 20
3.7221432262
 30
0.0
 10
3.9740385064
 20
3.7272001983
 30
0.0
 10
3.9716547439
 20
3.7325694037
 30
0.0
 10
3.9698946935
 20
3.7381962041
 30
0.0
 10
3.9688140843
 20
3.7440078369
 30
0.0
 10
3.9684495955
 20
3.7499161064
 30
0.0
 10
3.9688140896
 20
3.75582437
 30
0.0
 10
3.9698947337
 20
3.7616359765
 30
0.0
 10
3.9716548011
 20
3.7672627404
 30
0.0
 10
3.9740385531
 20
3.7726319163
 30
0.0
 10
3.9769799115
 20
3.7776888612
 30
0.0
 10
3.9804088517
 20
3.7823974118
 30
0.0
 10
3.9842563344
 20
3.7867363531
 30
0.0
 10
3.9870638507
 20
3.789383121
 30
0.0
 10
3.9885164321
 20
3.7906425851
 30
0.0
  0
SPLINE
  5
3E7
100
AcDbEntity
  8
0
100
AcDbSpline
 62
7
  6
CONTINUOUS
 70
0
 71
3
 72
23
 73
19
 74
0
 42
0.0000001
 43
0.0000001
 44
0.0000000001
 40
0.0
 40
0.0
 40
0.0
 40
0.0
 40
0.061028385
 40
0.1224947118
 40
0.1844170687
 40
0.2468062221
 40
0.3096372019
 40
0.3728522847
 40
0.4363517843
 40
0.5000010313
 40
0.5636502513
 40
0.6271495293
 40
0.6903642026
 40
0.7531948854
 40
0.8155837437
 40
0.8775058371
 40
0.9389717935
 40
1.0
 40
1.0
 40
1.0
 40
1.0
 10
3.9717331249
 20
3.7091894367
 30
0.0
 10
3.9703286249
 20
3.7104507895
 30
0.0
 10
3.9676140654
 20
3.7131021974
 30
0.0
 10
3.9638998504
 20
3.7174420514
 30
0.0
 10
3.9605901155
 20
3.7221511868
 30
0.0
 10
3.9577514847
 20
3.7272081468
 30
0.0
 10
3.9554514166
 20
3.7325765561
 30
0.0
 10
3.9537534866
 20
3.7382016704
 30
0.0
 10
3.9527111837
 20
3.7440108092
 30
0.0
 10
3.9523596471
 20
3.7499161064
 30
0.0
 10
3.9527111888
 20
3.7558213975
 30
0.0
 10
3.9537535253
 20
3.7616305101
 30
0.0
 10
3.9554514719
 20
3.7672555882
 30
0.0
 10
3.9577515297
 20
3.7726239678
 30
0.0
 10
3.9605901554
 20
3.7776809006
 30
0.0
 10
3.963899881
 20
3.7823900072
 30
0.0
 10
3.9676140808
 20
3.7867298409
 30
0.0
 10
3.970328629
 20
3.789381236
 30
0.0
 10
3.9717331249
 20
3.7906425851
 30
0.0
  0
SPLINE
  5
3E8
100
AcDbEntity
  8
0
100
AcDbSpline
 62
7
  6
CONTINUOUS
 70
0
 71
3
 72
23
 73
19
 74
0
 42
0.0000001
 43
0.0000001
 44
0.0000000001
 40
0.0
 40
0.0
 40
0.0
 40
0.0
 40
0.0602191405
 40
0.121120799
 40
0.1827342526
 40
0.2450697256
 40
0.3080862208
 40
0.3716913304
 40
0.4357313424
 40
0.5000010421
 40
0.5642707141
 40
0.6283104975
 40
0.6919151885
 40
0.7549313833
 40
0.8172665581
 40
0.8788797461
 40
0.9397810361
 40
1.0
 40
1.0
 40
1.0
 40
1.0
 10
3.9585088036
 20
3.7091894367
 30
0.0
 10
3.957165423
 20
3.7104532981
 30
0.0
 10
3.9545691287
 20
3.7131107621
 30
0.0
 10
3.9510241533
 20
3.7174516457
 30
0.0
 10
3.9478657524
 20
3.7221613452
 30
0.0
 10
3.9451574632
 20
3.7272181422
 30
0.0
 10
3.9429634993
 20
3.7325854335
 30
0.0
 10
3.9413442507
 20
3.7382083847
 30
0.0
 10
3.9403504256
 20
3.7440144354
 30
0.0
 10
3.940015272
 20
3.7499161064
 30
0.0
 10
3.9403504304
 20
3.755817771
 30
0.0
 10
3.9413442876
 20
3.7616237958
 30
0.0
 10
3.9429635521
 20
3.767246711
 30
0.0
 10
3.9451575063
 20
3.7726139724
 30
0.0
 10
3.9478657905
 20
3.7776707422
 30
0.0
 10
3.9510241825
 20
3.7823804131
 30
0.0
 10
3.9545691435
 20
3.7867212762
 30
0.0
 10
3.9571654269
 20
3.7893787275
 30
0.0
 10
3.9585088036
 20
3.7906425851
 30
0.0
  0
SPLINE
  5
3E9
100
AcDbEntity
  8
0
100
AcDbSpline
 62
7
  6
CONTINUOUS
 70
0
 71
3
 72
23
 73
19
 74
0
 42
0.0000001
 43
0.0000001
 44
0.0000000001
 40
0.0
 40
0.0
 40
0.0
 40
0.0
 40
0.0592460359
 40
0.119473385
 40
0.1807220125
 40
0.2429985961
 40
0.3062404303
 40
0.3703120615
 40
0.4349950269
 40
0.500001055
 40
0.5650070542
 40
0.6296897828
 40
0.6937609848
 40
0.7570025145
 40
0.8192787964
 40
0.8805271554
 40
0.9407541385
 40
1.0
 40
1.0
 40
1.0
 40
1.0
 10
3.9489708257
 20
3.7091894367
 30
0.0
 10
3.9477010973
 20
3.7104564893
 30
0.0
 10
3.945247462
 20
3.7131214913
 30
0.0
 10
3.9419060984
 20
3.7174634394
 30
0.0
 10
3.9389296951
 20
3.7221735972
 30
0.0
 10
3.9363780502
 20
3.7272299831
 30
0.0
 10
3.934311484
 20
3.7325957852
 30
0.0
 10
3.9327866093
 20
3.7382161173
 30
0.0
 10
3.9318508772
 20
3.7440185785
 30
0.0
 10
3.9315353456
 20
3.7499161064
 30
0.0
 10
3.9318508817
 20
3.7558136276
 30
0.0
 10
3.932786644
 20
3.7616160632
 30
0.0
 10
3.9343115339
 20
3.7672363597
 30
0.0
 10
3.9363780908
 20
3.7726021315
 30
0.0
 10
3.938929731
 20
3.7776584903
 30
0.0
 10
3.9419061261
 20
3.7823686195
 30
0.0
 10
3.9452474759
 20
3.7867105471
 30
0.0
 10
3.947701101
 20
3.7893755362
 30
0.0
 10
3.9489708257
 20
3.7906425851
 30
0.0
  0
SPLINE
  5
3EA
100
AcDbEntity
  8
0
100
AcDbSpline
 62
7
  6
CONTINUOUS
 70
0
 71
3
 72
15
 73
11
 74
0
 42
0.0000001
 43
0.0000001
 44
0.0000000001
 40
0.0
 40
0.0
 40
0.0
 40
0.0
 40
0.1175991596
 40
0.2406570116
 40
0.3687596985
 40
0.5000010702
 40
0.6312421564
 40
0.7593441006
 40
0.882401375
 40
1.0
 40
1.0
 40
1.0
 40
1.0
 10
3.9432110472
 20
3.7091894367
 30
0.0
 10
3.9408179132
 20
3.7117581275
 30
0.0
 10
3.9363623208
 20
3.7174480054
 30
0.0
 10
3.9312085674
 20
3.7272444385
 30
0.0
 10
3.9278694647
 20
3.7382367076
 30
0.0
 10
3.926709655
 20
3.7499160993
 30
0.0
 10
3.9278694955
 20
3.7615954656
 30
0.0
 10
3.9312086116
 20
3.7725876794
 30
0.0
 10
3.9363623501
 20
3.7823840566
 30
0.0
 10
3.9408179241
 20
3.788073906
 30
0.0
 10
3.9432110472
 20
3.7906425851
 30
0.0
  0
SPLINE
  5
3EB
100
AcDbEntity
  8
0
100
AcDbSpline
 62
7
  6
CONTINUOUS
 70
0
 71
3
 72
37
 73
33
 74
0
 42
0.0000001
 43
0.0000001
 44
0.0000000001
 40
0.0
 40
0.0
 40
0.0
 40
0.0
 40
0.0626067941
 40
0.0939240615
 40
0.1251984326
 40
0.1564380297
 40
0.1876475522
 40
0.2188304356
 40
0.2499960727
 40
0.2811577428
 40
0.3123311639
 40
0.3435265524
 40
0.3747565689
 40
0.4060219874
 40
0.4373248107
 40
0.4686543726
 40
0.500000017
 40
0.5313456615
 40
0.5626752217
 40
0.5939780454
 40
0.6252434668
 40
0.6564734855
 40
0.687668871
 40
0.7188422865
 40
0.7500039573
 40
0.7811695975
 40
0.8123524809
 40
0.8435620043
 40
0.8748016167
 40
0.9060760079
 40
0.9373932632
 40
1.0
 40
1.0
 40
1.0
 40
1.0
 10
4.3412849379
 20
4.2749160109
 30
0.0
 10
4.3356102951
 20
4.2749168825
 30
0.0
 10
4.3270690388
 20
4.2757141111
 30
0.0
 10
4.316017723
 20
4.2783407516
 30
0.0
 10
4.3079511007
 20
4.2810781614
 30
0.0
 10
4.3001886377
 20
4.2845596661
 30
0.0
 10
4.2927976042
 20
4.2887569147
 30
0.0
 10
4.2858471949
 20
4.2936380507
 30
0.0
 10
4.2794042552
 20
4.2991654933
 30
0.0
 10
4.2735310838
 20
4.305294166
 30
0.0
 10
4.2682901023
 20
4.3119752817
 30
0.0
 10
4.2637365818
 20
4.3191503902
 30
0.0
 10
4.2599277324
 20
4.3267566931
 30
0.0
 10
4.256907064
 20
4.3347197426
 30
0.0
 10
4.2547205764
 20
4.3429605687
 30
0.0
 10
4.2533929463
 20
4.3513900909
 30
0.0
 10
4.2529505916
 20
4.3599160155
 30
0.0
 10
4.2533929473
 20
4.36844194
 30
0.0
 10
4.254720578
 20
4.376871462
 30
0.0
 10
4.256907067
 20
4.3851122878
 30
0.0
 10
4.2599277364
 20
4.3930753375
 30
0.0
 10
4.2637365872
 20
4.4006816399
 30
0.0
 10
4.268290107
 20
4.4078567481
 30
0.0
 10
4.2735310895
 20
4.4145378622
 30
0.0
 10
4.2794042615
 20
4.4206665341
 30
0.0
 10
4.2858472024
 20
4.4261939757
 30
0.0
 10
4.2927976114
 20
4.4310751128
 30
0.0
 10
4.3001886467
 20
4.4352723612
 30
0.0
 10
4.3079511136
 20
4.4387538654
 30
0.0
 10
4.3160177393
 20
4.4414912718
 30
0.0
 10
4.3270690498
 20
4.4441179153
 30
0.0
 10
4.3356103003
 20
4.4449151394
 30
0.0
 10
4.3412849379
 20
4.4449160109
 30
0.0
  0
SPLINE
  5
3EC
100
AcDbEntity
  8
0
100
AcDbSpline
 62
7
  6
CONTINUOUS
 70
0
 71
3
 72
15
 73
11
 74
0
 42
0.0000001
 43
0.0000001
 44
0.0000000001
 40
0.0
 40
0.0
 40
0.0
 40
0.0
 40
0.1154938796
 40
0.2380463255
 40
0.367037362
 40
0.4999990166
 40
0.6329611272
 40
0.761952708
 40
0.8845056954
 40
1.0
 40
1.0
 40
1.0
 40
1.0
 10
4.3412849379
 20
3.7906425851
 30
0.0
 10
4.3434905505
 20
3.7880545248
 30
0.0
 10
4.3475876294
 20
3.7823195584
 30
0.0
 10
4.3522855041
 20
3.7725285862
 30
0.0
 10
4.3553235192
 20
3.7615593449
 30
0.0
 10
4.3563782605
 20
3.7499160853
 30
0.0
 10
4.3553235502
 20
3.7382728054
 30
0.0
 10
4.3522855331
 20
3.7273035169
 30
0.0
 10
4.3475876537
 20
3.7175124972
 30
0.0
 10
4.3434905586
 20
3.7117775066
 30
0.0
 10
4.3412849379
 20
3.7091894367
 30
0.0
  0
SPLINE
  5
3ED
100
AcDbEntity
  8
0
100
AcDbSpline
 62
7
  6
CONTINUOUS
 70
0
 71
3
 72
15
 73
11
 74
0
 42
0.0000001
 43
0.0000001
 44
0.0000000001
 40
0.0
 40
0.0
 40
0.0
 40
0.0
 40
0.1176029909
 40
0.2406627887
 40
0.368763434
 40
0.4999990305
 40
0.6312350712
 40
0.7593362484
 40
0.8823965794
 40
1.0
 40
1.0
 40
1.0
 40
1.0
 10
4.7393588286
 20
3.7906425851
 30
0.0
 10
4.7417520408
 20
3.7880738104
 30
0.0
 10
4.7462076977
 20
3.7823837714
 30
0.0
 10
4.7513615653
 20
3.7725872391
 30
0.0
 10
4.7547001844
 20
3.7615950434
 30
0.0
 10
4.7558605611
 20
3.7499160856
 30
0.0
 10
4.7547002183
 20
3.7382371067
 30
0.0
 10
4.751361597
 20
3.7272448639
 30
0.0
 10
4.7462077239
 20
3.7174482836
 30
0.0
 10
4.7417520495
 20
3.7117582208
 30
0.0
 10
4.7393588286
 20
3.7091894367
 30
0.0
  0
SPLINE
  5
3EE
100
AcDbEntity
  8
0
100
AcDbSpline
 62
7
  6
CONTINUOUS
 70
0
 71
3
 72
23
 73
19
 74
0
 42
0.0000001
 43
0.0000001
 44
0.0000000001
 40
0.0
 40
0.0
 40
0.0
 40
0.0
 40
0.0592494777
 40
0.1194772546
 40
0.1807276115
 40
0.2430043895
 40
0.3062461693
 40
0.3703157211
 40
0.434995071
 40
0.4999990387
 40
0.5650031601
 40
0.6296827984
 40
0.6937526074
 40
0.7569946492
 40
0.8192717181
 40
0.8805223109
 40
0.940750372
 40
1.0
 40
1.0
 40
1.0
 40
1.0
 10
4.73359905
 20
3.7906425851
 30
0.0
 10
4.7348688525
 20
3.7893754587
 30
0.0
 10
4.7373225703
 20
3.7867103705
 30
0.0
 10
4.7406639952
 20
3.782368255
 30
0.0
 10
4.7436404405
 20
3.7776580384
 30
0.0
 10
4.7461920715
 20
3.7726015794
 30
0.0
 10
4.7482585224
 20
3.7672357894
 30
0.0
 10
4.7497831662
 20
3.7616155812
 30
0.0
 10
4.7507190598
 20
3.755813394
 30
0.0
 10
4.7510347579
 20
3.7499160937
 30
0.0
 10
4.7507190884
 20
3.7440187825
 30
0.0
 10
4.7497831982
 20
3.7382165728
 30
0.0
 10
4.7482585547
 20
3.7325963393
 30
0.0
 10
4.7461921058
 20
3.7272305223
 30
0.0
 10
4.7436404709
 20
3.7221740384
 30
0.0
 10
4.7406640182
 20
3.7174637973
 30
0.0
 10
4.7373225817
 20
3.7131216648
 30
0.0
 10
4.7348688557
 20
3.7104565664
 30
0.0
 10
4.73359905
 20
3.7091894367
 30
0.0
  0
SPLINE
  5
3EF
100
AcDbEntity
  8
0
100
AcDbSpline
 62
7
  6
CONTINUOUS
 70
0
 71
3
 72
37
 73
33
 74
0
 42
0.0000001
 43
0.0000001
 44
0.0000000001
 40
0.0
 40
0.0
 40
0.0
 40
0.0
 40
0.0626068184
 40
0.0939241029
 40
0.1251984663
 40
0.1564380521
 40
0.1876475753
 40
0.2188304622
 40
0.249996097
 40
0.2811577618
 40
0.3123311803
 40
0.3435265671
 40
0.3747565807
 40
0.4060219959
 40
0.4373248161
 40
0.4686543756
 40
0.5000000172
 40
0.5313456589
 40
0.5626752167
 40
0.5939780373
 40
0.6252434553
 40
0.6564734711
 40
0.687668855
 40
0.718842268
 40
0.7500039333
 40
0.7811695711
 40
0.8123524581
 40
0.8435619824
 40
0.8748015839
 40
0.9060759674
 40
0.9373932394
 40
1.0
 40
1.0
 40
1.0
 40
1.0
 10
4.3412849379
 20
4.4449160109
 30
0.0
 10
4.346959583
 20
4.4449151633
 30
0.0
 10
4.3555008434
 20
4.4441179023
 30
0.0
 10
4.3665521612
 20
4.4414912644
 30
0.0
 10
4.3746187878
 20
4.4387538661
 30
0.0
 10
4.3823812506
 20
4.4352723634
 30
0.0
 10
4.3897722792
 20
4.4310751069
 30
0.0
 10
4.3967226862
 20
4.4261939674
 30
0.0
 10
4.4031656265
 20
4.4206665259
 30
0.0
 10
4.4090387989
 20
4.414537855
 30
0.0
 10
4.4142797788
 20
4.4078567387
 30
0.0
 10
4.4188332978
 20
4.4006816299
 30
0.0
 10
4.422642146
 20
4.393075327
 30
0.0
 10
4.4256628136
 20
4.3851122778
 30
0.0
 10
4.4278493003
 20
4.3768714521
 30
0.0
 10
4.4291769296
 20
4.3684419304
 30
0.0
 10
4.4296192842
 20
4.3599160062
 30
0.0
 10
4.4291769285
 20
4.3513900823
 30
0.0
 10
4.4278492987
 20
4.3429605608
 30
0.0
 10
4.4256628106
 20
4.3347197352
 30
0.0
 10
4.422642142
 20
4.3267566859
 30
0.0
 10
4.4188332923
 20
4.3191503836
 30
0.0
 10
4.414279774
 20
4.311975275
 30
0.0
 10
4.4090387931
 20
4.3052941604
 30
0.0
 10
4.4031656201
 20
4.2991654902
 30
0.0
 10
4.3967226786
 20
4.2936380498
 30
0.0
 10
4.3897722719
 20
4.2887569092
 30
0.0
 10
4.3823812414
 20
4.2845596528
 30
0.0
 10
4.3746187746
 20
4.2810781506
 30
0.0
 10
4.3665521448
 20
4.2783407558
 30
0.0
 10
4.3555008323
 20
4.2757141149
 30
0.0
 10
4.3469595778
 20
4.2749168585
 30
0.0
 10
4.3412849379
 20
4.2749160109
 30
0.0
  0
SPLINE
  5
3F0
100
AcDbEntity
  8
0
100
AcDbSpline
 62
7
  6
CONTINUOUS
 70
0
 71
3
 72
23
 73
19
 74
0
 42
0.0000001
 43
0.0000001
 44
0.0000000001
 40
0.0
 40
0.0
 40
0.0
 40
0.0
 40
0.0602226318
 40
0.1211246989
 40
0.1827398827
 40
0.2450755233
 40
0.3080919137
 40
0.371694919
 40
0.4357313785
 40
0.4999990494
 40
0.5642668704
 40
0.6283036131
 40
0.6919068711
 40
0.754923518
 40
0.8172594453
 40
0.8788748628
 40
0.9397772159
 40
1.0
 40
1.0
 40
1.0
 40
1.0
 10
4.7240610722
 20
3.7906425851
 30
0.0
 10
4.7254045309
 20
3.7893786502
 30
0.0
 10
4.7280009121
 20
3.7867211009
 30
0.0
 10
4.731545954
 20
3.7823800481
 30
0.0
 10
4.7347043984
 20
3.7776702914
 30
0.0
 10
4.737412673
 20
3.7726134213
 30
0.0
 10
4.7396065156
 20
3.7672461408
 30
0.0
 10
4.7412255197
 20
3.7616233097
 30
0.0
 10
4.7422195147
 20
3.7558175383
 30
0.0
 10
4.7425548455
 20
3.7499160938
 30
0.0
 10
4.742219545
 20
3.7440146382
 30
0.0
 10
4.7412255536
 20
3.7382088443
 30
0.0
 10
4.73960655
 20
3.732585988
 30
0.0
 10
4.7374127095
 20
3.7272186802
 30
0.0
 10
4.7347044305
 20
3.7221617853
 30
0.0
 10
4.7315459783
 20
3.717452004
 30
0.0
 10
4.7280009242
 20
3.7131109344
 30
0.0
 10
4.7254045343
 20
3.7104533748
 30
0.0
 10
4.7240610722
 20
3.7091894367
 30
0.0
  0
SPLINE
  5
3F1
100
AcDbEntity
  8
0
100
AcDbSpline
 62
7
  6
CONTINUOUS
 70
0
 71
3
 72
23
 73
19
 74
0
 42
0.0000001
 43
0.0000001
 44
0.0000000001
 40
0.0
 40
0.0
 40
0.0
 40
0.0
 40
0.0610319174
 40
0.1224986371
 40
0.184422725
 40
0.2468120235
 40
0.3096428559
 40
0.372855813
 40
0.4363518135
 40
0.4999990584
 40
0.5636464503
 40
0.6271427297
 40
0.6903559356
 40
0.7531870198
 40
0.8155766017
 40
0.8775009213
 40
0.9389679286
 40
1.0
 40
1.0
 40
1.0
 40
1.0
 10
4.7108367509
 20
3.7906425851
 30
0.0
 10
4.7122413325
 20
3.7893811591
 30
0.0
 10
4.7149559825
 20
3.7867296666
 30
0.0
 10
4.7186702683
 20
3.782389642
 30
0.0
 10
4.7219800479
 20
3.7776804507
 30
0.0
 10
4.7248186637
 20
3.7726234177
 30
0.0
 10
4.7271186055
 20
3.767255018
 30
0.0
 10
4.7288162796
 20
3.7616300204
 30
0.0
 10
4.7298587592
 20
3.7558211656
 30
0.0
 10
4.7302104821
 20
3.7499160939
 30
0.0
 10
4.7298587909
 20
3.7440110109
 30
0.0
 10
4.7288163151
 20
3.7382021336
 30
0.0
 10
4.7271186416
 20
3.7325771109
 30
0.0
 10
4.7248187019
 20
3.7272086838
 30
0.0
 10
4.7219800816
 20
3.722151626
 30
0.0
 10
4.7186702937
 20
3.71744241
 30
0.0
 10
4.7149559951
 20
3.7131023687
 30
0.0
 10
4.712241336
 20
3.710450866
 30
0.0
 10
4.7108367509
 20
3.7091894367
 30
0.0
  0
SPLINE
  5
3F2
100
AcDbEntity
  8
0
100
AcDbSpline
 62
7
  6
CONTINUOUS
 70
0
 71
3
 72
23
 73
19
 74
0
 42
0.0000001
 43
0.0000001
 44
0.0000000001
 40
0.0
 40
0.0
 40
0.0
 40
0.0
 40
0.061668029
 40
0.1235810107
 40
0.1857513916
 40
0.2481859038
 40
0.3108721518
 40
0.3737772576
 40
0.4368447225
 40
0.4999990656
 40
0.5631535532
 40
0.6262212935
 40
0.6891266449
 40
0.7518131411
 40
0.814247934
 40
0.8764185452
 40
0.9383318158
 40
1.0
 40
1.0
 40
1.0
 40
1.0
 10
4.6940534436
 20
3.7906425851
 30
0.0
 10
4.6955061136
 20
3.7893830442
 30
0.0
 10
4.6983137349
 20
3.7867361796
 30
0.0
 10
4.7021613076
 20
3.7823970463
 30
0.0
 10
4.705590303
 20
3.7776884119
 30
0.0
 10
4.7085316514
 20
3.772631367
 30
0.0
 10
4.7109152839
 20
3.7672621703
 30
0.0
 10
4.7126750694
 20
3.7616354839
 30
0.0
 10
4.7137558607
 20
3.7558241388
 30
0.0
 10
4.7141205429
 20
3.749916094
 30
0.0
 10
4.7137558936
 20
3.7440080377
 30
0.0
 10
4.7126751062
 20
3.7381966701
 30
0.0
 10
4.7109153213
 20
3.7325699586
 30
0.0
 10
4.7085316909
 20
3.7272007345
 30
0.0
 10
4.7055903379
 20
3.7221436647
 30
0.0
 10
4.7021613339
 20
3.7174350055
 30
0.0
 10
4.698313748
 20
3.7130958556
 30
0.0
 10
4.6955061173
 20
3.7104489808
 30
0.0
 10
4.6940534436
 20
3.7091894367
 30
0.0
  0
SPLINE
  5
3F3
100
AcDbEntity
  8
0
100
AcDbSpline
 62
7
  6
CONTINUOUS
 70
0
 71
3
 72
23
 73
19
 74
0
 42
0.0000001
 43
0.0000001
 44
0.0000000001
 40
0.0
 40
0.0
 40
0.0
 40
0.0
 40
0.0621253733
 40
0.1243605061
 40
0.1867098521
 40
0.2491785396
 40
0.3117615558
 40
0.3744446577
 40
0.4372019863
 40
0.4999990707
 40
0.5627962979
 40
0.6255538993
 40
0.6882372448
 40
0.7508205064
 40
0.8132894726
 40
0.875639048
 40
0.9378744706
 40
1.0
 40
1.0
 40
1.0
 40
1.0
 10
4.6738727828
 20
3.7906425851
 30
0.0
 10
4.6753601012
 20
3.7893843547
 30
0.0
 10
4.6782346681
 20
3.7867407463
 30
0.0
 10
4.6821783337
 20
3.7824022955
 30
0.0
 10
4.685693293
 20
3.7776941207
 30
0.0
 10
4.6887087483
 20
3.772637131
 30
0.0
 10
4.6911527882
 20
3.767267409
 30
0.0
 10
4.6929574384
 20
3.7616395182
 30
0.0
 10
4.6940659224
 20
3.7558263459
 30
0.0
 10
4.694439976
 20
3.7499160941
 30
0.0
 10
4.6940659561
 20
3.7440058306
 30
0.0
 10
4.6929574761
 20
3.7381926357
 30
0.0
 10
4.6911528265
 20
3.7325647199
 30
0.0
 10
4.6887087888
 20
3.7271949704
 30
0.0
 10
4.6856933287
 20
3.7221379558
 30
0.0
 10
4.6821783605
 20
3.7174297563
 30
0.0
 10
4.6782346815
 20
3.7130912889
 30
0.0
 10
4.675360105
 20
3.7104476703
 30
0.0
 10
4.6738727828
 20
3.7091894367
 30
0.0
  0
SPLINE
  5
3F4
100
AcDbEntity
  8
0
100
AcDbSpline
 62
7
  6
CONTINUOUS
 70
0
 71
3
 72
23
 73
19
 74
0
 42
0.0000001
 43
0.0000001
 44
0.0000000001
 40
0.0
 40
0.0
 40
0.0
 40
0.0
 40
0.0624008062
 40
0.124830472
 40
0.1872883581
 40
0.2497783052
 40
0.31229945
 40
0.3748485881
 40
0.4374183167
 40
0.4999990739
 40
0.5625799727
 40
0.6251499726
 40
0.6876993529
 40
0.7502207415
 40
0.8127109662
 40
0.875169081
 40
0.9375990371
 40
1.0
 40
1.0
 40
1.0
 40
1.0
 10
4.6504891192
 20
3.7906425851
 30
0.0
 10
4.6519973482
 20
3.7893851264
 30
0.0
 10
4.6549123003
 20
3.7867434507
 30
0.0
 10
4.6589139776
 20
3.7824054268
 30
0.0
 10
4.6624808394
 20
3.7776975522
 30
0.0
 10
4.6655410496
 20
3.7726406216
 30
0.0
 10
4.6680215856
 20
3.7672706033
 30
0.0
 10
4.6698533556
 20
3.7616419919
 30
0.0
 10
4.6709785876
 20
3.7558277041
 30
0.0
 10
4.6713583106
 20
3.7499160941
 30
0.0
 10
4.6709786219
 20
3.7440044724
 30
0.0
 10
4.6698533939
 20
3.7381901621
 30
0.0
 10
4.6680216245
 20
3.7325615257
 30
0.0
 10
4.6655410907
 20
3.7271914797
 30
0.0
 10
4.6624808757
 20
3.7221345244
 30
0.0
 10
4.6589140048
 20
3.7174266249
 30
0.0
 10
4.6549123138
 20
3.7130885845
 30
0.0
 10
4.651997352
 20
3.7104468986
 30
0.0
 10
4.6504891192
 20
3.7091894367
 30
0.0
  0
SPLINE
  5
3F5
100
AcDbEntity
  8
0
100
AcDbSpline
 62
7
  6
CONTINUOUS
 70
0
 71
3
 72
23
 73
19
 74
0
 42
0.0000001
 43
0.0000001
 44
0.0000000001
 40
0.0
 40
0.0
 40
0.0
 40
0.0
 40
0.062492772
 40
0.1249874778
 40
0.1874817318
 40
0.2499788913
 40
0.3124794285
 40
0.3749837933
 40
0.4374907452
 40
0.4999990749
 40
0.5625075459
 40
0.6250147686
 40
0.6875193751
 40
0.7500201556
 40
0.8125175923
 40
0.8750120748
 40
0.9375070711
 40
1.0
 40
1.0
 40
1.0
 40
1.0
 10
4.6241276504
 20
3.7906425851
 30
0.0
 10
4.6256428699
 20
3.7893853812
 30
0.0
 10
4.6285713203
 20
3.7867443461
 30
0.0
 10
4.6325923944
 20
3.7824064673
 30
0.0
 10
4.636176611
 20
3.7776986967
 30
0.0
 10
4.6392517879
 20
3.7726417903
 30
0.0
 10
4.6417445313
 20
3.7672716764
 30
0.0
 10
4.6435853749
 20
3.7616428253
 30
0.0
 10
4.6447162118
 20
3.7558281626
 30
0.0
 10
4.6450978324
 20
3.7499160941
 30
0.0
 10
4.6447162462
 20
3.7440040139
 30
0.0
 10
4.6435854133
 20
3.7381893287
 30
0.0
 10
4.6417445704
 20
3.7325604525
 30
0.0
 10
4.6392518292
 20
3.727190311
 30
0.0
 10
4.6361766474
 20
3.7221333798
 30
0.0
 10
4.6325924217
 20
3.7174255844
 30
0.0
 10
4.6285713339
 20
3.7130876891
 30
0.0
 10
4.6256428737
 20
3.7104466438
 30
0.0
 10
4.6241276504
 20
3.7091894367
 30
0.0
  0
SPLINE
  5
3F6
100
AcDbEntity
  8
0
100
AcDbSpline
 62
7
  6
CONTINUOUS
 70
0
 71
3
 72
15
 73
11
 74
0
 42
0.0000001
 43
0.0000001
 44
0.0000000001
 40
0.0
 40
0.0
 40
0.0
 40
0.0
 40
0.113233371
 40
0.2352632835
 40
0.3652111367
 40
0.5000011028
 40
0.6347907631
 40
0.7647378341
 40
0.886767152
 40
1.0
 40
1.0
 40
1.0
 40
1.0
 10
4.380491794
 20
3.7091894367
 30
0.0
 10
4.3784958134
 20
3.711799962
 30
0.0
 10
4.3748002332
 20
3.7175832339
 30
0.0
 10
4.3706030053
 20
3.7273644346
 30
0.0
 10
4.3678920311
 20
3.7383083718
 30
0.0
 10
4.3669522064
 20
3.7499160988
 30
0.0
 10
4.3678920561
 20
3.761523801
 30
0.0
 10
4.3706030416
 20
3.7724676842
 30
0.0
 10
4.3748002577
 20
3.7822488292
 30
0.0
 10
4.3784958226
 20
3.7880320719
 30
0.0
 10
4.380491794
 20
3.7906425851
 30
0.0
  0
SPLINE
  5
3F7
100
AcDbEntity
  8
0
100
AcDbSpline
 62
7
  6
CONTINUOUS
 70
0
 71
3
 72
15
 73
11
 74
0
 42
0.0000001
 43
0.0000001
 44
0.0000000001
 40
0.0
 40
0.0
 40
0.0
 40
0.0
 40
0.1176029909
 40
0.2406627887
 40
0.368763434
 40
0.4999990305
 40
0.6312350712
 40
0.7593362484
 40
0.8823965794
 40
1.0
 40
1.0
 40
1.0
 40
1.0
 10
4.380491794
 20
3.7906425851
 30
0.0
 10
4.3828850063
 20
3.7880738104
 30
0.0
 10
4.3873406631
 20
3.7823837714
 30
0.0
 10
4.3924945307
 20
3.7725872391
 30
0.0
 10
4.3958331498
 20
3.7615950434
 30
0.0
 10
4.3969935266
 20
3.7499160856
 30
0.0
 10
4.3958331837
 20
3.7382371067
 30
0.0
 10
4.3924945625
 20
3.7272448639
 30
0.0
 10
4.3873406894
 20
3.7174482836
 30
0.0
 10
4.382885015
 20
3.7117582208
 30
0.0
 10
4.380491794
 20
3.7091894367
 30
0.0
  0
SPLINE
  5
3F8
100
AcDbEntity
  8
0
100
AcDbSpline
 62
7
  6
CONTINUOUS
 70
0
 71
3
 72
15
 73
11
 74
0
 42
0.0000001
 43
0.0000001
 44
0.0000000001
 40
0.0
 40
0.0
 40
0.0
 40
0.0
 40
0.1109062127
 40
0.2324235751
 40
0.36335801
 40
0.5000011198
 40
0.6366439136
 40
0.7675775456
 40
0.8890943043
 40
1.0
 40
1.0
 40
1.0
 40
1.0
 10
4.4193210667
 20
3.7091894367
 30
0.0
 10
4.4175559392
 20
3.7118255695
 30
0.0
 10
4.4143024032
 20
3.7176588807
 30
0.0
 10
4.4106438194
 20
3.7274261011
 30
0.0
 10
4.4082829515
 20
3.7383431777
 30
0.0
 10
4.4074649105
 20
3.7499160986
 30
0.0
 10
4.4082829732
 20
3.7614889948
 30
0.0
 10
4.4106438513
 20
3.7724060182
 30
0.0
 10
4.4143024248
 20
3.7821731831
 30
0.0
 10
4.4175559475
 20
3.7880064647
 30
0.0
 10
4.4193210667
 20
3.7906425851
 30
0.0
  0
SPLINE
  5
3F9
100
AcDbEntity
  8
0
100
AcDbSpline
 62
7
  6
CONTINUOUS
 70
0
 71
3
 72
23
 73
19
 74
0
 42
0.0000001
 43
0.0000001
 44
0.0000000001
 40
0.0
 40
0.0
 40
0.0
 40
0.0
 40
0.0592494777
 40
0.1194772546
 40
0.1807276115
 40
0.2430043895
 40
0.3062461693
 40
0.3703157211
 40
0.434995071
 40
0.4999990387
 40
0.5650031601
 40
0.6296827984
 40
0.6937526074
 40
0.7569946492
 40
0.8192717181
 40
0.8805223109
 40
0.940750372
 40
1.0
 40
1.0
 40
1.0
 40
1.0
 10
4.4193210667
 20
3.7906425851
 30
0.0
 10
4.4205908692
 20
3.7893754587
 30
0.0
 10
4.4230445869
 20
3.7867103705
 30
0.0
 10
4.4263860118
 20
3.782368255
 30
0.0
 10
4.4293624571
 20
3.7776580384
 30
0.0
 10
4.4319140881
 20
3.7726015794
 30
0.0
 10
4.433980539
 20
3.7672357894
 30
0.0
 10
4.4355051829
 20
3.7616155812
 30
0.0
 10
4.4364410764
 20
3.755813394
 30
0.0
 10
4.4367567746
 20
3.7499160937
 30
0.0
 10
4.436441105
 20
3.7440187825
 30
0.0
 10
4.4355052149
 20
3.7382165728
 30
0.0
 10
4.4339805714
 20
3.7325963393
 30
0.0
 10
4.4319141225
 20
3.7272305223
 30
0.0
 10
4.4293624875
 20
3.7221740384
 30
0.0
 10
4.4263860348
 20
3.7174637973
 30
0.0
 10
4.4230445984
 20
3.7131216648
 30
0.0
 10
4.4205908724
 20
3.7104565664
 30
0.0
 10
4.4193210667
 20
3.7091894367
 30
0.0
  0
SPLINE
  5
3FA
100
AcDbEntity
  8
0
100
AcDbSpline
 62
7
  6
CONTINUOUS
 70
0
 71
3
 72
15
 73
11
 74
0
 42
0.0000001
 43
0.0000001
 44
0.0000000001
 40
0.0
 40
0.0
 40
0.0
 40
0.0
 40
0.1086071268
 40
0.2296423503
 40
0.361552867
 40
0.5000011364
 40
0.6384490797
 40
0.7703587738
 40
0.8913933845
 40
1.0
 40
1.0
 40
1.0
 40
1.0
 10
4.4573988088
 20
3.7091894367
 30
0.0
 10
4.4558852133
 20
3.7118535546
 30
0.0
 10
4.4531112272
 20
3.717735894
 30
0.0
 10
4.4500223806
 20
3.7274853752
 30
0.0
 10
4.4480300537
 20
3.7383754514
 30
0.0
 10
4.4473398438
 20
3.7499160983
 30
0.0
 10
4.4480300721
 20
3.7614567208
 30
0.0
 10
4.4500224076
 20
3.7723467446
 30
0.0
 10
4.4531112458
 20
3.7820961704
 30
0.0
 10
4.4558852204
 20
3.7879784798
 30
0.0
 10
4.4573988088
 20
3.7906425851
 30
0.0
  0
SPLINE
  5
3FB
100
AcDbEntity
  8
0
100
AcDbSpline
 62
7
  6
CONTINUOUS
 70
0
 71
3
 72
23
 73
19
 74
0
 42
0.0000001
 43
0.0000001
 44
0.0000000001
 40
0.0
 40
0.0
 40
0.0
 40
0.0
 40
0.0602226318
 40
0.1211246989
 40
0.1827398827
 40
0.2450755233
 40
0.3080919137
 40
0.371694919
 40
0.4357313785
 40
0.4999990494
 40
0.5642668704
 40
0.6283036131
 40
0.6919068711
 40
0.754923518
 40
0.8172594453
 40
0.8788748628
 40
0.9397772159
 40
1.0
 40
1.0
 40
1.0
 40
1.0
 10
4.4573988088
 20
3.7906425851
 30
0.0
 10
4.4587422675
 20
3.7893786502
 30
0.0
 10
4.4613386487
 20
3.7867211009
 30
0.0
 10
4.4648836906
 20
3.7823800481
 30
0.0
 10
4.468042135
 20
3.7776702914
 30
0.0
 10
4.4707504096
 20
3.7726134213
 30
0.0
 10
4.4729442522
 20
3.7672461408
 30
0.0
 10
4.4745632563
 20
3.7616233097
 30
0.0
 10
4.4755572513
 20
3.7558175383
 30
0.0
 10
4.4758925821
 20
3.7499160938
 30
0.0
 10
4.4755572816
 20
3.7440146382
 30
0.0
 10
4.4745632902
 20
3.7382088443
 30
0.0
 10
4.4729442866
 20
3.732585988
 30
0.0
 10
4.4707504461
 20
3.7272186802
 30
0.0
 10
4.4680421672
 20
3.7221617853
 30
0.0
 10
4.464883715
 20
3.717452004
 30
0.0
 10
4.4613386608
 20
3.7131109344
 30
0.0
 10
4.4587422709
 20
3.7104533748
 30
0.0
 10
4.4573988088
 20
3.7091894367
 30
0.0
  0
SPLINE
  5
3FC
100
AcDbEntity
  8
0
100
AcDbSpline
 62
7
  6
CONTINUOUS
 70
0
 71
3
 72
15
 73
11
 74
0
 42
0.0000001
 43
0.0000001
 44
0.0000000001
 40
0.0
 40
0.0
 40
0.0
 40
0.0
 40
0.1064545857
 40
0.2270602663
 40
0.3598854896
 40
0.5000011517
 40
0.6401164788
 40
0.7729408611
 40
0.8935459203
 40
1.0
 40
1.0
 40
1.0
 40
1.0
 10
4.4943583108
 20
3.7091894367
 30
0.0
 10
4.4931161947
 20
3.7118825381
 30
0.0
 10
4.4908550397
 20
3.7178098967
 30
0.0
 10
4.4883598986
 20
3.7275393538
 30
0.0
 10
4.4867505616
 20
3.7384038894
 30
0.0
 10
4.4861929884
 20
3.7499160981
 30
0.0
 10
4.4867505764
 20
3.7614282826
 30
0.0
 10
4.4883599205
 20
3.7722927663
 30
0.0
 10
4.4908550549
 20
3.7820221683
 30
0.0
 10
4.4931162006
 20
3.7879494965
 30
0.0
 10
4.4943583108
 20
3.7906425851
 30
0.0
  0
SPLINE
  5
3FD
100
AcDbEntity
  8
0
100
AcDbSpline
 62
7
  6
CONTINUOUS
 70
0
 71
3
 72
23
 73
19
 74
0
 42
0.0000001
 43
0.0000001
 44
0.0000000001
 40
0.0
 40
0.0
 40
0.0
 40
0.0
 40
0.0610319174
 40
0.1224986371
 40
0.184422725
 40
0.2468120235
 40
0.3096428559
 40
0.372855813
 40
0.4363518135
 40
0.4999990584
 40
0.5636464503
 40
0.6271427297
 40
0.6903559356
 40
0.7531870198
 40
0.8155766017
 40
0.8775009213
 40
0.9389679286
 40
1.0
 40
1.0
 40
1.0
 40
1.0
 10
4.4943583108
 20
3.7906425851
 30
0.0
 10
4.4957628924
 20
3.7893811591
 30
0.0
 10
4.4984775424
 20
3.7867296666
 30
0.0
 10
4.5021918283
 20
3.782389642
 30
0.0
 10
4.5055016078
 20
3.7776804507
 30
0.0
 10
4.5083402236
 20
3.7726234177
 30
0.0
 10
4.5106401654
 20
3.767255018
 30
0.0
 10
4.5123378395
 20
3.7616300204
 30
0.0
 10
4.5133803191
 20
3.7558211656
 30
0.0
 10
4.5137320421
 20
3.7499160939
 30
0.0
 10
4.5133803509
 20
3.7440110109
 30
0.0
 10
4.512337875
 20
3.7382021336
 30
0.0
 10
4.5106402015
 20
3.7325771109
 30
0.0
 10
4.5083402618
 20
3.7272086838
 30
0.0
 10
4.5055016415
 20
3.722151626
 30
0.0
 10
4.5021918537
 20
3.71744241
 30
0.0
 10
4.4984775551
 20
3.7131023687
 30
0.0
 10
4.495762896
 20
3.710450866
 30
0.0
 10
4.4943583108
 20
3.7091894367
 30
0.0
  0
SPLINE
  5
3FE
100
AcDbEntity
  8
0
100
AcDbSpline
 62
7
  6
CONTINUOUS
 70
0
 71
3
 72
19
 73
15
 74
0
 42
0.0000001
 43
0.0000001
 44
0.0000000001
 40
0.0
 40
0.0
 40
0.0
 40
0.0
 40
0.0503018646
 40
0.1045993527
 40
0.1628471993
 40
0.2248617807
 40
0.3584680972
 40
0.500001165
 40
0.6415338899
 40
0.7751393501
 40
0.8371535974
 40
0.895401149
 40
0.9496982904
 40
1.0
 40
1.0
 40
1.0
 40
1.0
 10
4.5298436326
 20
3.7091894367
 30
0.0
 10
4.5293857233
 20
3.7104982737
 30
0.0
 10
4.5285072802
 20
3.7132461262
 30
0.0
 10
4.5273478844
 20
3.7175844492
 30
0.0
 10
4.5263159746
 20
3.7222860896
 30
0.0
 10
4.5251077391
 20
3.7291809611
 30
0.0
 10
4.5240715743
 20
3.7384275783
 30
0.0
 10
4.5236501463
 20
3.7499160979
 30
0.0
 10
4.5240715853
 20
3.7614045936
 30
0.0
 10
4.5251077557
 20
3.7706511674
 30
0.0
 10
4.5263159869
 20
3.7775459981
 30
0.0
 10
4.5273478945
 20
3.7822476115
 30
0.0
 10
4.5285072853
 20
3.786585913
 30
0.0
 10
4.5293857247
 20
3.7893337522
 30
0.0
 10
4.5298436326
 20
3.7906425851
 30
0.0
  0
SPLINE
  5
3FF
100
AcDbEntity
  8
0
100
AcDbSpline
 62
7
  6
CONTINUOUS
 70
0
 71
3
 72
23
 73
19
 74
0
 42
0.0000001
 43
0.0000001
 44
0.0000000001
 40
0.0
 40
0.0
 40
0.0
 40
0.0
 40
0.061668029
 40
0.1235810107
 40
0.1857513916
 40
0.2481859038
 40
0.3108721518
 40
0.3737772576
 40
0.4368447225
 40
0.4999990656
 40
0.5631535532
 40
0.6262212935
 40
0.6891266449
 40
0.7518131411
 40
0.814247934
 40
0.8764185452
 40
0.9383318158
 40
1.0
 40
1.0
 40
1.0
 40
1.0
 10
4.5298436326
 20
3.7906425851
 30
0.0
 10
4.5312963026
 20
3.7893830442
 30
0.0
 10
4.5341039239
 20
3.7867361796
 30
0.0
 10
4.5379514966
 20
3.7823970463
 30
0.0
 10
4.541380492
 20
3.7776884119
 30
0.0
 10
4.5443218404
 20
3.772631367
 30
0.0
 10
4.5467054729
 20
3.7672621703
 30
0.0
 10
4.5484652584
 20
3.7616354839
 30
0.0
 10
4.5495460497
 20
3.7558241388
 30
0.0
 10
4.5499107319
 20
3.749916094
 30
0.0
 10
4.5495460826
 20
3.7440080377
 30
0.0
 10
4.5484652952
 20
3.7381966701
 30
0.0
 10
4.5467055103
 20
3.7325699586
 30
0.0
 10
4.5443218799
 20
3.7272007345
 30
0.0
 10
4.5413805269
 20
3.7221436647
 30
0.0
 10
4.5379515228
 20
3.7174350055
 30
0.0
 10
4.534103937
 20
3.7130958556
 30
0.0
 10
4.5312963063
 20
3.7104489808
 30
0.0
 10
4.5298436326
 20
3.7091894367
 30
0.0
  0
SPLINE
  5
400
100
AcDbEntity
  8
0
100
AcDbSpline
 62
7
  6
CONTINUOUS
 70
0
 71
3
 72
19
 73
15
 74
0
 42
0.0000001
 43
0.0000001
 44
0.0000000001
 40
0.0
 40
0.0
 40
0.0
 40
0.0
 40
0.0494007089
 40
0.1031287462
 40
0.1611071645
 40
0.2231169338
 40
0.3573526294
 40
0.5000011751
 40
0.6426493721
 40
0.7768841992
 40
0.8388936315
 40
0.896871752
 40
0.9505994441
 40
1.0
 40
1.0
 40
1.0
 40
1.0
 10
4.5635130311
 20
3.7091894367
 30
0.0
 10
4.5632038917
 20
3.7105042038
 30
0.0
 10
4.5626118954
 20
3.7132616382
 30
0.0
 10
4.5618335795
 20
3.7175977457
 30
0.0
 10
4.561140767
 20
3.7222971301
 30
0.0
 10
4.5603281457
 20
3.7292008016
 30
0.0
 10
4.5596332187
 20
3.7384449099
 30
0.0
 10
4.5593507701
 20
3.7499160978
 30
0.0
 10
4.559633226
 20
3.7613872618
 30
0.0
 10
4.5603281568
 20
3.7706313272
 30
0.0
 10
4.5611407752
 20
3.7775349576
 30
0.0
 10
4.5618335863
 20
3.7822343151
 30
0.0
 10
4.5626118988
 20
3.7865704012
 30
0.0
 10
4.5632038926
 20
3.7893278221
 30
0.0
 10
4.5635130311
 20
3.7906425851
 30
0.0
  0
SPLINE
  5
401
100
AcDbEntity
  8
0
100
AcDbSpline
 62
7
  6
CONTINUOUS
 70
0
 71
3
 72
19
 73
15
 74
0
 42
0.0000001
 43
0.0000001
 44
0.0000000001
 40
0.0
 40
0.0
 40
0.0
 40
0.0
 40
0.1243053395
 40
0.2490502925
 40
0.3116688213
 40
0.3743865021
 40
0.4371756953
 40
0.5000000434
 40
0.5628243818
 40
0.6256135473
 40
0.6883311624
 40
0.750949633
 40
0.8756946286
 40
1.0
 40
1.0
 40
1.0
 40
1.0
 10
4.5635130311
 20
3.7906425851
 30
0.0
 10
4.5664872279
 20
3.7881264965
 30
0.0
 10
4.572042356
 20
3.7825783314
 30
0.0
 10
4.577541978
 20
3.7744141563
 30
0.0
 10
4.580792221
 20
3.7672657635
 30
0.0
 10
4.5825987258
 20
3.7616383584
 30
0.0
 10
4.5837048731
 20
3.7558253822
 30
0.0
 10
4.5840808779
 20
3.7499160071
 30
0.0
 10
4.5837048718
 20
3.7440066329
 30
0.0
 10
4.582598725
 20
3.7381936601
 30
0.0
 10
4.5807922232
 20
3.7325662589
 30
0.0
 10
4.5775419781
 20
3.7254178698
 30
0.0
 10
4.5720423591
 20
3.7172536924
 30
0.0
 10
4.5664872287
 20
3.711705526
 30
0.0
 10
4.5635130311
 20
3.7091894367
 30
0.0
  0
SPLINE
  5
402
100
AcDbEntity
  8
0
100
AcDbSpline
 62
7
  6
CONTINUOUS
 70
0
 71
3
 72
15
 73
11
 74
0
 42
0.0000001
 43
0.0000001
 44
0.0000000001
 40
0.0
 40
0.0
 40
0.0
 40
0.0
 40
0.1021881741
 40
0.2220050789
 40
0.3566442375
 40
0.5000011815
 40
0.6433577731
 40
0.7779960557
 40
0.8978123218
 40
1.0
 40
1.0
 40
1.0
 40
1.0
 10
4.5950422516
 20
3.7091894367
 30
0.0
 10
4.594716182
 20
3.7119496231
 30
0.0
 10
4.5941333698
 20
3.7179611689
 30
0.0
 10
4.5935009458
 20
3.7276419991
 30
0.0
 10
4.5930927057
 20
3.7384555669
 30
0.0
 10
4.5929511363
 20
3.7499160978
 30
0.0
 10
4.5930927094
 20
3.7613766048
 30
0.0
 10
4.5935009514
 20
3.7721901216
 30
0.0
 10
4.5941333737
 20
3.7818708971
 30
0.0
 10
4.5947161836
 20
3.7878824121
 30
0.0
 10
4.5950422516
 20
3.7906425851
 30
0.0
  0
SPLINE
  5
403
100
AcDbEntity
  8
0
100
AcDbSpline
 62
7
  6
CONTINUOUS
 70
0
 71
3
 72
23
 73
19
 74
0
 42
0.0000001
 43
0.0000001
 44
0.0000000001
 40
0.0
 40
0.0
 40
0.0
 40
0.0
 40
0.0624008062
 40
0.124830472
 40
0.1872883581
 40
0.2497783052
 40
0.31229945
 40
0.3748485881
 40
0.4374183167
 40
0.4999990739
 40
0.5625799727
 40
0.6251499726
 40
0.6876993529
 40
0.7502207415
 40
0.8127109662
 40
0.875169081
 40
0.9375990371
 40
1.0
 40
1.0
 40
1.0
 40
1.0
 10
4.5950422516
 20
3.7906425851
 30
0.0
 10
4.5965504805
 20
3.7893851264
 30
0.0
 10
4.5994654326
 20
3.7867434507
 30
0.0
 10
4.6034671099
 20
3.7824054268
 30
0.0
 10
4.6070339717
 20
3.7776975522
 30
0.0
 10
4.6100941819
 20
3.7726406216
 30
0.0
 10
4.6125747179
 20
3.7672706033
 30
0.0
 10
4.6144064879
 20
3.7616419919
 30
0.0
 10
4.6155317199
 20
3.7558277041
 30
0.0
 10
4.6159114429
 20
3.7499160941
 30
0.0
 10
4.6155317542
 20
3.7440044724
 30
0.0
 10
4.6144065262
 20
3.7381901621
 30
0.0
 10
4.6125747568
 20
3.7325615257
 30
0.0
 10
4.610094223
 20
3.7271914797
 30
0.0
 10
4.607034008
 20
3.7221345244
 30
0.0
 10
4.6034671371
 20
3.7174266249
 30
0.0
 10
4.5994654461
 20
3.7130885845
 30
0.0
 10
4.5965504843
 20
3.7104468986
 30
0.0
 10
4.5950422516
 20
3.7091894367
 30
0.0
  0
SPLINE
  5
404
100
AcDbEntity
  8
0
100
AcDbSpline
 62
7
  6
CONTINUOUS
 70
0
 71
3
 72
15
 73
11
 74
0
 42
0.0000001
 43
0.0000001
 44
0.0000000001
 40
0.0
 40
0.0
 40
0.0
 40
0.0
 40
0.1154899801
 40
0.2380402566
 40
0.3670332619
 40
0.5000011001
 40
0.6329686364
 40
0.7619608701
 40
0.8845105537
 40
1.0
 40
1.0
 40
1.0
 40
1.0
 10
4.3412849379
 20
3.7091894367
 30
0.0
 10
4.3390794
 20
3.7117774095
 30
0.0
 10
4.3349823847
 20
3.7175122073
 30
0.0
 10
4.3302846143
 20
3.7273030682
 30
0.0
 10
4.3272461489
 20
3.7382723984
 30
0.0
 10
4.3261919277
 20
3.7499161001
 30
0.0
 10
4.3272461774
 20
3.7615597764
 30
0.0
 10
4.330284655
 20
3.7725290512
 30
0.0
 10
4.334982412
 20
3.7823198556
 30
0.0
 10
4.3390794101
 20
3.7880546243
 30
0.0
 10
4.3412849379
 20
3.7906425851
 30
0.0
  0
SPLINE
  5
405
100
AcDbEntity
  8
0
100
AcDbSpline
 62
7
  6
CONTINUOUS
 70
0
 71
3
 72
15
 73
11
 74
0
 42
0.0000001
 43
0.0000001
 44
0.0000000001
 40
0.0
 40
0.0
 40
0.0
 40
0.0
 40
0.1132371239
 40
0.2352690529
 40
0.3652150503
 40
0.4999990018
 40
0.6347834219
 40
0.7647299765
 40
0.8867624562
 40
1.0
 40
1.0
 40
1.0
 40
1.0
 10
4.3020780818
 20
3.7906425851
 30
0.0
 10
4.3040741286
 20
3.7880319731
 30
0.0
 10
4.3077697618
 20
3.7822485405
 30
0.0
 10
4.3119670813
 20
3.7724672343
 30
0.0
 10
4.3146776553
 20
3.7615233973
 30
0.0
 10
4.315617951
 20
3.749916085
 30
0.0
 10
4.314677683
 20
3.738308753
 30
0.0
 10
4.3119671073
 20
3.7273648689
 30
0.0
 10
4.3077697839
 20
3.7175835158
 30
0.0
 10
4.304074136
 20
3.7118000584
 30
0.0
 10
4.3020780818
 20
3.7091894367
 30
0.0
  0
SPLINE
  5
406
100
AcDbEntity
  8
0
100
AcDbSpline
 62
7
  6
CONTINUOUS
 70
0
 71
3
 72
15
 73
11
 74
0
 42
0.0000001
 43
0.0000001
 44
0.0000000001
 40
0.0
 40
0.0
 40
0.0
 40
0.0
 40
0.1175991596
 40
0.2406570116
 40
0.3687596985
 40
0.5000010702
 40
0.6312421564
 40
0.7593441006
 40
0.882401375
 40
1.0
 40
1.0
 40
1.0
 40
1.0
 10
4.3020780818
 20
3.7091894367
 30
0.0
 10
4.2996849477
 20
3.7117581275
 30
0.0
 10
4.2952293554
 20
3.7174480054
 30
0.0
 10
4.290075602
 20
3.7272444385
 30
0.0
 10
4.2867364992
 20
3.7382367076
 30
0.0
 10
4.2855766895
 20
3.7499160993
 30
0.0
 10
4.28673653
 20
3.7615954656
 30
0.0
 10
4.2900756461
 20
3.7725876794
 30
0.0
 10
4.2952293846
 20
3.7823840566
 30
0.0
 10
4.2996849586
 20
3.788073906
 30
0.0
 10
4.3020780818
 20
3.7906425851
 30
0.0
  0
SPLINE
  5
407
100
AcDbEntity
  8
0
100
AcDbSpline
 62
7
  6
CONTINUOUS
 70
0
 71
3
 72
15
 73
11
 74
0
 42
0.0000001
 43
0.0000001
 44
0.0000000001
 40
0.0
 40
0.0
 40
0.0
 40
0.0
 40
0.1109099247
 40
0.2324293415
 40
0.363362015
 40
0.4999989869
 40
0.6366364397
 40
0.7675696836
 40
0.8890896603
 40
1.0
 40
1.0
 40
1.0
 40
1.0
 10
4.2632488091
 20
3.7906425851
 30
0.0
 10
4.2650139957
 20
3.788006364
 30
0.0
 10
4.2682675779
 20
3.7821728925
 30
0.0
 10
4.271926241
 20
3.7724055636
 30
0.0
 10
4.274286757
 20
3.7614886003
 30
0.0
 10
4.275105213
 20
3.7499160847
 30
0.0
 10
4.2742867812
 20
3.7383435501
 30
0.0
 10
4.2719262636
 20
3.7274265397
 30
0.0
 10
4.2682675974
 20
3.7176591645
 30
0.0
 10
4.2650140023
 20
3.7118256677
 30
0.0
 10
4.2632488091
 20
3.7091894367
 30
0.0
  0
SPLINE
  5
408
100
AcDbEntity
  8
0
100
AcDbSpline
 62
7
  6
CONTINUOUS
 70
0
 71
3
 72
23
 73
19
 74
0
 42
0.0000001
 43
0.0000001
 44
0.0000000001
 40
0.0
 40
0.0
 40
0.0
 40
0.0
 40
0.0592460359
 40
0.119473385
 40
0.1807220125
 40
0.2429985961
 40
0.3062404303
 40
0.3703120615
 40
0.4349950269
 40
0.500001055
 40
0.5650070542
 40
0.6296897828
 40
0.6937609848
 40
0.7570025145
 40
0.8192787964
 40
0.8805271554
 40
0.9407541385
 40
1.0
 40
1.0
 40
1.0
 40
1.0
 10
4.2632488091
 20
3.7091894367
 30
0.0
 10
4.2619790806
 20
3.7104564893
 30
0.0
 10
4.2595254453
 20
3.7131214913
 30
0.0
 10
4.2561840818
 20
3.7174634394
 30
0.0
 10
4.2532076785
 20
3.7221735972
 30
0.0
 10
4.2506560336
 20
3.7272299831
 30
0.0
 10
4.2485894674
 20
3.7325957852
 30
0.0
 10
4.2470645927
 20
3.7382161173
 30
0.0
 10
4.2461288606
 20
3.7440185785
 30
0.0
 10
4.245813329
 20
3.7499161064
 30
0.0
 10
4.2461288651
 20
3.7558136276
 30
0.0
 10
4.2470646274
 20
3.7616160632
 30
0.0
 10
4.2485895173
 20
3.7672363597
 30
0.0
 10
4.2506560742
 20
3.7726021315
 30
0.0
 10
4.2532077144
 20
3.7776584903
 30
0.0
 10
4.2561841095
 20
3.7823686195
 30
0.0
 10
4.2595254593
 20
3.7867105471
 30
0.0
 10
4.2619790844
 20
3.7893755362
 30
0.0
 10
4.2632488091
 20
3.7906425851
 30
0.0
  0
SPLINE
  5
409
100
AcDbEntity
  8
0
100
AcDbSpline
 62
7
  6
CONTINUOUS
 70
0
 71
3
 72
15
 73
11
 74
0
 42
0.0000001
 43
0.0000001
 44
0.0000000001
 40
0.0
 40
0.0
 40
0.0
 40
0.0
 40
0.1086107992
 40
0.2296481146
 40
0.3615569602
 40
0.4999989723
 40
0.6384414773
 40
0.7703509062
 40
0.8913887907
 40
1.0
 40
1.0
 40
1.0
 40
1.0
 10
4.225171067
 20
3.7906425851
 30
0.0
 10
4.2266847137
 20
3.7879783771
 30
0.0
 10
4.2294587385
 20
3.7820958779
 30
0.0
 10
4.2325476518
 20
3.7723462857
 30
0.0
 10
4.2345396789
 20
3.7614563349
 30
0.0
 10
4.2352302431
 20
3.7499160844
 30
0.0
 10
4.2345396994
 20
3.7383758155
 30
0.0
 10
4.232547671
 20
3.7274858177
 30
0.0
 10
4.2294587553
 20
3.7177361798
 30
0.0
 10
4.2266847195
 20
3.7118536548
 30
0.0
 10
4.225171067
 20
3.7091894367
 30
0.0
  0
SPLINE
  5
40A
100
AcDbEntity
  8
0
100
AcDbSpline
 62
7
  6
CONTINUOUS
 70
0
 71
3
 72
23
 73
19
 74
0
 42
0.0000001
 43
0.0000001
 44
0.0000000001
 40
0.0
 40
0.0
 40
0.0
 40
0.0
 40
0.0602191405
 40
0.121120799
 40
0.1827342526
 40
0.2450697256
 40
0.3080862208
 40
0.3716913304
 40
0.4357313424
 40
0.5000010421
 40
0.5642707141
 40
0.6283104975
 40
0.6919151885
 40
0.7549313833
 40
0.8172665581
 40
0.8788797461
 40
0.9397810361
 40
1.0
 40
1.0
 40
1.0
 40
1.0
 10
4.225171067
 20
3.7091894367
 30
0.0
 10
4.2238276864
 20
3.7104532981
 30
0.0
 10
4.2212313921
 20
3.7131107621
 30
0.0
 10
4.2176864167
 20
3.7174516457
 30
0.0
 10
4.2145280158
 20
3.7221613452
 30
0.0
 10
4.2118197266
 20
3.7272181422
 30
0.0
 10
4.2096257627
 20
3.7325854335
 30
0.0
 10
4.2080065141
 20
3.7382083847
 30
0.0
 10
4.207012689
 20
3.7440144354
 30
0.0
 10
4.2066775354
 20
3.7499161064
 30
0.0
 10
4.2070126938
 20
3.755817771
 30
0.0
 10
4.208006551
 20
3.7616237958
 30
0.0
 10
4.2096258155
 20
3.767246711
 30
0.0
 10
4.2118197696
 20
3.7726139724
 30
0.0
 10
4.2145280539
 20
3.7776707422
 30
0.0
 10
4.2176864459
 20
3.7823804131
 30
0.0
 10
4.2212314069
 20
3.7867212762
 30
0.0
 10
4.2238276903
 20
3.7893787275
 30
0.0
 10
4.225171067
 20
3.7906425851
 30
0.0
  0
SPLINE
  5
40B
100
AcDbEntity
  8
0
100
AcDbSpline
 62
7
  6
CONTINUOUS
 70
0
 71
3
 72
15
 73
11
 74
0
 42
0.0000001
 43
0.0000001
 44
0.0000000001
 40
0.0
 40
0.0
 40
0.0
 40
0.0
 40
0.106458222
 40
0.2270660293
 40
0.3598896634
 40
0.4999989588
 40
0.6401087581
 40
0.7729329871
 40
0.8935413724
 40
1.0
 40
1.0
 40
1.0
 40
1.0
 10
4.1882115649
 20
3.7906425851
 30
0.0
 10
4.1894537235
 20
3.7879493917
 30
0.0
 10
4.1917149095
 20
3.7820218741
 30
0.0
 10
4.1942101044
 20
3.7722923037
 30
0.0
 10
4.1958191971
 20
3.7614279044
 30
0.0
 10
4.1963770594
 20
3.7499160842
 30
0.0
 10
4.1958192138
 20
3.7384042461
 30
0.0
 10
4.1942101199
 20
3.7275397997
 30
0.0
 10
4.1917149232
 20
3.7178101842
 30
0.0
 10
4.1894537282
 20
3.7118826404
 30
0.0
 10
4.1882115649
 20
3.7091894367
 30
0.0
  0
SPLINE
  5
40C
100
AcDbEntity
  8
0
100
AcDbSpline
 62
7
  6
CONTINUOUS
 70
0
 71
3
 72
23
 73
19
 74
0
 42
0.0000001
 43
0.0000001
 44
0.0000000001
 40
0.0
 40
0.0
 40
0.0
 40
0.0
 40
0.061028385
 40
0.1224947118
 40
0.1844170687
 40
0.2468062221
 40
0.3096372019
 40
0.3728522847
 40
0.4363517843
 40
0.5000010313
 40
0.5636502513
 40
0.6271495293
 40
0.6903642026
 40
0.7531948854
 40
0.8155837437
 40
0.8775058371
 40
0.9389717935
 40
1.0
 40
1.0
 40
1.0
 40
1.0
 10
4.1882115649
 20
3.7091894367
 30
0.0
 10
4.1868070649
 20
3.7104507895
 30
0.0
 10
4.1840925055
 20
3.7131021974
 30
0.0
 10
4.1803782905
 20
3.7174420514
 30
0.0
 10
4.1770685555
 20
3.7221511868
 30
0.0
 10
4.1742299247
 20
3.7272081468
 30
0.0
 10
4.1719298566
 20
3.7325765561
 30
0.0
 10
4.1702319267
 20
3.7382016704
 30
0.0
 10
4.1691896238
 20
3.7440108092
 30
0.0
 10
4.1688380872
 20
3.7499161064
 30
0.0
 10
4.1691896289
 20
3.7558213975
 30
0.0
 10
4.1702319654
 20
3.7616305101
 30
0.0
 10
4.1719299119
 20
3.7672555882
 30
0.0
 10
4.1742299698
 20
3.7726239678
 30
0.0
 10
4.1770685955
 20
3.7776809006
 30
0.0
 10
4.180378321
 20
3.7823900072
 30
0.0
 10
4.1840925209
 20
3.7867298409
 30
0.0
 10
4.1868070691
 20
3.789381236
 30
0.0
 10
4.1882115649
 20
3.7906425851
 30
0.0
  0
SPLINE
  5
40D
100
AcDbEntity
  8
0
100
AcDbSpline
 62
7
  6
CONTINUOUS
 70
0
 71
3
 72
19
 73
15
 74
0
 42
0.0000001
 43
0.0000001
 44
0.0000000001
 40
0.0
 40
0.0
 40
0.0
 40
0.0
 40
0.0503048559
 40
0.1046029601
 40
0.1628525376
 40
0.2248675467
 40
0.3584723411
 40
0.499998947
 40
0.6415260661
 40
0.7751314655
 40
0.8371468027
 40
0.8953966378
 40
0.949695011
 40
1.0
 40
1.0
 40
1.0
 40
1.0
 10
4.1527262432
 20
3.7906425851
 30
0.0
 10
4.1531841797
 20
3.7893336703
 30
0.0
 10
4.1540626532
 20
3.7865857226
 30
0.0
 10
4.1552220658
 20
3.7822472517
 30
0.0
 10
4.1562539926
 20
3.777545537
 30
0.0
 10
4.1574622142
 20
3.7706506432
 30
0.0
 10
4.1584982119
 20
3.7614042221
 30
0.0
 10
4.1589198605
 20
3.749916084
 30
0.0
 10
4.1584982245
 20
3.7384279285
 30
0.0
 10
4.1574622261
 20
3.7291814672
 30
0.0
 10
4.1562540033
 20
3.7222865404
 30
0.0
 10
4.1552220741
 20
3.717584802
 30
0.0
 10
4.1540626574
 20
3.7132463134
 30
0.0
 10
4.1531841809
 20
3.710498355
 30
0.0
 10
4.1527262432
 20
3.7091894367
 30
0.0
  0
SPLINE
  5
40E
100
AcDbEntity
  8
0
100
AcDbSpline
 62
7
  6
CONTINUOUS
 70
0
 71
3
 72
23
 73
19
 74
0
 42
0.0000001
 43
0.0000001
 44
0.0000000001
 40
0.0
 40
0.0
 40
0.0
 40
0.0
 40
0.0616644641
 40
0.1235770653
 40
0.1857457145
 40
0.2481800993
 40
0.3108665287
 40
0.3737737775
 40
0.4368446988
 40
0.5000010226
 40
0.5631573202
 40
0.6262280257
 40
0.6891348721
 40
0.7518210071
 40
0.8142550992
 40
0.8764234867
 40
0.9383357158
 40
1.0
 40
1.0
 40
1.0
 40
1.0
 10
4.1527262432
 20
3.7091894367
 30
0.0
 10
4.1512736575
 20
3.7104489045
 30
0.0
 10
4.1484661295
 20
3.7130956851
 30
0.0
 10
4.1446186311
 20
3.7174346467
 30
0.0
 10
4.1411896812
 20
3.7221432262
 30
0.0
 10
4.1382483174
 20
3.7272001983
 30
0.0
 10
4.1358645549
 20
3.7325694037
 30
0.0
 10
4.1341045045
 20
3.7381962041
 30
0.0
 10
4.1330238953
 20
3.7440078369
 30
0.0
 10
4.1326594065
 20
3.7499161064
 30
0.0
 10
4.1330239006
 20
3.75582437
 30
0.0
 10
4.1341045447
 20
3.7616359765
 30
0.0
 10
4.1358646121
 20
3.7672627404
 30
0.0
 10
4.1382483641
 20
3.7726319163
 30
0.0
 10
4.1411897226
 20
3.7776888612
 30
0.0
 10
4.1446186627
 20
3.7823974118
 30
0.0
 10
4.1484661454
 20
3.7867363531
 30
0.0
 10
4.1512736617
 20
3.789383121
 30
0.0
 10
4.1527262432
 20
3.7906425851
 30
0.0
  0
SPLINE
  5
40F
100
AcDbEntity
  8
0
100
AcDbSpline
 62
7
  6
CONTINUOUS
 70
0
 71
3
 72
19
 73
15
 74
0
 42
0.0000001
 43
0.0000001
 44
0.0000000001
 40
0.0
 40
0.0
 40
0.0
 40
0.0
 40
0.0494036556
 40
0.103132329
 40
0.161112479
 40
0.2231226982
 40
0.3573569253
 40
0.4999989381
 40
0.6426414713
 40
0.7768763112
 40
0.838886862
 40
0.8968672719
 40
0.9505962131
 40
1.0
 40
1.0
 40
1.0
 40
1.0
 10
4.1190568447
 20
3.7906425851
 30
0.0
 10
4.1193660025
 20
3.7893277396
 30
0.0
 10
4.1199580194
 20
3.7865702093
 30
0.0
 10
4.1207363461
 20
3.782233956
 30
0.0
 10
4.1214291704
 20
3.7775344956
 30
0.0
 10
4.1222417821
 20
3.7706308024
 30
0.0
 10
4.1229365967
 20
3.761386895
 30
0.0
 10
4.1232191938
 20
3.7499160839
 30
0.0
 10
4.1229366052
 20
3.7384452556
 30
0.0
 10
4.1222417901
 20
3.729201308
 30
0.0
 10
4.1214291776
 20
3.7222975818
 30
0.0
 10
4.1207363518
 20
3.7175980979
 30
0.0
 10
4.1199580222
 20
3.7132618268
 30
0.0
 10
4.1193660034
 20
3.7105042857
 30
0.0
 10
4.1190568447
 20
3.7091894367
 30
0.0
  0
SPLINE
  5
410
100
AcDbEntity
  8
0
100
AcDbSpline
 62
7
  6
CONTINUOUS
 70
0
 71
3
 72
19
 73
15
 74
0
 42
0.0000001
 43
0.0000001
 44
0.0000000001
 40
0.0
 40
0.0
 40
0.0
 40
0.0
 40
0.124302466
 40
0.2490471918
 40
0.3116675032
 40
0.3743864157
 40
0.4371758533
 40
0.4999999105
 40
0.5628239854
 40
0.6256134603
 40
0.6883324648
 40
0.7509528521
 40
0.8756975544
 40
1.0
 40
1.0
 40
1.0
 40
1.0
 10
4.1190568447
 20
3.7091894367
 30
0.0
 10
4.1160827166
 20
3.7117054672
 30
0.0
 10
4.1105276497
 20
3.7172535463
 30
0.0
 10
4.105027978
 20
3.7254176467
 30
0.0
 10
4.1017777434
 20
3.7325661393
 30
0.0
 10
4.0999711571
 20
3.7381936237
 30
0.0
 10
4.0988649905
 20
3.7440066372
 30
0.0
 10
4.0984890055
 20
3.7499160029
 30
0.0
 10
4.0988649879
 20
3.7558253701
 30
0.0
 10
4.0999711549
 20
3.7616383883
 30
0.0
 10
4.1017777443
 20
3.7672658784
 30
0.0
 10
4.1050279762
 20
3.7744143772
 30
0.0
 10
4.110527652
 20
3.7825784764
 30
0.0
 10
4.116082717
 20
3.788126555
 30
0.0
 10
4.1190568447
 20
3.7906425851
 30
0.0
  0
SPLINE
  5
411
100
AcDbEntity
  8
0
100
AcDbSpline
 62
7
  6
CONTINUOUS
 70
0
 71
3
 72
15
 73
11
 74
0
 42
0.0000001
 43
0.0000001
 44
0.0000000001
 40
0.0
 40
0.0
 40
0.0
 40
0.0
 40
0.1021917411
 40
0.2220108419
 40
0.356648566
 40
0.4999989325
 40
0.6433498239
 40
0.7779881657
 40
0.8978078617
 40
1.0
 40
1.0
 40
1.0
 40
1.0
 10
4.0875276242
 20
3.7906425851
 30
0.0
 10
4.0878537052
 20
3.7878823024
 30
0.0
 10
4.088436525
 20
3.7818705998
 30
0.0
 10
4.0890689626
 20
3.7721896522
 30
0.0
 10
4.0894771397
 20
3.7613762408
 30
0.0
 10
4.0896187838
 20
3.7499160838
 30
0.0
 10
4.089477144
 20
3.7384559098
 30
0.0
 10
4.0890689665
 20
3.7276424512
 30
0.0
 10
4.0884365286
 20
3.7179614596
 30
0.0
 10
4.0878537064
 20
3.7119497302
 30
0.0
 10
4.0875276242
 20
3.7091894367
 30
0.0
  0
SPLINE
  5
412
100
AcDbEntity
  8
0
100
AcDbSpline
 62
7
  6
CONTINUOUS
 70
0
 71
3
 72
23
 73
19
 74
0
 42
0.0000001
 43
0.0000001
 44
0.0000000001
 40
0.0
 40
0.0
 40
0.0
 40
0.0
 40
0.0623972039
 40
0.1248265032
 40
0.1872826568
 40
0.2497724971
 40
0.3122938628
 40
0.3748451645
 40
0.4374182996
 40
0.5000010126
 40
0.5625837001
 40
0.625156626
 40
0.6877075338
 40
0.7502286082
 40
0.8127181584
 40
0.8751740523
 40
0.9376029776
 40
1.0
 40
1.0
 40
1.0
 40
1.0
 10
4.0875276242
 20
3.7091894367
 30
0.0
 10
4.0860194827
 20
3.7104468225
 30
0.0
 10
4.0831046272
 20
3.7130884149
 30
0.0
 10
4.0791030283
 20
3.7174262658
 30
0.0
 10
4.0755362128
 20
3.7221340867
 30
0.0
 10
4.0724759868
 20
3.7271909446
 30
0.0
 10
4.0699953165
 20
3.7325609706
 30
0.0
 10
4.0681632713
 20
3.7381896927
 30
0.0
 10
4.0670382273
 20
3.7440042725
 30
0.0
 10
4.0666587061
 20
3.7499161064
 30
0.0
 10
4.0670382329
 20
3.7558279345
 30
0.0
 10
4.0681633132
 20
3.7616424879
 30
0.0
 10
4.0699953759
 20
3.7672711732
 30
0.0
 10
4.0724760354
 20
3.7726411701
 30
0.0
 10
4.0755362559
 20
3.7776980006
 30
0.0
 10
4.079103061
 20
3.7824057925
 30
0.0
 10
4.0831046437
 20
3.7867436232
 30
0.0
 10
4.0860194871
 20
3.7893852029
 30
0.0
 10
4.0875276242
 20
3.7906425851
 30
0.0
  0
SPLINE
  5
413
100
AcDbEntity
  8
0
100
AcDbSpline
 62
7
  6
CONTINUOUS
 70
0
 71
3
 72
21
 73
17
 74
0
 42
0.0000001
 43
0.0000001
 44
0.0000000001
 40
0.0
 40
0.0
 40
0.0
 40
0.0
 40
0.1248896414
 40
0.1873978042
 40
0.2499105021
 40
0.3124269087
 40
0.3749490846
 40
0.4374750827
 40
0.5000010108
 40
0.5625269137
 40
0.6250527033
 40
0.6875744862
 40
0.7500906019
 40
0.8126030099
 40
0.8751109132
 40
1.0
 40
1.0
 40
1.0
 40
1.0
 10
4.0584422254
 20
3.7091894367
 30
0.0
 10
4.0554148701
 20
3.7117012859
 30
0.0
 10
4.0511680091
 20
3.715860974
 30
0.0
 10
4.0463939449
 20
3.7221326202
 30
0.0
 10
4.0433182831
 20
3.7271898623
 30
0.0
 10
4.0408255305
 20
3.7325598743
 30
0.0
 10
4.0389843768
 20
3.738188865
 30
0.0
 10
4.0378537378
 20
3.7440038127
 30
0.0
 10
4.037472317
 20
3.7499161064
 30
0.0
 10
4.0378537434
 20
3.7558283944
 30
0.0
 10
4.0389844188
 20
3.7616433156
 30
0.0
 10
4.0408255902
 20
3.7672722695
 30
0.0
 10
4.0433183318
 20
3.7726422524
 30
0.0
 10
4.0463939882
 20
3.7776994671
 30
0.0
 10
4.0511680406
 20
3.7839710782
 30
0.0
 10
4.0554148836
 20
3.7881307471
 30
0.0
 10
4.0584422254
 20
3.7906425851
 30
0.0
  0
SPLINE
  5
414
100
AcDbEntity
  8
0
100
AcDbSpline
 62
7
  6
CONTINUOUS
 70
0
 71
3
 72
23
 73
19
 74
0
 42
0.0000001
 43
0.0000001
 44
0.0000000001
 40
0.0
 40
0.0
 40
0.0
 40
0.0
 40
0.0623972039
 40
0.1248265032
 40
0.1872826568
 40
0.2497724971
 40
0.3122938628
 40
0.3748451645
 40
0.4374182996
 40
0.5000010126
 40
0.5625837001
 40
0.625156626
 40
0.6877075338
 40
0.7502286082
 40
0.8127181584
 40
0.8751740523
 40
0.9376029776
 40
1.0
 40
1.0
 40
1.0
 40
1.0
 10
4.0320807565
 20
3.7091894367
 30
0.0
 10
4.030572615
 20
3.7104468225
 30
0.0
 10
4.0276577595
 20
3.7130884149
 30
0.0
 10
4.0236561606
 20
3.7174262658
 30
0.0
 10
4.0200893451
 20
3.7221340867
 30
0.0
 10
4.0170291192
 20
3.7271909446
 30
0.0
 10
4.0145484488
 20
3.7325609706
 30
0.0
 10
4.0127164036
 20
3.7381896927
 30
0.0
 10
4.0115913596
 20
3.7440042725
 30
0.0
 10
4.0112118385
 20
3.7499161064
 30
0.0
 10
4.0115913652
 20
3.7558279345
 30
0.0
 10
4.0127164455
 20
3.7616424879
 30
0.0
 10
4.0145485082
 20
3.7672711732
 30
0.0
 10
4.0170291677
 20
3.7726411701
 30
0.0
 10
4.0200893882
 20
3.7776980006
 30
0.0
 10
4.0236561933
 20
3.7824057925
 30
0.0
 10
4.0276577761
 20
3.7867436232
 30
0.0
 10
4.0305726194
 20
3.7893852029
 30
0.0
 10
4.0320807565
 20
3.7906425851
 30
0.0
  0
SPLINE
  5
415
100
AcDbEntity
  8
ALL_FEATURES
100
AcDbSpline
 62
7
  6
CONTINUOUS
 70
0
 71
3
 72
15
 73
11
 74
0
 42
0.0000001
 43
0.0000001
 44
0.0000000001
 40
0.0
 40
0.0
 40
0.0
 40
0.0
 40
0.2224331069
 40
0.4118006038
 40
0.5690608369
 40
0.6965660894
 40
0.79806811
 40
0.8781820329
 40
0.9429287501
 40
1.0
 40
1.0
 40
1.0
 40
1.0
 10
4.4545955981
 20
5.0874159392
 30
0.0
 10
4.4554858608
 20
5.0872516492
 30
0.0
 10
4.4571287924
 20
5.0869171071
 30
0.0
 10
4.459373485
 20
5.0863416934
 30
0.0
 10
4.4612084963
 20
5.0857384515
 30
0.0
 10
4.4626532441
 20
5.0851109867
 30
0.0
 10
4.4637370899
 20
5.0844627612
 30
0.0
 10
4.4644931377
 20
5.0837913384
 30
0.0
 10
4.4649429026
 20
5.083086315
 30
0.0
 10
4.4650402464
 20
5.082585851
 30
0.0
 10
4.4650402464
 20
5.082353573
 30
0.0
  0
SPLINE
  5
416
100
AcDbEntity
  8
ALL_FEATURES
100
AcDbSpline
 62
7
  6
CONTINUOUS
 70
0
 71
3
 72
11
 73
7
 74
0
 42
0.0000001
 43
0.0000001
 44
0.0000000001
 40
0.0
 40
0.0
 40
0.0
 40
0.0
 40
0.3013140638
 40
0.5803183221
 40
0.8150814721
 40
1.0
 40
1.0
 40
1.0
 40
1.0
 10
4.4262388264
 20
5.0890569256
 30
0.0
 10
4.4290952992
 20
5.089099257
 30
0.0
 10
4.4345983402
 20
5.0891071801
 30
0.0
 10
4.4423238711
 20
5.0888389694
 30
0.0
 10
4.4489286932
 20
5.0882958375
 30
0.0
 10
4.4528714805
 20
5.0877341098
 30
0.0
 10
4.4545955981
 20
5.0874159392
 30
0.0
  0
SPLINE
  5
417
100
AcDbEntity
  8
ALL_FEATURES
100
AcDbSpline
 62
7
  6
CONTINUOUS
 70
0
 71
3
 72
11
 73
7
 74
0
 42
0.0000001
 43
0.0000001
 44
0.0000000001
 40
0.0
 40
0.0
 40
0.0
 40
0.0
 40
0.1778252239
 40
0.4109750063
 40
0.6935015037
 40
1.0
 40
1.0
 40
1.0
 40
1.0
 10
4.3969274405
 20
5.0863567988
 30
0.0
 10
4.3986260994
 20
5.0867681325
 30
0.0
 10
4.402600109
 20
5.0875197349
 30
0.0
 10
4.4093725294
 20
5.0883210673
 30
0.0
 10
4.4174387524
 20
5.0888503542
 30
0.0
 10
4.423226742
 20
5.0890122881
 30
0.0
 10
4.4262388264
 20
5.0890569256
 30
0.0
  0
SPLINE
  5
418
100
AcDbEntity
  8
ALL_FEATURES
100
AcDbSpline
 62
7
  6
CONTINUOUS
 70
0
 71
3
 72
15
 73
11
 74
0
 42
0.0000001
 43
0.0000001
 44
0.0000000001
 40
0.0
 40
0.0
 40
0.0
 40
0.0
 40
0.0594945744
 40
0.1276064435
 40
0.2116138315
 40
0.3167277751
 40
0.4463364621
 40
0.602869909
 40
0.7874340814
 40
1.0
 40
1.0
 40
1.0
 40
1.0
 10
4.3868495028
 20
5.0808544778
 30
0.0
 10
4.3868495028
 20
5.0810930684
 30
0.0
 10
4.3869535646
 20
5.0816089039
 30
0.0
 10
4.3874142839
 20
5.0823374713
 30
0.0
 10
4.3881771071
 20
5.0830432325
 30
0.0
 10
4.389256406
 20
5.0837359528
 30
0.0
 10
4.3906711306
 20
5.0844205042
 30
0.0
 10
4.3924363893
 20
5.0850939008
 30
0.0
 10
4.3945572982
 20
5.0857543787
 30
0.0
 10
4.3960989339
 20
5.0861561743
 30
0.0
 10
4.3969274405
 20
5.0863567988
 30
0.0
  0
LINE
  5
419
100
AcDbEntity
  8
ALL_FEATURES
100
AcDbLine
 62
7
  6
CONTINUOUS
 10
4.7404496809
 20
5.0765623425
 11
4.7882647026
 21
5.0861320305
  0
LINE
  5
41A
100
AcDbEntity
  8
ALL_FEATURES
100
AcDbLine
 62
7
  6
CONTINUOUS
 10
4.9636111781
 20
5.0808766938
 11
4.9655750316
 21
5.0810307315
  0
LINE
  5
41B
100
AcDbEntity
  8
ALL_FEATURES
100
AcDbLine
 62
7
  6
CONTINUOUS
 10
4.9655750316
 20
5.0810307315
 11
4.9665972444
 21
5.0811097501
  0
LINE
  5
41C
100
AcDbEntity
  8
ALL_FEATURES
100
AcDbLine
 62
7
  6
CONTINUOUS
 10
4.930247446
 20
5.0774285511
 11
4.9480494464
 21
5.0795070217
  0
SPLINE
  5
41D
100
AcDbEntity
  8
ALL_FEATURES
100
AcDbSpline
 62
7
  6
CONTINUOUS
 70
0
 71
3
 72
11
 73
7
 74
0
 42
0.0000001
 43
0.0000001
 44
0.0000000001
 40
0.0
 40
0.0
 40
0.0
 40
0.0
 40
0.1689335927
 40
0.3977249533
 40
0.6806065273
 40
1.0
 40
1.0
 40
1.0
 40
1.0
 10
4.9129653078
 20
5.0746446339
 30
0.0
 10
4.9139271178
 20
5.0748615905
 30
0.0
 10
4.9162040712
 20
5.0753163876
 30
0.0
 10
4.9201201221
 20
5.0759842571
 30
0.0
 10
4.9249166016
 20
5.0767077273
 30
0.0
 10
4.9283993943
 20
5.0771842395
 30
0.0
 10
4.930247446
 20
5.0774285511
 30
0.0
  0
SPLINE
  5
41E
100
AcDbEntity
  8
ALL_FEATURES
100
AcDbSpline
 62
7
  6
CONTINUOUS
 70
0
 71
3
 72
12
 73
8
 74
0
 42
0.0000001
 43
0.0000001
 44
0.0000000001
 40
0.0
 40
0.0
 40
0.0
 40
0.0
 40
0.3961919728
 40
0.7015162007
 40
0.903288475
 40
0.9632917859
 40
1.0
 40
1.0
 40
1.0
 40
1.0
 10
5.0264474313
 20
5.0885820961
 30
0.0
 10
5.0266883281
 20
5.088575223
 30
0.0
 10
5.027115326
 20
5.0885581643
 30
0.0
 10
5.0276614103
 20
5.0885129565
 30
0.0
 10
5.0280055239
 20
5.0884543571
 30
0.0
 10
5.028173674
 20
5.0883903476
 30
0.0
 10
5.0282194761
 20
5.0883425667
 30
0.0
 10
5.028222383
 20
5.088320428
 30
0.0
  0
SPLINE
  5
41F
100
AcDbEntity
  8
ALL_FEATURES
100
AcDbSpline
 62
7
  6
CONTINUOUS
 70
0
 71
3
 72
11
 73
7
 74
0
 42
0.0000001
 43
0.0000001
 44
0.0000000001
 40
0.0
 40
0.0
 40
0.0
 40
0.0
 40
0.3421507945
 40
0.6234018171
 40
0.8401621019
 40
1.0
 40
1.0
 40
1.0
 40
1.0
 10
5.0121642394
 20
5.0877394982
 30
0.0
 10
5.013689021
 20
5.0878835198
 30
0.0
 10
5.0164687482
 20
5.0881298424
 30
0.0
 10
5.0202197728
 20
5.0884042491
 30
0.0
 10
5.0231607837
 20
5.088556253
 30
0.0
 10
5.0248465395
 20
5.088595614
 30
0.0
 10
5.0255620204
 20
5.0885945407
 30
0.0
  0
LINE
  5
420
100
AcDbEntity
  8
ALL_FEATURES
100
AcDbLine
 62
7
  6
CONTINUOUS
 10
5.0255620204
 20
5.0885945407
 11
5.0264474313
 21
5.0885820961
  0
SPLINE
  5
421
100
AcDbEntity
  8
ALL_FEATURES
100
AcDbSpline
 62
7
  6
CONTINUOUS
 70
0
 71
3
 72
9
 73
5
 74
0
 42
0.0000001
 43
0.0000001
 44
0.0000000001
 40
0.0
 40
0.0
 40
0.0
 40
0.0
 40
0.2552848658
 40
1.0
 40
1.0
 40
1.0
 40
1.0
 10
4.9906780949
 20
5.0852889565
 30
0.0
 10
4.9925024435
 20
5.0855305453
 30
0.0
 10
4.9996527405
 20
5.0864464618
 30
0.0
 10
5.0068195904
 20
5.0872346754
 30
0.0
 10
5.0121642394
 20
5.0877394982
 30
0.0
  0
LINE
  5
422
100
AcDbEntity
  8
ALL_FEATURES
100
AcDbLine
 62
7
  6
CONTINUOUS
 10
4.9784797978
 20
5.0835044577
 11
4.9906780949
 21
5.0852889565
  0
LINE
  5
423
100
AcDbEntity
  8
ALL_FEATURES
100
AcDbLine
 62
7
  6
CONTINUOUS
 10
4.9683576007
 20
5.0815041944
 11
4.9784797978
 21
5.0835044577
  0
LINE
  5
424
100
AcDbEntity
  8
ALL_FEATURES
100
AcDbLine
 62
7
  6
CONTINUOUS
 10
4.9929607452
 20
5.0810141194
 11
4.9954413906
 21
5.081487149
  0
SPLINE
  5
425
100
AcDbEntity
  8
ALL_FEATURES
100
AcDbSpline
 62
7
  6
CONTINUOUS
 70
0
 71
3
 72
14
 73
10
 74
0
 42
0.0000001
 43
0.0000001
 44
0.0000000001
 40
0.0
 40
0.0
 40
0.0
 40
0.0
 40
0.2567281933
 40
0.4647177553
 40
0.6305002612
 40
0.7591524327
 40
0.855604831
 40
0.9242556587
 40
1.0
 40
1.0
 40
1.0
 40
1.0
 10
4.9954413906
 20
5.081487149
 30
0.0
 10
4.9956051749
 20
5.0815233369
 30
0.0
 10
4.9959011003
 20
5.0815916053
 30
0.0
 10
4.996299843
 20
5.0816946936
 30
0.0
 10
4.9966149286
 20
5.0817884808
 30
0.0
 10
4.9968551394
 20
5.0818725588
 30
0.0
 10
4.9970329887
 20
5.0819521401
 30
0.0
 10
4.9971639283
 20
5.0820268085
 30
0.0
 10
4.9972425588
 20
5.0821119805
 30
0.0
 10
4.9972364227
 20
5.0821610865
 30
0.0
  0
LINE
  5
426
100
AcDbEntity
  8
ALL_FEATURES
100
AcDbLine
 62
7
  6
CONTINUOUS
 10
4.9565863025
 20
5.0760311288
 11
4.9588495778
 21
5.0763070713
  0
LINE
  5
427
100
AcDbEntity
  8
ALL_FEATURES
100
AcDbLine
 62
7
  6
CONTINUOUS
 10
4.9680840535
 20
5.0774745056
 11
4.970379704
 21
5.0777739193
  0
LINE
  5
428
100
AcDbEntity
  8
ALL_FEATURES
100
AcDbLine
 62
7
  6
CONTINUOUS
 10
4.970379704
 20
5.0777739193
 11
4.9726749838
 21
5.078076614
  0
LINE
  5
429
100
AcDbEntity
  8
ALL_FEATURES
100
AcDbLine
 62
7
  6
CONTINUOUS
 10
4.9439143112
 20
5.0755398677
 11
4.944289722
 21
5.0754958708
  0
LINE
  5
42A
100
AcDbEntity
  8
ALL_FEATURES
100
AcDbLine
 62
7
  6
CONTINUOUS
 10
4.9400543906
 20
5.0752271759
 11
4.9435476948
 21
5.0755297461
  0
LINE
  5
42B
100
AcDbEntity
  8
ALL_FEATURES
100
AcDbLine
 62
7
  6
CONTINUOUS
 10
4.9435476948
 20
5.0755297461
 11
4.9439143112
 21
5.0755398677
  0
LINE
  5
42C
100
AcDbEntity
  8
ALL_FEATURES
100
AcDbLine
 62
7
  6
CONTINUOUS
 10
4.928223143
 20
5.0735201052
 11
4.9310538766
 21
5.0740634273
  0
LINE
  5
42D
100
AcDbEntity
  8
ALL_FEATURES
100
AcDbLine
 62
7
  6
CONTINUOUS
 10
4.9310538766
 20
5.0740634273
 11
4.933736339
 21
5.0744516039
  0
LINE
  5
42E
100
AcDbEntity
  8
ALL_FEATURES
100
AcDbLine
 62
7
  6
CONTINUOUS
 10
3.7679810327
 20
5.0757451017
 11
3.7682218799
 21
5.0758188366
  0
LINE
  5
42F
100
AcDbEntity
  8
ALL_FEATURES
100
AcDbLine
 62
7
  6
CONTINUOUS
 10
3.7682218799
 20
5.0758188366
 11
3.7685464004
 21
5.0758394836
  0
SPLINE
  5
430
100
AcDbEntity
  8
ALL_FEATURES
100
AcDbSpline
 62
7
  6
CONTINUOUS
 70
0
 71
3
 72
15
 73
11
 74
0
 42
0.0000001
 43
0.0000001
 44
0.0000000001
 40
0.0
 40
0.0
 40
0.0
 40
0.0
 40
0.2214277591
 40
0.4101359849
 40
0.5670760132
 40
0.6945849064
 40
0.7963806815
 40
0.877018309
 40
0.942397737
 40
1.0
 40
1.0
 40
1.0
 40
1.0
 10
4.3689300203
 20
5.0863375839
 30
0.0
 10
4.3698206949
 20
5.0861575501
 30
0.0
 10
4.3714645782
 20
5.0857933229
 30
0.0
 10
4.3737095091
 20
5.0851755321
 30
0.0
 10
4.3755447287
 20
5.0845353374
 30
0.0
 10
4.3769895801
 20
5.0838761632
 30
0.0
 10
4.3780733166
 20
5.083201213
 30
0.0
 10
4.3788286791
 20
5.0825078346
 30
0.0
 10
4.3792772561
 20
5.0817862945
 30
0.0
 10
4.3793747711
 20
5.0812771324
 30
0.0
 10
4.3793747711
 20
5.0810407462
 30
0.0
  0
SPLINE
  5
431
100
AcDbEntity
  8
ALL_FEATURES
100
AcDbSpline
 62
7
  6
CONTINUOUS
 70
0
 71
3
 72
11
 73
7
 74
0
 42
0.0000001
 43
0.0000001
 44
0.0000000001
 40
0.0
 40
0.0
 40
0.0
 40
0.0
 40
0.3036966607
 40
0.5797919721
 40
0.8126844854
 40
1.0
 40
1.0
 40
1.0
 40
1.0
 10
4.3441341913
 20
5.0884037098
 30
0.0
 10
4.3466560086
 20
5.0883727001
 30
0.0
 10
4.3514700974
 20
5.0882478103
 30
0.0
 10
4.3582079518
 20
5.0878309345
 30
0.0
 10
4.3639592604
 20
5.0872114189
 30
0.0
 10
4.3674053196
 20
5.0866457745
 30
0.0
 10
4.3689300203
 20
5.0863375839
 30
0.0
  0
SPLINE
  5
432
100
AcDbEntity
  8
ALL_FEATURES
100
AcDbSpline
 62
7
  6
CONTINUOUS
 70
0
 71
3
 72
9
 73
5
 74
0
 42
0.0000001
 43
0.0000001
 44
0.0000000001
 40
0.0
 40
0.0
 40
0.0
 40
0.0
 40
0.1916419798
 40
1.0
 40
1.0
 40
1.0
 40
1.0
 10
3.6674035196
 20
5.0862498295
 30
0.0
 10
3.667403158
 20
5.086246811
 30
0.0
 10
3.6674050946
 20
5.0862305483
 30
0.0
 10
3.6674185119
 20
5.0862188278
 30
0.0
 10
3.6674285817
 20
5.0862108883
 30
0.0
  0
LINE
  5
433
100
AcDbEntity
  8
ALL_FEATURES
100
AcDbLine
 62
7
  6
CONTINUOUS
 10
5.0082019895
 20
5.0854242795
 11
5.0161695412
 21
5.0865690746
  0
LINE
  5
434
100
AcDbEntity
  8
ALL_FEATURES
100
AcDbLine
 62
7
  6
CONTINUOUS
 10
5.0161695412
 20
5.0865690746
 11
5.018223902
 21
5.086914387
  0
LINE
  5
435
100
AcDbEntity
  8
ALL_FEATURES
100
AcDbLine
 62
7
  6
CONTINUOUS
 10
4.9560424551
 20
5.0787750579
 11
4.9636635337
 21
5.0804530777
  0
LINE
  5
436
100
AcDbEntity
  8
ALL_FEATURES
100
AcDbLine
 62
7
  6
CONTINUOUS
 10
4.9406744072
 20
5.0763179691
 11
4.952076957
 21
5.0780225498
  0
LINE
  5
437
100
AcDbEntity
  8
ALL_FEATURES
100
AcDbLine
 62
7
  6
CONTINUOUS
 10
4.9263682543
 20
5.0746189463
 11
4.9345146318
 21
5.075529274
  0
LINE
  5
438
100
AcDbEntity
  8
ALL_FEATURES
100
AcDbLine
 62
7
  6
CONTINUOUS
 10
4.9394430622
 20
5.0761551997
 11
4.9406744072
 21
5.0763179691
  0
LINE
  5
439
100
AcDbEntity
  8
ALL_FEATURES
100
AcDbLine
 62
7
  6
CONTINUOUS
 10
4.9182787573
 20
5.0740885481
 11
4.9192767651
 21
5.0740892179
  0
LINE
  5
43A
100
AcDbEntity
  8
ALL_FEATURES
100
AcDbLine
 62
7
  6
CONTINUOUS
 10
4.9192767651
 20
5.0740892179
 11
4.9215795752
 21
5.0742057186
  0
LINE
  5
43B
100
AcDbEntity
  8
ALL_FEATURES
100
AcDbLine
 62
7
  6
CONTINUOUS
 10
4.9215795752
 20
5.0742057186
 11
4.9263682543
 21
5.0746189463
  0
SPLINE
  5
43C
100
AcDbEntity
  8
ALL_FEATURES
100
AcDbSpline
 62
7
  6
CONTINUOUS
 70
0
 71
3
 72
12
 73
8
 74
0
 42
0.0000001
 43
0.0000001
 44
0.0000000001
 40
0.0
 40
0.0
 40
0.0
 40
0.0
 40
0.2105958986
 40
0.3790398579
 40
0.6338000277
 40
0.8283321257
 40
1.0
 40
1.0
 40
1.0
 40
1.0
 10
4.4430490709
 20
5.0767617734
 30
0.0
 10
4.4435498144
 20
5.0769523276
 30
0.0
 10
4.4444376275
 20
5.0773359749
 30
0.0
 10
4.4458340587
 20
5.0781447873
 30
0.0
 10
4.4470483305
 20
5.0791832712
 30
0.0
 10
4.4478469135
 20
5.0805846961
 30
0.0
 10
4.4479911434
 20
5.0815256137
 30
0.0
 10
4.4479911434
 20
5.0819623524
 30
0.0
  0
SPLINE
  5
43D
100
AcDbEntity
  8
ALL_FEATURES
100
AcDbSpline
 62
7
  6
CONTINUOUS
 70
0
 71
3
 72
12
 73
8
 74
0
 42
0.0000001
 43
0.0000001
 44
0.0000000001
 40
0.0
 40
0.0
 40
0.0
 40
0.0
 40
0.3422315232
 40
0.4983496664
 40
0.6366744038
 40
0.8517521236
 40
1.0
 40
1.0
 40
1.0
 40
1.0
 10
4.4264907891
 20
5.0746777251
 30
0.0
 10
4.4284015987
 20
5.0747112992
 30
0.0
 10
4.4311842671
 20
5.0748106126
 30
0.0
 10
4.4347285514
 20
5.0750985715
 30
0.0
 10
4.4375554165
 20
5.0754256928
 30
0.0
 10
4.4403187739
 20
5.0759063437
 30
0.0
 10
4.4422753475
 20
5.0764673388
 30
0.0
 10
4.4430490709
 20
5.0767617734
 30
0.0
  0
SPLINE
  5
43E
100
AcDbEntity
  8
ALL_FEATURES
100
AcDbSpline
 62
7
  6
CONTINUOUS
 70
0
 71
3
 72
11
 73
7
 74
0
 42
0.0000001
 43
0.0000001
 44
0.0000000001
 40
0.0
 40
0.0
 40
0.0
 40
0.0
 40
0.1711181382
 40
0.3948021302
 40
0.6781394527
 40
1.0
 40
1.0
 40
1.0
 40
1.0
 10
4.4099792414
 20
5.0759671807
 30
0.0
 10
4.4108997375
 20
5.0757452988
 30
0.0
 10
4.4130476786
 20
5.0753325209
 30
0.0
 10
4.4167773262
 20
5.0748959701
 30
0.0
 10
4.4213600052
 20
5.0746524212
 30
0.0
 10
4.4247100895
 20
5.0746464371
 30
0.0
 10
4.4264907891
 20
5.0746777251
 30
0.0
  0
SPLINE
  5
43F
100
AcDbEntity
  8
ALL_FEATURES
100
AcDbSpline
 62
7
  6
CONTINUOUS
 70
0
 71
3
 72
13
 73
9
 74
0
 42
0.0000001
 43
0.0000001
 44
0.0000000001
 40
0.0
 40
0.0
 40
0.0
 40
0.0
 40
0.1617374144
 40
0.2479853352
 40
0.3427453808
 40
0.5852383886
 40
0.7589644906
 40
1.0
 40
1.0
 40
1.0
 40
1.0
 10
4.4038986187
 20
5.0815214678
 30
0.0
 10
4.4038986187
 20
5.0810399587
 30
0.0
 10
4.4039993292
 20
5.0802932441
 30
0.0
 10
4.4043931592
 20
5.0793466879
 30
0.0
 10
4.405092083
 20
5.078287683
 30
0.0
 10
4.4063183888
 20
5.077320559
 30
0.0
 10
4.4080925804
 20
5.0764900054
 30
0.0
 10
4.409281634
 20
5.0761353362
 30
0.0
 10
4.4099792414
 20
5.0759671807
 30
0.0
  0
SPLINE
  5
440
100
AcDbEntity
  8
ALL_FEATURES
100
AcDbSpline
 62
7
  6
CONTINUOUS
 70
0
 71
3
 72
12
 73
8
 74
0
 42
0.0000001
 43
0.0000001
 44
0.0000000001
 40
0.0
 40
0.0
 40
0.0
 40
0.0
 40
0.3437658996
 40
0.4994994132
 40
0.6371258064
 40
0.8514230658
 40
1.0
 40
1.0
 40
1.0
 40
1.0
 10
4.3412861384
 20
5.0739263768
 30
0.0
 10
4.3431496819
 20
5.0739263773
 30
0.0
 10
4.3458584257
 20
5.0739910946
 30
0.0
 10
4.3493047915
 20
5.0742257391
 30
0.0
 10
4.352042946
 20
5.0745059659
 30
0.0
 10
4.3547247062
 20
5.0749402766
 30
0.0
 10
4.3566277066
 20
5.0754629769
 30
0.0
 10
4.3573835888
 20
5.0757411144
 30
0.0
  0
SPLINE
  5
441
100
AcDbEntity
  8
ALL_FEATURES
100
AcDbSpline
 62
7
  6
CONTINUOUS
 70
0
 71
3
 72
11
 73
7
 74
0
 42
0.0000001
 43
0.0000001
 44
0.0000000001
 40
0.0
 40
0.0
 40
0.0
 40
0.0
 40
0.1708541349
 40
0.3951181246
 40
0.6792833269
 40
1.0
 40
1.0
 40
1.0
 40
1.0
 10
4.3243136187
 20
5.0755164769
 30
0.0
 10
4.3252554751
 20
5.0752717015
 30
0.0
 10
4.3274607579
 20
5.0748088357
 30
0.0
 10
4.3312988137
 20
5.0742984772
 30
0.0
 10
4.3360132661
 20
5.0739740802
 30
0.0
 10
4.3394594144
 20
5.0739263764
 30
0.0
 10
4.3412861384
 20
5.0739263768
 30
0.0
  0
SPLINE
  5
442
100
AcDbEntity
  8
ALL_FEATURES
100
AcDbSpline
 62
7
  6
CONTINUOUS
 70
0
 71
3
 72
13
 73
9
 74
0
 42
0.0000001
 43
0.0000001
 44
0.0000000001
 40
0.0
 40
0.0
 40
0.0
 40
0.0
 40
0.1614390585
 40
0.2478009421
 40
0.3428090601
 40
0.5858601425
 40
0.7595536105
 40
1.0
 40
1.0
 40
1.0
 40
1.0
 10
4.3182331296
 20
5.0811993164
 30
0.0
 10
4.3182331296
 20
5.0807148584
 30
0.0
 10
4.3183344497
 20
5.0799630122
 30
0.0
 10
4.3187279315
 20
5.0790074301
 30
0.0
 10
4.3194264536
 20
5.0779330918
 30
0.0
 10
4.3206506451
 20
5.0769417531
 30
0.0
 10
4.3224250763
 20
5.0760758403
 30
0.0
 10
4.323615268
 20
5.0756979686
 30
0.0
 10
4.3243136187
 20
5.0755164769
 30
0.0
  0
SPLINE
  5
443
100
AcDbEntity
  8
ALL_FEATURES
100
AcDbSpline
 62
7
  6
CONTINUOUS
 70
0
 71
3
 72
12
 73
8
 74
0
 42
0.0000001
 43
0.0000001
 44
0.0000000001
 40
0.0
 40
0.0
 40
0.0
 40
0.0
 40
0.2097273913
 40
0.3774897612
 40
0.6316046299
 40
0.8266790172
 40
1.0
 40
1.0
 40
1.0
 40
1.0
 10
4.3573835888
 20
5.0757411144
 30
0.0
 10
4.3578842584
 20
5.0759253428
 30
0.0
 10
4.3587722002
 20
5.0762985562
 30
0.0
 10
4.360169588
 20
5.0770942018
 30
0.0
 10
4.3613860477
 20
5.078128377
 30
0.0
 10
4.3621830438
 20
5.0795356946
 30
0.0
 10
4.362325653
 20
5.0804822064
 30
0.0
 10
4.362325653
 20
5.0809230872
 30
0.0
  0
SPLINE
  5
444
100
AcDbEntity
  8
ALL_FEATURES
100
AcDbSpline
 62
7
  6
CONTINUOUS
 70
0
 71
3
 72
9
 73
5
 74
0
 42
0.0000001
 43
0.0000001
 44
0.0000000001
 40
0.0
 40
0.0
 40
0.0
 40
0.0
 40
0.149670686
 40
1.0
 40
1.0
 40
1.0
 40
1.0
 10
3.641040399
 20
5.0871404077
 30
0.0
 10
3.6410401793
 20
5.0871385466
 30
0.0
 10
3.6410443824
 20
5.0871258961
 30
0.0
 10
3.6410577215
 20
5.0871206053
 30
0.0
 10
3.641067216
 20
5.0871157868
 30
0.0
  0
SPLINE
  5
445
100
AcDbEntity
  8
ALL_FEATURES
100
AcDbSpline
 62
7
  6
CONTINUOUS
 70
0
 71
3
 72
15
 73
11
 74
0
 42
0.0000001
 43
0.0000001
 44
0.0000000001
 40
0.0
 40
0.0
 40
0.0
 40
0.0
 40
0.2686808809
 40
0.478872862
 40
0.6343632468
 40
0.7494133669
 40
0.8355707124
 40
0.9016875978
 40
0.9546962885
 40
1.0
 40
1.0
 40
1.0
 40
1.0
 10
4.2446616044
 20
5.0751243932
 30
0.0
 10
4.2451107868
 20
5.0751438037
 30
0.0
 10
4.2459108125
 20
5.075196531
 30
0.0
 10
4.2469647833
 20
5.0753304972
 30
0.0
 10
4.2477524344
 20
5.0754996396
 30
0.0
 10
4.2483210552
 20
5.0756855997
 30
0.0
 10
4.2487248725
 20
5.0758821898
 30
0.0
 10
4.249003882
 20
5.0760864781
 30
0.0
 10
4.249186035
 20
5.076296278
 30
0.0
 10
4.2492580758
 20
5.076446807
 30
0.0
 10
4.249280819
 20
5.0765191247
 30
0.0
  0
SPLINE
  5
446
100
AcDbEntity
  8
ALL_FEATURES
100
AcDbSpline
 62
7
  6
CONTINUOUS
 70
0
 71
3
 72
12
 73
8
 74
0
 42
0.0000001
 43
0.0000001
 44
0.0000000001
 40
0.0
 40
0.0
 40
0.0
 40
0.0
 40
0.2562078168
 40
0.5118084318
 40
0.7645648211
 40
0.887131589
 40
1.0
 40
1.0
 40
1.0
 40
1.0
 10
4.2327356237
 20
5.0751321698
 30
0.0
 10
4.2337541076
 20
5.0751095
 30
0.0
 10
4.2357887781
 20
5.0750685985
 30
0.0
 10
4.2388285529
 20
5.0750280106
 30
0.0
 10
4.2413374682
 20
5.0750206099
 30
0.0
 10
4.2432782763
 20
5.0750532569
 30
0.0
 10
4.2442141141
 20
5.0750902823
 30
0.0
 10
4.2446616044
 20
5.0751243932
 30
0.0
  0
LINE
  5
447
100
AcDbEntity
  8
ALL_FEATURES
100
AcDbLine
 62
7
  6
CONTINUOUS
 10
4.2676066364
 20
5.0747981827
 11
4.2687039841
 21
5.0746918941
  0
LINE
  5
448
100
AcDbEntity
  8
ALL_FEATURES
100
AcDbLine
 62
7
  6
CONTINUOUS
 10
4.2687039841
 20
5.0746918941
 11
4.2805235244
 21
5.0742983196
  0
SPLINE
  5
449
100
AcDbEntity
  8
ALL_FEATURES
100
AcDbSpline
 62
7
  6
CONTINUOUS
 70
0
 71
3
 72
12
 73
8
 74
0
 42
0.0000001
 43
0.0000001
 44
0.0000000001
 40
0.0
 40
0.0
 40
0.0
 40
0.0
 40
0.2583861981
 40
0.3826756931
 40
0.5440736068
 40
0.7484530634
 40
1.0
 40
1.0
 40
1.0
 40
1.0
 10
4.2639783291
 20
5.076268007
 30
0.0
 10
4.2639783291
 20
5.0759187693
 30
0.0
 10
4.2645416517
 20
5.0755428498
 30
0.0
 10
4.2651996517
 20
5.075292075
 30
0.0
 10
4.2658451975
 20
5.0751058995
 30
0.0
 10
4.266659099
 20
5.0749353703
 30
0.0
 10
4.2672694948
 20
5.0748421286
 30
0.0
 10
4.2676066364
 20
5.0747981827
 30
0.0
  0
LINE
  5
44A
100
AcDbEntity
  8
ALL_FEATURES
100
AcDbLine
 62
7
  6
CONTINUOUS
 10
3.9233054472
 20
5.0861320305
 11
3.9680726424
 21
5.0765623425
  0
LINE
  5
44B
100
AcDbEntity
  8
ALL_FEATURES
100
AcDbLine
 62
7
  6
CONTINUOUS
 10
3.641067216
 20
5.0871157868
 11
3.6412624346
 21
5.0869380879
  0
LINE
  5
44C
100
AcDbEntity
  8
ALL_FEATURES
100
AcDbLine
 62
7
  6
CONTINUOUS
 10
3.7484568507
 20
5.073754453
 11
3.7450900565
 21
5.0742076152
  0
LINE
  5
44D
100
AcDbEntity
  8
ALL_FEATURES
100
AcDbLine
 62
7
  6
CONTINUOUS
 10
3.7380625886
 20
5.0747981827
 11
3.7444161865
 21
5.0742983196
  0
LINE
  5
44E
100
AcDbEntity
  8
ALL_FEATURES
100
AcDbLine
 62
7
  6
CONTINUOUS
 10
3.7264174779
 20
5.076268007
 11
3.7380625886
 21
5.0747981827
  0
LINE
  5
44F
100
AcDbEntity
  8
ALL_FEATURES
100
AcDbLine
 62
7
  6
CONTINUOUS
 10
3.6942794006
 20
5.0805838857
 11
3.6671309256
 21
5.0842321099
  0
LINE
  5
450
100
AcDbEntity
  8
ALL_FEATURES
100
AcDbLine
 62
7
  6
CONTINUOUS
 10
3.6674285817
 20
5.0862108883
 11
3.6676189866
 21
5.0859034274
  0
LINE
  5
451
100
AcDbEntity
  8
ALL_FEATURES
100
AcDbLine
 62
7
  6
CONTINUOUS
 10
3.7644678642
 20
5.0742522847
 11
3.7708492603
 21
5.0739794617
  0
LINE
  5
452
100
AcDbEntity
  8
ALL_FEATURES
100
AcDbLine
 62
7
  6
CONTINUOUS
 10
3.755710324
 20
5.0752845246
 11
3.7634136595
 21
5.0743593177
  0
LINE
  5
453
100
AcDbEntity
  8
ALL_FEATURES
100
AcDbLine
 62
7
  6
CONTINUOUS
 10
3.7865163563
 20
5.0748585176
 11
3.7874463878
 21
5.0750649333
  0
LINE
  5
454
100
AcDbEntity
  8
ALL_FEATURES
100
AcDbLine
 62
7
  6
CONTINUOUS
 10
3.7804249235
 20
5.0750924496
 11
3.7865163563
 21
5.0748585176
  0
LINE
  5
455
100
AcDbEntity
  8
ALL_FEATURES
100
AcDbLine
 62
7
  6
CONTINUOUS
 10
3.7733811068
 20
5.0756142585
 11
3.7804249235
 21
5.0750924496
  0
LINE
  5
456
100
AcDbEntity
  8
ALL_FEATURES
100
AcDbLine
 62
7
  6
CONTINUOUS
 10
3.7685464004
 20
5.0758394836
 11
3.7733811068
 21
5.0756142585
  0
LINE
  5
457
100
AcDbEntity
  8
ALL_FEATURES
100
AcDbLine
 62
7
  6
CONTINUOUS
 10
3.7890082117
 20
5.0758734248
 11
3.7906124308
 21
5.0754611673
  0
LINE
  5
458
100
AcDbEntity
  8
ALL_FEATURES
100
AcDbLine
 62
7
  6
CONTINUOUS
 10
3.7906124308
 20
5.0754611673
 11
3.7918500512
 21
5.075089249
  0
LINE
  5
459
100
AcDbEntity
  8
ALL_FEATURES
100
AcDbLine
 62
7
  6
CONTINUOUS
 10
3.7918500512
 20
5.075089249
 11
3.7927249699
 21
5.0747574963
  0
LINE
  5
45A
100
AcDbEntity
  8
ALL_FEATURES
100
AcDbLine
 62
7
  6
CONTINUOUS
 10
3.7927249699
 20
5.0747574963
 11
3.7933807952
 21
5.0742195101
  0
SPLINE
  5
45B
100
AcDbEntity
  8
ALL_FEATURES
100
AcDbSpline
 62
7
  6
CONTINUOUS
 70
0
 71
3
 72
11
 73
7
 74
0
 42
0.0000001
 43
0.0000001
 44
0.0000000001
 40
0.0
 40
0.0
 40
0.0
 40
0.0
 40
0.3145503852
 40
0.5943907566
 40
0.8248785099
 40
1.0
 40
1.0
 40
1.0
 40
1.0
 10
3.763638814
 20
5.0801216585
 30
0.0
 10
3.7663131987
 20
5.079765728
 30
0.0
 10
3.771363261
 20
5.0790654824
 30
0.0
 10
3.7783551794
 20
5.0779802462
 30
0.0
 10
3.7841436006
 20
5.0769478887
 30
0.0
 10
3.7875481267
 20
5.0762260145
 30
0.0
 10
3.7890082117
 20
5.0758734248
 30
0.0
  0
SPLINE
  5
45C
100
AcDbEntity
  8
ALL_FEATURES
100
AcDbSpline
 62
7
  6
CONTINUOUS
 70
0
 71
3
 72
9
 73
5
 74
0
 42
0.0000001
 43
0.0000001
 44
0.0000000001
 40
0.0
 40
0.0
 40
0.0
 40
0.0
 40
0.1970808529
 40
1.0
 40
1.0
 40
1.0
 40
1.0
 10
3.7109106378
 20
5.0848411419
 30
0.0
 10
3.7123538172
 20
5.0848020002
 30
0.0
 10
3.7196750936
 20
5.0845502093
 30
0.0
 10
3.7269875157
 20
5.0840518715
 30
0.0
 10
3.7328463314
 20
5.0835328388
 30
0.0
  0
LINE
  5
45D
100
AcDbEntity
  8
ALL_FEATURES
100
AcDbLine
 62
7
  6
CONTINUOUS
 10
3.7058040102
 20
5.084934425
 11
3.6969013247
 21
5.0864454673
  0
LINE
  5
45E
100
AcDbEntity
  8
ALL_FEATURES
100
AcDbLine
 62
7
  6
CONTINUOUS
 10
3.7067069801
 20
5.0873708587
 11
3.6947193057
 21
5.0894395161
  0
LINE
  5
45F
100
AcDbEntity
  8
ALL_FEATURES
100
AcDbLine
 62
7
  6
CONTINUOUS
 10
4.9278296149
 20
5.0733270526
 11
4.9280501521
 21
5.0734646344
  0
LINE
  5
460
100
AcDbEntity
  8
ALL_FEATURES
100
AcDbLine
 62
7
  6
CONTINUOUS
 10
4.9280501521
 20
5.0734646344
 11
4.928223143
 21
5.0735201052
  0
LINE
  5
461
100
AcDbEntity
  8
ALL_FEATURES
100
AcDbLine
 62
7
  6
CONTINUOUS
 10
4.9397691172
 20
5.0743686874
 11
4.9400494133
 21
5.0743240343
  0
LINE
  5
462
100
AcDbEntity
  8
ALL_FEATURES
100
AcDbLine
 62
7
  6
CONTINUOUS
 10
4.9400494133
 20
5.0743240343
 11
4.940410299
 21
5.0743279589
  0
LINE
  5
463
100
AcDbEntity
  8
ALL_FEATURES
100
AcDbLine
 62
7
  6
CONTINUOUS
 10
4.9173756552
 20
5.0742491834
 11
4.9176072847
 21
5.074143172
  0
LINE
  5
464
100
AcDbEntity
  8
ALL_FEATURES
100
AcDbLine
 62
7
  6
CONTINUOUS
 10
4.9176072847
 20
5.074143172
 11
4.9178873304
 21
5.0741093523
  0
LINE
  5
465
100
AcDbEntity
  8
ALL_FEATURES
100
AcDbLine
 62
7
  6
CONTINUOUS
 10
4.9178873304
 20
5.0741093523
 11
4.9182787573
 21
5.0740885481
  0
SPLINE
  5
466
100
AcDbEntity
  8
ALL_FEATURES
100
AcDbSpline
 62
7
  6
CONTINUOUS
 70
0
 71
3
 72
15
 73
11
 74
0
 42
0.0000001
 43
0.0000001
 44
0.0000000001
 40
0.0
 40
0.0
 40
0.0
 40
0.0
 40
0.0294835504
 40
0.0518806744
 40
0.0807503277
 40
0.159670481
 40
0.2685197287
 40
0.4076308045
 40
0.5764095218
 40
1.0
 40
1.0
 40
1.0
 40
1.0
 10
4.9099390185
 20
5.073613509
 30
0.0
 10
4.9099352796
 20
5.0736452005
 30
0.0
 10
4.9099686143
 20
5.0737007442
 30
0.0
 10
4.9100344444
 20
5.0737556529
 30
0.0
 10
4.9101537658
 20
5.0738326927
 30
0.0
 10
4.910367291
 20
5.0739301606
 30
0.0
 10
4.9106996818
 20
5.074052132
 30
0.0
 10
4.9111306043
 20
5.0741857318
 30
0.0
 10
4.9118939876
 20
5.0743959541
 30
0.0
 10
4.9125180749
 20
5.0745437511
 30
0.0
 10
4.9129653078
 20
5.0746446339
 30
0.0
  0
SPLINE
  5
467
100
AcDbEntity
  8
ALL_FEATURES
100
AcDbSpline
 62
7
  6
CONTINUOUS
 70
0
 71
3
 72
11
 73
7
 74
0
 42
0.0000001
 43
0.0000001
 44
0.0000000001
 40
0.0
 40
0.0
 40
0.0
 40
0.0
 40
0.1775586524
 40
0.4105965392
 40
0.6932149667
 40
1.0
 40
1.0
 40
1.0
 40
1.0
 10
4.3112624491
 20
5.086159574
 30
0.0
 10
4.31296206
 20
5.0865458263
 30
0.0
 10
4.3169378711
 20
5.0872386389
 30
0.0
 10
4.3237099898
 20
5.0879398633
 30
0.0
 10
4.3317756623
 20
5.0883499159
 30
0.0
 10
4.3375618993
 20
5.0884257594
 30
0.0
 10
4.3405733573
 20
5.0884253831
 30
0.0
  0
SPLINE
  5
468
100
AcDbEntity
  8
ALL_FEATURES
100
AcDbSpline
 62
7
  6
CONTINUOUS
 70
0
 71
3
 72
15
 73
11
 74
0
 42
0.0000001
 43
0.0000001
 44
0.0000000001
 40
0.0
 40
0.0
 40
0.0
 40
0.0
 40
0.059648401
 40
0.1276505086
 40
0.2114396714
 40
0.3163479067
 40
0.445837541
 40
0.6023829527
 40
0.787110855
 40
1.0
 40
1.0
 40
1.0
 40
1.0
 10
4.3011840196
 20
5.0808097101
 30
0.0
 10
4.3011840196
 20
5.081047708
 30
0.0
 10
4.3012873714
 20
5.0815613417
 30
0.0
 10
4.3017485252
 20
5.0822841671
 30
0.0
 10
4.3025120086
 20
5.0829786327
 30
0.0
 10
4.3035916507
 20
5.083654846
 30
0.0
 10
4.3050065716
 20
5.0843177266
 30
0.0
 10
4.3067719461
 20
5.084964252
 30
0.0
 10
4.3088929364
 20
5.085592718
 30
0.0
 10
4.3104341391
 20
5.0859713329
 30
0.0
 10
4.3112624491
 20
5.086159574
 30
0.0
  0
LINE
  5
469
100
AcDbEntity
  8
ALL_FEATURES
100
AcDbLine
 62
7
  6
CONTINUOUS
 10
4.9997357614
 20
5.085845256
 11
4.9914122366
 21
5.0846074455
  0
LINE
  5
46A
100
AcDbEntity
  8
ALL_FEATURES
100
AcDbLine
 62
7
  6
CONTINUOUS
 10
4.9862914576
 20
5.0836802268
 11
4.9811682136
 21
5.0825766189
  0
LINE
  5
46B
100
AcDbEntity
  8
ALL_FEATURES
100
AcDbLine
 62
7
  6
CONTINUOUS
 10
5.020384114
 20
5.0877935628
 11
5.0160445192
 21
5.0875991192
  0
LINE
  5
46C
100
AcDbEntity
  8
ALL_FEATURES
100
AcDbLine
 62
7
  6
CONTINUOUS
 10
5.0155925099
 20
5.084309606
 11
5.0146144507
 21
5.0838782745
  0
LINE
  5
46D
100
AcDbEntity
  8
ALL_FEATURES
100
AcDbLine
 62
7
  6
CONTINUOUS
 10
5.0146144507
 20
5.0838782745
 11
5.0101953243
 21
5.0830228285
  0
LINE
  5
46E
100
AcDbEntity
  8
ALL_FEATURES
100
AcDbLine
 62
7
  6
CONTINUOUS
 10
4.944289722
 20
5.0754958708
 11
4.9437566096
 21
5.0753001458
  0
SPLINE
  5
46F
100
AcDbEntity
  8
ALL_FEATURES
100
AcDbSpline
 62
7
  6
CONTINUOUS
 70
0
 71
3
 72
15
 73
11
 74
0
 42
0.0000001
 43
0.0000001
 44
0.0000000001
 40
0.0
 40
0.0
 40
0.0
 40
0.0
 40
0.2259899424
 40
0.4171083449
 40
0.5747617122
 40
0.7018219846
 40
0.8022070338
 40
0.8809230054
 40
0.9442934141
 40
1.0
 40
1.0
 40
1.0
 40
1.0
 10
4.3979155077
 20
5.0755698601
 30
0.0
 10
4.3969587352
 20
5.0757404989
 30
0.0
 10
4.3951982914
 20
5.0760883721
 30
0.0
 10
4.3928000609
 20
5.076692499
 30
0.0
 10
4.3908525643
 20
5.0773275371
 30
0.0
 10
4.3893296326
 20
5.0779864916
 30
0.0
 10
4.3881955473
 20
5.0786655007
 30
0.0
 10
4.3874113846
 20
5.0793664258
 30
0.0
 10
4.3869492082
 20
5.0800981119
 30
0.0
 10
4.3868495028
 20
5.0806149115
 30
0.0
 10
4.3868495028
 20
5.0808544778
 30
0.0
  0
SPLINE
  5
470
100
AcDbEntity
  8
ALL_FEATURES
100
AcDbSpline
 62
7
  6
CONTINUOUS
 70
0
 71
3
 72
13
 73
9
 74
0
 42
0.0000001
 43
0.0000001
 44
0.0000000001
 40
0.0
 40
0.0
 40
0.0
 40
0.0
 40
0.0473887006
 40
0.1145430599
 40
0.2061954458
 40
0.3220621577
 40
0.6211055786
 40
1.0
 40
1.0
 40
1.0
 40
1.0
 10
4.9972364227
 20
5.0821610865
 30
0.0
 10
4.9972333621
 20
5.0821855805
 30
0.0
 10
4.9971970796
 20
5.0822391513
 30
0.0
 10
4.9971043792
 20
5.0822942226
 30
0.0
 10
4.9969710036
 20
5.0823473213
 30
0.0
 10
4.9967166986
 20
5.0824185376
 30
0.0
 10
4.9963093803
 20
5.082493166
 30
0.0
 10
4.9959591707
 20
5.0825385421
 30
0.0
 10
4.9957630873
 20
5.0825609828
 30
0.0
  0
SPLINE
  5
471
100
AcDbEntity
  8
ALL_FEATURES
100
AcDbSpline
 62
7
  6
CONTINUOUS
 70
0
 71
3
 72
9
 73
5
 74
0
 42
0.0000001
 43
0.0000001
 44
0.0000000001
 40
0.0
 40
0.0
 40
0.0
 40
0.0
 40
0.5605244932
 40
1.0
 40
1.0
 40
1.0
 40
1.0
 10
4.4168040762
 20
5.0738919518
 30
0.0
 10
4.4135118034
 20
5.0739671123
 30
0.0
 10
4.4076394739
 20
5.0742502551
 30
0.0
 10
4.4017977666
 20
5.0749314968
 30
0.0
 10
4.3992488729
 20
5.0753433758
 30
0.0
  0
SPLINE
  5
472
100
AcDbEntity
  8
ALL_FEATURES
100
AcDbSpline
 62
7
  6
CONTINUOUS
 70
0
 71
3
 72
11
 73
7
 74
0
 42
0.0000001
 43
0.0000001
 44
0.0000000001
 40
0.0
 40
0.0
 40
0.0
 40
0.0
 40
0.1920600186
 40
0.4223530807
 40
0.6929436266
 40
1.0
 40
1.0
 40
1.0
 40
1.0
 10
4.4550636718
 20
5.0767467314
 30
0.0
 10
4.4540734917
 20
5.0764982981
 30
0.0
 10
4.4518788737
 20
5.0760195905
 30
0.0
 10
4.4482452569
 20
5.075410098
 30
0.0
 10
4.4439830817
 20
5.0748756513
 30
0.0
 10
4.4409244281
 20
5.0746004616
 30
0.0
 10
4.4392970074
 20
5.074476721
 30
0.0
  0
SPLINE
  5
473
100
AcDbEntity
  8
ALL_FEATURES
100
AcDbSpline
 62
7
  6
CONTINUOUS
 70
0
 71
3
 72
15
 73
11
 74
0
 42
0.0000001
 43
0.0000001
 44
0.0000000001
 40
0.0
 40
0.0
 40
0.0
 40
0.0
 40
0.0593355123
 40
0.1271336219
 40
0.210458296
 40
0.3145956565
 40
0.4433049806
 40
0.5994879638
 40
0.7848607352
 40
1.0
 40
1.0
 40
1.0
 40
1.0
 10
4.4650402464
 20
5.082353573
 30
0.0
 10
4.4650402464
 20
5.0821163927
 30
0.0
 10
4.4649404341
 20
5.0816043147
 30
0.0
 10
4.4644959363
 20
5.0808751082
 30
0.0
 10
4.4637550585
 20
5.0801626079
 30
0.0
 10
4.4627008785
 20
5.0794576847
 30
0.0
 10
4.4613099152
 20
5.0787563631
 30
0.0
 10
4.4595615817
 20
5.0780610048
 30
0.0
 10
4.4574437667
 20
5.0773742412
 30
0.0
 10
4.4558977896
 20
5.0769560092
 30
0.0
 10
4.4550636718
 20
5.0767467314
 30
0.0
  0
LINE
  5
474
100
AcDbEntity
  8
ALL_FEATURES
100
AcDbLine
 62
7
  6
CONTINUOUS
 10
5.0212087293
 20
5.0876620244
 11
5.020384114
 21
5.0877935628
  0
LINE
  5
475
100
AcDbEntity
  8
ALL_FEATURES
100
AcDbLine
 62
7
  6
CONTINUOUS
 10
4.9206026385
 20
5.075154965
 11
4.9174194558
 21
5.0743199955
  0
SPLINE
  5
476
100
AcDbEntity
  8
ALL_FEATURES
100
AcDbSpline
 62
7
  6
CONTINUOUS
 70
0
 71
3
 72
9
 73
5
 74
0
 42
0.0000001
 43
0.0000001
 44
0.0000000001
 40
0.0
 40
0.0
 40
0.0
 40
0.0
 40
0.3300210065
 40
1.0
 40
1.0
 40
1.0
 40
1.0
 10
4.9174194558
 20
5.0743199955
 30
0.0
 10
4.9174121941
 20
5.0743141338
 30
0.0
 10
4.9173914626
 20
5.0742960085
 30
0.0
 10
4.9173734148
 20
5.0742679962
 30
0.0
 10
4.9173756552
 20
5.0742491834
 30
0.0
  0
LINE
  5
477
100
AcDbEntity
  8
ALL_FEATURES
100
AcDbLine
 62
7
  6
CONTINUOUS
 10
4.9349632612
 20
5.0773841872
 11
4.9266702319
 21
5.076204229
  0
LINE
  5
478
100
AcDbEntity
  8
ALL_FEATURES
100
AcDbLine
 62
7
  6
CONTINUOUS
 10
4.9266702319
 20
5.076204229
 11
4.9223751577
 21
5.0754894257
  0
SPLINE
  5
479
100
AcDbEntity
  8
ALL_FEATURES
100
AcDbSpline
 62
7
  6
CONTINUOUS
 70
0
 71
3
 72
13
 73
9
 74
0
 42
0.0000001
 43
0.0000001
 44
0.0000000001
 40
0.0
 40
0.0
 40
0.0
 40
0.0
 40
0.2192508005
 40
0.39114481
 40
0.6446080744
 40
0.7444919051
 40
0.8344111934
 40
1.0
 40
1.0
 40
1.0
 40
1.0
 10
4.4089374764
 20
5.0864150231
 30
0.0
 10
4.4084165949
 20
5.0862416342
 30
0.0
 10
4.4074987965
 20
5.0858909641
 30
0.0
 10
4.4060687326
 20
5.0851416239
 30
0.0
 10
4.4050172636
 20
5.0843082045
 30
0.0
 10
4.4043736048
 20
5.0833962299
 30
0.0
 10
4.404001078
 20
5.0825835644
 30
0.0
 10
4.4038986187
 20
5.0819360856
 30
0.0
 10
4.4038986187
 20
5.0815214678
 30
0.0
  0
LINE
  5
47A
100
AcDbEntity
  8
ALL_FEATURES
100
AcDbLine
 62
7
  6
CONTINUOUS
 10
4.4219412316
 20
5.0881604455
 11
4.4153826646
 21
5.0876858469
  0
SPLINE
  5
47B
100
AcDbEntity
  8
ALL_FEATURES
100
AcDbSpline
 62
7
  6
CONTINUOUS
 70
0
 71
3
 72
9
 73
5
 74
0
 42
0.0000001
 43
0.0000001
 44
0.0000000001
 40
0.0
 40
0.0
 40
0.0
 40
0.0
 40
0.5895661692
 40
1.0
 40
1.0
 40
1.0
 40
1.0
 10
4.4153826646
 20
5.0876858469
 30
0.0
 10
4.4140983201
 20
5.0875396797
 30
0.0
 10
4.4119260234
 20
5.0872255411
 30
0.0
 10
4.4097912985
 20
5.0866992397
 30
0.0
 10
4.4089374764
 20
5.0864150231
 30
0.0
  0
SPLINE
  5
47C
100
AcDbEntity
  8
ALL_FEATURES
100
AcDbSpline
 62
7
  6
CONTINUOUS
 70
0
 71
3
 72
9
 73
5
 74
0
 42
0.0000001
 43
0.0000001
 44
0.0000000001
 40
0.0
 40
0.0
 40
0.0
 40
0.0
 40
0.4243129813
 40
1.0
 40
1.0
 40
1.0
 40
1.0
 10
4.4427000338
 20
5.0867562975
 30
0.0
 10
4.4420069602
 20
5.0869771636
 30
0.0
 10
4.4403404397
 20
5.087393652
 30
0.0
 10
4.4386447084
 20
5.0876583072
 30
0.0
 10
4.4376653227
 20
5.0877800327
 30
0.0
  0
SPLINE
  5
47D
100
AcDbEntity
  8
ALL_FEATURES
100
AcDbSpline
 62
7
  6
CONTINUOUS
 70
0
 71
3
 72
10
 73
6
 74
0
 42
0.0000001
 43
0.0000001
 44
0.0000000001
 40
0.0
 40
0.0
 40
0.0
 40
0.0
 40
0.2080213201
 40
0.451121296
 40
1.0
 40
1.0
 40
1.0
 40
1.0
 10
4.4376653227
 20
5.0877800327
 30
0.0
 10
4.4368431754
 20
5.0878822155
 30
0.0
 10
4.4350540827
 20
5.0880548757
 30
0.0
 10
4.4310770818
 20
5.0882795813
 30
0.0
 10
4.4279206574
 20
5.0882942685
 30
0.0
 10
4.4257349152
 20
5.0882617924
 30
0.0
  0
SPLINE
  5
47E
100
AcDbEntity
  8
ALL_FEATURES
100
AcDbSpline
 62
7
  6
CONTINUOUS
 70
0
 71
3
 72
13
 73
9
 74
0
 42
0.0000001
 43
0.0000001
 44
0.0000000001
 40
0.0
 40
0.0
 40
0.0
 40
0.0
 40
0.1646960222
 40
0.3553388209
 40
0.4732079338
 40
0.6143263828
 40
0.78665883
 40
1.0
 40
1.0
 40
1.0
 40
1.0
 10
4.4479911434
 20
5.0819623524
 30
0.0
 10
4.4479911434
 20
5.0823810393
 30
0.0
 10
4.4478258868
 20
5.083295962
 30
0.0
 10
4.4471302226
 20
5.0843162379
 30
0.0
 10
4.4462718046
 20
5.0850750947
 30
0.0
 10
4.4453487074
 20
5.0856742128
 30
0.0
 10
4.4441405473
 20
5.0862579338
 30
0.0
 10
4.4432167808
 20
5.0865916225
 30
0.0
 10
4.4427000338
 20
5.0867562975
 30
0.0
  0
LINE
  5
47F
100
AcDbEntity
  8
ALL_FEATURES
100
AcDbLine
 62
7
  6
CONTINUOUS
 10
4.781848061
 20
5.0829313453
 11
4.7500252365
 21
5.0765623425
  0
SPLINE
  5
480
100
AcDbEntity
  8
ALL_FEATURES
100
AcDbSpline
 62
7
  6
CONTINUOUS
 70
0
 71
3
 72
13
 73
9
 74
0
 42
0.0000001
 43
0.0000001
 44
0.0000000001
 40
0.0
 40
0.0
 40
0.0
 40
0.0
 40
0.2191473477
 40
0.3907963688
 40
0.6437393795
 40
0.7435365136
 40
0.8335577636
 40
1.0
 40
1.0
 40
1.0
 40
1.0
 10
4.3232722932
 20
5.0860326175
 30
0.0
 10
4.3227516329
 20
5.085866609
 30
0.0
 10
4.3218341063
 20
5.0855288902
 30
0.0
 10
4.3204038355
 20
5.0847989738
 30
0.0
 10
4.3193512589
 20
5.0839779902
 30
0.0
 10
4.3187077591
 20
5.0830728239
 30
0.0
 10
4.3183348604
 20
5.0822618134
 30
0.0
 10
4.3182331296
 20
5.0816143714
 30
0.0
 10
4.3182331296
 20
5.0811993164
 30
0.0
  0
LINE
  5
481
100
AcDbEntity
  8
ALL_FEATURES
100
AcDbLine
 62
7
  6
CONTINUOUS
 10
4.3363496177
 20
5.0875897866
 11
4.3297447956
 21
5.0872132151
  0
SPLINE
  5
482
100
AcDbEntity
  8
ALL_FEATURES
100
AcDbSpline
 62
7
  6
CONTINUOUS
 70
0
 71
3
 72
9
 73
5
 74
0
 42
0.0000001
 43
0.0000001
 44
0.0000000001
 40
0.0
 40
0.0
 40
0.0
 40
0.0
 40
0.5897749773
 40
1.0
 40
1.0
 40
1.0
 40
1.0
 10
4.3297447956
 20
5.0872132151
 30
0.0
 10
4.3284559969
 20
5.0870856432
 30
0.0
 10
4.3262758534
 20
5.08680374
 30
0.0
 10
4.3241305441
 20
5.0863062642
 30
0.0
 10
4.3232722932
 20
5.0860326175
 30
0.0
  0
SPLINE
  5
483
100
AcDbEntity
  8
ALL_FEATURES
100
AcDbSpline
 62
7
  6
CONTINUOUS
 70
0
 71
3
 72
14
 73
10
 74
0
 42
0.0000001
 43
0.0000001
 44
0.0000000001
 40
0.0
 40
0.0
 40
0.0
 40
0.0
 40
0.0314773366
 40
0.0814249467
 40
0.1573074385
 40
0.2623805157
 40
0.398508248
 40
0.5664812251
 40
1.0
 40
1.0
 40
1.0
 40
1.0
 10
5.028222383
 20
5.088320428
 30
0.0
 10
5.0282247309
 20
5.0883025468
 30
0.0
 10
5.0282034748
 20
5.0882552873
 30
0.0
 10
5.0281304644
 20
5.0882016338
 30
0.0
 10
5.0280133553
 20
5.0881393818
 30
0.0
 10
5.0278442694
 20
5.0880723364
 30
0.0
 10
5.0276218344
 20
5.0879981451
 30
0.0
 10
5.0272157925
 20
5.0878806447
 30
0.0
 10
5.0268808159
 20
5.0877990922
 30
0.0
 10
5.0266387889
 20
5.0877432723
 30
0.0
  0
LINE
  5
484
100
AcDbEntity
  8
ALL_FEATURES
100
AcDbLine
 62
7
  6
CONTINUOUS
 10
5.0266387889
 20
5.0877432723
 11
5.0258541094
 21
5.0875725555
  0
LINE
  5
485
100
AcDbEntity
  8
ALL_FEATURES
100
AcDbLine
 62
7
  6
CONTINUOUS
 10
4.3455865961
 20
5.0875183929
 11
4.3516702246
 21
5.0870101949
  0
SPLINE
  5
486
100
AcDbEntity
  8
ALL_FEATURES
100
AcDbSpline
 62
7
  6
CONTINUOUS
 70
0
 71
3
 72
9
 73
5
 74
0
 42
0.0000001
 43
0.0000001
 44
0.0000000001
 40
0.0
 40
0.0
 40
0.0
 40
0.0
 40
0.5789275448
 40
1.0
 40
1.0
 40
1.0
 40
1.0
 10
4.3516702246
 20
5.0870101949
 30
0.0
 10
4.3527210201
 20
5.0868698583
 30
0.0
 10
4.3545297244
 20
5.0865699992
 30
0.0
 10
4.3563039398
 20
5.0861007688
 30
0.0
 10
4.3570345511
 20
5.0858543034
 30
0.0
  0
SPLINE
  5
487
100
AcDbEntity
  8
ALL_FEATURES
100
AcDbSpline
 62
7
  6
CONTINUOUS
 70
0
 71
3
 72
13
 73
9
 74
0
 42
0.0000001
 43
0.0000001
 44
0.0000000001
 40
0.0
 40
0.0
 40
0.0
 40
0.0
 40
0.1652365226
 40
0.3566902409
 40
0.474768452
 40
0.6158132155
 40
0.7876690014
 40
1.0
 40
1.0
 40
1.0
 40
1.0
 10
4.362325653
 20
5.0809230872
 30
0.0
 10
4.362325653
 20
5.0813478534
 30
0.0
 10
4.362159892
 20
5.082275938
 30
0.0
 10
4.3614658472
 20
5.0833174444
 30
0.0
 10
4.3606072506
 20
5.0840989349
 30
0.0
 10
4.3596844328
 20
5.0847190991
 30
0.0
 10
4.3584764245
 20
5.0853279774
 30
0.0
 10
4.3575517456
 20
5.0856798323
 30
0.0
 10
4.3570345511
 20
5.0858543034
 30
0.0
  0
LINE
  5
488
100
AcDbEntity
  8
ALL_FEATURES
100
AcDbLine
 62
7
  6
CONTINUOUS
 10
4.91151694
 20
5.0733239951
 11
4.9100217119
 21
5.0735203255
  0
LINE
  5
489
100
AcDbEntity
  8
ALL_FEATURES
100
AcDbLine
 62
7
  6
CONTINUOUS
 10
4.9100217119
 20
5.0735203255
 11
4.9099390185
 21
5.073613509
  0
LINE
  5
48A
100
AcDbEntity
  8
ALL_FEATURES
100
AcDbLine
 62
7
  6
CONTINUOUS
 10
4.9197833389
 20
5.0736548262
 11
4.9163193656
 21
5.0734227034
  0
LINE
  5
48B
100
AcDbEntity
  8
ALL_FEATURES
100
AcDbLine
 62
7
  6
CONTINUOUS
 10
4.9163193656
 20
5.0734227034
 11
4.913597879
 21
5.0733164207
  0
LINE
  5
48C
100
AcDbEntity
  8
ALL_FEATURES
100
AcDbLine
 62
7
  6
CONTINUOUS
 10
4.9124831646
 20
5.0733065116
 11
4.91151694
 21
5.0733239951
  0
SPLINE
  5
48D
100
AcDbEntity
  8
ALL_FEATURES
100
AcDbSpline
 62
7
  6
CONTINUOUS
 70
0
 71
3
 72
15
 73
11
 74
0
 42
0.0000001
 43
0.0000001
 44
0.0000000001
 40
0.0
 40
0.0
 40
0.0
 40
0.0
 40
0.2255651571
 40
0.4164791175
 40
0.5741160004
 40
0.7013144642
 40
0.8019345855
 40
0.8808994213
 40
0.9444081613
 40
1.0
 40
1.0
 40
1.0
 40
1.0
 10
4.3122508797
 20
5.0753283524
 30
0.0
 10
4.3112936881
 20
5.0755163525
 30
0.0
 10
4.3095323534
 20
5.0758960902
 30
0.0
 10
4.3071339038
 20
5.0765431048
 30
0.0
 10
4.3051863178
 20
5.0772127385
 30
0.0
 10
4.3036634684
 20
5.0778985043
 30
0.0
 10
4.3025297083
 20
5.0785972244
 30
0.0
 10
4.3017462431
 20
5.0793112748
 30
0.0
 10
4.3012844462
 20
5.0800497359
 30
0.0
 10
4.3011840196
 20
5.0805692976
 30
0.0
 10
4.3011840196
 20
5.0808097101
 30
0.0
  0
SPLINE
  5
48E
100
AcDbEntity
  8
ALL_FEATURES
100
AcDbSpline
 62
7
  6
CONTINUOUS
 70
0
 71
3
 72
9
 73
5
 74
0
 42
0.0000001
 43
0.0000001
 44
0.0000000001
 40
0.0
 40
0.0
 40
0.0
 40
0.0
 40
0.5601346427
 40
1.0
 40
1.0
 40
1.0
 40
1.0
 10
4.3308208874
 20
5.0733198677
 30
0.0
 10
4.3275737544
 20
5.0734584445
 30
0.0
 10
4.3217808602
 20
5.073853265
 30
0.0
 10
4.3160256917
 20
5.0746369366
 30
0.0
 10
4.3135140526
 20
5.0750903996
 30
0.0
  0
LINE
  5
48F
100
AcDbEntity
  8
ALL_FEATURES
100
AcDbLine
 62
7
  6
CONTINUOUS
 10
3.7318725027
 20
5.0750459635
 11
3.7315830476
 21
5.0751243932
  0
LINE
  5
490
100
AcDbEntity
  8
ALL_FEATURES
100
AcDbLine
 62
7
  6
CONTINUOUS
 10
4.9740590094
 20
5.0809104773
 11
4.9675295416
 21
5.0796557966
  0
LINE
  5
491
100
AcDbEntity
  8
ALL_FEATURES
100
AcDbLine
 62
7
  6
CONTINUOUS
 10
4.978606681
 20
5.0818036434
 11
4.9776213933
 21
5.0817267471
  0
LINE
  5
492
100
AcDbEntity
  8
ALL_FEATURES
100
AcDbLine
 62
7
  6
CONTINUOUS
 10
4.2394488735
 20
5.0871157868
 11
4.2320637385
 21
5.0869244071
  0
SPLINE
  5
493
100
AcDbEntity
  8
ALL_FEATURES
100
AcDbSpline
 62
7
  6
CONTINUOUS
 70
0
 71
3
 72
15
 73
11
 74
0
 42
0.0000001
 43
0.0000001
 44
0.0000000001
 40
0.0
 40
0.0
 40
0.0
 40
0.0
 40
0.0314573071
 40
0.0715333763
 40
0.1303691286
 40
0.219420388
 40
0.3522158693
 40
0.5365323805
 40
0.7596416165
 40
1.0
 40
1.0
 40
1.0
 40
1.0
 10
4.249280819
 20
5.0861258055
 30
0.0
 10
4.249280819
 20
5.08618091
 30
0.0
 10
4.2492478907
 20
5.0863079673
 30
0.0
 10
4.2490878928
 20
5.0864797289
 30
0.0
 10
4.2487980667
 20
5.0866414629
 30
0.0
 10
4.2483301392
 20
5.0867983621
 30
0.0
 10
4.247631223
 20
5.0869376581
 30
0.0
 10
4.2466909565
 20
5.0870496072
 30
0.0
 10
4.2455582956
 20
5.0871241662
 30
0.0
 10
4.244746639
 20
5.0871477394
 30
0.0
 10
4.24432566
 20
5.0871550081
 30
0.0
  0
LINE
  5
494
100
AcDbEntity
  8
ALL_FEATURES
100
AcDbLine
 62
7
  6
CONTINUOUS
 10
5.0258541094
 20
5.0875725555
 11
5.0223367414
 21
5.0869298246
  0
LINE
  5
495
100
AcDbEntity
  8
ALL_FEATURES
100
AcDbLine
 62
7
  6
CONTINUOUS
 10
5.0132135159
 20
5.0855767223
 11
5.0124759724
 21
5.0854763658
  0
LINE
  5
496
100
AcDbEntity
  8
ALL_FEATURES
100
AcDbLine
 62
7
  6
CONTINUOUS
 10
3.9580896985
 20
5.0765623425
 11
3.9282977518
 21
5.0829308266
  0
SPLINE
  5
497
100
AcDbEntity
  8
ALL_FEATURES
100
AcDbSpline
 62
7
  6
CONTINUOUS
 70
0
 71
3
 72
11
 73
7
 74
0
 42
0.0000001
 43
0.0000001
 44
0.0000000001
 40
0.0
 40
0.0
 40
0.0
 40
0.0
 40
0.1983961048
 40
0.4301562065
 40
0.6969885403
 40
1.0
 40
1.0
 40
1.0
 40
1.0
 10
4.3028938838
 20
5.0832007712
 30
0.0
 10
4.3032131154
 20
5.0829928064
 30
0.0
 10
4.3039381748
 20
5.0825922644
 30
0.0
 10
4.3051679867
 20
5.0820607847
 30
0.0
 10
4.3066224033
 20
5.081553195
 30
0.0
 10
4.3076744462
 20
5.0812502254
 30
0.0
 10
4.3082367992
 20
5.0811006795
 30
0.0
  0
LINE
  5
498
100
AcDbEntity
  8
ALL_FEATURES
100
AcDbLine
 62
7
  6
CONTINUOUS
 10
4.3082367992
 20
5.0811006795
 11
4.3101593154
 21
5.0806326232
  0
LINE
  5
499
100
AcDbEntity
  8
ALL_FEATURES
100
AcDbLine
 62
7
  6
CONTINUOUS
 10
4.9407664378
 20
5.0746531355
 11
4.9397800397
 21
5.0743881238
  0
SPLINE
  5
49A
100
AcDbEntity
  8
ALL_FEATURES
100
AcDbSpline
 62
7
  6
CONTINUOUS
 70
0
 71
3
 72
9
 73
5
 74
0
 42
0.0000001
 43
0.0000001
 44
0.0000000001
 40
0.0
 40
0.0
 40
0.0
 40
0.0
 40
0.3271652806
 40
1.0
 40
1.0
 40
1.0
 40
1.0
 10
4.9397800397
 20
5.0743881238
 30
0.0
 10
4.939778155
 20
5.0743865115
 30
0.0
 10
4.9397727274
 20
5.0743814865
 30
0.0
 10
4.9397683062
 20
5.0743737232
 30
0.0
 10
4.9397691172
 20
5.0743686874
 30
0.0
  0
LINE
  5
49B
100
AcDbEntity
  8
ALL_FEATURES
100
AcDbLine
 62
7
  6
CONTINUOUS
 10
3.6412718208
 20
5.0869244071
 11
3.6381815549
 21
5.087337472
  0
LINE
  5
49C
100
AcDbEntity
  8
ALL_FEATURES
100
AcDbLine
 62
7
  6
CONTINUOUS
 10
4.3693981954
 20
5.0803945778
 11
4.3730809307
 21
5.0813819272
  0
SPLINE
  5
49D
100
AcDbEntity
  8
ALL_FEATURES
100
AcDbSpline
 62
7
  6
CONTINUOUS
 70
0
 71
3
 72
10
 73
6
 74
0
 42
0.0000001
 43
0.0000001
 44
0.0000000001
 40
0.0
 40
0.0
 40
0.0
 40
0.0
 40
0.5631717418
 40
0.7967570327
 40
1.0
 40
1.0
 40
1.0
 40
1.0
 10
4.3730809307
 20
5.0813819272
 30
0.0
 10
4.3739866777
 20
5.0816661595
 30
0.0
 10
4.3752567146
 20
5.0821150897
 30
0.0
 10
4.3767780858
 20
5.0828439539
 30
0.0
 10
4.3774122522
 20
5.0832214493
 30
0.0
 10
4.3776947328
 20
5.0834152892
 30
0.0
  0
LINE
  5
49E
100
AcDbEntity
  8
ALL_FEATURES
100
AcDbLine
 62
7
  6
CONTINUOUS
 10
4.3619628598
 20
5.0791444626
 11
4.3669199575
 21
5.0798830165
  0
LINE
  5
49F
100
AcDbEntity
  8
ALL_FEATURES
100
AcDbLine
 62
7
  6
CONTINUOUS
 10
4.3669199575
 20
5.0798830165
 11
4.3693981954
 21
5.0803945778
  0
LINE
  5
4A0
100
AcDbEntity
  8
ALL_FEATURES
100
AcDbLine
 62
7
  6
CONTINUOUS
 10
4.3182331296
 20
5.0861078264
 11
4.3184435064
 21
5.0873646057
  0
LINE
  5
4A1
100
AcDbEntity
  8
ALL_FEATURES
100
AcDbLine
 62
7
  6
CONTINUOUS
 10
4.9433856736
 20
5.075211323
 11
4.940982264
 21
5.0746976715
  0
LINE
  5
4A2
100
AcDbEntity
  8
ALL_FEATURES
100
AcDbLine
 62
7
  6
CONTINUOUS
 10
3.6416262394
 20
5.0871550081
 11
3.641040399
 21
5.0871404077
  0
LINE
  5
4A3
100
AcDbEntity
  8
ALL_FEATURES
100
AcDbLine
 62
7
  6
CONTINUOUS
 10
4.3619563078
 20
5.0874114559
 11
4.362325653
 21
5.0858399093
  0
SPLINE
  5
4A4
100
AcDbEntity
  8
ALL_FEATURES
100
AcDbSpline
 62
7
  6
CONTINUOUS
 70
0
 71
3
 72
11
 73
7
 74
0
 42
0.0000001
 43
0.0000001
 44
0.0000000001
 40
0.0
 40
0.0
 40
0.0
 40
0.0
 40
0.1975468313
 40
0.4289727616
 40
0.6960724288
 40
1.0
 40
1.0
 40
1.0
 40
1.0
 10
4.3885091018
 20
5.0832338017
 30
0.0
 10
4.3888286006
 20
5.0830220128
 30
0.0
 10
4.3895571217
 20
5.0826143665
 30
0.0
 10
4.390796658
 20
5.0820745461
 30
0.0
 10
4.3922671996
 20
5.0815592903
 30
0.0
 10
4.3933323489
 20
5.0812522412
 30
0.0
 10
4.3939022817
 20
5.0811006796
 30
0.0
  0
LINE
  5
4A5
100
AcDbEntity
  8
ALL_FEATURES
100
AcDbLine
 62
7
  6
CONTINUOUS
 10
4.3939022817
 20
5.0811006796
 11
4.3958247974
 21
5.0806326235
  0
LINE
  5
4A6
100
AcDbEntity
  8
ALL_FEATURES
100
AcDbLine
 62
7
  6
CONTINUOUS
 10
3.6501990221
 20
5.0861258055
 11
3.6416262394
 21
5.0871550081
  0
LINE
  5
4A7
100
AcDbEntity
  8
ALL_FEATURES
100
AcDbLine
 62
7
  6
CONTINUOUS
 10
3.6942337271
 20
5.0802239214
 11
3.6670820564
 21
5.0838621333
  0
SPLINE
  5
4A8
100
AcDbEntity
  8
ALL_FEATURES
100
AcDbSpline
 62
7
  6
CONTINUOUS
 70
0
 71
3
 72
12
 73
8
 74
0
 42
0.0000001
 43
0.0000001
 44
0.0000000001
 40
0.0
 40
0.0
 40
0.0
 40
0.0
 40
0.3336128376
 40
0.609608579
 40
0.8301025445
 40
0.9209268954
 40
1.0
 40
1.0
 40
1.0
 40
1.0
 10
4.4550636718
 20
5.0803945778
 30
0.0
 10
4.4561382658
 20
5.0806436497
 30
0.0
 10
4.4580923919
 20
5.081144888
 30
0.0
 10
4.4606965998
 20
5.0820184413
 30
0.0
 10
4.462468845
 20
5.082832097
 30
0.0
 10
4.463555444
 20
5.0835326524
 30
0.0
 10
4.4639889432
 20
5.0838935159
 30
0.0
 10
4.4641748359
 20
5.084077368
 30
0.0
  0
LINE
  5
4A9
100
AcDbEntity
  8
ALL_FEATURES
100
AcDbLine
 62
7
  6
CONTINUOUS
 10
4.4468018883
 20
5.0790490417
 11
4.4525854338
 21
5.0798830165
  0
LINE
  5
4AA
100
AcDbEntity
  8
ALL_FEATURES
100
AcDbLine
 62
7
  6
CONTINUOUS
 10
4.4525854338
 20
5.0798830165
 11
4.4550636718
 21
5.0803945778
  0
LINE
  5
4AB
100
AcDbEntity
  8
ALL_FEATURES
100
AcDbLine
 62
7
  6
CONTINUOUS
 10
4.40389862
 20
5.0861078264
 11
4.4042419505
 21
5.0876863463
  0
LINE
  5
4AC
100
AcDbEntity
  8
ALL_FEATURES
100
AcDbLine
 62
7
  6
CONTINUOUS
 10
3.7315830476
 20
5.0751243932
 11
3.7272283076
 21
5.0757903306
  0
LINE
  5
4AD
100
AcDbEntity
  8
ALL_FEATURES
100
AcDbLine
 62
7
  6
CONTINUOUS
 10
3.7228723939
 20
5.0763886617
 11
3.7219064233
 21
5.0765191247
  0
SPLINE
  5
4AE
100
AcDbEntity
  8
ALL_FEATURES
100
AcDbSpline
 62
7
  6
CONTINUOUS
 70
0
 71
3
 72
10
 73
6
 74
0
 42
0.0000001
 43
0.0000001
 44
0.0000000001
 40
0.0
 40
0.0
 40
0.0
 40
0.0
 40
0.5388219312
 40
0.7735695907
 40
1.0
 40
1.0
 40
1.0
 40
1.0
 10
4.4468861742
 20
5.0884390032
 30
0.0
 10
4.4472437599
 20
5.0880636442
 30
0.0
 10
4.4476827626
 20
5.0874321383
 30
0.0
 10
4.4479529989
 20
5.0865029063
 30
0.0
 10
4.4479911434
 20
5.0860577672
 30
0.0
 10
4.4479911434
 20
5.0858399093
 30
0.0
  0
LINE
  5
4AF
100
AcDbEntity
  8
ALL_FEATURES
100
AcDbLine
 62
7
  6
CONTINUOUS
 10
4.9296158153
 20
5.0732102729
 11
4.9278423125
 21
5.0733050624
  0
SPLINE
  5
4B0
100
AcDbEntity
  8
ALL_FEATURES
100
AcDbSpline
 62
7
  6
CONTINUOUS
 70
0
 71
3
 72
8
 73
4
 74
0
 42
0.0000001
 43
0.0000001
 44
0.0000000001
 40
0.0
 40
0.0
 40
0.0
 40
0.0
 40
1.0
 40
1.0
 40
1.0
 40
1.0
 10
4.9278423125
 20
5.0733050624
 30
0.0
 10
4.9278361105
 20
5.0733108225
 30
0.0
 10
4.9278306541
 20
5.0733186523
 30
0.0
 10
4.9278296149
 20
5.0733270526
 30
0.0
  0
LINE
  5
4B1
100
AcDbEntity
  8
ALL_FEATURES
100
AcDbLine
 62
7
  6
CONTINUOUS
 10
3.6676189866
 20
5.0859034274
 11
3.6645292902
 21
5.0863211475
  0
LINE
  5
4B2
100
AcDbEntity
  8
ALL_FEATURES
100
AcDbLine
 62
7
  6
CONTINUOUS
 10
4.9360971955
 20
5.0736357824
 11
4.9308287342
 21
5.0732540969
  0
LINE
  5
4B3
100
AcDbEntity
  8
ALL_FEATURES
100
AcDbLine
 62
7
  6
CONTINUOUS
 10
3.6679968645
 20
5.0863256084
 11
3.6674035196
 21
5.0862498295
  0
LINE
  5
4B4
100
AcDbEntity
  8
ALL_FEATURES
100
AcDbLine
 62
7
  6
CONTINUOUS
 10
3.6765778991
 20
5.0853640108
 11
3.6758747188
 21
5.0854585998
  0
LINE
  5
4B5
100
AcDbEntity
  8
ALL_FEATURES
100
AcDbLine
 62
7
  6
CONTINUOUS
 10
3.6758747188
 20
5.0854585998
 11
3.6679968645
 21
5.0863256084
  0
LINE
  5
4B6
100
AcDbEntity
  8
ALL_FEATURES
100
AcDbLine
 62
7
  6
CONTINUOUS
 10
3.7579387857
 20
5.0741738808
 11
3.7535929378
 21
5.0749160317
  0
LINE
  5
4B7
100
AcDbEntity
  8
ALL_FEATURES
100
AcDbLine
 62
7
  6
CONTINUOUS
 10
3.7492397068
 20
5.0755330574
 11
3.748274109
 21
5.0756658395
  0
LINE
  5
4B8
100
AcDbEntity
  8
ALL_FEATURES
100
AcDbLine
 62
7
  6
CONTINUOUS
 10
4.9842638663
 20
5.0793256988
 11
4.9803970396
 21
5.0788173048
  0
LINE
  5
4B9
100
AcDbEntity
  8
ALL_FEATURES
100
AcDbLine
 62
7
  6
CONTINUOUS
 10
4.9803970396
 20
5.0788173048
 11
4.9791113126
 21
5.0786496977
  0
LINE
  5
4BA
100
AcDbEntity
  8
ALL_FEATURES
100
AcDbLine
 62
7
  6
CONTINUOUS
 10
4.9791113126
 20
5.0786496977
 11
4.976546915
 21
5.078317584
  0
LINE
  5
4BB
100
AcDbEntity
  8
ALL_FEATURES
100
AcDbLine
 62
7
  6
CONTINUOUS
 10
4.9688373026
 20
5.0773375877
 11
4.9649791215
 21
5.0768582451
  0
LINE
  5
4BC
100
AcDbEntity
  8
ALL_FEATURES
100
AcDbLine
 62
7
  6
CONTINUOUS
 10
4.9540861791
 20
5.0755510876
 11
4.952141386
 21
5.075325863
  0
LINE
  5
4BD
100
AcDbEntity
  8
ALL_FEATURES
100
AcDbLine
 62
7
  6
CONTINUOUS
 10
4.952141386
 20
5.075325863
 11
4.9506468849
 21
5.0751546866
  0
LINE
  5
4BE
100
AcDbEntity
  8
ALL_FEATURES
100
AcDbLine
 62
7
  6
CONTINUOUS
 10
4.990892787
 20
5.0802132289
 11
4.987645448
 21
5.0797756954
  0
LINE
  5
4BF
100
AcDbEntity
  8
ALL_FEATURES
100
AcDbLine
 62
7
  6
CONTINUOUS
 10
4.987645448
 20
5.0797756954
 11
4.9842638663
 21
5.0793256988
  0
SPLINE
  5
4C0
100
AcDbEntity
  8
ALL_FEATURES
100
AcDbSpline
 62
7
  6
CONTINUOUS
 70
0
 71
3
 72
13
 73
9
 74
0
 42
0.0000001
 43
0.0000001
 44
0.0000000001
 40
0.0
 40
0.0
 40
0.0
 40
0.0
 40
0.1009616081
 40
0.1870499552
 40
0.2995230785
 40
0.438043809
 40
0.601729463
 40
1.0
 40
1.0
 40
1.0
 40
1.0
 10
3.7933807952
 20
5.0742195101
 30
0.0
 10
3.7933695696
 20
5.0741223318
 30
0.0
 10
3.793183541
 20
5.0740004488
 30
0.0
 10
3.792920495
 20
5.0739121349
 30
0.0
 10
3.7925977139
 20
5.0738364336
 30
0.0
 10
3.7922022601
 20
5.0737738806
 30
0.0
 10
3.7915270452
 20
5.0736969456
 30
0.0
 10
3.7909835759
 20
5.0736631123
 30
0.0
 10
3.7905981061
 20
5.0736449939
 30
0.0
  0
LINE
  5
4C1
100
AcDbEntity
  8
ALL_FEATURES
100
AcDbLine
 62
7
  6
CONTINUOUS
 10
3.7837456678
 20
5.0761597891
 11
3.773670844
 21
5.0778724186
  0
SPLINE
  5
4C2
100
AcDbEntity
  8
ALL_FEATURES
100
AcDbSpline
 62
7
  6
CONTINUOUS
 70
0
 71
3
 72
14
 73
10
 74
0
 42
0.0000001
 43
0.0000001
 44
0.0000000001
 40
0.0
 40
0.0
 40
0.0
 40
0.0
 40
0.0306570701
 40
0.0552484819
 40
0.087057898
 40
0.172698535
 40
0.2871369265
 40
0.5965301701
 40
1.0
 40
1.0
 40
1.0
 40
1.0
 10
3.7874463878
 20
5.0750649333
 30
0.0
 10
3.7874504833
 20
5.075093394
 30
0.0
 10
3.7874137708
 20
5.0751432309
 30
0.0
 10
3.7873498028
 20
5.0751897682
 30
0.0
 10
3.7872332159
 20
5.075257114
 30
0.0
 10
3.7870328212
 20
5.0753410141
 30
0.0
 10
3.7865805588
 20
5.0754968194
 30
0.0
 10
3.7858309397
 20
5.0756987977
 30
0.0
 10
3.7851797786
 20
5.0758506919
 30
0.0
 10
3.7848103605
 20
5.0759327527
 30
0.0
  0
LINE
  5
4C3
100
AcDbEntity
  8
ALL_FEATURES
100
AcDbLine
 62
7
  6
CONTINUOUS
 10
3.7688380735
 20
5.0754736392
 11
3.7679810327
 21
5.0757451017
  0
LINE
  5
4C4
100
AcDbEntity
  8
ALL_FEATURES
100
AcDbLine
 62
7
  6
CONTINUOUS
 10
3.7732030026
 20
5.0747806596
 11
3.7694056297
 21
5.0753639864
  0
LINE
  5
4C5
100
AcDbEntity
  8
ALL_FEATURES
100
AcDbLine
 62
7
  6
CONTINUOUS
 10
3.7905981061
 20
5.0736449939
 11
3.7848649208
 21
5.073689452
  0
LINE
  5
4C6
100
AcDbEntity
  8
ALL_FEATURES
100
AcDbLine
 62
7
  6
CONTINUOUS
 10
3.7582240369
 20
5.0740606651
 11
3.7579387857
 21
5.0741738808
  0
SPLINE
  5
4C7
100
AcDbEntity
  8
ALL_FEATURES
100
AcDbSpline
 62
7
  6
CONTINUOUS
 70
0
 71
3
 72
11
 73
7
 74
0
 42
0.0000001
 43
0.0000001
 44
0.0000000001
 40
0.0
 40
0.0
 40
0.0
 40
0.0
 40
0.1931242699
 40
0.4235671499
 40
0.6935420446
 40
1.0
 40
1.0
 40
1.0
 40
1.0
 10
4.369398079
 20
5.0755160866
 30
0.0
 10
4.368442396
 20
5.0752893186
 30
0.0
 10
4.3663308772
 20
5.0748564464
 30
0.0
 10
4.3628440949
 20
5.074316139
 30
0.0
 10
4.3587651653
 20
5.0738565834
 30
0.0
 10
4.3558415445
 20
5.073631265
 30
0.0
 10
4.3542860008
 20
5.0735332732
 30
0.0
  0
SPLINE
  5
4C8
100
AcDbEntity
  8
ALL_FEATURES
100
AcDbSpline
 62
7
  6
CONTINUOUS
 70
0
 71
3
 72
15
 73
11
 74
0
 42
0.0000001
 43
0.0000001
 44
0.0000000001
 40
0.0
 40
0.0
 40
0.0
 40
0.0
 40
0.060150125
 40
0.1283762729
 40
0.211806986
 40
0.3158342864
 40
0.4443020348
 40
0.6001708831
 40
0.7852011502
 40
1.0
 40
1.0
 40
1.0
 40
1.0
 10
4.3793747711
 20
5.0810407462
 30
0.0
 10
4.3793747711
 20
5.0808007089
 30
0.0
 10
4.3792760674
 20
5.0802843313
 30
0.0
 10
4.3788319872
 20
5.0795498598
 30
0.0
 10
4.3780905712
 20
5.0788374571
 30
0.0
 10
4.377035874
 20
5.0781385359
 30
0.0
 10
4.3756445283
 20
5.0774494073
 30
0.0
 10
4.373895943
 20
5.0767728234
 30
0.0
 10
4.3717779457
 20
5.0761117571
 30
0.0
 10
4.3702321054
 20
5.0757139874
 30
0.0
 10
4.369398079
 20
5.0755160866
 30
0.0
  0
ENDSEC
  0
SECTION
  2
OBJECTS
  0
DICTIONARY
  5
C
100
AcDbDictionary
280
0
281
1
  3
ACAD_GROUP
350
D
  3
ACAD_MLINESTYLE
350
17
  3
ACAD_LAYOUT
350
1A
  3
ACAD_PLOTSETTINGS
350
19
  3
ACAD_PLOTSTYLENAME
350
E
  0
DICTIONARY
  5
D
102
{ACAD_REACTORS
330
C
102
}
100
AcDbDictionary
280
0
281
1
  0
ACDBDICTIONARYWDFLT
  5
E
102
{ACAD_REACTORS
330
C
102
}
100
AcDbDictionary
281
1
  3
Normal
350
F
100
AcDbDictionaryWithDefault
340
F
  0
DICTIONARY
  5
17
102
{ACAD_REACTORS
330
C
102
}
100
AcDbDictionary
280
0
281
1
  3
Standard
350
18
  0
DICTIONARY
  5
19
102
{ACAD_REACTORS
330
C
102
}
100
AcDbDictionary
281
1
  0
DICTIONARY
  5
1A
102
{ACAD_REACTORS
330
C
102
}
100
AcDbDictionary
281
1
  3
Model
350
4C9
  3
Layout1
350
4CA
  0
ACDBPLACEHOLDER
  5
F
102
{ACAD_REACTORS
330
E
102
}
  0
MLINESTYLE
  5
18
102
{ACAD_REACTORS
330
17
102
}
100
AcDbMlineStyle
  2
STANDARD
 70
0
  3

 62
256
 51
90.0
 52
90.0
 71
2
 49
0.5
 62
256
  6
BYLAYER
 49
-0.5
 62
256
  6
BYLAYER
  0
LAYOUT
  5
4C9
102
{ACAD_REACTORS
330
1A
102
}
100
AcDbPlotSettings
  1

  2
none_device
  4
ANSI_A_(11.00_x_8.50_Inches)
  6

 40
0.0
 41
0.0
 42
0.0
 43
0.0
 44
279.4
 45
215.9
 46
0.0
 47
0.0
 48
0.0
 49
0.0
140
0.0
141
0.0
142
1.0
143
1.0
 70
1024
 72
0
 73
0
 74
0
  7

 75
0
147
1.0
148
0.0
149
0.0
100
AcDbLayout
  1
Model
 70
0
 71
0
 10
0.0
 20
0.0
 11
11.0
 21
8.5
 12
0.0
 22
0.0
 32
0.0
 14
0.0
 24
0.0
 34
0.0
 15
0.0
 25
0.0
 35
0.0
146
0.0
 13
0.0
 23
0.0
 33
0.0
 16
1.0
 26
0.0
 36
0.0
 17
0.0
 27
1.0
 37
0.0
 76
0
330
222
345
0
346
0
  0
LAYOUT
  5
4CA
102
{ACAD_REACTORS
330
1A
102
}
100
AcDbPlotSettings
  1

  2
none_device
  4
ANSI_A_(11.00_x_8.50_Inches)
  6

 40
0.0
 41
0.0
 42
0.0
 43
0.0
 44
279.4
 45
215.9
 46
0.0
 47
0.0
 48
0.0
 49
0.0
140
0.0
141
0.0
142
1.0
143
1.0
 70
0
 72
0
 73
0
 74
0
  7

 75
0
147
1.0
148
0.0
149
0.0
100
AcDbLayout
  1
Layout1
 70
0
 71
1
 10
0.0
 20
0.0
 11
11.0
 21
8.5
 12
0.0
 22
0.0
 32
0.0
 14
0.0
 24
0.0
 34
0.0
 15
0.0
 25
0.0
 35
0.0
146
0.0
 13
0.0
 23
0.0
 33
0.0
 16
1.0
 26
0.0
 36
0.0
 17
0.0
 27
1.0
 37
0.0
 76
0
330
223
345
0
346
0
  0
ENDSEC
  0
EOF
