999
DXF file: 3-2555_FRONT.dxf
999
Pro/ENGINEER 2018400 by Parametric Technology Corporation
  0
SECTION
  2
HEADER
  9
$ACADVER
  1
AC1027
  9
$DWGCODEPAGE
  3
ANSI_1252
  9
$EXTMAX
 10
11.0
 20
8.5
 30
0.0
  9
$EXTMIN
 10
0.0
 20
0.0
 30
0.0
  9
$LIMMIN
 10
0.0
 20
0.0
  9
$LIMMAX
 10
11.0
 20
8.5
  9
$VIEWCTR
 10
5.5
 20
4.25
  9
$VIEWSIZE
 40
8.5
  9
$CLAYER
  8
0
  9
$LTSCALE
 40
0.605
  9
$CELTYPE
  6
BYLAYER
  9
$DIMSCALE
 40
1.0
  9
$DIMASZ
 40
0.1
  9
$DIMEXO
 40
0.0625
  9
$DIMDLI
 40
0.418
  9
$DIMEXE
 40
0.125
  9
$DIMCEN
 40
0.099
  9
$DIMLFAC
 40
1.0
  9
$DIMBLK
  1
_FILLED
  9
$DIMALT
 70
1
  9
$DIMALTD
 70
2
  9
$DIMALTTD
 70
2
  9
$DIMALTF
 40
25.4
  9
$DIMTXT
 40
0.08
  9
$DIMTOL
 70
1
  9
$DIMLIM
 70
0
  9
$DIMTFAC
 40
1.0
  9
$DIMTP
 40
0.001
  9
$DIMTM
 40
0.001
  9
$DIMGAP
 40
0.09
  9
$DIMDSEP
 70
46
  9
$AUNITS
 70
0
  9
$PDMODE
 70
3
  9
$PDSIZE
 40
0.3125
  9
$HANDSEED
  5
35E
  9
$TILEMODE
 70
1
  9
$MEASUREMENT
 70
0
  9
$INSUNITS
 70
1
  0
ENDSEC
  0
SECTION
  2
CLASSES
  0
CLASS
  1
ACDBDICTIONARYWDFLT
  2
AcDbDictionaryWithDefault
  3
AutoCAD 2000
 90
0
 91
1
280
0
281
0
  0
CLASS
  1
ACDBPLACEHOLDER
  2
AcDbPlaceHolder
  3
AutoCAD 2000
 90
0
 91
1
280
0
281
0
  0
CLASS
  1
LAYOUT
  2
AcDbLayout
  3
AutoCAD 2000
 90
0
 91
0
280
0
281
0
  0
ENDSEC
  0
SECTION
  2
TABLES
  0
TABLE
  2
VPORT
  5
8
100
AcDbSymbolTable
 70
2
  0
VPORT
  5
1F4
100
AcDbSymbolTableRecord
100
AcDbViewportTableRecord
  2
*ACTIVE
 70
0
 10
0.0
 20
0.0
 11
1.0
 21
1.0
 12
5.5
 22
4.25
 13
0.0
 23
0.0
 14
1.0
 24
1.0
 15
0.0
 25
0.0
 16
0.0
 26
0.0
 36
1.0
 17
0.0
 27
0.0
 37
0.0
 40
8.5
 41
1.2941176471
 42
50.0
 43
0.0
 44
0.0
 50
0.0
 51
0.0
 71
0
 72
100
 73
1
 74
1
 75
0
 76
0
 77
0
 78
0
  0
ENDTAB
  0
TABLE
  2
LTYPE
  5
5
100
AcDbSymbolTable
 70
6
  0
LTYPE
  5
14
100
AcDbSymbolTableRecord
100
AcDbLinetypeTableRecord
  2
BYBLOCK
 70
0
  3

 72
65
 73
0
 40
0.0
  0
LTYPE
  5
15
100
AcDbSymbolTableRecord
100
AcDbLinetypeTableRecord
  2
BYLAYER
 70
0
  3

 72
65
 73
0
 40
0.0
  0
LTYPE
  5
16
100
AcDbSymbolTableRecord
100
AcDbLinetypeTableRecord
  2
CONTINUOUS
 70
64
  3
Solid line
 72
65
 73
0
 40
0.0
  0
LTYPE
  5
1F5
100
AcDbSymbolTableRecord
100
AcDbLinetypeTableRecord
  2
CENTER
 70
64
  3
____ _ ____ _ ____ _ ____ _ ____ _ ____ _ ____
 72
65
 73
4
 40
0.6
 49
0.375
 74
0
 49
-0.075
 74
0
 49
0.075
 74
0
 49
-0.075
 74
0
  0
LTYPE
  5
1F6
100
AcDbSymbolTableRecord
100
AcDbLinetypeTableRecord
  2
HIDDEN
 70
64
  3
- - - - - - - - - - - - - - - - - - - -
 72
65
 73
2
 40
0.2
 49
0.1
 74
0
 49
-0.1
 74
0
  0
LTYPE
  5
1F7
100
AcDbSymbolTableRecord
100
AcDbLinetypeTableRecord
  2
PHANTOM
 70
64
  3
_____ _ _ _____ _ _ _____ _ _ _____
 72
65
 73
6
 40
0.8
 49
0.45
 74
0
 49
-0.05
 74
0
 49
0.1
 74
0
 49
-0.05
 74
0
 49
0.1
 74
0
 49
-0.05
 74
0
  0
LTYPE
  5
1F8
100
AcDbSymbolTableRecord
100
AcDbLinetypeTableRecord
  2
DOT
 70
64
  3
. . . . . . . . . . . . . . . . . . . .
 72
65
 73
2
 40
0.2
 49
0.1
 74
0
 49
-0.1
 74
0
  0
LTYPE
  5
1F9
100
AcDbSymbolTableRecord
100
AcDbLinetypeTableRecord
  2
DASHED
 70
64
  3
- - - - - - - - - - - - - - - - - - - -
 72
65
 73
2
 40
0.2
 49
0.1
 74
0
 49
-0.1
 74
0
  0
ENDTAB
  0
TABLE
  2
LAYER
  5
2
100
AcDbSymbolTable
 70
36
  0
LAYER
  5
10
100
AcDbSymbolTableRecord
100
AcDbLayerTableRecord
  2
0
 70
0
 62
7
  6
CONTINUOUS
370
-3
390
F
  0
LAYER
  5
1FA
100
AcDbSymbolTableRecord
100
AcDbLayerTableRecord
  2
DEFAULT_1
 70
0
 62
7
  6
CENTER
370
-3
390
F
  0
LAYER
  5
1FB
100
AcDbSymbolTableRecord
100
AcDbLayerTableRecord
  2
DEFAULT_2
 70
0
 62
8
  6
HIDDEN
370
-3
390
F
  0
LAYER
  5
1FC
100
AcDbSymbolTableRecord
100
AcDbLayerTableRecord
  2
DEFAULT_3
 70
0
 62
7
  6
PHANTOM
370
-3
390
F
  0
LAYER
  5
1FD
100
AcDbSymbolTableRecord
100
AcDbLayerTableRecord
  2
01_ALL_DTM_PLN
 70
0
 62
7
  6
CONTINUOUS
370
-3
390
F
  0
LAYER
  5
1FE
100
AcDbSymbolTableRecord
100
AcDbLayerTableRecord
  2
01__ASM_ALL_DTM_PLN
 70
0
 62
7
  6
CONTINUOUS
370
-3
390
F
  0
LAYER
  5
1FF
100
AcDbSymbolTableRecord
100
AcDbLayerTableRecord
  2
01__ASM_DEF_DTM_PLN
 70
0
 62
7
  6
CONTINUOUS
370
-3
390
F
  0
LAYER
  5
200
100
AcDbSymbolTableRecord
100
AcDbLayerTableRecord
  2
01___PRT_ALL_DTM_PLN
 70
0
 62
7
  6
CONTINUOUS
370
-3
390
F
  0
LAYER
  5
201
100
AcDbSymbolTableRecord
100
AcDbLayerTableRecord
  2
01___PRT_DEF_DTM_PLN
 70
0
 62
7
  6
CONTINUOUS
370
-3
390
F
  0
LAYER
  5
202
100
AcDbSymbolTableRecord
100
AcDbLayerTableRecord
  2
02_ALL_AXES
 70
0
 62
7
  6
CONTINUOUS
370
-3
390
F
  0
LAYER
  5
203
100
AcDbSymbolTableRecord
100
AcDbLayerTableRecord
  2
02__ASM_ALL_AXES
 70
0
 62
7
  6
CONTINUOUS
370
-3
390
F
  0
LAYER
  5
204
100
AcDbSymbolTableRecord
100
AcDbLayerTableRecord
  2
02___PRT_ALL_AXES
 70
0
 62
7
  6
CONTINUOUS
370
-3
390
F
  0
LAYER
  5
205
100
AcDbSymbolTableRecord
100
AcDbLayerTableRecord
  2
03_ALL_CURVES
 70
0
 62
7
  6
CONTINUOUS
370
-3
390
F
  0
LAYER
  5
206
100
AcDbSymbolTableRecord
100
AcDbLayerTableRecord
  2
03__ASM_ALL_CURVES
 70
0
 62
7
  6
CONTINUOUS
370
-3
390
F
  0
LAYER
  5
207
100
AcDbSymbolTableRecord
100
AcDbLayerTableRecord
  2
03___PRT_ALL_CURVES
 70
0
 62
7
  6
CONTINUOUS
370
-3
390
F
  0
LAYER
  5
208
100
AcDbSymbolTableRecord
100
AcDbLayerTableRecord
  2
04_ALL_DTM_PNT
 70
0
 62
7
  6
CONTINUOUS
370
-3
390
F
  0
LAYER
  5
209
100
AcDbSymbolTableRecord
100
AcDbLayerTableRecord
  2
04__ASM_ALL_DTM_PNT
 70
0
 62
7
  6
CONTINUOUS
370
-3
390
F
  0
LAYER
  5
20A
100
AcDbSymbolTableRecord
100
AcDbLayerTableRecord
  2
04___PRT_ALL_DTM_PNT
 70
0
 62
7
  6
CONTINUOUS
370
-3
390
F
  0
LAYER
  5
20B
100
AcDbSymbolTableRecord
100
AcDbLayerTableRecord
  2
05_ALL_DTM_CSYS
 70
0
 62
7
  6
CONTINUOUS
370
-3
390
F
  0
LAYER
  5
20C
100
AcDbSymbolTableRecord
100
AcDbLayerTableRecord
  2
05__ASM_ALL_DTM_CSYS
 70
0
 62
7
  6
CONTINUOUS
370
-3
390
F
  0
LAYER
  5
20D
100
AcDbSymbolTableRecord
100
AcDbLayerTableRecord
  2
05__ASM_DEF_DTM_CSYS
 70
0
 62
7
  6
CONTINUOUS
370
-3
390
F
  0
LAYER
  5
20E
100
AcDbSymbolTableRecord
100
AcDbLayerTableRecord
  2
05___PRT_ALL_DTM_CSYS
 70
0
 62
7
  6
CONTINUOUS
370
-3
390
F
  0
LAYER
  5
20F
100
AcDbSymbolTableRecord
100
AcDbLayerTableRecord
  2
05___PRT_DEF_DTM_CSYS
 70
0
 62
7
  6
CONTINUOUS
370
-3
390
F
  0
LAYER
  5
210
100
AcDbSymbolTableRecord
100
AcDbLayerTableRecord
  2
06_ALL_SURFS
 70
0
 62
7
  6
CONTINUOUS
370
-3
390
F
  0
LAYER
  5
211
100
AcDbSymbolTableRecord
100
AcDbLayerTableRecord
  2
06__ASM_ALL_SURFS
 70
0
 62
7
  6
CONTINUOUS
370
-3
390
F
  0
LAYER
  5
212
100
AcDbSymbolTableRecord
100
AcDbLayerTableRecord
  2
06___PRT_ALL_SURFS
 70
0
 62
7
  6
CONTINUOUS
370
-3
390
F
  0
LAYER
  5
213
100
AcDbSymbolTableRecord
100
AcDbLayerTableRecord
  2
07__ASM_ALL_SKELETONS
 70
0
 62
7
  6
CONTINUOUS
370
-3
390
F
  0
LAYER
  5
214
100
AcDbSymbolTableRecord
100
AcDbLayerTableRecord
  2
3-985_ASSY_PLANES
 70
0
 62
7
  6
CONTINUOUS
370
-3
390
F
  0
LAYER
  5
215
100
AcDbSymbolTableRecord
100
AcDbLayerTableRecord
  2
ALL_ASSEMBLY_MEMBERS
 70
0
 62
7
  6
CONTINUOUS
370
-3
390
F
  0
LAYER
  5
216
100
AcDbSymbolTableRecord
100
AcDbLayerTableRecord
  2
ALL_FEATURES
 70
0
 62
7
  6
CONTINUOUS
370
-3
390
F
  0
LAYER
  5
217
100
AcDbSymbolTableRecord
100
AcDbLayerTableRecord
  2
AXES_FEATURES
 70
0
 62
7
  6
CONTINUOUS
370
-3
390
F
  0
LAYER
  5
218
100
AcDbSymbolTableRecord
100
AcDbLayerTableRecord
  2
CHAMFER_FEATURES
 70
0
 62
7
  6
CONTINUOUS
370
-3
390
F
  0
LAYER
  5
219
100
AcDbSymbolTableRecord
100
AcDbLayerTableRecord
  2
CUT_FEATURES
 70
0
 62
7
  6
CONTINUOUS
370
-3
390
F
  0
LAYER
  5
21A
100
AcDbSymbolTableRecord
100
AcDbLayerTableRecord
  2
DATUM_CURVES
 70
0
 62
7
  6
CONTINUOUS
370
-3
390
F
  0
LAYER
  5
21B
100
AcDbSymbolTableRecord
100
AcDbLayerTableRecord
  2
DATUM_PLANES
 70
0
 62
7
  6
CONTINUOUS
370
-3
390
F
  0
LAYER
  5
21C
100
AcDbSymbolTableRecord
100
AcDbLayerTableRecord
  2
DEFAULT_COORDINATE_SYSTEM
 70
0
 62
7
  6
CONTINUOUS
370
-3
390
F
  0
LAYER
  5
21D
100
AcDbSymbolTableRecord
100
AcDbLayerTableRecord
  2
DEFAULT_DATUM_AXES
 70
0
 62
7
  6
CONTINUOUS
370
-3
390
F
  0
LAYER
  5
21E
100
AcDbSymbolTableRecord
100
AcDbLayerTableRecord
  2
DEFAULT_DATUM_CURVES
 70
0
 62
7
  6
CONTINUOUS
370
-3
390
F
  0
LAYER
  5
21F
100
AcDbSymbolTableRecord
100
AcDbLayerTableRecord
  2
DEFAULT_DATUM_PLANES
 70
0
 62
7
  6
CONTINUOUS
370
-3
390
F
  0
LAYER
  5
220
100
AcDbSymbolTableRecord
100
AcDbLayerTableRecord
  2
DEFAULT_SURFACES
 70
0
 62
7
  6
CONTINUOUS
370
-3
390
F
  0
LAYER
  5
221
100
AcDbSymbolTableRecord
100
AcDbLayerTableRecord
  2
DIMENSIONS
 70
0
 62
7
  6
CONTINUOUS
370
-3
390
F
  0
LAYER
  5
222
100
AcDbSymbolTableRecord
100
AcDbLayerTableRecord
  2
HOLE_FEATURES
 70
0
 62
7
  6
CONTINUOUS
370
-3
390
F
  0
LAYER
  5
223
100
AcDbSymbolTableRecord
100
AcDbLayerTableRecord
  2
NONE
 70
0
 62
7
  6
CONTINUOUS
370
-3
390
F
  0
LAYER
  5
224
100
AcDbSymbolTableRecord
100
AcDbLayerTableRecord
  2
PART_REFERENCE_DIMENSIONS
 70
0
 62
7
  6
CONTINUOUS
370
-3
390
F
  0
LAYER
  5
225
100
AcDbSymbolTableRecord
100
AcDbLayerTableRecord
  2
PLATED_SURFACE_AREA
 70
0
 62
7
  6
CONTINUOUS
370
-3
390
F
  0
LAYER
  5
226
100
AcDbSymbolTableRecord
100
AcDbLayerTableRecord
  2
PROTRUSION_FEATURES
 70
0
 62
7
  6
CONTINUOUS
370
-3
390
F
  0
LAYER
  5
227
100
AcDbSymbolTableRecord
100
AcDbLayerTableRecord
  2
REFERENCE_DIMENSIONS
 70
0
 62
7
  6
CONTINUOUS
370
-3
390
F
  0
LAYER
  5
228
100
AcDbSymbolTableRecord
100
AcDbLayerTableRecord
  2
WETTED_SURFACES
 70
0
 62
7
  6
CONTINUOUS
370
-3
390
F
  0
LAYER
  5
229
100
AcDbSymbolTableRecord
100
AcDbLayerTableRecord
  2
WETTED_SURFACE_AREA
 70
0
 62
7
  6
CONTINUOUS
370
-3
390
F
  0
LAYER
  5
22A
100
AcDbSymbolTableRecord
100
AcDbLayerTableRecord
  2
XSEC_DATUMS
 70
0
 62
7
  6
CONTINUOUS
370
-3
390
F
  0
ENDTAB
  0
TABLE
  2
STYLE
  5
3
100
AcDbSymbolTable
 70
1
  0
STYLE
  5
11
100
AcDbSymbolTableRecord
100
AcDbTextStyleTableRecord
  2
STANDARD
 70
0
 40
0.0
 41
0.8
 50
0.0
 71
0
 42
0.2
  3
txt
  4

  0
STYLE
  5
22B
100
AcDbSymbolTableRecord
100
AcDbTextStyleTableRecord
  2
TEXTSTYLE_1
 70
0
 40
0.0
 41
0.8
 50
0.0
 71
0
 42
0.2
  3
gdt
  4

  0
ENDTAB
  0
TABLE
  2
VIEW
  5
6
100
AcDbSymbolTable
 70
0
  0
ENDTAB
  0
TABLE
  2
UCS
  5
7
100
AcDbSymbolTable
 70
0
  0
ENDTAB
  0
TABLE
  2
APPID
  5
9
100
AcDbSymbolTable
 70
1
  0
APPID
  5
22C
100
AcDbSymbolTableRecord
100
AcDbRegAppTableRecord
  2
ACAD
 70
0
  0
ENDTAB
  0
TABLE
  2
BLOCK_RECORD
  5
1
100
AcDbSymbolTable
 70
0
  0
BLOCK_RECORD
  5
22D
100
AcDbSymbolTableRecord
100
AcDbBlockTableRecord
  2
*Model_Space
  0
BLOCK_RECORD
  5
22E
100
AcDbSymbolTableRecord
100
AcDbBlockTableRecord
  2
*Paper_Space
  0
BLOCK_RECORD
  5
22F
100
AcDbSymbolTableRecord
100
AcDbBlockTableRecord
  2
_FILLED
  0
ENDTAB
  0
TABLE
  2
DIMSTYLE
  5
A
100
AcDbSymbolTable
 70
1
100
AcDbDimStyleTable
 71
0
  0
DIMSTYLE
105
230
100
AcDbSymbolTableRecord
100
AcDbDimStyleTableRecord
  2
STANDARD
 70
0
  3

  4

 40
1.0
 41
0.1
 42
0.0625
 43
0.38
 44
0.125
 45
0.0
 46
0.0
 47
0.001
 48
0.001
140
0.08
141
0.09
142
0.0
143
25.4
144
1.0
145
0.0
146
1.0
147
0.09
 71
1.0
 72
0.0
 73
1
 74
1
 75
0
 76
0
 77
0
 78
4
 79
1
170
1
171
2
172
0
173
0
174
0
175
0
176
0
177
0
178
0
270
2
179
3
271
3
272
3
273
2
274
2
275
0
280
0
281
0
282
0
283
1
284
4
285
0
286
0
287
3
288
0
340
11
278
46
341
22F
342
22F
343
22F
344
22F
  0
ENDTAB
  0
ENDSEC
  0
SECTION
  2
BLOCKS
  0
BLOCK
  5
20
100
AcDbEntity
  8
0
100
AcDbBlockBegin
  2
*Model_Space
 70
0
 10
0.0
 20
0.0
 30
0.0
  3
*Model_Space
  1

  0
ENDBLK
  5
21
100
AcDbEntity
  8
0
100
AcDbBlockEnd
  0
BLOCK
  5
1C
100
AcDbEntity
  8
0
100
AcDbBlockBegin
  2
*Paper_Space
 70
0
 10
0.0
 20
0.0
 30
0.0
  3
*Paper_Space
  1

  0
ENDBLK
  5
1D
100
AcDbEntity
  8
0
100
AcDbBlockEnd
  0
BLOCK
  5
231
100
AcDbEntity
  8
0
100
AcDbBlockBegin
  2
_FILLED
 70
64
 10
0.0
 20
0.0
  3
_FILLED
  1

  0
SOLID
  5
232
100
AcDbEntity
  8
0
  6
BYBLOCK
 62
0
100
AcDbTrace
 10
0.0
 20
0.0
 11
-1.0
 21
0.2
 12
-1.0
 22
-0.2
 13
-1.0
 23
-0.2
  0
ENDBLK
  5
233
100
AcDbEntity
  8
0
  6
BYBLOCK
 62
0
100
AcDbBlockEnd
  0
ENDSEC
  0
SECTION
  2
ENTITIES
  0
MTEXT
  5
234
100
AcDbEntity
  8
0
100
AcDbMText
 62
2
  6
CONTINUOUS
  7
STANDARD
 71
3
 72
1
 10
2.6579774845
 20
1.786653615
 30
0.0
 11
1.0
 21
0.0
 31
0.0
 73
2
 44
0.9
  1
SCALE  .500
 40
0.08
 41
0.704
  0
LINE
  5
235
100
AcDbEntity
  8
0
100
AcDbLine
 62
7
  6
CONTINUOUS
 10
0.0
 20
0.0
 11
0.0
 21
8.5
  0
LINE
  5
236
100
AcDbEntity
  8
0
100
AcDbLine
 62
7
  6
CONTINUOUS
 10
0.0
 20
0.0
 11
11.0
 21
0.0
  0
LINE
  5
237
100
AcDbEntity
  8
0
100
AcDbLine
 62
7
  6
CONTINUOUS
 10
0.0
 20
8.5
 11
11.0
 21
8.5
  0
LINE
  5
238
100
AcDbEntity
  8
0
100
AcDbLine
 62
7
  6
CONTINUOUS
 10
11.0
 20
0.0
 11
11.0
 21
8.5
  0
LINE
  5
239
100
AcDbEntity
  8
ALL_ASSEMBLY_MEMBERS
100
AcDbLine
 62
7
  6
CONTINUOUS
 10
1.8897787267
 20
5.8284628446
 11
1.8897787267
 21
6.0534628446
  0
LINE
  5
23A
100
AcDbEntity
  8
ALL_ASSEMBLY_MEMBERS
100
AcDbLine
 62
7
  6
CONTINUOUS
 10
1.8997787267
 20
5.8184628446
 11
1.8997787267
 21
6.0634628446
  0
LINE
  5
23B
100
AcDbEntity
  8
ALL_ASSEMBLY_MEMBERS
100
AcDbLine
 62
7
  6
CONTINUOUS
 10
1.9264615286
 20
5.8184628446
 11
1.9264615286
 21
6.0634628446
  0
LINE
  5
23C
100
AcDbEntity
  8
ALL_ASSEMBLY_MEMBERS
100
AcDbLine
 62
7
  6
CONTINUOUS
 10
1.9318297428
 20
5.8168998035
 11
1.9318297428
 21
6.0650258856
  0
LINE
  5
23D
100
AcDbEntity
  8
ALL_ASSEMBLY_MEMBERS
100
AcDbLine
 62
7
  6
CONTINUOUS
 10
2.1742787267
 20
6.1333430959
 11
2.1742787267
 21
5.7485825933
  0
LINE
  5
23E
100
AcDbEntity
  8
ALL_ASSEMBLY_MEMBERS
100
AcDbLine
 62
7
  6
CONTINUOUS
 10
2.3597787267
 20
6.1171498933
 11
2.3597787267
 21
5.7647757959
  0
LINE
  5
23F
100
AcDbEntity
  8
ALL_ASSEMBLY_MEMBERS
100
AcDbLine
 62
7
  6
CONTINUOUS
 10
2.6133587164
 20
6.0680426328
 11
2.6133587164
 21
5.8138830564
  0
LINE
  5
240
100
AcDbEntity
  8
ALL_ASSEMBLY_MEMBERS
100
AcDbLine
 62
7
  6
CONTINUOUS
 10
2.8747787267
 20
6.0429628446
 11
2.8747787267
 21
5.8389628446
  0
LINE
  5
241
100
AcDbEntity
  8
ALL_ASSEMBLY_MEMBERS
100
AcDbLine
 62
7
  6
CONTINUOUS
 10
3.0247787267
 20
5.8334628446
 11
3.0247787267
 21
6.0484628446
  0
LINE
  5
242
100
AcDbEntity
  8
ALL_ASSEMBLY_MEMBERS
100
AcDbLine
 62
7
  6
CONTINUOUS
 10
3.0347787267
 20
5.8234628446
 11
3.0347787267
 21
6.0584628446
  0
LINE
  5
243
100
AcDbEntity
  8
ALL_ASSEMBLY_MEMBERS
100
AcDbLine
 62
7
  6
CONTINUOUS
 10
3.0547787267
 20
5.8234628446
 11
3.0547787267
 21
6.0584628446
  0
LINE
  5
244
100
AcDbEntity
  8
ALL_ASSEMBLY_MEMBERS
100
AcDbLine
 62
7
  6
CONTINUOUS
 10
3.0647787267
 20
5.8334628446
 11
3.0647787267
 21
6.0484628446
  0
LINE
  5
245
100
AcDbEntity
  8
ALL_ASSEMBLY_MEMBERS
100
AcDbLine
 62
7
  6
CONTINUOUS
 10
5.3757249736
 20
2.2641819304
 11
5.2643796627
 21
2.2439006002
  0
LINE
  5
246
100
AcDbEntity
  8
ALL_ASSEMBLY_MEMBERS
100
AcDbLine
 62
7
  6
CONTINUOUS
 10
5.4629746154
 20
2.2800742818
 11
5.5223786307
 21
2.2908946067
  0
LINE
  5
247
100
AcDbEntity
  8
ALL_ASSEMBLY_MEMBERS
100
AcDbLine
 62
7
  6
CONTINUOUS
 10
5.361582838
 20
2.2667578927
 11
5.250237527
 21
2.2464765625
  0
LINE
  5
248
100
AcDbEntity
  8
ALL_ASSEMBLY_MEMBERS
100
AcDbLine
 62
7
  6
CONTINUOUS
 10
5.4488324798
 20
2.282650244
 11
5.5037384678
 21
2.2926512622
  0
LINE
  5
249
100
AcDbEntity
  8
ALL_ASSEMBLY_MEMBERS
100
AcDbLine
 62
7
  6
CONTINUOUS
 10
5.1406166228
 20
2.3294273082
 11
5.1415053586
 21
2.3295601682
  0
LINE
  5
24A
100
AcDbEntity
  8
ALL_ASSEMBLY_MEMBERS
100
AcDbLine
 62
7
  6
CONTINUOUS
 10
5.1406801001
 20
2.329413259
 11
5.1415818008
 21
2.3295431562
  0
LINE
  5
24B
100
AcDbEntity
  8
ALL_ASSEMBLY_MEMBERS
100
AcDbLine
 62
7
  6
CONTINUOUS
 10
5.1569529576
 20
2.3317573331
 11
5.1576528752
 21
2.3318520611
  0
LINE
  5
24C
100
AcDbEntity
  8
ALL_ASSEMBLY_MEMBERS
100
AcDbLine
 62
7
  6
CONTINUOUS
 10
5.1569525394
 20
2.3317574354
 11
5.1576670265
 21
2.3318485846
  0
LINE
  5
24D
100
AcDbEntity
  8
ALL_ASSEMBLY_MEMBERS
100
AcDbLine
 62
7
  6
CONTINUOUS
 10
5.3591069857
 20
2.2674328195
 11
5.2136273261
 21
2.2564566427
  0
LINE
  5
24E
100
AcDbEntity
  8
ALL_ASSEMBLY_MEMBERS
100
AcDbLine
 62
7
  6
CONTINUOUS
 10
5.4731041364
 20
2.2760336981
 11
5.5729763848
 21
2.2835688783
  0
LINE
  5
24F
100
AcDbEntity
  8
ALL_ASSEMBLY_MEMBERS
100
AcDbLine
 62
7
  6
CONTINUOUS
 10
5.351453317
 20
2.2707984764
 11
5.2059736574
 21
2.2598222996
  0
LINE
  5
250
100
AcDbEntity
  8
ALL_ASSEMBLY_MEMBERS
100
AcDbLine
 62
7
  6
CONTINUOUS
 10
5.4654504677
 20
2.279399355
 11
5.5573477359
 21
2.2863328374
  0
LINE
  5
251
100
AcDbEntity
  8
ALL_ASSEMBLY_MEMBERS
100
AcDbLine
 62
7
  6
CONTINUOUS
 10
5.3505839133
 20
2.2715946068
 11
5.2091785759
 21
2.2715946068
  0
LINE
  5
252
100
AcDbEntity
  8
ALL_ASSEMBLY_MEMBERS
100
AcDbLine
 62
7
  6
CONTINUOUS
 10
5.4739735401
 20
2.2715946068
 11
5.6153788775
 21
2.2715946068
  0
LINE
  5
253
100
AcDbEntity
  8
ALL_ASSEMBLY_MEMBERS
100
AcDbLine
 62
7
  6
CONTINUOUS
 10
5.3505839133
 20
2.2752375677
 11
5.218691421
 21
2.2752375677
  0
LINE
  5
254
100
AcDbEntity
  8
ALL_ASSEMBLY_MEMBERS
100
AcDbLine
 62
7
  6
CONTINUOUS
 10
5.4739735401
 20
2.2752375677
 11
5.6058660325
 21
2.2752375677
  0
LINE
  5
255
100
AcDbEntity
  8
ALL_ASSEMBLY_MEMBERS
100
AcDbLine
 62
7
  6
CONTINUOUS
 10
5.351453317
 20
2.2760336981
 11
5.2515810686
 21
2.2835688783
  0
LINE
  5
256
100
AcDbEntity
  8
ALL_ASSEMBLY_MEMBERS
100
AcDbLine
 62
7
  6
CONTINUOUS
 10
5.4654504677
 20
2.2674328195
 11
5.6109301273
 21
2.2564566427
  0
LINE
  5
257
100
AcDbEntity
  8
ALL_ASSEMBLY_MEMBERS
100
AcDbLine
 62
7
  6
CONTINUOUS
 10
5.3591069857
 20
2.279399355
 11
5.2672097175
 21
2.2863328374
  0
LINE
  5
258
100
AcDbEntity
  8
ALL_ASSEMBLY_MEMBERS
100
AcDbLine
 62
7
  6
CONTINUOUS
 10
5.4731041364
 20
2.2707984764
 11
5.618583796
 21
2.2598222996
  0
LINE
  5
259
100
AcDbEntity
  8
ALL_ASSEMBLY_MEMBERS
100
AcDbLine
 62
7
  6
CONTINUOUS
 10
5.6769928284
 20
2.3152123781
 11
5.6776751327
 21
2.3151141521
  0
LINE
  5
25A
100
AcDbEntity
  8
ALL_ASSEMBLY_MEMBERS
100
AcDbLine
 62
7
  6
CONTINUOUS
 10
5.6770368878
 20
2.3152220652
 11
5.6777059179
 21
2.3151208918
  0
LINE
  5
25B
100
AcDbEntity
  8
ALL_ASSEMBLY_MEMBERS
100
AcDbLine
 62
7
  6
CONTINUOUS
 10
5.361582838
 20
2.2800742818
 11
5.3021788227
 21
2.2908946067
  0
LINE
  5
25C
100
AcDbEntity
  8
ALL_ASSEMBLY_MEMBERS
100
AcDbLine
 62
7
  6
CONTINUOUS
 10
5.4488324798
 20
2.2641819304
 11
5.5601777908
 21
2.2439006002
  0
LINE
  5
25D
100
AcDbEntity
  8
ALL_ASSEMBLY_MEMBERS
100
AcDbLine
 62
7
  6
CONTINUOUS
 10
5.3757249736
 20
2.282650244
 11
5.3208189856
 21
2.2926512622
  0
LINE
  5
25E
100
AcDbEntity
  8
ALL_ASSEMBLY_MEMBERS
100
AcDbLine
 62
7
  6
CONTINUOUS
 10
5.4629746154
 20
2.2667578927
 11
5.5743199264
 21
2.2464765625
  0
LINE
  5
25F
100
AcDbEntity
  8
ALL_ASSEMBLY_MEMBERS
100
AcDbLine
 62
7
  6
CONTINUOUS
 10
5.1567816212
 20
2.3771699199
 11
5.1573273784
 21
2.3772483701
  0
LINE
  5
260
100
AcDbEntity
  8
ALL_ASSEMBLY_MEMBERS
100
AcDbLine
 62
7
  6
CONTINUOUS
 10
5.1567702649
 20
2.3771726947
 11
5.1573277941
 21
2.377248268
  0
LINE
  5
261
100
AcDbEntity
  8
ALL_ASSEMBLY_MEMBERS
100
AcDbLine
 62
7
  6
CONTINUOUS
 10
5.3441668313
 20
2.4446321976
 11
5.3433726575
 21
2.4446053286
  0
LINE
  5
262
100
AcDbEntity
  8
ALL_ASSEMBLY_MEMBERS
100
AcDbLine
 62
7
  6
CONTINUOUS
 10
5.3441711806
 20
2.4446279066
 11
5.3433726575
 21
2.4446053286
  0
LINE
  5
263
100
AcDbEntity
  8
ALL_ASSEMBLY_MEMBERS
100
AcDbLine
 62
7
  6
CONTINUOUS
 10
5.4811847959
 20
2.4446053286
 11
5.4803862728
 21
2.4446279066
  0
LINE
  5
264
100
AcDbEntity
  8
ALL_ASSEMBLY_MEMBERS
100
AcDbLine
 62
7
  6
CONTINUOUS
 10
5.4811847959
 20
2.4446053286
 11
5.4803906221
 21
2.4446321976
  0
LINE
  5
265
100
AcDbEntity
  8
ALL_ASSEMBLY_MEMBERS
100
AcDbLine
 62
7
  6
CONTINUOUS
 10
5.3794303484
 20
2.2831012157
 11
5.3528599005
 21
2.2947854179
  0
LINE
  5
266
100
AcDbEntity
  8
ALL_ASSEMBLY_MEMBERS
100
AcDbLine
 62
7
  6
CONTINUOUS
 10
5.4266495143
 20
2.2623368581
 11
5.4869091624
 21
2.2358380231
  0
LINE
  5
267
100
AcDbEntity
  8
ALL_ASSEMBLY_MEMBERS
100
AcDbLine
 62
7
  6
CONTINUOUS
 10
5.3979079391
 20
2.2844953164
 11
5.3726015549
 21
2.2956236539
  0
LINE
  5
268
100
AcDbEntity
  8
ALL_ASSEMBLY_MEMBERS
100
AcDbLine
 62
7
  6
CONTINUOUS
 10
5.445127105
 20
2.2637309588
 11
5.505386753
 21
2.2372321239
  0
LINE
  5
269
100
AcDbEntity
  8
ALL_ASSEMBLY_MEMBERS
100
AcDbLine
 62
7
  6
CONTINUOUS
 10
4.9847787267
 20
2.3147431716
 11
4.9847787267
 21
2.2693030216
  0
LINE
  5
26A
100
AcDbEntity
  8
ALL_ASSEMBLY_MEMBERS
100
AcDbLine
 62
7
  6
CONTINUOUS
 10
5.0372787267
 20
2.9409628446
 11
5.0372787267
 21
2.3774628446
  0
LINE
  5
26B
100
AcDbEntity
  8
ALL_ASSEMBLY_MEMBERS
100
AcDbLine
 62
7
  6
CONTINUOUS
 10
5.1372787267
 20
2.2562088427
 11
5.1372787267
 21
2.2713999017
  0
LINE
  5
26C
100
AcDbEntity
  8
ALL_ASSEMBLY_MEMBERS
100
AcDbLine
 62
7
  6
CONTINUOUS
 10
5.4022787267
 20
2.2334963656
 11
5.401268209
 21
2.2621428376
  0
LINE
  5
26D
100
AcDbEntity
  8
ALL_ASSEMBLY_MEMBERS
100
AcDbLine
 62
7
  6
CONTINUOUS
 10
5.4018698098
 20
2.296230817
 11
5.4022787267
 21
2.2846536766
  0
LINE
  5
26E
100
AcDbEntity
  8
ALL_ASSEMBLY_MEMBERS
100
AcDbLine
 62
7
  6
CONTINUOUS
 10
5.3505839133
 20
2.2752375677
 11
5.3505579847
 21
2.2761012413
  0
LINE
  5
26F
100
AcDbEntity
  8
ALL_ASSEMBLY_MEMBERS
100
AcDbLine
 62
7
  6
CONTINUOUS
 10
5.4264024003
 20
2.2961941309
 11
5.4266495143
 21
2.2844953164
  0
LINE
  5
270
100
AcDbEntity
  8
ALL_ASSEMBLY_MEMBERS
100
AcDbLine
 62
7
  6
CONTINUOUS
 10
5.3191707004
 20
2.2372321239
 11
5.3188652995
 21
2.253825049
  0
LINE
  5
271
100
AcDbEntity
  8
ALL_ASSEMBLY_MEMBERS
100
AcDbLine
 62
7
  6
CONTINUOUS
 10
5.3591069857
 20
2.279399355
 11
5.3590909477
 21
2.2805281623
  0
LINE
  5
272
100
AcDbEntity
  8
ALL_ASSEMBLY_MEMBERS
100
AcDbLine
 62
7
  6
CONTINUOUS
 10
5.3591069857
 20
2.279399355
 11
5.3590910371
 21
2.2805281584
  0
LINE
  5
273
100
AcDbEntity
  8
ALL_ASSEMBLY_MEMBERS
100
AcDbLine
 62
7
  6
CONTINUOUS
 10
5.4488246334
 20
2.2847271826
 11
5.4488324798
 21
2.282650244
  0
LINE
  5
274
100
AcDbEntity
  8
ALL_ASSEMBLY_MEMBERS
100
AcDbLine
 62
7
  6
CONTINUOUS
 10
5.4488247494
 20
2.2847271989
 11
5.4488324798
 21
2.282650244
  0
LINE
  5
275
100
AcDbEntity
  8
ALL_ASSEMBLY_MEMBERS
100
AcDbLine
 62
7
  6
CONTINUOUS
 10
5.4022787267
 20
2.2621784979
 11
5.4022787267
 21
2.2334963656
  0
LINE
  5
276
100
AcDbEntity
  8
ALL_ASSEMBLY_MEMBERS
100
AcDbLine
 62
7
  6
CONTINUOUS
 10
5.4022787267
 20
2.2846536766
 11
5.4022787267
 21
2.2962348554
  0
LINE
  5
277
100
AcDbEntity
  8
ALL_ASSEMBLY_MEMBERS
100
AcDbLine
 62
7
  6
CONTINUOUS
 10
5.4222787267
 20
2.2621784979
 11
5.4222787267
 21
2.2334963656
  0
LINE
  5
278
100
AcDbEntity
  8
ALL_ASSEMBLY_MEMBERS
100
AcDbLine
 62
7
  6
CONTINUOUS
 10
5.4222787267
 20
2.2846536766
 11
5.4222787267
 21
2.2962348554
  0
LINE
  5
279
100
AcDbEntity
  8
ALL_ASSEMBLY_MEMBERS
100
AcDbLine
 62
7
  6
CONTINUOUS
 10
5.250237527
 20
2.2464765625
 11
5.2502526796
 21
2.2592199548
  0
LINE
  5
27A
100
AcDbEntity
  8
ALL_ASSEMBLY_MEMBERS
100
AcDbLine
 62
7
  6
CONTINUOUS
 10
5.3757249736
 20
2.282650244
 11
5.375732704
 21
2.284727199
  0
LINE
  5
27B
100
AcDbEntity
  8
ALL_ASSEMBLY_MEMBERS
100
AcDbLine
 62
7
  6
CONTINUOUS
 10
5.3757249736
 20
2.282650244
 11
5.3757328199
 21
2.2847271827
  0
LINE
  5
27C
100
AcDbEntity
  8
ALL_ASSEMBLY_MEMBERS
100
AcDbLine
 62
7
  6
CONTINUOUS
 10
5.2059736574
 20
2.2598222996
 11
5.2061877704
 21
2.2702134701
  0
LINE
  5
27D
100
AcDbEntity
  8
ALL_ASSEMBLY_MEMBERS
100
AcDbLine
 62
7
  6
CONTINUOUS
 10
5.2059736574
 20
2.2598222996
 11
5.2061879256
 21
2.2702134757
  0
LINE
  5
27E
100
AcDbEntity
  8
ALL_ASSEMBLY_MEMBERS
100
AcDbLine
 62
7
  6
CONTINUOUS
 10
5.3979079391
 20
2.2844953164
 11
5.3981550112
 21
2.296194146
  0
LINE
  5
27F
100
AcDbEntity
  8
ALL_ASSEMBLY_MEMBERS
100
AcDbLine
 62
7
  6
CONTINUOUS
 10
5.6183695278
 20
2.2702134757
 11
5.618583796
 21
2.2598222996
  0
LINE
  5
280
100
AcDbEntity
  8
ALL_ASSEMBLY_MEMBERS
100
AcDbLine
 62
7
  6
CONTINUOUS
 10
5.6183696831
 20
2.2702134701
 11
5.618583796
 21
2.2598222996
  0
LINE
  5
281
100
AcDbEntity
  8
ALL_ASSEMBLY_MEMBERS
100
AcDbLine
 62
7
  6
CONTINUOUS
 10
5.5743046936
 20
2.2592199653
 11
5.5743199264
 21
2.2464765625
  0
LINE
  5
282
100
AcDbEntity
  8
ALL_ASSEMBLY_MEMBERS
100
AcDbLine
 62
7
  6
CONTINUOUS
 10
5.6872787267
 20
2.2562088427
 11
5.6872787267
 21
2.2713999017
  0
LINE
  5
283
100
AcDbEntity
  8
ALL_ASSEMBLY_MEMBERS
100
AcDbLine
 62
7
  6
CONTINUOUS
 10
5.4654664162
 20
2.2805281584
 11
5.4654504677
 21
2.279399355
  0
LINE
  5
284
100
AcDbEntity
  8
ALL_ASSEMBLY_MEMBERS
100
AcDbLine
 62
7
  6
CONTINUOUS
 10
5.5056921337
 20
2.2538250559
 11
5.505386753
 21
2.2372321239
  0
LINE
  5
285
100
AcDbEntity
  8
ALL_ASSEMBLY_MEMBERS
100
AcDbLine
 62
7
  6
CONTINUOUS
 10
5.4739993928
 20
2.2761012435
 11
5.4739735401
 21
2.2752375677
  0
LINE
  5
286
100
AcDbEntity
  8
ALL_ASSEMBLY_MEMBERS
100
AcDbLine
 62
7
  6
CONTINUOUS
 10
5.4739994687
 20
2.2761012413
 11
5.4739735401
 21
2.2752375677
  0
LINE
  5
287
100
AcDbEntity
  8
ALL_ASSEMBLY_MEMBERS
100
AcDbLine
 62
7
  6
CONTINUOUS
 10
5.4232892443
 20
2.2621428517
 11
5.4222787267
 21
2.2334963656
  0
LINE
  5
288
100
AcDbEntity
  8
ALL_ASSEMBLY_MEMBERS
100
AcDbLine
 62
7
  6
CONTINUOUS
 10
5.4222787267
 20
2.2846536766
 11
5.4226876435
 21
2.2962308348
  0
LINE
  5
289
100
AcDbEntity
  8
ALL_ASSEMBLY_MEMBERS
100
AcDbLine
 62
7
  6
CONTINUOUS
 10
5.7872787267
 20
2.9409628446
 11
5.7872787267
 21
2.3774628446
  0
LINE
  5
28A
100
AcDbEntity
  8
ALL_ASSEMBLY_MEMBERS
100
AcDbLine
 62
7
  6
CONTINUOUS
 10
5.8397787267
 20
2.3147431716
 11
5.8397787267
 21
2.2693030216
  0
LINE
  5
28B
100
AcDbEntity
  8
ALL_ASSEMBLY_MEMBERS
100
AcDbLine
 62
7
  6
CONTINUOUS
 10
8.213698737
 20
6.0680426328
 11
8.4672787267
 21
6.1171498933
  0
LINE
  5
28C
100
AcDbEntity
  8
ALL_ASSEMBLY_MEMBERS
100
AcDbLine
 62
7
  6
CONTINUOUS
 10
2.6133587164
 20
6.0680426328
 11
2.3597787267
 21
6.1171498933
  0
LINE
  5
28D
100
AcDbEntity
  8
ALL_ASSEMBLY_MEMBERS
100
AcDbLine
 62
7
  6
CONTINUOUS
 10
1.9264615286
 20
5.8184628446
 11
1.8997787267
 21
5.8184628446
  0
LINE
  5
28E
100
AcDbEntity
  8
ALL_ASSEMBLY_MEMBERS
100
AcDbLine
 62
7
  6
CONTINUOUS
 10
8.9005959249
 20
5.8184628446
 11
8.9272787267
 21
5.8184628446
  0
LINE
  5
28F
100
AcDbEntity
  8
ALL_ASSEMBLY_MEMBERS
100
AcDbLine
 62
7
  6
CONTINUOUS
 10
3.0547787267
 20
5.8234628446
 11
3.0347787267
 21
5.8234628446
  0
LINE
  5
290
100
AcDbEntity
  8
ALL_ASSEMBLY_MEMBERS
100
AcDbLine
 62
7
  6
CONTINUOUS
 10
7.7722787267
 20
5.8234628446
 11
7.7922787267
 21
5.8234628446
  0
LINE
  5
291
100
AcDbEntity
  8
ALL_ASSEMBLY_MEMBERS
100
AcDbLine
 62
7
  6
CONTINUOUS
 10
3.0247787267
 20
5.8389628446
 11
2.8747787267
 21
5.8389628446
  0
LINE
  5
292
100
AcDbEntity
  8
ALL_ASSEMBLY_MEMBERS
100
AcDbLine
 62
7
  6
CONTINUOUS
 10
7.8022787267
 20
5.8389628446
 11
7.9522787267
 21
5.8389628446
  0
LINE
  5
293
100
AcDbEntity
  8
ALL_ASSEMBLY_MEMBERS
100
AcDbLine
 62
7
  6
CONTINUOUS
 10
7.7622787267
 20
5.8459628446
 11
7.55302517
 21
5.8459628446
  0
LINE
  5
294
100
AcDbEntity
  8
ALL_ASSEMBLY_MEMBERS
100
AcDbLine
 62
7
  6
CONTINUOUS
 10
3.0647787267
 20
5.8459628446
 11
3.2740322834
 21
5.8459628446
  0
LINE
  5
295
100
AcDbEntity
  8
ALL_ASSEMBLY_MEMBERS
100
AcDbLine
 62
7
  6
CONTINUOUS
 10
5.3794303484
 20
2.2637309588
 11
5.3191707004
 21
2.2372321239
  0
LINE
  5
296
100
AcDbEntity
  8
ALL_ASSEMBLY_MEMBERS
100
AcDbLine
 62
7
  6
CONTINUOUS
 10
5.4266495143
 20
2.2844953164
 11
5.4519558985
 21
2.2956236539
  0
LINE
  5
297
100
AcDbEntity
  8
ALL_ASSEMBLY_MEMBERS
100
AcDbLine
 62
7
  6
CONTINUOUS
 10
5.3979079391
 20
2.2623368581
 11
5.337648291
 21
2.2358380231
  0
LINE
  5
298
100
AcDbEntity
  8
ALL_ASSEMBLY_MEMBERS
100
AcDbLine
 62
7
  6
CONTINUOUS
 10
5.445127105
 20
2.2831012157
 11
5.4716975529
 21
2.2947854179
  0
LINE
  5
299
100
AcDbEntity
  8
ALL_ASSEMBLY_MEMBERS
100
AcDbLine
 62
7
  6
CONTINUOUS
 10
7.7622787267
 20
6.0359628446
 11
7.55302517
 21
6.0359628446
  0
LINE
  5
29A
100
AcDbEntity
  8
ALL_ASSEMBLY_MEMBERS
100
AcDbLine
 62
7
  6
CONTINUOUS
 10
3.0647787267
 20
6.0359628446
 11
3.2740322834
 21
6.0359628446
  0
LINE
  5
29B
100
AcDbEntity
  8
ALL_ASSEMBLY_MEMBERS
100
AcDbLine
 62
7
  6
CONTINUOUS
 10
3.0247787267
 20
6.0429628446
 11
2.8747787267
 21
6.0429628446
  0
LINE
  5
29C
100
AcDbEntity
  8
ALL_ASSEMBLY_MEMBERS
100
AcDbLine
 62
7
  6
CONTINUOUS
 10
7.8022787267
 20
6.0429628446
 11
7.9522787267
 21
6.0429628446
  0
LINE
  5
29D
100
AcDbEntity
  8
ALL_ASSEMBLY_MEMBERS
100
AcDbLine
 62
7
  6
CONTINUOUS
 10
3.0547787267
 20
6.0584628446
 11
3.0347787267
 21
6.0584628446
  0
LINE
  5
29E
100
AcDbEntity
  8
ALL_ASSEMBLY_MEMBERS
100
AcDbLine
 62
7
  6
CONTINUOUS
 10
7.7722787267
 20
6.0584628446
 11
7.7922787267
 21
6.0584628446
  0
LINE
  5
29F
100
AcDbEntity
  8
ALL_ASSEMBLY_MEMBERS
100
AcDbLine
 62
7
  6
CONTINUOUS
 10
1.9264615286
 20
6.0634628446
 11
1.8997787267
 21
6.0634628446
  0
LINE
  5
2A0
100
AcDbEntity
  8
ALL_ASSEMBLY_MEMBERS
100
AcDbLine
 62
7
  6
CONTINUOUS
 10
8.9005959249
 20
6.0634628446
 11
8.9272787267
 21
6.0634628446
  0
LINE
  5
2A1
100
AcDbEntity
  8
ALL_ASSEMBLY_MEMBERS
100
AcDbLine
 62
7
  6
CONTINUOUS
 10
2.6133587164
 20
5.8138830564
 11
2.3597787267
 21
5.7647757959
  0
LINE
  5
2A2
100
AcDbEntity
  8
ALL_ASSEMBLY_MEMBERS
100
AcDbLine
 62
7
  6
CONTINUOUS
 10
8.213698737
 20
5.8138830564
 11
8.4672787267
 21
5.7647757959
  0
LINE
  5
2A3
100
AcDbEntity
  8
ALL_ASSEMBLY_MEMBERS
100
AcDbLine
 62
7
  6
CONTINUOUS
 10
7.7622787267
 20
6.0484628446
 11
7.7622787267
 21
5.8334628446
  0
LINE
  5
2A4
100
AcDbEntity
  8
ALL_ASSEMBLY_MEMBERS
100
AcDbLine
 62
7
  6
CONTINUOUS
 10
7.7722787267
 20
6.0584628446
 11
7.7722787267
 21
5.8234628446
  0
LINE
  5
2A5
100
AcDbEntity
  8
ALL_ASSEMBLY_MEMBERS
100
AcDbLine
 62
7
  6
CONTINUOUS
 10
7.7922787267
 20
6.0584628446
 11
7.7922787267
 21
5.8234628446
  0
LINE
  5
2A6
100
AcDbEntity
  8
ALL_ASSEMBLY_MEMBERS
100
AcDbLine
 62
7
  6
CONTINUOUS
 10
7.8022787267
 20
6.0484628446
 11
7.8022787267
 21
5.8334628446
  0
LINE
  5
2A7
100
AcDbEntity
  8
ALL_ASSEMBLY_MEMBERS
100
AcDbLine
 62
7
  6
CONTINUOUS
 10
7.9522787267
 20
5.8389628446
 11
7.9522787267
 21
6.0429628446
  0
LINE
  5
2A8
100
AcDbEntity
  8
ALL_ASSEMBLY_MEMBERS
100
AcDbLine
 62
7
  6
CONTINUOUS
 10
8.213698737
 20
5.8138830564
 11
8.213698737
 21
6.0680426328
  0
LINE
  5
2A9
100
AcDbEntity
  8
ALL_ASSEMBLY_MEMBERS
100
AcDbLine
 62
7
  6
CONTINUOUS
 10
8.4672787267
 20
5.7647757959
 11
8.4672787267
 21
6.1171498933
  0
LINE
  5
2AA
100
AcDbEntity
  8
ALL_ASSEMBLY_MEMBERS
100
AcDbLine
 62
7
  6
CONTINUOUS
 10
8.6527787267
 20
5.7485825933
 11
8.6527787267
 21
6.1333430959
  0
LINE
  5
2AB
100
AcDbEntity
  8
ALL_ASSEMBLY_MEMBERS
100
AcDbLine
 62
7
  6
CONTINUOUS
 10
8.8952277106
 20
6.0650258856
 11
8.8952277106
 21
5.8168998035
  0
LINE
  5
2AC
100
AcDbEntity
  8
ALL_ASSEMBLY_MEMBERS
100
AcDbLine
 62
7
  6
CONTINUOUS
 10
8.9005959249
 20
6.0634628446
 11
8.9005959249
 21
5.8184628446
  0
LINE
  5
2AD
100
AcDbEntity
  8
ALL_ASSEMBLY_MEMBERS
100
AcDbLine
 62
7
  6
CONTINUOUS
 10
8.9272787267
 20
6.0634628446
 11
8.9272787267
 21
5.8184628446
  0
LINE
  5
2AE
100
AcDbEntity
  8
ALL_ASSEMBLY_MEMBERS
100
AcDbLine
 62
7
  6
CONTINUOUS
 10
8.9372787267
 20
6.0534628446
 11
8.9372787267
 21
5.8284628446
  0
ARC
  5
2AF
100
AcDbEntity
  8
ALL_ASSEMBLY_MEMBERS
100
AcDbCircle
 62
7
  6
CONTINUOUS
 10
5.3271129494
 20
1.1225025557
 40
1.2661807934
100
AcDbArc
 50
97.4545251841
 51
97.7061380481
  0
ARC
  5
2B0
100
AcDbEntity
  8
ALL_ASSEMBLY_MEMBERS
100
AcDbCircle
 62
7
  6
CONTINUOUS
 10
5.320703978
 20
1.1241576564
 40
1.2186514302
100
AcDbArc
 50
97.8032072704
 51
97.9434144789
  0
ARC
  5
2B1
100
AcDbEntity
  8
ALL_ASSEMBLY_MEMBERS
100
AcDbCircle
 62
7
  6
CONTINUOUS
 10
5.3249689319
 20
1.133842753
 40
1.1946350963
100
AcDbArc
 50
97.7239506432
 51
97.8767525476
  0
ARC
  5
2B2
100
AcDbEntity
  8
ALL_ASSEMBLY_MEMBERS
100
AcDbCircle
 62
7
  6
CONTINUOUS
 10
5.3156195486
 20
1.1604091951
 40
1.1820450812
100
AcDbArc
 50
97.9421609207
 51
98.2252394064
  0
ARC
  5
2B3
100
AcDbEntity
  8
ALL_ASSEMBLY_MEMBERS
100
AcDbCircle
 62
7
  6
CONTINUOUS
 10
5.3141227931
 20
1.216775858
 40
1.1710169243
100
AcDbArc
 50
97.7223389726
 51
98.4955008432
  0
ARC
  5
2B4
100
AcDbEntity
  8
ALL_ASSEMBLY_MEMBERS
100
AcDbCircle
 62
7
  6
CONTINUOUS
 10
5.3204756996
 20
1.1661947726
 40
1.1619725488
100
AcDbArc
 50
97.875902799
 51
98.1163841219
  0
ARC
  5
2B5
100
AcDbEntity
  8
ALL_ASSEMBLY_MEMBERS
100
AcDbCircle
 62
7
  6
CONTINUOUS
 10
5.3094804144
 20
1.2027880921
 40
1.1392238283
100
AcDbArc
 50
98.2245831232
 51
98.479001262
  0
ARC
  5
2B6
100
AcDbEntity
  8
ALL_ASSEMBLY_MEMBERS
100
AcDbCircle
 62
7
  6
CONTINUOUS
 10
5.3124958546
 20
1.2795652381
 40
1.1182638407
100
AcDbArc
 50
98.2446903735
 51
98.5495074067
  0
ARC
  5
2B7
100
AcDbEntity
  8
ALL_ASSEMBLY_MEMBERS
100
AcDbCircle
 62
7
  6
CONTINUOUS
 10
5.303682886
 20
1.2415613896
 40
1.1000194831
100
AcDbArc
 50
98.5249128188
 51
98.6916945781
  0
ARC
  5
2B8
100
AcDbEntity
  8
ALL_ASSEMBLY_MEMBERS
100
AcDbCircle
 62
7
  6
CONTINUOUS
 10
5.3080418288
 20
1.2519776122
 40
1.0752935185
100
AcDbArc
 50
98.1058268897
 51
98.9069799655
  0
ARC
  5
2B9
100
AcDbEntity
  8
ALL_ASSEMBLY_MEMBERS
100
AcDbCircle
 62
7
  6
CONTINUOUS
 10
5.3390758061
 20
2.6940938286
 40
0.4563479557
100
AcDbArc
 50
258.77442256
 51
260.5792971605
  0
ARC
  5
2BA
100
AcDbEntity
  8
ALL_ASSEMBLY_MEMBERS
100
AcDbCircle
 62
7
  6
CONTINUOUS
 10
5.4122747609
 20
0.3941794255
 40
2.0515889344
100
AcDbArc
 50
89.5854019479
 51
90.4145980521
  0
ARC
  5
2BB
100
AcDbEntity
  8
ALL_ASSEMBLY_MEMBERS
100
AcDbCircle
 62
7
  6
CONTINUOUS
 10
5.4120609042
 20
0.414708747
 40
2.0310585467
100
AcDbArc
 50
90.4125322027
 51
91.915635902
  0
ARC
  5
2BC
100
AcDbEntity
  8
ALL_ASSEMBLY_MEMBERS
100
AcDbCircle
 62
7
  6
CONTINUOUS
 10
5.4128333396
 20
0.4312831615
 40
2.0144821487
100
AcDbArc
 50
88.0781795081
 51
89.5936523872
  0
ARC
  5
2BD
100
AcDbEntity
  8
ALL_ASSEMBLY_MEMBERS
100
AcDbCircle
 62
7
  6
CONTINUOUS
 10
5.363354459
 20
1.3956151721
 40
0.9114250918
100
AcDbArc
 50
96.9387538713
 51
97.1297288083
  0
ARC
  5
2BE
100
AcDbEntity
  8
ALL_ASSEMBLY_MEMBERS
100
AcDbCircle
 62
7
  6
CONTINUOUS
 10
5.4122779685
 20
3.4371208461
 40
1.2036660146
100
AcDbArc
 50
269.5240200054
 51
270.0000360912
  0
ARC
  5
2BF
100
AcDbEntity
  8
ALL_ASSEMBLY_MEMBERS
100
AcDbCircle
 62
7
  6
CONTINUOUS
 10
5.4122819973
 20
3.436515946
 40
1.2030611146
100
AcDbArc
 50
269.9998442375
 51
270.476099666
  0
ARC
  5
2C0
100
AcDbEntity
  8
ALL_ASSEMBLY_MEMBERS
100
AcDbCircle
 62
7
  6
CONTINUOUS
 10
5.4010820381
 20
3.1997462986
 40
0.9659932732
100
AcDbArc
 50
265.1357670099
 51
266.234856667
  0
ARC
  5
2C1
100
AcDbEntity
  8
ALL_ASSEMBLY_MEMBERS
100
AcDbCircle
 62
7
  6
CONTINUOUS
 10
5.4122787267
 20
2.9409628446
 40
0.75
100
AcDbArc
 50
304.6015927367
 51
235.3983777979
  0
ARC
  5
2C2
100
AcDbEntity
  8
ALL_ASSEMBLY_MEMBERS
100
AcDbCircle
 62
7
  6
CONTINUOUS
 10
5.4122787267
 20
2.9409628446
 40
0.66
100
AcDbArc
 50
304.6287636435
 51
235.3712363565
  0
ARC
  5
2C3
100
AcDbEntity
  8
ALL_ASSEMBLY_MEMBERS
100
AcDbCircle
 62
7
  6
CONTINUOUS
 10
5.4122787267
 20
2.9409628446
 40
0.57
100
AcDbArc
 50
311.1452992312
 51
228.8547007688
  0
ARC
  5
2C4
100
AcDbEntity
  8
ALL_ASSEMBLY_MEMBERS
100
AcDbCircle
 62
7
  6
CONTINUOUS
 10
5.4122787267
 20
2.9409628446
 40
0.53
100
AcDbArc
 50
315.0514083495
 51
224.9485916505
  0
ARC
  5
2C5
100
AcDbEntity
  8
ALL_ASSEMBLY_MEMBERS
100
AcDbCircle
 62
7
  6
CONTINUOUS
 10
5.4122787267
 20
2.9409628446
 40
0.4375
100
AcDbArc
 50
329.0044754448
 51
210.9955245552
  0
ARC
  5
2C6
100
AcDbEntity
  8
ALL_ASSEMBLY_MEMBERS
100
AcDbCircle
 62
7
  6
CONTINUOUS
 10
5.4122787267
 20
2.9409628446
 40
0.37875
100
AcDbArc
 50
352.0578811739
 51
187.9421188261
  0
ARC
  5
2C7
100
AcDbEntity
  8
ALL_ASSEMBLY_MEMBERS
100
AcDbCircle
 62
7
  6
CONTINUOUS
 10
5.4122787267
 20
2.9409628446
 40
0.375
100
AcDbArc
 50
0.0
 51
180.0
  0
ARC
  5
2C8
100
AcDbEntity
  8
ALL_ASSEMBLY_MEMBERS
100
AcDbCircle
 62
7
  6
CONTINUOUS
 10
5.4118733067
 20
1.9594437538
 40
0.3253514252
100
AcDbArc
 50
91.6898916367
 51
92.4601169025
  0
ARC
  5
2C9
100
AcDbEntity
  8
ALL_ASSEMBLY_MEMBERS
100
AcDbCircle
 62
7
  6
CONTINUOUS
 10
5.412684147
 20
2.587388411
 40
0.3253514155
100
AcDbArc
 50
271.6898916253
 51
272.460116914
  0
ARC
  5
2CA
100
AcDbEntity
  8
ALL_ASSEMBLY_MEMBERS
100
AcDbCircle
 62
7
  6
CONTINUOUS
 10
5.412764578
 20
1.961663682
 40
0.3231300909
100
AcDbArc
 50
87.5372356285
 51
88.3127558323
  0
ARC
  5
2CB
100
AcDbEntity
  8
ALL_ASSEMBLY_MEMBERS
100
AcDbCircle
 62
7
  6
CONTINUOUS
 10
5.4117928752
 20
2.5851684868
 40
0.3231300852
100
AcDbArc
 50
267.5372356217
 51
268.3127558391
  0
ARC
  5
2CC
100
AcDbEntity
  8
ALL_ASSEMBLY_MEMBERS
100
AcDbCircle
 62
7
  6
CONTINUOUS
 10
5.402203197
 20
2.0805418538
 40
0.2038354673
100
AcDbArc
 50
96.4145745923
 51
97.4638126652
  0
ARC
  5
2CD
100
AcDbEntity
  8
ALL_ASSEMBLY_MEMBERS
100
AcDbCircle
 62
7
  6
CONTINUOUS
 10
5.4016502233
 20
2.4617468539
 40
0.1992586699
100
AcDbArc
 50
262.524136946
 51
263.5974757965
  0
ARC
  5
2CE
100
AcDbEntity
  8
ALL_ASSEMBLY_MEMBERS
100
AcDbCircle
 62
7
  6
CONTINUOUS
 10
5.3771477935
 20
2.3287338265
 40
0.0639005807
100
AcDbArc
 50
253.6009114665
 51
255.9020201547
  0
ARC
  5
2CF
100
AcDbEntity
  8
ALL_ASSEMBLY_MEMBERS
100
AcDbCircle
 62
7
  6
CONTINUOUS
 10
2.1896180654
 20
5.2384745555
 40
0.895
100
AcDbArc
 50
79.04
 51
90.9820362042
  0
ARC
  5
2D0
100
AcDbEntity
  8
ALL_ASSEMBLY_MEMBERS
100
AcDbCircle
 62
7
  6
CONTINUOUS
 10
2.1666891145
 20
5.695908932
 40
0.4375
100
AcDbArc
 50
89.0060010065
 51
122.4675202279
  0
ARC
  5
2D1
100
AcDbEntity
  8
ALL_ASSEMBLY_MEMBERS
100
AcDbCircle
 62
7
  6
CONTINUOUS
 10
1.8997787267
 20
5.8284628446
 40
0.01
100
AcDbArc
 50
180.0
 51
270.0
  0
ARC
  5
2D2
100
AcDbEntity
  8
ALL_ASSEMBLY_MEMBERS
100
AcDbCircle
 62
7
  6
CONTINUOUS
 10
1.9264615286
 20
5.8084628446
 40
0.01
100
AcDbArc
 50
57.5324797705
 51
90.0
  0
ARC
  5
2D3
100
AcDbEntity
  8
ALL_ASSEMBLY_MEMBERS
100
AcDbCircle
 62
7
  6
CONTINUOUS
 10
2.1896180654
 20
6.6434511337
 40
0.895
100
AcDbArc
 50
269.0179637958
 51
280.96
  0
ARC
  5
2D4
100
AcDbEntity
  8
ALL_ASSEMBLY_MEMBERS
100
AcDbCircle
 62
7
  6
CONTINUOUS
 10
2.1666891145
 20
6.1860167572
 40
0.4375
100
AcDbArc
 50
237.5324797721
 51
270.9939989935
  0
ARC
  5
2D5
100
AcDbEntity
  8
ALL_ASSEMBLY_MEMBERS
100
AcDbCircle
 62
7
  6
CONTINUOUS
 10
2.1172787267
 20
5.9409628446
 40
0.2475
100
AcDbArc
 50
156.80823049
 51
203.19176951
  0
ARC
  5
2D6
100
AcDbEntity
  8
ALL_ASSEMBLY_MEMBERS
100
AcDbCircle
 62
7
  6
CONTINUOUS
 10
1.8997787267
 20
6.0534628446
 40
0.01
100
AcDbArc
 50
90.0
 51
180.0
  0
ARC
  5
2D7
100
AcDbEntity
  8
ALL_ASSEMBLY_MEMBERS
100
AcDbCircle
 62
7
  6
CONTINUOUS
 10
1.9264615286
 20
6.0734628446
 40
0.01
100
AcDbArc
 50
270.0
 51
302.4675202295
  0
ARC
  5
2D8
100
AcDbEntity
  8
ALL_ASSEMBLY_MEMBERS
100
AcDbCircle
 62
7
  6
CONTINUOUS
 10
2.8747787267
 20
4.4639628446
 40
1.375
100
AcDbArc
 50
90.0
 51
100.96
  0
ARC
  5
2D9
100
AcDbEntity
  8
ALL_ASSEMBLY_MEMBERS
100
AcDbCircle
 62
7
  6
CONTINUOUS
 10
3.0547787267
 20
5.8334628446
 40
0.01
100
AcDbArc
 50
270.0
 51
360.0
  0
ARC
  5
2DA
100
AcDbEntity
  8
ALL_ASSEMBLY_MEMBERS
100
AcDbCircle
 62
7
  6
CONTINUOUS
 10
3.0347787267
 20
5.8334628446
 40
0.01
100
AcDbArc
 50
180.0
 51
270.0
  0
ARC
  5
2DB
100
AcDbEntity
  8
ALL_ASSEMBLY_MEMBERS
100
AcDbCircle
 62
7
  6
CONTINUOUS
 10
2.8747787267
 20
7.4179628446
 40
1.375
100
AcDbArc
 50
259.04
 51
270.0
  0
ARC
  5
2DC
100
AcDbEntity
  8
ALL_ASSEMBLY_MEMBERS
100
AcDbCircle
 62
7
  6
CONTINUOUS
 10
3.4447787267
 20
5.9409628446
 40
0.5275
100
AcDbArc
 50
191.1504078638
 51
168.8495921362
  0
ARC
  5
2DD
100
AcDbEntity
  8
ALL_ASSEMBLY_MEMBERS
100
AcDbCircle
 62
7
  6
CONTINUOUS
 10
3.4447787267
 20
5.9409628446
 40
0.4425
100
AcDbArc
 50
193.327590374
 51
166.672409626
  0
ARC
  5
2DE
100
AcDbEntity
  8
ALL_ASSEMBLY_MEMBERS
100
AcDbCircle
 62
7
  6
CONTINUOUS
 10
3.4447787267
 20
5.9409628446
 40
0.425
100
AcDbArc
 50
196.049924592
 51
163.950075408
  0
ARC
  5
2DF
100
AcDbEntity
  8
ALL_ASSEMBLY_MEMBERS
100
AcDbCircle
 62
7
  6
CONTINUOUS
 10
3.4447787267
 20
5.9409628446
 40
0.3483129374
100
AcDbArc
 50
195.832562418
 51
164.167437582
  0
ARC
  5
2E0
100
AcDbEntity
  8
ALL_ASSEMBLY_MEMBERS
100
AcDbCircle
 62
7
  6
CONTINUOUS
 10
3.4447787267
 20
5.9409628446
 40
0.3325
100
AcDbArc
 50
196.6059049845
 51
163.3940950155
  0
ARC
  5
2E1
100
AcDbEntity
  8
ALL_ASSEMBLY_MEMBERS
100
AcDbCircle
 62
7
  6
CONTINUOUS
 10
3.4447787267
 20
5.9409628446
 40
0.2949999867
100
AcDbArc
 50
198.7840233218
 51
161.2162399954
  0
ARC
  5
2E2
100
AcDbEntity
  8
ALL_ASSEMBLY_MEMBERS
100
AcDbCircle
 62
7
  6
CONTINUOUS
 10
3.4447787267
 20
5.9409628446
 40
0.28
100
AcDbArc
 50
199.8344100043
 51
160.1653420229
  0
ARC
  5
2E3
100
AcDbEntity
  8
ALL_ASSEMBLY_MEMBERS
100
AcDbCircle
 62
7
  6
CONTINUOUS
 10
3.4447787267
 20
5.9409628446
 40
0.2707112034
100
AcDbArc
 50
200.5457783728
 51
159.4537601465
  0
CIRCLE
  5
2E4
100
AcDbEntity
  8
ALL_ASSEMBLY_MEMBERS
100
AcDbCircle
 62
7
  6
CONTINUOUS
 10
3.4447787267
 20
5.9409628446
 40
0.1954213942
  0
CIRCLE
  5
2E5
100
AcDbEntity
  8
ALL_ASSEMBLY_MEMBERS
100
AcDbCircle
 62
7
  6
CONTINUOUS
 10
3.4447787267
 20
5.9409628446
 40
0.1785
  0
CIRCLE
  5
2E6
100
AcDbEntity
  8
ALL_ASSEMBLY_MEMBERS
100
AcDbCircle
 62
7
  6
CONTINUOUS
 10
3.4447787267
 20
5.9409628446
 40
0.1734999973
  0
CIRCLE
  5
2E7
100
AcDbEntity
  8
ALL_ASSEMBLY_MEMBERS
100
AcDbCircle
 62
7
  6
CONTINUOUS
 10
3.4447787267
 20
5.9409628446
 40
0.15
  0
CIRCLE
  5
2E8
100
AcDbEntity
  8
ALL_ASSEMBLY_MEMBERS
100
AcDbCircle
 62
7
  6
CONTINUOUS
 10
3.4447787267
 20
5.9409628446
 40
0.1472307693
  0
ARC
  5
2E9
100
AcDbEntity
  8
ALL_ASSEMBLY_MEMBERS
100
AcDbCircle
 62
7
  6
CONTINUOUS
 10
3.0547787267
 20
6.0484628446
 40
0.01
100
AcDbArc
 50
0.0
 51
90.0
  0
ARC
  5
2EA
100
AcDbEntity
  8
ALL_ASSEMBLY_MEMBERS
100
AcDbCircle
 62
7
  6
CONTINUOUS
 10
3.0347787267
 20
6.0484628446
 40
0.01
100
AcDbArc
 50
90.0
 51
180.0
  0
ARC
  5
2EB
100
AcDbEntity
  8
ALL_ASSEMBLY_MEMBERS
100
AcDbCircle
 62
7
  6
CONTINUOUS
 10
5.506803193
 20
1.1908380226
 40
1.1972073836
100
AcDbArc
 50
81.763701818
 51
82.1446283356
  0
ARC
  5
2EC
100
AcDbEntity
  8
ALL_ASSEMBLY_MEMBERS
100
AcDbCircle
 62
7
  6
CONTINUOUS
 10
5.5061838702
 20
1.2389735506
 40
1.1592788717
100
AcDbArc
 50
81.7583967138
 51
82.0940931101
  0
ARC
  5
2ED
100
AcDbEntity
  8
ALL_ASSEMBLY_MEMBERS
100
AcDbCircle
 62
7
  6
CONTINUOUS
 10
5.5154286513
 20
1.2051629183
 40
1.136823107
100
AcDbArc
 50
81.4804502879
 51
81.7057712506
  0
ARC
  5
2EE
100
AcDbEntity
  8
ALL_ASSEMBLY_MEMBERS
100
AcDbCircle
 62
7
  6
CONTINUOUS
 10
5.5201604249
 20
1.236844539
 40
1.1047900839
100
AcDbArc
 50
81.3086476706
 51
81.4797256605
  0
ARC
  5
2EF
100
AcDbEntity
  8
ALL_ASSEMBLY_MEMBERS
100
AcDbCircle
 62
7
  6
CONTINUOUS
 10
5.5131071701
 20
1.2287119712
 40
1.0988071427
100
AcDbArc
 50
81.4200808045
 51
81.6957554671
  0
ARC
  5
2F0
100
AcDbEntity
  8
ALL_ASSEMBLY_MEMBERS
100
AcDbCircle
 62
7
  6
CONTINUOUS
 10
5.516504223
 20
1.3095677035
 40
1.0879343929
100
AcDbArc
 50
81.1727492762
 51
81.7633612566
  0
ARC
  5
2F1
100
AcDbEntity
  8
ALL_ASSEMBLY_MEMBERS
100
AcDbCircle
 62
7
  6
CONTINUOUS
 10
5.5209954505
 20
1.2808792312
 40
1.046046818
100
AcDbArc
 50
81.1110627683
 51
81.308879374
  0
ARC
  5
2F2
100
AcDbEntity
  8
ALL_ASSEMBLY_MEMBERS
100
AcDbCircle
 62
7
  6
CONTINUOUS
 10
5.4247838987
 20
3.1824034922
 40
0.9486019902
100
AcDbArc
 50
273.7550678841
 51
274.874308439
  0
ARC
  5
2F3
100
AcDbEntity
  8
ALL_ASSEMBLY_MEMBERS
100
AcDbCircle
 62
7
  6
CONTINUOUS
 10
5.4616396459
 20
1.3991539281
 40
0.9078595031
100
AcDbArc
 50
82.8698961674
 51
83.061621153
  0
ARC
  5
2F4
100
AcDbEntity
  8
ALL_ASSEMBLY_MEMBERS
100
AcDbCircle
 62
7
  6
CONTINUOUS
 10
5.4889008791
 20
2.6753221102
 40
0.4372698451
100
AcDbArc
 50
279.3813259713
 51
281.2649543082
  0
ARC
  5
2F5
100
AcDbEntity
  8
ALL_ASSEMBLY_MEMBERS
100
AcDbCircle
 62
7
  6
CONTINUOUS
 10
5.4223542575
 20
2.4662903121
 40
0.2038354586
100
AcDbArc
 50
276.4145745699
 51
277.4638126876
  0
ARC
  5
2F6
100
AcDbEntity
  8
ALL_ASSEMBLY_MEMBERS
100
AcDbCircle
 62
7
  6
CONTINUOUS
 10
5.4229072297
 20
2.0850853175
 40
0.1992586731
100
AcDbArc
 50
82.5241369544
 51
83.5974757881
  0
ARC
  5
2F7
100
AcDbEntity
  8
ALL_ASSEMBLY_MEMBERS
100
AcDbCircle
 62
7
  6
CONTINUOUS
 10
5.4474096597
 20
2.2180983472
 40
0.0639005815
100
AcDbArc
 50
73.6009114811
 51
75.9020201401
  0
ARC
  5
2F8
100
AcDbEntity
  8
ALL_ASSEMBLY_MEMBERS
100
AcDbCircle
 62
7
  6
CONTINUOUS
 10
7.9522787267
 20
4.4639628446
 40
1.375
100
AcDbArc
 50
79.04
 51
90.0
  0
ARC
  5
2F9
100
AcDbEntity
  8
ALL_ASSEMBLY_MEMBERS
100
AcDbCircle
 62
7
  6
CONTINUOUS
 10
7.7722787267
 20
5.8334628446
 40
0.01
100
AcDbArc
 50
180.0
 51
270.0
  0
ARC
  5
2FA
100
AcDbEntity
  8
ALL_ASSEMBLY_MEMBERS
100
AcDbCircle
 62
7
  6
CONTINUOUS
 10
7.7922787267
 20
5.8334628446
 40
0.01
100
AcDbArc
 50
270.0
 51
360.0
  0
ARC
  5
2FB
100
AcDbEntity
  8
ALL_ASSEMBLY_MEMBERS
100
AcDbCircle
 62
7
  6
CONTINUOUS
 10
7.9522787267
 20
7.4179628446
 40
1.375
100
AcDbArc
 50
270.0
 51
280.96
  0
ARC
  5
2FC
100
AcDbEntity
  8
ALL_ASSEMBLY_MEMBERS
100
AcDbCircle
 62
7
  6
CONTINUOUS
 10
7.3822787267
 20
5.9409628446
 40
0.5275
100
AcDbArc
 50
11.1504078638
 51
348.8495921362
  0
ARC
  5
2FD
100
AcDbEntity
  8
ALL_ASSEMBLY_MEMBERS
100
AcDbCircle
 62
7
  6
CONTINUOUS
 10
7.3822787267
 20
5.9409628446
 40
0.4425
100
AcDbArc
 50
13.327590374
 51
346.672409626
  0
ARC
  5
2FE
100
AcDbEntity
  8
ALL_ASSEMBLY_MEMBERS
100
AcDbCircle
 62
7
  6
CONTINUOUS
 10
7.3822787267
 20
5.9409628446
 40
0.425
100
AcDbArc
 50
16.049924592
 51
343.950075408
  0
ARC
  5
2FF
100
AcDbEntity
  8
ALL_ASSEMBLY_MEMBERS
100
AcDbCircle
 62
7
  6
CONTINUOUS
 10
7.3822787267
 20
5.9409628446
 40
0.3483129374
100
AcDbArc
 50
15.832562418
 51
344.167437582
  0
ARC
  5
300
100
AcDbEntity
  8
ALL_ASSEMBLY_MEMBERS
100
AcDbCircle
 62
7
  6
CONTINUOUS
 10
7.3822787267
 20
5.9409628446
 40
0.3325
100
AcDbArc
 50
16.6059049845
 51
343.3940950155
  0
ARC
  5
301
100
AcDbEntity
  8
ALL_ASSEMBLY_MEMBERS
100
AcDbCircle
 62
7
  6
CONTINUOUS
 10
7.3822787267
 20
5.9409628446
 40
0.2949999867
100
AcDbArc
 50
18.7840233218
 51
341.2162399954
  0
ARC
  5
302
100
AcDbEntity
  8
ALL_ASSEMBLY_MEMBERS
100
AcDbCircle
 62
7
  6
CONTINUOUS
 10
7.3822787267
 20
5.9409628446
 40
0.28
100
AcDbArc
 50
19.8344100043
 51
340.1653420229
  0
ARC
  5
303
100
AcDbEntity
  8
ALL_ASSEMBLY_MEMBERS
100
AcDbCircle
 62
7
  6
CONTINUOUS
 10
7.3822787267
 20
5.9409628446
 40
0.2707112034
100
AcDbArc
 50
20.5457783728
 51
339.4537601465
  0
CIRCLE
  5
304
100
AcDbEntity
  8
ALL_ASSEMBLY_MEMBERS
100
AcDbCircle
 62
7
  6
CONTINUOUS
 10
7.3822787267
 20
5.9409628446
 40
0.1954213942
  0
CIRCLE
  5
305
100
AcDbEntity
  8
ALL_ASSEMBLY_MEMBERS
100
AcDbCircle
 62
7
  6
CONTINUOUS
 10
7.3822787267
 20
5.9409628446
 40
0.1785
  0
CIRCLE
  5
306
100
AcDbEntity
  8
ALL_ASSEMBLY_MEMBERS
100
AcDbCircle
 62
7
  6
CONTINUOUS
 10
7.3822787267
 20
5.9409628446
 40
0.1734999973
  0
CIRCLE
  5
307
100
AcDbEntity
  8
ALL_ASSEMBLY_MEMBERS
100
AcDbCircle
 62
7
  6
CONTINUOUS
 10
7.3822787267
 20
5.9409628446
 40
0.15
  0
CIRCLE
  5
308
100
AcDbEntity
  8
ALL_ASSEMBLY_MEMBERS
100
AcDbCircle
 62
7
  6
CONTINUOUS
 10
7.3822787267
 20
5.9409628446
 40
0.1472307693
  0
ARC
  5
309
100
AcDbEntity
  8
ALL_ASSEMBLY_MEMBERS
100
AcDbCircle
 62
7
  6
CONTINUOUS
 10
7.7722787267
 20
6.0484628446
 40
0.01
100
AcDbArc
 50
90.0
 51
180.0
  0
ARC
  5
30A
100
AcDbEntity
  8
ALL_ASSEMBLY_MEMBERS
100
AcDbCircle
 62
7
  6
CONTINUOUS
 10
7.7922787267
 20
6.0484628446
 40
0.01
100
AcDbArc
 50
0.0
 51
90.0
  0
ARC
  5
30B
100
AcDbEntity
  8
ALL_ASSEMBLY_MEMBERS
100
AcDbCircle
 62
7
  6
CONTINUOUS
 10
8.637439388
 20
5.2384745555
 40
0.895
100
AcDbArc
 50
89.0179637958
 51
100.96
  0
ARC
  5
30C
100
AcDbEntity
  8
ALL_ASSEMBLY_MEMBERS
100
AcDbCircle
 62
7
  6
CONTINUOUS
 10
8.6603683389
 20
5.695908932
 40
0.4375
100
AcDbArc
 50
57.5324797721
 51
90.9939989935
  0
ARC
  5
30D
100
AcDbEntity
  8
ALL_ASSEMBLY_MEMBERS
100
AcDbCircle
 62
7
  6
CONTINUOUS
 10
8.9272787267
 20
5.8284628446
 40
0.01
100
AcDbArc
 50
270.0
 51
360.0
  0
ARC
  5
30E
100
AcDbEntity
  8
ALL_ASSEMBLY_MEMBERS
100
AcDbCircle
 62
7
  6
CONTINUOUS
 10
8.9005959249
 20
5.8084628446
 40
0.01
100
AcDbArc
 50
90.0
 51
122.4675202295
  0
ARC
  5
30F
100
AcDbEntity
  8
ALL_ASSEMBLY_MEMBERS
100
AcDbCircle
 62
7
  6
CONTINUOUS
 10
8.637439388
 20
6.6434511337
 40
0.895
100
AcDbArc
 50
259.04
 51
270.9820362042
  0
ARC
  5
310
100
AcDbEntity
  8
ALL_ASSEMBLY_MEMBERS
100
AcDbCircle
 62
7
  6
CONTINUOUS
 10
8.6603683389
 20
6.1860167572
 40
0.4375
100
AcDbArc
 50
269.0060010065
 51
302.4675202279
  0
ARC
  5
311
100
AcDbEntity
  8
ALL_ASSEMBLY_MEMBERS
100
AcDbCircle
 62
7
  6
CONTINUOUS
 10
8.7097787267
 20
5.9409628446
 40
0.2475
100
AcDbArc
 50
336.80823049
 51
23.19176951
  0
ARC
  5
312
100
AcDbEntity
  8
ALL_ASSEMBLY_MEMBERS
100
AcDbCircle
 62
7
  6
CONTINUOUS
 10
8.9272787267
 20
6.0534628446
 40
0.01
100
AcDbArc
 50
0.0
 51
90.0
  0
ARC
  5
313
100
AcDbEntity
  8
ALL_ASSEMBLY_MEMBERS
100
AcDbCircle
 62
7
  6
CONTINUOUS
 10
8.9005959249
 20
6.0734628446
 40
0.01
100
AcDbArc
 50
237.5324797705
 51
270.0
  0
SPLINE
  5
314
100
AcDbEntity
  8
ALL_ASSEMBLY_MEMBERS
100
AcDbSpline
 62
7
  6
CONTINUOUS
 70
0
 71
3
 72
28
 73
24
 74
0
 42
0.0000001
 43
0.0000001
 44
0.0000000001
 40
0.0
 40
0.0
 40
0.0
 40
0.0
 40
0.0778918002
 40
0.1553476958
 40
0.2317780557
 40
0.3067275019
 40
0.3797740801
 40
0.450510183
 40
0.5185814347
 40
0.583706764
 40
0.615105624
 40
0.6457014132
 40
0.704429717
 40
0.7325848371
 40
0.7599449881
 40
0.8123551717
 40
0.8619951675
 40
0.8859353059
 40
0.9093770049
 40
0.9324067588
 40
0.9551185906
 40
0.9776138858
 40
1.0
 40
1.0
 40
1.0
 40
1.0
 10
7.6527256274
 20
5.9409628446
 30
0.0
 10
7.6527256274
 20
5.9440666855
 30
0.0
 10
7.6529001672
 20
5.9502583956
 30
0.0
 10
7.6536799695
 20
5.9594661065
 30
0.0
 10
7.6549735724
 20
5.9684978814
 30
0.0
 10
7.6567665118
 20
5.9772648802
 30
0.0
 10
7.6590425513
 20
5.9856846567
 30
0.0
 10
7.6617793046
 20
5.9936777122
 30
0.0
 10
7.6649518905
 20
6.0011668356
 30
0.0
 10
7.6679695694
 20
6.0069990347
 30
0.0
 10
7.6705821319
 20
6.0113406391
 30
0.0
 10
7.6732437256
 20
6.0153491379
 30
0.0
 10
7.6761030947
 20
6.0190673327
 30
0.0
 10
7.6791580712
 20
6.0224451426
 30
0.0
 10
7.682216491
 20
6.025471274
 30
0.0
 10
7.6861941141
 20
6.028774482
 30
0.0
 10
7.6904591022
 20
6.0314566277
 30
0.0
 10
7.6939426942
 20
6.0331408389
 30
0.0
 10
7.6965574023
 20
6.0341665285
 30
0.0
 10
7.6991984154
 20
6.0349674414
 30
0.0
 10
7.701859529
 20
6.0355413758
 30
0.0
 10
7.7045339695
 20
6.035885931
 30
0.0
 10
7.7063233445
 20
6.0359625534
 30
0.0
 10
7.7072153888
 20
6.0359625534
 30
0.0
  0
SPLINE
  5
315
100
AcDbEntity
  8
ALL_ASSEMBLY_MEMBERS
100
AcDbSpline
 62
7
  6
CONTINUOUS
 70
0
 71
3
 72
28
 73
24
 74
0
 42
0.0000001
 43
0.0000001
 44
0.0000000001
 40
0.0
 40
0.0
 40
0.0
 40
0.0
 40
0.0223861142
 40
0.0448814094
 40
0.0675932412
 40
0.0906229951
 40
0.1140646941
 40
0.1380048325
 40
0.1876448283
 40
0.2400550119
 40
0.2674151629
 40
0.295570283
 40
0.3542985868
 40
0.384894376
 40
0.416293236
 40
0.4814185653
 40
0.549489817
 40
0.6202259199
 40
0.6932724981
 40
0.7682219443
 40
0.8446523042
 40
0.9221081998
 40
1.0
 40
1.0
 40
1.0
 40
1.0
 10
7.7072153888
 20
5.8459631358
 30
0.0
 10
7.7063233445
 20
5.8459631358
 30
0.0
 10
7.7045339695
 20
5.8460397581
 30
0.0
 10
7.701859529
 20
5.8463843134
 30
0.0
 10
7.6991984154
 20
5.8469582478
 30
0.0
 10
7.6965574023
 20
5.8477591606
 30
0.0
 10
7.6939426942
 20
5.8487848503
 30
0.0
 10
7.6904591022
 20
5.8504690615
 30
0.0
 10
7.6861941141
 20
5.8531512072
 30
0.0
 10
7.682216491
 20
5.8564544152
 30
0.0
 10
7.6791580712
 20
5.8594805466
 30
0.0
 10
7.6761030947
 20
5.8628583565
 30
0.0
 10
7.6732437256
 20
5.8665765512
 30
0.0
 10
7.6705821319
 20
5.8705850501
 30
0.0
 10
7.6679695694
 20
5.8749266545
 30
0.0
 10
7.6649518905
 20
5.8807588536
 30
0.0
 10
7.6617793046
 20
5.8882479769
 30
0.0
 10
7.6590425513
 20
5.8962410325
 30
0.0
 10
7.6567665118
 20
5.9046608089
 30
0.0
 10
7.6549735724
 20
5.9134278078
 30
0.0
 10
7.6536799695
 20
5.9224595827
 30
0.0
 10
7.6529001672
 20
5.9316672936
 30
0.0
 10
7.6527256274
 20
5.9378590037
 30
0.0
 10
7.6527256274
 20
5.9409628446
 30
0.0
  0
SPLINE
  5
316
100
AcDbEntity
  8
ALL_ASSEMBLY_MEMBERS
100
AcDbSpline
 62
7
  6
CONTINUOUS
 70
0
 71
3
 72
19
 73
15
 74
0
 42
0.0000001
 43
0.0000001
 44
0.0000000001
 40
0.0
 40
0.0
 40
0.0
 40
0.0
 40
0.2156340708
 40
0.2726631212
 40
0.331110835
 40
0.3910524729
 40
0.4525679523
 40
0.5157513488
 40
0.5806288186
 40
0.6471705492
 40
0.715355414
 40
0.8559086505
 40
0.9277630857
 40
1.0
 40
1.0
 40
1.0
 40
1.0
 10
7.5718366752
 20
5.9882777204
 30
0.0
 10
7.5739298592
 20
5.9852946466
 30
0.0
 10
7.5763818197
 20
5.9813771318
 30
0.0
 10
7.5789858147
 20
5.9764238539
 30
0.0
 10
7.580280429
 20
5.9737562163
 30
0.0
 10
7.5815134553
 20
5.9709764255
 30
0.0
 10
7.5826743329
 20
5.9680792147
 30
0.0
 10
7.583752193
 20
5.9650612852
 30
0.0
 10
7.5847341142
 20
5.9619215866
 30
0.0
 10
7.5856048123
 20
5.9586614225
 30
0.0
 10
7.5866054856
 20
5.9541169886
 30
0.0
 10
7.587303321
 20
5.9494178771
 30
0.0
 10
7.5876598213
 20
5.9446192351
 30
0.0
 10
7.5877215622
 20
5.9421836411
 30
0.0
 10
7.5877217842
 20
5.9409628446
 30
0.0
  0
SPLINE
  5
317
100
AcDbEntity
  8
ALL_ASSEMBLY_MEMBERS
100
AcDbSpline
 62
7
  6
CONTINUOUS
 70
0
 71
3
 72
19
 73
15
 74
0
 42
0.0000001
 43
0.0000001
 44
0.0000000001
 40
0.0
 40
0.0
 40
0.0
 40
0.0
 40
0.0722360811
 40
0.1440899093
 40
0.284642271
 40
0.3528270208
 40
0.4193685266
 40
0.484245919
 40
0.5474297614
 40
0.608945473
 40
0.6688872304
 40
0.7273352987
 40
0.7843647426
 40
1.0
 40
1.0
 40
1.0
 40
1.0
 10
7.5877217842
 20
5.9409628446
 30
0.0
 10
7.5877215704
 20
5.9397421189
 30
0.0
 10
7.5876598387
 20
5.9373066619
 30
0.0
 10
7.5873033639
 20
5.9325082814
 30
0.0
 10
7.5866055975
 20
5.9278094112
 30
0.0
 10
7.5856050266
 20
5.9232651971
 30
0.0
 10
7.5847344132
 20
5.9200051798
 30
0.0
 10
7.5837525787
 20
5.9168656116
 30
0.0
 10
7.5826748101
 20
5.9138477968
 30
0.0
 10
7.5815140446
 20
5.9109506829
 30
0.0
 10
7.5802811355
 20
5.9081709813
 30
0.0
 10
7.5789866152
 20
5.9055034348
 30
0.0
 10
7.5763828342
 20
5.900550301
 30
0.0
 10
7.5739310496
 20
5.8966328987
 30
0.0
 10
7.5718380288
 20
5.8936498926
 30
0.0
  0
SPLINE
  5
318
100
AcDbEntity
  8
ALL_ASSEMBLY_MEMBERS
100
AcDbSpline
 62
7
  6
CONTINUOUS
 70
0
 71
3
 72
28
 73
24
 74
0
 42
0.0000001
 43
0.0000001
 44
0.0000000001
 40
0.0
 40
0.0
 40
0.0
 40
0.0
 40
0.0778918002
 40
0.1553476958
 40
0.2317780557
 40
0.3067275019
 40
0.3797740801
 40
0.450510183
 40
0.5185814347
 40
0.583706764
 40
0.615105624
 40
0.6457014132
 40
0.704429717
 40
0.7325848371
 40
0.7599449881
 40
0.8123551717
 40
0.8619951675
 40
0.8859353059
 40
0.9093770049
 40
0.9324067588
 40
0.9551185906
 40
0.9776138858
 40
1.0
 40
1.0
 40
1.0
 40
1.0
 10
3.1743318261
 20
5.9409628446
 30
0.0
 10
3.1743318261
 20
5.9378590037
 30
0.0
 10
3.1741572862
 20
5.9316672936
 30
0.0
 10
3.1733774839
 20
5.9224595827
 30
0.0
 10
3.172083881
 20
5.9134278078
 30
0.0
 10
3.1702909416
 20
5.9046608089
 30
0.0
 10
3.1680149021
 20
5.8962410325
 30
0.0
 10
3.1652781488
 20
5.8882479769
 30
0.0
 10
3.1621055629
 20
5.8807588536
 30
0.0
 10
3.1590878841
 20
5.8749266545
 30
0.0
 10
3.1564753215
 20
5.8705850501
 30
0.0
 10
3.1538137279
 20
5.8665765512
 30
0.0
 10
3.1509543587
 20
5.8628583565
 30
0.0
 10
3.1478993822
 20
5.8594805466
 30
0.0
 10
3.1448409624
 20
5.8564544152
 30
0.0
 10
3.1408633393
 20
5.8531512072
 30
0.0
 10
3.1365983512
 20
5.8504690615
 30
0.0
 10
3.1331147592
 20
5.8487848503
 30
0.0
 10
3.1305000511
 20
5.8477591606
 30
0.0
 10
3.127859038
 20
5.8469582478
 30
0.0
 10
3.1251979244
 20
5.8463843134
 30
0.0
 10
3.1225234839
 20
5.8460397581
 30
0.0
 10
3.1207341089
 20
5.8459631358
 30
0.0
 10
3.1198420646
 20
5.8459631358
 30
0.0
  0
SPLINE
  5
319
100
AcDbEntity
  8
ALL_ASSEMBLY_MEMBERS
100
AcDbSpline
 62
7
  6
CONTINUOUS
 70
0
 71
3
 72
28
 73
24
 74
0
 42
0.0000001
 43
0.0000001
 44
0.0000000001
 40
0.0
 40
0.0
 40
0.0
 40
0.0
 40
0.0223861142
 40
0.0448814094
 40
0.0675932412
 40
0.0906229951
 40
0.1140646941
 40
0.1380048325
 40
0.1876448283
 40
0.2400550119
 40
0.2674151629
 40
0.295570283
 40
0.3542985868
 40
0.384894376
 40
0.416293236
 40
0.4814185653
 40
0.549489817
 40
0.6202259199
 40
0.6932724981
 40
0.7682219443
 40
0.8446523042
 40
0.9221081998
 40
1.0
 40
1.0
 40
1.0
 40
1.0
 10
3.1198420646
 20
6.0359625534
 30
0.0
 10
3.1207341089
 20
6.0359625534
 30
0.0
 10
3.1225234839
 20
6.035885931
 30
0.0
 10
3.1251979244
 20
6.0355413758
 30
0.0
 10
3.127859038
 20
6.0349674414
 30
0.0
 10
3.1305000511
 20
6.0341665285
 30
0.0
 10
3.1331147592
 20
6.0331408389
 30
0.0
 10
3.1365983512
 20
6.0314566277
 30
0.0
 10
3.1408633393
 20
6.028774482
 30
0.0
 10
3.1448409624
 20
6.025471274
 30
0.0
 10
3.1478993822
 20
6.0224451426
 30
0.0
 10
3.1509543587
 20
6.0190673327
 30
0.0
 10
3.1538137279
 20
6.0153491379
 30
0.0
 10
3.1564753215
 20
6.0113406391
 30
0.0
 10
3.1590878841
 20
6.0069990347
 30
0.0
 10
3.1621055629
 20
6.0011668356
 30
0.0
 10
3.1652781488
 20
5.9936777122
 30
0.0
 10
3.1680149021
 20
5.9856846567
 30
0.0
 10
3.1702909416
 20
5.9772648802
 30
0.0
 10
3.172083881
 20
5.9684978814
 30
0.0
 10
3.1733774839
 20
5.9594661065
 30
0.0
 10
3.1741572862
 20
5.9502583956
 30
0.0
 10
3.1743318261
 20
5.9440666855
 30
0.0
 10
3.1743318261
 20
5.9409628446
 30
0.0
  0
SPLINE
  5
31A
100
AcDbEntity
  8
ALL_ASSEMBLY_MEMBERS
100
AcDbSpline
 62
7
  6
CONTINUOUS
 70
0
 71
3
 72
19
 73
15
 74
0
 42
0.0000001
 43
0.0000001
 44
0.0000000001
 40
0.0
 40
0.0
 40
0.0
 40
0.0
 40
0.2156340708
 40
0.2726631212
 40
0.331110835
 40
0.3910524729
 40
0.4525679523
 40
0.5157513488
 40
0.5806288186
 40
0.6471705492
 40
0.715355414
 40
0.8559086505
 40
0.9277630857
 40
1.0
 40
1.0
 40
1.0
 40
1.0
 10
3.2552207782
 20
5.8936479688
 30
0.0
 10
3.2531275942
 20
5.8966310426
 30
0.0
 10
3.2506756337
 20
5.9005485574
 30
0.0
 10
3.2480716387
 20
5.9055018353
 30
0.0
 10
3.2467770244
 20
5.9081694729
 30
0.0
 10
3.2455439981
 20
5.9109492636
 30
0.0
 10
3.2443831205
 20
5.9138464745
 30
0.0
 10
3.2433052604
 20
5.916864404
 30
0.0
 10
3.2423233392
 20
5.9200041026
 30
0.0
 10
3.2414526411
 20
5.9232642667
 30
0.0
 10
3.2404519679
 20
5.9278087006
 30
0.0
 10
3.2397541324
 20
5.9325078121
 30
0.0
 10
3.2393976321
 20
5.9373064541
 30
0.0
 10
3.2393358912
 20
5.9397420481
 30
0.0
 10
3.2393356693
 20
5.9409628446
 30
0.0
  0
SPLINE
  5
31B
100
AcDbEntity
  8
ALL_ASSEMBLY_MEMBERS
100
AcDbSpline
 62
7
  6
CONTINUOUS
 70
0
 71
3
 72
19
 73
15
 74
0
 42
0.0000001
 43
0.0000001
 44
0.0000000001
 40
0.0
 40
0.0
 40
0.0
 40
0.0
 40
0.0722360811
 40
0.1440899093
 40
0.284642271
 40
0.3528270208
 40
0.4193685266
 40
0.484245919
 40
0.5474297614
 40
0.608945473
 40
0.6688872304
 40
0.7273352987
 40
0.7843647426
 40
1.0
 40
1.0
 40
1.0
 40
1.0
 10
3.2393356693
 20
5.9409628446
 30
0.0
 10
3.239335883
 20
5.9421835703
 30
0.0
 10
3.2393976148
 20
5.9446190273
 30
0.0
 10
3.2397540896
 20
5.9494174078
 30
0.0
 10
3.240451856
 20
5.954116278
 30
0.0
 10
3.2414524268
 20
5.9586604921
 30
0.0
 10
3.2423230402
 20
5.9619205093
 30
0.0
 10
3.2433048748
 20
5.9650600776
 30
0.0
 10
3.2443826433
 20
5.9680778924
 30
0.0
 10
3.2455434088
 20
5.9709750063
 30
0.0
 10
3.2467763179
 20
5.9737547079
 30
0.0
 10
3.2480708382
 20
5.9764222544
 30
0.0
 10
3.2506746192
 20
5.9813753881
 30
0.0
 10
3.2531264038
 20
5.9852927905
 30
0.0
 10
3.2552194247
 20
5.9882757966
 30
0.0
  0
SPLINE
  5
31C
100
AcDbEntity
  8
ALL_ASSEMBLY_MEMBERS
100
AcDbSpline
 62
7
  6
CONTINUOUS
 70
0
 71
3
 72
26
 73
22
 74
0
 42
0.0000001
 43
0.0000001
 44
0.0000000001
 40
0.0
 40
0.0
 40
0.0
 40
0.0
 40
0.0086450104
 40
0.017867039
 40
0.028138417
 40
0.0397974152
 40
0.0530701617
 40
0.0680958778
 40
0.0849502534
 40
0.1036735428
 40
0.1242836191
 40
0.1467814166
 40
0.1973294944
 40
0.2550267694
 40
0.3194658712
 40
0.3901069058
 40
0.46635724
 40
0.5475213631
 40
0.6328590445
 40
0.8129804383
 40
1.0
 40
1.0
 40
1.0
 40
1.0
 10
5.3735287267
 20
2.2734160872
 30
0.0
 10
5.3735287267
 20
2.2735325786
 30
0.0
 10
5.373562593
 20
2.2737743904
 30
0.0
 10
5.3737102654
 20
2.2741271838
 30
0.0
 10
5.3739509446
 20
2.274474084
 30
0.0
 10
5.3742823715
 20
2.2748156775
 30
0.0
 10
5.3747037793
 20
2.2751525656
 30
0.0
 10
5.3752144291
 20
2.2754847303
 30
0.0
 10
5.3758132752
 20
2.275811935
 30
0.0
 10
5.376499143
 20
2.2761335173
 30
0.0
 10
5.3772706936
 20
2.2764487693
 30
0.0
 10
5.3784584499
 20
2.2768761751
 30
0.0
 10
5.3801476329
 20
2.2773811378
 30
0.0
 10
5.3824095996
 20
2.2779302068
 30
0.0
 10
5.384957974
 20
2.2784371567
 30
0.0
 10
5.387768641
 20
2.2788975673
 30
0.0
 10
5.3908147997
 20
2.2793060042
 30
0.0
 10
5.3940670951
 20
2.2796589812
 30
0.0
 10
5.3987211317
 20
2.2800575966
 30
0.0
 10
5.4048110087
 20
2.2803870513
 30
0.0
 10
5.4097586406
 20
2.2804743238
 30
0.0
 10
5.4122787267
 20
2.2804743238
 30
0.0
  0
SPLINE
  5
31D
100
AcDbEntity
  8
ALL_ASSEMBLY_MEMBERS
100
AcDbSpline
 62
7
  6
CONTINUOUS
 70
0
 71
3
 72
38
 73
34
 74
0
 42
0.0000001
 43
0.0000001
 44
0.0000000001
 40
0.0
 40
0.0
 40
0.0
 40
0.0
 40
0.0936689878
 40
0.1864770619
 40
0.2775609967
 40
0.366088692
 40
0.4512476617
 40
0.532265266
 40
0.6084137308
 40
0.6444508278
 40
0.6790238869
 40
0.7120596345
 40
0.7434900533
 40
0.7732519286
 40
0.8012895148
 40
0.8275523589
 40
0.8520000335
 40
0.8745995238
 40
0.8953311981
 40
0.9141882646
 40
0.9311838347
 40
0.9389959717
 40
0.9463596978
 40
0.9532858777
 40
0.9597887082
 40
0.965886145
 40
0.9716008372
 40
0.9769615674
 40
0.9820043911
 40
0.9867731471
 40
0.9913201613
 40
0.9957063295
 40
1.0
 40
1.0
 40
1.0
 40
1.0
 10
5.4122787267
 20
2.2962814116
 30
0.0
 10
5.4194373116
 20
2.2962814116
 30
0.0
 10
5.4336890173
 20
2.296154979
 30
0.0
 10
5.4548949186
 20
2.2955871131
 30
0.0
 10
5.4756943942
 20
2.294646754
 30
0.0
 10
5.4958885916
 20
2.2933432491
 30
0.0
 10
5.5152853175
 20
2.2916893421
 30
0.0
 10
5.5336994627
 20
2.2897012821
 30
0.0
 10
5.5483372097
 20
2.287748584
 30
0.0
 10
5.5594196836
 20
2.2860210982
 30
0.0
 10
5.5672265074
 20
2.2846785436
 30
0.0
 10
5.5746634121
 20
2.2832684766
 30
0.0
 10
5.5817127114
 20
2.2817943715
 30
0.0
 10
5.588357666
 20
2.2802596716
 30
0.0
 10
5.5945825367
 20
2.2786683372
 30
0.0
 10
5.6003726322
 20
2.2770239891
 30
0.0
 10
5.605714403
 20
2.2753309431
 30
0.0
 10
5.6105954095
 20
2.273593035
 30
0.0
 10
5.6150046454
 20
2.271814723
 30
0.0
 10
5.6189320281
 20
2.2700000279
 30
0.0
 10
5.6218743058
 20
2.2684194507
 30
0.0
 10
5.6239699149
 20
2.2671323875
 30
0.0
 10
5.6253708922
 20
2.2661877282
 30
0.0
 10
5.626645023
 20
2.265236995
 30
0.0
 10
5.6277916593
 20
2.264280633
 30
0.0
 10
5.6288101744
 20
2.2633190673
 30
0.0
 10
5.6296999058
 20
2.2623526121
 30
0.0
 10
5.6304602222
 20
2.2613815523
 30
0.0
 10
5.6310905824
 20
2.2604062042
 30
0.0
 10
5.6315902784
 20
2.2594268681
 30
0.0
 10
5.6319584158
 20
2.2584438794
 30
0.0
 10
5.6321939196
 20
2.2574581491
 30
0.0
 10
5.6322624054
 20
2.2567960049
 30
0.0
 10
5.6322740465
 20
2.2564680708
 30
0.0
  0
SPLINE
  5
31E
100
AcDbEntity
  8
ALL_ASSEMBLY_MEMBERS
100
AcDbSpline
 62
7
  6
CONTINUOUS
 70
0
 71
3
 72
38
 73
34
 74
0
 42
0.0000001
 43
0.0000001
 44
0.0000000001
 40
0.0
 40
0.0
 40
0.0
 40
0.0
 40
0.0936689878
 40
0.1864770619
 40
0.2775609967
 40
0.366088692
 40
0.4512476617
 40
0.532265266
 40
0.6084137308
 40
0.6444508278
 40
0.6790238869
 40
0.7120596345
 40
0.7434900533
 40
0.7732519286
 40
0.8012895148
 40
0.8275523589
 40
0.8520000335
 40
0.8745995238
 40
0.8953311981
 40
0.9141882646
 40
0.9311838347
 40
0.9389959717
 40
0.9463596978
 40
0.9532858777
 40
0.9597887082
 40
0.965886145
 40
0.9716008372
 40
0.9769615674
 40
0.9820043911
 40
0.9867731471
 40
0.9913201613
 40
0.9957063295
 40
1.0
 40
1.0
 40
1.0
 40
1.0
 10
5.4122787267
 20
2.2962814116
 30
0.0
 10
5.4051201418
 20
2.2962814116
 30
0.0
 10
5.3908684361
 20
2.296154979
 30
0.0
 10
5.3696625348
 20
2.2955871131
 30
0.0
 10
5.3488630592
 20
2.294646754
 30
0.0
 10
5.3286688619
 20
2.2933432491
 30
0.0
 10
5.3092721359
 20
2.2916893421
 30
0.0
 10
5.2908579907
 20
2.2897012821
 30
0.0
 10
5.2762202437
 20
2.287748584
 30
0.0
 10
5.2651377698
 20
2.2860210982
 30
0.0
 10
5.257330946
 20
2.2846785436
 30
0.0
 10
5.2498940414
 20
2.2832684766
 30
0.0
 10
5.242844742
 20
2.2817943715
 30
0.0
 10
5.2361997874
 20
2.2802596716
 30
0.0
 10
5.2299749167
 20
2.2786683372
 30
0.0
 10
5.2241848213
 20
2.2770239891
 30
0.0
 10
5.2188430504
 20
2.2753309431
 30
0.0
 10
5.213962044
 20
2.273593035
 30
0.0
 10
5.209552808
 20
2.271814723
 30
0.0
 10
5.2056254253
 20
2.2700000279
 30
0.0
 10
5.2026831476
 20
2.2684194507
 30
0.0
 10
5.2005875385
 20
2.2671323875
 30
0.0
 10
5.1991865612
 20
2.2661877282
 30
0.0
 10
5.1979124304
 20
2.265236995
 30
0.0
 10
5.1967657941
 20
2.264280633
 30
0.0
 10
5.1957472791
 20
2.2633190673
 30
0.0
 10
5.1948575476
 20
2.2623526121
 30
0.0
 10
5.1940972312
 20
2.2613815523
 30
0.0
 10
5.193466871
 20
2.2604062042
 30
0.0
 10
5.192967175
 20
2.2594268681
 30
0.0
 10
5.1925990376
 20
2.2584438794
 30
0.0
 10
5.1923635338
 20
2.2574581491
 30
0.0
 10
5.192295048
 20
2.2567960049
 30
0.0
 10
5.1922834069
 20
2.2564680708
 30
0.0
  0
LINE
  5
31F
100
AcDbEntity
  8
ALL_ASSEMBLY_MEMBERS
100
AcDbLine
 62
7
  6
CONTINUOUS
 10
5.3505839133
 20
2.2715946068
 11
5.351453317
 21
2.2707984764
  0
LINE
  5
320
100
AcDbEntity
  8
ALL_ASSEMBLY_MEMBERS
100
AcDbLine
 62
7
  6
CONTINUOUS
 10
5.4629746154
 20
2.2667578927
 11
5.4654504677
 21
2.2674328195
  0
LINE
  5
321
100
AcDbEntity
  8
ALL_ASSEMBLY_MEMBERS
100
AcDbLine
 62
7
  6
CONTINUOUS
 10
5.4731041364
 20
2.2707984764
 11
5.4739735401
 21
2.2715946068
  0
SPLINE
  5
322
100
AcDbEntity
  8
ALL_ASSEMBLY_MEMBERS
100
AcDbSpline
 62
7
  6
CONTINUOUS
 70
0
 71
3
 72
26
 73
22
 74
0
 42
0.0000001
 43
0.0000001
 44
0.0000000001
 40
0.0
 40
0.0
 40
0.0
 40
0.0
 40
0.1870195617
 40
0.3671409555
 40
0.4524786369
 40
0.53364276
 40
0.6098930942
 40
0.6805341288
 40
0.7449732306
 40
0.8026705056
 40
0.8532185834
 40
0.8757163809
 40
0.8963264572
 40
0.9150497466
 40
0.9319041222
 40
0.9469298383
 40
0.9602025848
 40
0.971861583
 40
0.982132961
 40
0.9913549896
 40
1.0
 40
1.0
 40
1.0
 40
1.0
 10
5.4122787267
 20
2.2804743238
 30
0.0
 10
5.4147988128
 20
2.2804743238
 30
0.0
 10
5.4197464447
 20
2.2803870513
 30
0.0
 10
5.4258363217
 20
2.2800575966
 30
0.0
 10
5.4304903583
 20
2.2796589812
 30
0.0
 10
5.4337426537
 20
2.2793060042
 30
0.0
 10
5.4367888124
 20
2.2788975673
 30
0.0
 10
5.4395994794
 20
2.2784371567
 30
0.0
 10
5.4421478538
 20
2.2779302068
 30
0.0
 10
5.4444098205
 20
2.2773811378
 30
0.0
 10
5.4460990035
 20
2.2768761751
 30
0.0
 10
5.4472867599
 20
2.2764487693
 30
0.0
 10
5.4480583104
 20
2.2761335173
 30
0.0
 10
5.4487441782
 20
2.275811935
 30
0.0
 10
5.4493430243
 20
2.2754847303
 30
0.0
 10
5.4498536742
 20
2.2751525656
 30
0.0
 10
5.4502750819
 20
2.2748156775
 30
0.0
 10
5.4506065088
 20
2.274474084
 30
0.0
 10
5.450847188
 20
2.2741271838
 30
0.0
 10
5.4509948605
 20
2.2737743904
 30
0.0
 10
5.4510287267
 20
2.2735325786
 30
0.0
 10
5.4510287267
 20
2.2734160872
 30
0.0
  0
SPLINE
  5
323
100
AcDbEntity
  8
ALL_ASSEMBLY_MEMBERS
100
AcDbSpline
 62
7
  6
CONTINUOUS
 70
0
 71
3
 72
40
 73
36
 74
0
 42
0.0000001
 43
0.0000001
 44
0.0000000001
 40
0.0
 40
0.0
 40
0.0
 40
0.0
 40
0.0042941948
 40
0.0086627424
 40
0.0131762436
 40
0.0178983381
 40
0.0228841995
 40
0.0281803406
 40
0.0338249843
 40
0.0398486651
 40
0.0462757689
 40
0.0531257281
 40
0.060413628
 40
0.068150699
 40
0.0763454895
 40
0.085004441
 40
0.103728137
 40
0.1243389848
 40
0.1468328752
 40
0.1711898628
 40
0.1973788746
 40
0.2253584384
 40
0.2550793323
 40
0.2864847525
 40
0.3195118368
 40
0.3540918552
 40
0.3901510055
 40
0.4276108202
 40
0.4663884413
 40
0.5475454757
 40
0.6328893724
 40
0.7216385077
 40
0.8129744335
 40
0.9060495939
 40
1.0
 40
1.0
 40
1.0
 40
1.0
 10
5.1372787857
 20
2.2562088427
 30
0.0
 10
5.1372787857
 20
2.2557981517
 30
0.0
 10
5.1373351195
 20
2.2549686083
 30
0.0
 10
5.137587606
 20
2.2537305388
 30
0.0
 10
5.1380075183
 20
2.2524956279
 30
0.0
 10
5.1385935386
 20
2.2512651525
 30
0.0
 10
5.1393445167
 20
2.2500396082
 30
0.0
 10
5.1402595476
 20
2.248819427
 30
0.0
 10
5.1413378488
 20
2.24760498
 30
0.0
 10
5.1425785598
 20
2.2463965623
 30
0.0
 10
5.1439809346
 20
2.2451946027
 30
0.0
 10
5.145544247
 20
2.2439996455
 30
0.0
 10
5.1472676536
 20
2.2428122795
 30
0.0
 10
5.1491501355
 20
2.2416330581
 30
0.0
 10
5.1511906321
 20
2.2404625861
 30
0.0
 10
5.1541996969
 20
2.2388729499
 30
0.0
 10
5.1583583528
 20
2.2369237787
 30
0.0
 10
5.1638342514
 20
2.2346870109
 30
0.0
 10
5.1699063065
 20
2.2325008969
 30
0.0
 10
5.1765602973
 20
2.2303705809
 30
0.0
 10
5.1837807806
 20
2.2283014382
 30
0.0
 10
5.1915506788
 20
2.2262984643
 30
0.0
 10
5.1998515277
 20
2.2243666739
 30
0.0
 10
5.2086635115
 20
2.2225107664
 30
0.0
 10
5.2179655311
 20
2.2207353319
 30
0.0
 10
5.2277352814
 20
2.219044707
 30
0.0
 10
5.2379492984
 20
2.217443032
 30
0.0
 10
5.2485830444
 20
2.2159342011
 30
0.0
 10
5.2635144952
 20
2.2140221364
 30
0.0
 10
5.2830346257
 20
2.2119044548
 30
0.0
 10
5.3073591084
 20
2.2098205954
 30
0.0
 10
5.3326928954
 20
2.2081780943
 30
0.0
 10
5.3587922485
 20
2.2069931382
 30
0.0
 10
5.3854061452
 20
2.2062774463
 30
0.0
 10
5.4032934365
 20
2.2061181315
 30
0.0
 10
5.4122787267
 20
2.2061181315
 30
0.0
  0
SPLINE
  5
324
100
AcDbEntity
  8
ALL_ASSEMBLY_MEMBERS
100
AcDbSpline
 62
7
  6
CONTINUOUS
 70
0
 71
3
 72
40
 73
36
 74
0
 42
0.0000001
 43
0.0000001
 44
0.0000000001
 40
0.0
 40
0.0
 40
0.0
 40
0.0
 40
0.0042941948
 40
0.0086627424
 40
0.0131762436
 40
0.0178983381
 40
0.0228841995
 40
0.0281803406
 40
0.0338249843
 40
0.0398486651
 40
0.0462757689
 40
0.0531257281
 40
0.060413628
 40
0.068150699
 40
0.0763454895
 40
0.085004441
 40
0.103728137
 40
0.1243389848
 40
0.1468328752
 40
0.1711898628
 40
0.1973788746
 40
0.2253584384
 40
0.2550793323
 40
0.2864847525
 40
0.3195118368
 40
0.3540918552
 40
0.3901510055
 40
0.4276108202
 40
0.4663884413
 40
0.5475454757
 40
0.6328893724
 40
0.7216385077
 40
0.8129744335
 40
0.9060495939
 40
1.0
 40
1.0
 40
1.0
 40
1.0
 10
5.6872786678
 20
2.2562088427
 30
0.0
 10
5.6872786678
 20
2.2557981517
 30
0.0
 10
5.6872223339
 20
2.2549686083
 30
0.0
 10
5.6869698474
 20
2.2537305388
 30
0.0
 10
5.6865499351
 20
2.2524956279
 30
0.0
 10
5.6859639148
 20
2.2512651525
 30
0.0
 10
5.6852129367
 20
2.2500396082
 30
0.0
 10
5.6842979058
 20
2.248819427
 30
0.0
 10
5.6832196046
 20
2.24760498
 30
0.0
 10
5.6819788936
 20
2.2463965623
 30
0.0
 10
5.6805765188
 20
2.2451946027
 30
0.0
 10
5.6790132064
 20
2.2439996455
 30
0.0
 10
5.6772897998
 20
2.2428122795
 30
0.0
 10
5.6754073179
 20
2.2416330581
 30
0.0
 10
5.6733668213
 20
2.2404625861
 30
0.0
 10
5.6703577566
 20
2.2388729499
 30
0.0
 10
5.6661991007
 20
2.2369237787
 30
0.0
 10
5.6607232021
 20
2.2346870109
 30
0.0
 10
5.6546511469
 20
2.2325008969
 30
0.0
 10
5.6479971561
 20
2.2303705809
 30
0.0
 10
5.6407766728
 20
2.2283014382
 30
0.0
 10
5.6330067746
 20
2.2262984643
 30
0.0
 10
5.6247059257
 20
2.2243666739
 30
0.0
 10
5.6158939419
 20
2.2225107664
 30
0.0
 10
5.6065919223
 20
2.2207353319
 30
0.0
 10
5.596822172
 20
2.219044707
 30
0.0
 10
5.586608155
 20
2.217443032
 30
0.0
 10
5.575974409
 20
2.2159342011
 30
0.0
 10
5.5610429582
 20
2.2140221364
 30
0.0
 10
5.5415228277
 20
2.2119044548
 30
0.0
 10
5.5171983451
 20
2.2098205954
 30
0.0
 10
5.491864558
 20
2.2081780943
 30
0.0
 10
5.465765205
 20
2.2069931382
 30
0.0
 10
5.4391513083
 20
2.2062774463
 30
0.0
 10
5.4212640169
 20
2.2061181315
 30
0.0
 10
5.4122787267
 20
2.2061181315
 30
0.0
  0
LINE
  5
325
100
AcDbEntity
  8
ALL_ASSEMBLY_MEMBERS
100
AcDbLine
 62
7
  6
CONTINUOUS
 10
5.2136273261
 20
2.2564566427
 11
5.2059736574
 21
2.2598222996
  0
SPLINE
  5
326
100
AcDbEntity
  8
ALL_ASSEMBLY_MEMBERS
100
AcDbSpline
 62
7
  6
CONTINUOUS
 70
0
 71
3
 72
26
 73
22
 74
0
 42
0.0000001
 43
0.0000001
 44
0.0000000001
 40
0.0
 40
0.0
 40
0.0
 40
0.0
 40
0.1870195617
 40
0.3671409555
 40
0.4524786369
 40
0.53364276
 40
0.6098930942
 40
0.6805341288
 40
0.7449732306
 40
0.8026705056
 40
0.8532185834
 40
0.8757163809
 40
0.8963264572
 40
0.9150497466
 40
0.9319041222
 40
0.9469298383
 40
0.9602025848
 40
0.971861583
 40
0.982132961
 40
0.9913549896
 40
1.0
 40
1.0
 40
1.0
 40
1.0
 10
5.4122787267
 20
2.2663578507
 30
0.0
 10
5.4097586406
 20
2.2663578507
 30
0.0
 10
5.4048110087
 20
2.2664451232
 30
0.0
 10
5.3987211317
 20
2.2667745779
 30
0.0
 10
5.3940670951
 20
2.2671731933
 30
0.0
 10
5.3908147997
 20
2.2675261703
 30
0.0
 10
5.387768641
 20
2.2679346072
 30
0.0
 10
5.384957974
 20
2.2683950178
 30
0.0
 10
5.3824095996
 20
2.2689019677
 30
0.0
 10
5.3801476329
 20
2.2694510367
 30
0.0
 10
5.3784584499
 20
2.2699559994
 30
0.0
 10
5.3772706936
 20
2.2703834052
 30
0.0
 10
5.376499143
 20
2.2706986572
 30
0.0
 10
5.3758132752
 20
2.2710202395
 30
0.0
 10
5.3752144291
 20
2.2713474442
 30
0.0
 10
5.3747037793
 20
2.2716796089
 30
0.0
 10
5.3742823715
 20
2.272016497
 30
0.0
 10
5.3739509446
 20
2.2723580905
 30
0.0
 10
5.3737102654
 20
2.2727049907
 30
0.0
 10
5.373562593
 20
2.2730577841
 30
0.0
 10
5.3735287267
 20
2.2732995958
 30
0.0
 10
5.3735287267
 20
2.2734160872
 30
0.0
  0
SPLINE
  5
327
100
AcDbEntity
  8
ALL_ASSEMBLY_MEMBERS
100
AcDbSpline
 62
7
  6
CONTINUOUS
 70
0
 71
3
 72
40
 73
36
 74
0
 42
0.0000001
 43
0.0000001
 44
0.0000000001
 40
0.0
 40
0.0
 40
0.0
 40
0.0
 40
0.0939504061
 40
0.1870255665
 40
0.2783614923
 40
0.3671106276
 40
0.4524545243
 40
0.5336115587
 40
0.5723891798
 40
0.6098489945
 40
0.6459081448
 40
0.6804881632
 40
0.7135152475
 40
0.7449206677
 40
0.7746415616
 40
0.8026211254
 40
0.8288101372
 40
0.8531671248
 40
0.8756610152
 40
0.896271863
 40
0.914995559
 40
0.9236545105
 40
0.931849301
 40
0.939586372
 40
0.9468742719
 40
0.9537242311
 40
0.9601513349
 40
0.9661750157
 40
0.9718196594
 40
0.9771158005
 40
0.9821016619
 40
0.9868237564
 40
0.9913372576
 40
0.9957058052
 40
1.0
 40
1.0
 40
1.0
 40
1.0
 10
5.4122787267
 20
2.3062995539
 30
0.0
 10
5.4032934365
 20
2.3062995539
 30
0.0
 10
5.3854061452
 20
2.306140239
 30
0.0
 10
5.3587922485
 20
2.3054245472
 30
0.0
 10
5.3326928954
 20
2.3042395911
 30
0.0
 10
5.3073591084
 20
2.30259709
 30
0.0
 10
5.2830346257
 20
2.3005132306
 30
0.0
 10
5.2635144952
 20
2.298395549
 30
0.0
 10
5.2485830444
 20
2.2964834843
 30
0.0
 10
5.2379492984
 20
2.2949746534
 30
0.0
 10
5.2277352814
 20
2.2933729784
 30
0.0
 10
5.2179655311
 20
2.2916823534
 30
0.0
 10
5.2086635115
 20
2.289906919
 30
0.0
 10
5.1998515277
 20
2.2880510114
 30
0.0
 10
5.1915506788
 20
2.2861192211
 30
0.0
 10
5.1837807806
 20
2.2841162471
 30
0.0
 10
5.1765602973
 20
2.2820471045
 30
0.0
 10
5.1699063065
 20
2.2799167885
 30
0.0
 10
5.1638342514
 20
2.2777306745
 30
0.0
 10
5.1583583528
 20
2.2754939066
 30
0.0
 10
5.1541996969
 20
2.2735447355
 30
0.0
 10
5.1511906321
 20
2.2719550992
 30
0.0
 10
5.1491501355
 20
2.2707846273
 30
0.0
 10
5.1472676536
 20
2.2696054059
 30
0.0
 10
5.145544247
 20
2.2684180399
 30
0.0
 10
5.1439809346
 20
2.2672230826
 30
0.0
 10
5.1425785598
 20
2.2660211231
 30
0.0
 10
5.1413378488
 20
2.2648127054
 30
0.0
 10
5.1402595476
 20
2.2635982584
 30
0.0
 10
5.1393445167
 20
2.2623780771
 30
0.0
 10
5.1385935386
 20
2.2611525329
 30
0.0
 10
5.1380075183
 20
2.2599220575
 30
0.0
 10
5.137587606
 20
2.2586871465
 30
0.0
 10
5.1373351195
 20
2.2574490771
 30
0.0
 10
5.1372787857
 20
2.2566195337
 30
0.0
 10
5.1372787857
 20
2.2562088427
 30
0.0
  0
SPLINE
  5
328
100
AcDbEntity
  8
ALL_ASSEMBLY_MEMBERS
100
AcDbSpline
 62
7
  6
CONTINUOUS
 70
0
 71
3
 72
40
 73
36
 74
0
 42
0.0000001
 43
0.0000001
 44
0.0000000001
 40
0.0
 40
0.0
 40
0.0
 40
0.0
 40
0.0939504061
 40
0.1870255665
 40
0.2783614923
 40
0.3671106276
 40
0.4524545243
 40
0.5336115587
 40
0.5723891798
 40
0.6098489945
 40
0.6459081448
 40
0.6804881632
 40
0.7135152475
 40
0.7449206677
 40
0.7746415616
 40
0.8026211254
 40
0.8288101372
 40
0.8531671248
 40
0.8756610152
 40
0.896271863
 40
0.914995559
 40
0.9236545105
 40
0.931849301
 40
0.939586372
 40
0.9468742719
 40
0.9537242311
 40
0.9601513349
 40
0.9661750157
 40
0.9718196594
 40
0.9771158005
 40
0.9821016619
 40
0.9868237564
 40
0.9913372576
 40
0.9957058052
 40
1.0
 40
1.0
 40
1.0
 40
1.0
 10
5.4122787267
 20
2.3062995539
 30
0.0
 10
5.4212640169
 20
2.3062995539
 30
0.0
 10
5.4391513083
 20
2.306140239
 30
0.0
 10
5.465765205
 20
2.3054245472
 30
0.0
 10
5.491864558
 20
2.3042395911
 30
0.0
 10
5.5171983451
 20
2.30259709
 30
0.0
 10
5.5415228277
 20
2.3005132306
 30
0.0
 10
5.5610429582
 20
2.298395549
 30
0.0
 10
5.575974409
 20
2.2964834843
 30
0.0
 10
5.586608155
 20
2.2949746534
 30
0.0
 10
5.596822172
 20
2.2933729784
 30
0.0
 10
5.6065919223
 20
2.2916823534
 30
0.0
 10
5.6158939419
 20
2.289906919
 30
0.0
 10
5.6247059257
 20
2.2880510114
 30
0.0
 10
5.6330067746
 20
2.2861192211
 30
0.0
 10
5.6407766728
 20
2.2841162471
 30
0.0
 10
5.6479971561
 20
2.2820471045
 30
0.0
 10
5.6546511469
 20
2.2799167885
 30
0.0
 10
5.6607232021
 20
2.2777306745
 30
0.0
 10
5.6661991007
 20
2.2754939066
 30
0.0
 10
5.6703577566
 20
2.2735447355
 30
0.0
 10
5.6733668213
 20
2.2719550992
 30
0.0
 10
5.6754073179
 20
2.2707846273
 30
0.0
 10
5.6772897998
 20
2.2696054059
 30
0.0
 10
5.6790132064
 20
2.2684180399
 30
0.0
 10
5.6805765188
 20
2.2672230826
 30
0.0
 10
5.6819788936
 20
2.2660211231
 30
0.0
 10
5.6832196046
 20
2.2648127054
 30
0.0
 10
5.6842979058
 20
2.2635982584
 30
0.0
 10
5.6852129367
 20
2.2623780771
 30
0.0
 10
5.6859639148
 20
2.2611525329
 30
0.0
 10
5.6865499351
 20
2.2599220575
 30
0.0
 10
5.6869698474
 20
2.2586871465
 30
0.0
 10
5.6872223339
 20
2.2574490771
 30
0.0
 10
5.6872786678
 20
2.2566195337
 30
0.0
 10
5.6872786678
 20
2.2562088427
 30
0.0
  0
SPLINE
  5
329
100
AcDbEntity
  8
ALL_ASSEMBLY_MEMBERS
100
AcDbSpline
 62
7
  6
CONTINUOUS
 70
0
 71
3
 72
39
 73
35
 74
0
 42
0.0000001
 43
0.0000001
 44
0.0000000001
 40
0.0
 40
0.0
 40
0.0
 40
0.0
 40
0.0042997584
 40
0.0086551716
 40
0.0131389647
 40
0.0178175658
 40
0.0227489143
 40
0.0279820562
 40
0.033557615
 40
0.039508517
 40
0.0458606312
 40
0.0526343926
 40
0.0598459496
 40
0.0675079414
 40
0.0756295046
 40
0.084217132
 40
0.1028058748
 40
0.1232953931
 40
0.1456817442
 40
0.1699474983
 40
0.1960608138
 40
0.2239817058
 40
0.2536601049
 40
0.2850396957
 40
0.318057065
 40
0.3526430518
 40
0.3887236536
 40
0.4650451588
 40
0.546340666
 40
0.6318682993
 40
0.7208393849
 40
0.8124242019
 40
0.9057716784
 40
1.0
 40
1.0
 40
1.0
 40
1.0
 10
5.1922834069
 20
2.2564680708
 30
0.0
 10
5.1922717229
 20
2.2561389291
 30
0.0
 10
5.192293253
 20
2.2554739144
 30
0.0
 10
5.1924613393
 20
2.2544787991
 30
0.0
 10
5.1927646957
 20
2.2534859547
 30
0.0
 10
5.1932023719
 20
2.2524965599
 30
0.0
 10
5.1937733073
 20
2.2515110646
 30
0.0
 10
5.1944766823
 20
2.2505298197
 30
0.0
 10
5.1953118663
 20
2.2495531056
 30
0.0
 10
5.1962782891
 20
2.2485812553
 30
0.0
 10
5.1973752519
 20
2.2476145352
 30
0.0
 10
5.1986021078
 20
2.2466533396
 30
0.0
 10
5.1999582081
 20
2.2456981161
 30
0.0
 10
5.2014428648
 20
2.2447494181
 30
0.0
 10
5.2030551984
 20
2.2438076886
 30
0.0
 10
5.2054374695
 20
2.2425280567
 30
0.0
 10
5.2087366716
 20
2.2409588572
 30
0.0
 10
5.213088612
 20
2.2391585647
 30
0.0
 10
5.2179223573
 20
2.2373984753
 30
0.0
 10
5.2232265742
 20
2.2356832277
 30
0.0
 10
5.2289888325
 20
2.234016756
 30
0.0
 10
5.2351954228
 20
2.232403476
 30
0.0
 10
5.2418314751
 20
2.2308471868
 30
0.0
 10
5.2488810232
 20
2.2293518889
 30
0.0
 10
5.256327051
 20
2.2279212272
 30
0.0
 10
5.264151569
 20
2.2265586981
 30
0.0
 10
5.2752733384
 20
2.2248045287
 30
0.0
 10
5.2899789826
 20
2.2228214337
 30
0.0
 10
5.3084950863
 20
2.2208023685
 30
0.0
 10
5.328017577
 20
2.219122178
 30
0.0
 10
5.3483570781
 20
2.2177976519
 30
0.0
 10
5.3693167792
 20
2.2168419714
 30
0.0
 10
5.3906930116
 20
2.2162647835
 30
0.0
 10
5.4050611113
 20
2.2161362737
 30
0.0
 10
5.4122787267
 20
2.2161362737
 30
0.0
  0
SPLINE
  5
32A
100
AcDbEntity
  8
ALL_ASSEMBLY_MEMBERS
100
AcDbSpline
 62
7
  6
CONTINUOUS
 70
0
 71
3
 72
26
 73
22
 74
0
 42
0.0000001
 43
0.0000001
 44
0.0000000001
 40
0.0
 40
0.0
 40
0.0
 40
0.0
 40
0.0086450104
 40
0.017867039
 40
0.028138417
 40
0.0397974152
 40
0.0530701617
 40
0.0680958778
 40
0.0849502534
 40
0.1036735428
 40
0.1242836191
 40
0.1467814166
 40
0.1973294944
 40
0.2550267694
 40
0.3194658712
 40
0.3901069058
 40
0.46635724
 40
0.5475213631
 40
0.6328590445
 40
0.8129804383
 40
1.0
 40
1.0
 40
1.0
 40
1.0
 10
5.4510287267
 20
2.2734160872
 30
0.0
 10
5.4510287267
 20
2.2732995958
 30
0.0
 10
5.4509948605
 20
2.2730577841
 30
0.0
 10
5.450847188
 20
2.2727049907
 30
0.0
 10
5.4506065088
 20
2.2723580905
 30
0.0
 10
5.4502750819
 20
2.272016497
 30
0.0
 10
5.4498536742
 20
2.2716796089
 30
0.0
 10
5.4493430243
 20
2.2713474442
 30
0.0
 10
5.4487441782
 20
2.2710202395
 30
0.0
 10
5.4480583104
 20
2.2706986572
 30
0.0
 10
5.4472867599
 20
2.2703834052
 30
0.0
 10
5.4460990035
 20
2.2699559994
 30
0.0
 10
5.4444098205
 20
2.2694510367
 30
0.0
 10
5.4421478538
 20
2.2689019677
 30
0.0
 10
5.4395994794
 20
2.2683950178
 30
0.0
 10
5.4367888124
 20
2.2679346072
 30
0.0
 10
5.4337426537
 20
2.2675261703
 30
0.0
 10
5.4304903583
 20
2.2671731933
 30
0.0
 10
5.4258363217
 20
2.2667745779
 30
0.0
 10
5.4197464447
 20
2.2664451232
 30
0.0
 10
5.4147988128
 20
2.2663578507
 30
0.0
 10
5.4122787267
 20
2.2663578507
 30
0.0
  0
SPLINE
  5
32B
100
AcDbEntity
  8
ALL_ASSEMBLY_MEMBERS
100
AcDbSpline
 62
7
  6
CONTINUOUS
 70
0
 71
3
 72
39
 73
35
 74
0
 42
0.0000001
 43
0.0000001
 44
0.0000000001
 40
0.0
 40
0.0
 40
0.0
 40
0.0
 40
0.0042997584
 40
0.0086551716
 40
0.0131389647
 40
0.0178175658
 40
0.0227489143
 40
0.0279820562
 40
0.033557615
 40
0.039508517
 40
0.0458606312
 40
0.0526343926
 40
0.0598459496
 40
0.0675079414
 40
0.0756295046
 40
0.084217132
 40
0.1028058748
 40
0.1232953931
 40
0.1456817442
 40
0.1699474983
 40
0.1960608138
 40
0.2239817058
 40
0.2536601049
 40
0.2850396957
 40
0.318057065
 40
0.3526430518
 40
0.3887236536
 40
0.4650451588
 40
0.546340666
 40
0.6318682993
 40
0.7208393849
 40
0.8124242019
 40
0.9057716784
 40
1.0
 40
1.0
 40
1.0
 40
1.0
 10
5.6322740465
 20
2.2564680708
 30
0.0
 10
5.6322857306
 20
2.2561389291
 30
0.0
 10
5.6322642005
 20
2.2554739144
 30
0.0
 10
5.6320961142
 20
2.2544787991
 30
0.0
 10
5.6317927577
 20
2.2534859547
 30
0.0
 10
5.6313550815
 20
2.2524965599
 30
0.0
 10
5.6307841461
 20
2.2515110646
 30
0.0
 10
5.6300807711
 20
2.2505298197
 30
0.0
 10
5.6292455872
 20
2.2495531056
 30
0.0
 10
5.6282791643
 20
2.2485812553
 30
0.0
 10
5.6271822015
 20
2.2476145352
 30
0.0
 10
5.6259553456
 20
2.2466533396
 30
0.0
 10
5.6245992453
 20
2.2456981161
 30
0.0
 10
5.6231145886
 20
2.2447494181
 30
0.0
 10
5.621502255
 20
2.2438076886
 30
0.0
 10
5.6191199839
 20
2.2425280567
 30
0.0
 10
5.6158207818
 20
2.2409588572
 30
0.0
 10
5.6114688414
 20
2.2391585647
 30
0.0
 10
5.6066350961
 20
2.2373984753
 30
0.0
 10
5.6013308792
 20
2.2356832277
 30
0.0
 10
5.5955686209
 20
2.234016756
 30
0.0
 10
5.5893620306
 20
2.232403476
 30
0.0
 10
5.5827259784
 20
2.2308471868
 30
0.0
 10
5.5756764302
 20
2.2293518889
 30
0.0
 10
5.5682304025
 20
2.2279212272
 30
0.0
 10
5.5604058844
 20
2.2265586981
 30
0.0
 10
5.549284115
 20
2.2248045287
 30
0.0
 10
5.5345784708
 20
2.2228214337
 30
0.0
 10
5.5160623671
 20
2.2208023685
 30
0.0
 10
5.4965398764
 20
2.219122178
 30
0.0
 10
5.4762003753
 20
2.2177976519
 30
0.0
 10
5.4552406743
 20
2.2168419714
 30
0.0
 10
5.4338644418
 20
2.2162647835
 30
0.0
 10
5.4194963421
 20
2.2161362737
 30
0.0
 10
5.4122787267
 20
2.2161362737
 30
0.0
  0
LINE
  5
32C
100
AcDbEntity
  8
ALL_ASSEMBLY_MEMBERS
100
AcDbLine
 62
7
  6
CONTINUOUS
 10
5.4739735401
 20
2.2752375677
 11
5.4731041364
 21
2.2760336981
  0
LINE
  5
32D
100
AcDbEntity
  8
ALL_ASSEMBLY_MEMBERS
100
AcDbLine
 62
7
  6
CONTINUOUS
 10
5.361582838
 20
2.2800742818
 11
5.3591069857
 21
2.279399355
  0
LINE
  5
32E
100
AcDbEntity
  8
ALL_ASSEMBLY_MEMBERS
100
AcDbLine
 62
7
  6
CONTINUOUS
 10
5.351453317
 20
2.2760336981
 11
5.3505839133
 21
2.2752375677
  0
LINE
  5
32F
100
AcDbEntity
  8
ALL_ASSEMBLY_MEMBERS
100
AcDbLine
 62
7
  6
CONTINUOUS
 10
5.618583796
 20
2.2598222996
 11
5.6109301273
 21
2.2564566427
  0
SPLINE
  5
330
100
AcDbEntity
  8
ALL_ASSEMBLY_MEMBERS
100
AcDbSpline
 62
7
  6
CONTINUOUS
 70
0
 71
3
 72
34
 73
30
 74
0
 42
0.0000001
 43
0.0000001
 44
0.0000000001
 40
0.0
 40
0.0
 40
0.0
 40
0.0
 40
0.0909352425
 40
0.1810899528
 40
0.269522742
 40
0.3554412681
 40
0.4380786082
 40
0.516679312
 40
0.5905537873
 40
0.6590786377
 40
0.7217256347
 40
0.7507032401
 40
0.7780670812
 40
0.8037962195
 40
0.8278742103
 40
0.8503025869
 40
0.8711169126
 40
0.8903677964
 40
0.9081395766
 40
0.9246697641
 40
0.9325786849
 40
0.9403146527
 40
0.9479285897
 40
0.9554354159
 40
0.9701624728
 40
0.977490303
 40
0.9848953856
 40
0.9924159482
 40
1.0
 40
1.0
 40
1.0
 40
1.0
 10
5.4122787267
 20
2.1812115848
 30
0.0
 10
5.4259974092
 20
2.1812115848
 30
0.0
 10
5.4533176576
 20
2.1814572833
 30
0.0
 10
5.4939657331
 20
2.1825563332
 30
0.0
 10
5.5338304757
 20
2.1843788119
 30
0.0
 10
5.5725205466
 20
2.1869050151
 30
0.0
 10
5.60967201
 20
2.1901107502
 30
0.0
 10
5.6449348394
 20
2.1939659702
 30
0.0
 10
5.677978833
 20
2.1984345237
 30
0.0
 10
5.7085033481
 20
2.2034788221
 30
0.0
 10
5.732197103
 20
2.2082392245
 30
0.0
 10
5.7496730514
 20
2.2123471461
 30
0.0
 10
5.7616554531
 20
2.2154702322
 30
0.0
 10
5.7728383094
 20
2.2187140472
 30
0.0
 10
5.7832059787
 20
2.2220777042
 30
0.0
 10
5.7927479441
 20
2.2255636148
 30
0.0
 10
5.8014587863
 20
2.2291792261
 30
0.0
 10
5.8093387471
 20
2.2329365063
 30
0.0
 10
5.8164122794
 20
2.2368522438
 30
0.0
 10
5.821725177
 20
2.2403813454
 30
0.0
 10
5.8255475179
 20
2.2433768776
 30
0.0
 10
5.8281836326
 20
2.245695524
 30
0.0
 10
5.830633115
 20
2.2481265583
 30
0.0
 10
5.8336008888
 20
2.2515155316
 30
0.0
 10
5.836112328
 20
2.2552425808
 30
0.0
 10
5.8379458717
 20
2.2593016802
 30
0.0
 10
5.8389374316
 20
2.2625189495
 30
0.0
 10
5.8395266093
 20
2.2658712339
 30
0.0
 10
5.8396591184
 20
2.2681519831
 30
0.0
 10
5.8396599526
 20
2.2692961288
 30
0.0
  0
SPLINE
  5
331
100
AcDbEntity
  8
ALL_ASSEMBLY_MEMBERS
100
AcDbSpline
 62
7
  6
CONTINUOUS
 70
0
 71
3
 72
34
 73
30
 74
0
 42
0.0000001
 43
0.0000001
 44
0.0000000001
 40
0.0
 40
0.0
 40
0.0
 40
0.0
 40
0.0075822617
 40
0.0150972649
 40
0.0224960544
 40
0.0298230586
 40
0.0445579947
 40
0.0520686488
 40
0.0596835255
 40
0.0674186395
 40
0.0753260366
 40
0.0918527721
 40
0.1096223384
 40
0.1288715323
 40
0.1496840157
 40
0.172110591
 40
0.1961869731
 40
0.2219146583
 40
0.2492772733
 40
0.2782539391
 40
0.3408998572
 40
0.4094246679
 40
0.4833001289
 40
0.5619027463
 40
0.6445428031
 40
0.7304647115
 40
0.8189013946
 40
0.9090603462
 40
1.0
 40
1.0
 40
1.0
 40
1.0
 10
4.9848975008
 20
2.2693099144
 30
0.0
 10
4.9848966668
 20
2.2681660018
 30
0.0
 10
4.9850257811
 20
2.2658860862
 30
0.0
 10
4.9856113049
 20
2.2625350041
 30
0.0
 10
4.986602728
 20
2.2593194998
 30
0.0
 10
4.9884365968
 20
2.2552603151
 30
0.0
 10
4.9909479663
 20
2.2515312318
 30
0.0
 10
4.9939148354
 20
2.2481387694
 30
0.0
 10
4.9963628094
 20
2.245705213
 30
0.0
 10
4.9989976447
 20
2.2433852346
 30
0.0
 10
5.0028185808
 20
2.2403890531
 30
0.0
 10
5.0081307081
 20
2.236860309
 30
0.0
 10
5.0152033996
 20
2.2329448557
 30
0.0
 10
5.0230824087
 20
2.2291869536
 30
0.0
 10
5.0317923958
 20
2.2255705833
 30
0.0
 10
5.0413335682
 20
2.2220838507
 30
0.0
 10
5.0517006338
 20
2.2187195584
 30
0.0
 10
5.062883075
 20
2.2154752796
 30
0.0
 10
5.074865229
 20
2.2123518197
 30
0.0
 10
5.0923411503
 20
2.2082433903
 30
0.0
 10
5.1160352397
 20
2.2034822661
 30
0.0
 10
5.1465606176
 20
2.1984371751
 30
0.0
 10
5.1796060443
 20
2.1939679599
 30
0.0
 10
5.2148708144
 20
2.1901121589
 30
0.0
 10
5.2520246559
 20
2.1869059202
 30
0.0
 10
5.2907174656
 20
2.1843793165
 30
0.0
 10
5.3305852238
 20
2.1825565488
 30
0.0
 10
5.3712365008
 20
2.1814573228
 30
0.0
 10
5.398558936
 20
2.1812115848
 30
0.0
 10
5.4122787267
 20
2.1812115848
 30
0.0
  0
SPLINE
  5
332
100
AcDbEntity
  8
ALL_ASSEMBLY_MEMBERS
100
AcDbSpline
 62
7
  6
CONTINUOUS
 70
0
 71
3
 72
19
 73
15
 74
0
 42
0.0000001
 43
0.0000001
 44
0.0000000001
 40
0.0
 40
0.0
 40
0.0
 40
0.0
 40
0.0583017003
 40
0.1144797272
 40
0.1695587129
 40
0.2242169029
 40
0.2788662061
 40
0.3340738841
 40
0.4481993735
 40
0.5079260862
 40
0.5697505971
 40
0.700860072
 40
0.8437441708
 40
1.0
 40
1.0
 40
1.0
 40
1.0
 10
5.8397787267
 20
2.3147431716
 30
0.0
 10
5.8397787267
 20
2.3160820617
 30
0.0
 10
5.8395827854
 20
2.3187157314
 30
0.0
 10
5.8387153514
 20
2.3225250755
 30
0.0
 10
5.8373585102
 20
2.3260975761
 30
0.0
 10
5.835587104
 20
2.3294406141
 30
0.0
 10
5.8334672462
 20
2.3325759035
 30
0.0
 10
5.8301787665
 20
2.3365400693
 30
0.0
 10
5.8262971106
 20
2.340125902
 30
0.0
 10
5.82199402
 20
2.3434102442
 30
0.0
 10
5.8171983171
 20
2.3466814942
 30
0.0
 10
5.8105129893
 20
2.3505478653
 30
0.0
 10
5.8016021272
 20
2.3548316006
 30
0.0
 10
5.795245708
 20
2.3574467188
 30
0.0
 10
5.7918969288
 20
2.3587359975
 30
0.0
  0
SPLINE
  5
333
100
AcDbEntity
  8
ALL_ASSEMBLY_MEMBERS
100
AcDbSpline
 62
7
  6
CONTINUOUS
 70
0
 71
3
 72
14
 73
10
 74
0
 42
0.0000001
 43
0.0000001
 44
0.0000000001
 40
0.0
 40
0.0
 40
0.0
 40
0.0
 40
0.0986615209
 40
0.2050200666
 40
0.3191070112
 40
0.4408184906
 40
0.5699889776
 40
0.7064328971
 40
1.0
 40
1.0
 40
1.0
 40
1.0
 10
5.7918969288
 20
2.3587359975
 30
0.0
 10
5.7884694795
 20
2.3600555641
 30
0.0
 10
5.7812824532
 20
2.3626310601
 30
0.0
 10
5.7699536479
 20
2.3662110927
 30
0.0
 10
5.7576888778
 20
2.3696539405
 30
0.0
 10
5.7445091497
 20
2.3729579087
 30
0.0
 10
5.7304403826
 20
2.376119377
 30
0.0
 10
5.7100352909
 20
2.3802391118
 30
0.0
 10
5.6942526946
 20
2.3829387235
 30
0.0
 10
5.6834541037
 20
2.3846160655
 30
0.0
  0
SPLINE
  5
334
100
AcDbEntity
  8
ALL_ASSEMBLY_MEMBERS
100
AcDbSpline
 62
7
  6
CONTINUOUS
 70
0
 71
3
 72
11
 73
7
 74
0
 42
0.0000001
 43
0.0000001
 44
0.0000000001
 40
0.0
 40
0.0
 40
0.0
 40
0.0
 40
0.2341516759
 40
0.4798714808
 40
0.7357527134
 40
1.0
 40
1.0
 40
1.0
 40
1.0
 10
5.6656388088
 20
2.3872338106
 30
0.0
 10
5.6565333411
 20
2.388498562
 30
0.0
 10
5.6378422415
 20
2.3908756021
 30
0.0
 10
5.609117793
 20
2.3939415691
 30
0.0
 10
5.5791647206
 20
2.396579943
 30
0.0
 10
5.5587943073
 20
2.3980240925
 30
0.0
 10
5.5484402913
 20
2.3986749182
 30
0.0
  0
SPLINE
  5
335
100
AcDbEntity
  8
ALL_ASSEMBLY_MEMBERS
100
AcDbSpline
 62
7
  6
CONTINUOUS
 70
0
 71
3
 72
11
 73
7
 74
0
 42
0.0000001
 43
0.0000001
 44
0.0000000001
 40
0.0
 40
0.0
 40
0.0
 40
0.0
 40
0.2655178705
 40
0.5219528784
 40
0.7672981055
 40
1.0
 40
1.0
 40
1.0
 40
1.0
 10
5.2761171529
 20
2.3986749176
 30
0.0
 10
5.265108247
 20
2.3979829272
 30
0.0
 10
5.2434780633
 20
2.3964385619
 30
0.0
 10
5.2117273262
 20
2.3935884758
 30
0.0
 10
5.1813944709
 20
2.3902569405
 30
0.0
 10
5.1617032062
 20
2.3876578522
 30
0.0
 10
5.1521358023
 20
2.3862714643
 30
0.0
  0
SPLINE
  5
336
100
AcDbEntity
  8
ALL_ASSEMBLY_MEMBERS
100
AcDbSpline
 62
7
  6
CONTINUOUS
 70
0
 71
3
 72
14
 73
10
 74
0
 42
0.0000001
 43
0.0000001
 44
0.0000000001
 40
0.0
 40
0.0
 40
0.0
 40
0.0
 40
0.2945881481
 40
0.4313556238
 40
0.560675841
 40
0.682341695
 40
0.7961739236
 40
0.9020511565
 40
1.0
 40
1.0
 40
1.0
 40
1.0
 10
5.146250355
 20
2.3854026815
 30
0.0
 10
5.1348953815
 20
2.3836953269
 30
0.0
 10
5.1183045411
 20
2.3809370649
 30
0.0
 10
5.0968630645
 20
2.3767025458
 30
0.0
 10
5.0821025512
 20
2.3734458432
 30
0.0
 10
5.0682959101
 20
2.3700349004
 30
0.0
 10
5.0554726875
 20
2.3664739057
 30
0.0
 10
5.0436568099
 20
2.3627650756
 30
0.0
 10
5.0361729898
 20
2.3600892333
 30
0.0
 10
5.0326103442
 20
2.3587166663
 30
0.0
  0
SPLINE
  5
337
100
AcDbEntity
  8
ALL_ASSEMBLY_MEMBERS
100
AcDbSpline
 62
7
  6
CONTINUOUS
 70
0
 71
3
 72
19
 73
15
 74
0
 42
0.0000001
 43
0.0000001
 44
0.0000000001
 40
0.0
 40
0.0
 40
0.0
 40
0.0
 40
0.1562234466
 40
0.2990841957
 40
0.4301805688
 40
0.4920028493
 40
0.5517304587
 40
0.6658659189
 40
0.7210815743
 40
0.7757400128
 40
0.8304081119
 40
0.8854978678
 40
0.9416872326
 40
1.0
 40
1.0
 40
1.0
 40
1.0
 10
5.0326103442
 20
2.3587166663
 30
0.0
 10
5.0292651705
 20
2.3574278839
 30
0.0
 10
5.0229155206
 20
2.3548137661
 30
0.0
 10
5.0140141283
 20
2.3505317778
 30
0.0
 10
5.0073358658
 20
2.3466669892
 30
0.0
 10
5.0025451613
 20
2.3433970366
 30
0.0
 10
4.9982462968
 20
2.3401137899
 30
0.0
 10
4.9943685026
 20
2.3365292192
 30
0.0
 10
4.9910833723
 20
2.3325666927
 30
0.0
 10
4.9889656897
 20
2.3294327509
 30
0.0
 10
4.9871961844
 20
2.3260912766
 30
0.0
 10
4.9858408639
 20
2.3225206109
 30
0.0
 10
4.9849744386
 20
2.3187133949
 30
0.0
 10
4.9847787267
 20
2.316081271
 30
0.0
 10
4.9847787267
 20
2.3147431716
 30
0.0
  0
SPLINE
  5
338
100
AcDbEntity
  8
ALL_ASSEMBLY_MEMBERS
100
AcDbSpline
 62
7
  6
CONTINUOUS
 70
0
 71
3
 72
9
 73
5
 74
0
 42
0.0000001
 43
0.0000001
 44
0.0000000001
 40
0.0
 40
0.0
 40
0.0
 40
0.0
 40
0.5064737046
 40
1.0
 40
1.0
 40
1.0
 40
1.0
 10
5.4122787267
 20
2.3091520093
 30
0.0
 10
5.3967316873
 20
2.3091520093
 30
0.0
 10
5.3660333748
 20
2.3086988729
 30
0.0
 10
5.3353619734
 20
2.3073185637
 30
0.0
 10
5.3202412679
 20
2.3063833806
 30
0.0
  0
LINE
  5
339
100
AcDbEntity
  8
ALL_ASSEMBLY_MEMBERS
100
AcDbLine
 62
7
  6
CONTINUOUS
 10
5.3202412679
 20
2.3063833806
 11
5.3193834701
 21
2.3063300517
  0
SPLINE
  5
33A
100
AcDbEntity
  8
ALL_ASSEMBLY_MEMBERS
100
AcDbSpline
 62
7
  6
CONTINUOUS
 70
0
 71
3
 72
9
 73
5
 74
0
 42
0.0000001
 43
0.0000001
 44
0.0000000001
 40
0.0
 40
0.0
 40
0.0
 40
0.0
 40
0.5153251066
 40
1.0
 40
1.0
 40
1.0
 40
1.0
 10
5.3193834701
 20
2.3063300517
 30
0.0
 10
5.3079977168
 20
2.3056185385
 30
0.0
 10
5.2859198598
 20
2.3039563206
 30
0.0
 10
5.2638976064
 20
2.3016610964
 30
0.0
 10
5.2532467475
 20
2.3003648557
 30
0.0
  0
SPLINE
  5
33B
100
AcDbEntity
  8
ALL_ASSEMBLY_MEMBERS
100
AcDbSpline
 62
7
  6
CONTINUOUS
 70
0
 71
3
 72
23
 73
19
 74
0
 42
0.0000001
 43
0.0000001
 44
0.0000000001
 40
0.0
 40
0.0
 40
0.0
 40
0.0
 40
0.2025927591
 40
0.3857433697
 40
0.4692846156
 40
0.5471271461
 40
0.6190394762
 40
0.6848518758
 40
0.7444441783
 40
0.797737581
 40
0.8447506865
 40
0.8856356101
 40
0.9207097219
 40
0.9362604326
 40
0.9506305876
 40
0.9764379965
 40
0.988371597
 40
1.0
 40
1.0
 40
1.0
 40
1.0
 10
5.2502317061
 20
2.299992826
 30
0.0
 10
5.2411032189
 20
2.2988509112
 30
0.0
 10
5.2237536443
 20
2.2964129753
 30
0.0
 10
5.202769839
 20
2.292658191
 30
0.0
 10
5.1874786351
 20
2.2893417343
 30
0.0
 10
5.1771888998
 20
2.2868152168
 30
0.0
 10
5.16775916
 20
2.284181235
 30
0.0
 10
5.1592229201
 20
2.2814500981
 30
0.0
 10
5.1516094321
 20
2.2786331486
 30
0.0
 10
5.1449450556
 20
2.2757397215
 30
0.0
 10
5.1392502976
 20
2.2727790999
 30
0.0
 10
5.1345411512
 20
2.2697618205
 30
0.0
 10
5.1313253628
 20
2.2671043431
 30
0.0
 10
5.1293125721
 20
2.264939066
 30
0.0
 10
5.1277809319
 20
2.2629223716
 30
0.0
 10
5.1266713104
 20
2.2607935734
 30
0.0
 10
5.1261193488
 20
2.258612208
 30
0.0
 10
5.1260287267
 20
2.2575401724
 30
0.0
 10
5.1260287267
 20
2.2570121326
 30
0.0
  0
SPLINE
  5
33C
100
AcDbEntity
  8
ALL_ASSEMBLY_MEMBERS
100
AcDbSpline
 62
7
  6
CONTINUOUS
 70
0
 71
3
 72
23
 73
19
 74
0
 42
0.0000001
 43
0.0000001
 44
0.0000000001
 40
0.0
 40
0.0
 40
0.0
 40
0.0
 40
0.011628403
 40
0.0235620035
 40
0.0493694124
 40
0.0637395674
 40
0.0792902781
 40
0.1143643899
 40
0.1552493135
 40
0.202262419
 40
0.2555558217
 40
0.3151481242
 40
0.3809605238
 40
0.4528728539
 40
0.5307153844
 40
0.6142566303
 40
0.7974072409
 40
1.0
 40
1.0
 40
1.0
 40
1.0
 10
5.6985287267
 20
2.2570121326
 30
0.0
 10
5.6985287267
 20
2.2575401724
 30
0.0
 10
5.6984381046
 20
2.258612208
 30
0.0
 10
5.6978861431
 20
2.2607935734
 30
0.0
 10
5.6967765215
 20
2.2629223716
 30
0.0
 10
5.6952448813
 20
2.264939066
 30
0.0
 10
5.6932320906
 20
2.2671043431
 30
0.0
 10
5.6900163022
 20
2.2697618205
 30
0.0
 10
5.6853071558
 20
2.2727790999
 30
0.0
 10
5.6796123978
 20
2.2757397215
 30
0.0
 10
5.6729480213
 20
2.2786331486
 30
0.0
 10
5.6653345333
 20
2.2814500981
 30
0.0
 10
5.6567982935
 20
2.284181235
 30
0.0
 10
5.6473685536
 20
2.2868152168
 30
0.0
 10
5.6370788183
 20
2.2893417343
 30
0.0
 10
5.6217876144
 20
2.292658191
 30
0.0
 10
5.6008038091
 20
2.2964129753
 30
0.0
 10
5.5834542345
 20
2.2988509112
 30
0.0
 10
5.5743257474
 20
2.299992826
 30
0.0
  0
SPLINE
  5
33D
100
AcDbEntity
  8
ALL_ASSEMBLY_MEMBERS
100
AcDbSpline
 62
7
  6
CONTINUOUS
 70
0
 71
3
 72
9
 73
5
 74
0
 42
0.0000001
 43
0.0000001
 44
0.0000000001
 40
0.0
 40
0.0
 40
0.0
 40
0.0
 40
0.4846748934
 40
1.0
 40
1.0
 40
1.0
 40
1.0
 10
5.5713107059
 20
2.3003648557
 30
0.0
 10
5.5606598471
 20
2.3016610964
 30
0.0
 10
5.5386375936
 20
2.3039563206
 30
0.0
 10
5.5165597366
 20
2.3056185385
 30
0.0
 10
5.5051739833
 20
2.3063300517
 30
0.0
  0
LINE
  5
33E
100
AcDbEntity
  8
ALL_ASSEMBLY_MEMBERS
100
AcDbLine
 62
7
  6
CONTINUOUS
 10
5.5051739833
 20
2.3063300517
 11
5.5043161856
 21
2.3063833806
  0
SPLINE
  5
33F
100
AcDbEntity
  8
ALL_ASSEMBLY_MEMBERS
100
AcDbSpline
 62
7
  6
CONTINUOUS
 70
0
 71
3
 72
9
 73
5
 74
0
 42
0.0000001
 43
0.0000001
 44
0.0000000001
 40
0.0
 40
0.0
 40
0.0
 40
0.0
 40
0.4935262954
 40
1.0
 40
1.0
 40
1.0
 40
1.0
 10
5.5043161856
 20
2.3063833806
 30
0.0
 10
5.48919548
 20
2.3073185637
 30
0.0
 10
5.4585240786
 20
2.3086988729
 30
0.0
 10
5.4278257661
 20
2.3091520093
 30
0.0
 10
5.4122787267
 20
2.3091520093
 30
0.0
  0
SPLINE
  5
340
100
AcDbEntity
  8
ALL_ASSEMBLY_MEMBERS
100
AcDbSpline
 62
7
  6
CONTINUOUS
 70
0
 71
3
 72
11
 73
7
 74
0
 42
0.0000001
 43
0.0000001
 44
0.0000000001
 40
0.0
 40
0.0
 40
0.0
 40
0.0
 40
0.2946272017
 40
0.5643289203
 40
0.8020192069
 40
1.0
 40
1.0
 40
1.0
 40
1.0
 10
5.7872787267
 20
2.3774628446
 30
0.0
 10
5.7872787267
 20
2.3755013399
 30
0.0
 10
5.7875799321
 20
2.3717379494
 30
0.0
 10
5.7887808995
 20
2.366518899
 30
0.0
 10
5.7904412623
 20
2.3621106854
 30
0.0
 10
5.7918271502
 20
2.3595521088
 30
0.0
 10
5.7925292344
 20
2.3584365843
 30
0.0
  0
SPLINE
  5
341
100
AcDbEntity
  8
ALL_ASSEMBLY_MEMBERS
100
AcDbSpline
 62
7
  6
CONTINUOUS
 70
0
 71
3
 72
11
 73
7
 74
0
 42
0.0000001
 43
0.0000001
 44
0.0000000001
 40
0.0
 40
0.0
 40
0.0
 40
0.0
 40
0.1981784299
 40
0.4358752463
 40
0.70550006
 40
1.0
 40
1.0
 40
1.0
 40
1.0
 10
5.0320243303
 20
2.3584327278
 30
0.0
 10
5.0327273304
 20
2.3595496601
 30
0.0
 10
5.0341156839
 20
2.3621092879
 30
0.0
 10
5.0357785817
 20
2.3665189915
 30
0.0
 10
5.0369781693
 20
2.3717386099
 30
0.0
 10
5.0372787267
 20
2.3755016471
 30
0.0
 10
5.0372787267
 20
2.3774628446
 30
0.0
  0
SPLINE
  5
342
100
AcDbEntity
  8
ALL_ASSEMBLY_MEMBERS
100
AcDbSpline
 62
7
  6
CONTINUOUS
 70
0
 71
3
 72
20
 73
16
 74
0
 42
0.0000001
 43
0.0000001
 44
0.0000000001
 40
0.0
 40
0.0
 40
0.0
 40
0.0
 40
0.0372146796
 40
0.0753767052
 40
0.1153594261
 40
0.1579176642
 40
0.2036729166
 40
0.253120762
 40
0.3066438154
 40
0.364521635
 40
0.426960585
 40
0.4941129952
 40
0.642941423
 40
0.811553433
 40
1.0
 40
1.0
 40
1.0
 40
1.0
 10
4.9847787267
 20
2.3147431716
 30
0.0
 10
4.9847787269
 20
2.315519816
 30
0.0
 10
4.9849096998
 20
2.3170957666
 30
0.0
 10
4.9854940227
 20
2.3194407753
 30
0.0
 10
4.986462509
 20
2.3217753403
 30
0.0
 10
4.9878106612
 20
2.3240965078
 30
0.0
 10
4.9895351011
 20
2.326403773
 30
0.0
 10
4.9916336406
 20
2.3286965291
 30
0.0
 10
4.9941043471
 20
2.3309739506
 30
0.0
 10
4.9969445587
 20
2.3332354492
 30
0.0
 10
5.0001517153
 20
2.3354798969
 30
0.0
 10
5.005085204
 20
2.3385536543
 30
0.0
 10
5.0121909388
 20
2.34230748
 30
0.0
 10
5.0218542811
 20
2.3465741998
 30
0.0
 10
5.0288312327
 20
2.3492017403
 30
0.0
 10
5.0325405208
 20
2.3505085273
 30
0.0
  0
SPLINE
  5
343
100
AcDbEntity
  8
ALL_ASSEMBLY_MEMBERS
100
AcDbSpline
 62
7
  6
CONTINUOUS
 70
0
 71
3
 72
14
 73
10
 74
0
 42
0.0000001
 43
0.0000001
 44
0.0000000001
 40
0.0
 40
0.0
 40
0.0
 40
0.0
 40
0.0988978896
 40
0.2056983922
 40
0.3202142633
 40
0.4422293039
 40
0.5715103507
 40
0.7077776352
 40
1.0
 40
1.0
 40
1.0
 40
1.0
 10
5.0325405208
 20
2.3505085273
 30
0.0
 10
5.0360058483
 20
2.3517293666
 30
0.0
 10
5.0432650228
 20
2.3541233772
 30
0.0
 10
5.0546810586
 20
2.3574746145
 30
0.0
 10
5.0670183117
 20
2.3607178548
 30
0.0
 10
5.0802450658
 20
2.3638444119
 30
0.0
 10
5.0943281142
 20
2.3668452653
 30
0.0
 10
5.114677295
 20
2.3707602296
 30
0.0
 10
5.1303894715
 20
2.3733393055
 30
0.0
 10
5.1411264158
 20
2.3749437605
 30
0.0
  0
SPLINE
  5
344
100
AcDbEntity
  8
ALL_ASSEMBLY_MEMBERS
100
AcDbSpline
 62
7
  6
CONTINUOUS
 70
0
 71
3
 72
13
 73
9
 74
0
 42
0.0000001
 43
0.0000001
 44
0.0000000001
 40
0.0
 40
0.0
 40
0.0
 40
0.0
 40
0.1118531448
 40
0.2288764077
 40
0.3503907991
 40
0.4756849909
 40
0.7347552146
 40
1.0
 40
1.0
 40
1.0
 40
1.0
 10
5.1628395953
 20
2.3779817737
 30
0.0
 10
5.1720829569
 20
2.3791913945
 30
0.0
 10
5.1910240204
 20
2.3814628483
 30
0.0
 10
5.2200815266
 20
2.3843854602
 30
0.0
 10
5.2503022489
 20
2.3868902146
 30
0.0
 10
5.2923727547
 20
2.3896819624
 30
0.0
 10
5.3464721303
 20
2.3919970461
 30
0.0
 10
5.3901724383
 20
2.3926114589
 30
0.0
 10
5.4122787267
 20
2.3926114589
 30
0.0
  0
SPLINE
  5
345
100
AcDbEntity
  8
ALL_ASSEMBLY_MEMBERS
100
AcDbSpline
 62
7
  6
CONTINUOUS
 70
0
 71
3
 72
30
 73
26
 74
0
 42
0.0000001
 43
0.0000001
 44
0.0000000001
 40
0.0
 40
0.0
 40
0.0
 40
0.0
 40
0.0982442007
 40
0.1942065297
 40
0.2872237645
 40
0.3766368483
 40
0.4617966988
 40
0.5421103852
 40
0.6170231287
 40
0.6860388439
 40
0.7487161564
 40
0.7775614113
 40
0.8046946933
 40
0.830084212
 40
0.8537034438
 40
0.8755400874
 40
0.8955950635
 40
0.9138805956
 40
0.930425309
 40
0.9452872068
 40
0.9585652704
 40
0.9704080067
 40
0.9810345528
 40
0.9907594115
 40
1.0
 40
1.0
 40
1.0
 40
1.0
 10
5.3433726575
 20
2.4446053286
 30
0.0
 10
5.3328237125
 20
2.4442462823
 30
0.0
 10
5.3119761395
 20
2.443367799
 30
0.0
 10
5.2811698996
 20
2.4415485308
 30
0.0
 10
5.2513468297
 20
2.439252111
 30
0.0
 10
5.22272805
 20
2.4364984207
 30
0.0
 10
5.1955282846
 20
2.433306299
 30
0.0
 10
5.1699520409
 20
2.4297022076
 30
0.0
 10
5.146189369
 20
2.4257131154
 30
0.0
 10
5.124417377
 20
2.4213706745
 30
0.0
 10
5.1076310875
 20
2.4173842495
 30
0.0
 10
5.0953364567
 20
2.4140103883
 30
0.0
 10
5.0869667027
 20
2.4114830622
 30
0.0
 10
5.079205637
 20
2.4088932771
 30
0.0
 10
5.0720680185
 20
2.4062451648
 30
0.0
 10
5.065566543
 20
2.4035439226
 30
0.0
 10
5.0597119362
 20
2.4007950094
 30
0.0
 10
5.0545140309
 20
2.3980033952
 30
0.0
 10
5.0499818488
 20
2.3951729853
 30
0.0
 10
5.0461224681
 20
2.3923070484
 30
0.0
 10
5.0429401999
 20
2.3894084128
 30
0.0
 10
5.040439778
 20
2.3864768007
 30
0.0
 10
5.0386300323
 20
2.3835076884
 30
0.0
 10
5.0375291721
 20
2.3805005478
 30
0.0
 10
5.0372798762
 20
2.3784556249
 30
0.0
 10
5.0372798762
 20
2.3774628446
 30
0.0
  0
SPLINE
  5
346
100
AcDbEntity
  8
ALL_ASSEMBLY_MEMBERS
100
AcDbSpline
 62
7
  6
CONTINUOUS
 70
0
 71
3
 72
30
 73
26
 74
0
 42
0.0000001
 43
0.0000001
 44
0.0000000001
 40
0.0
 40
0.0
 40
0.0
 40
0.0
 40
0.0092405885
 40
0.0189654472
 40
0.0295919933
 40
0.0414347296
 40
0.0547127932
 40
0.069574691
 40
0.0861194044
 40
0.1044049365
 40
0.1244599126
 40
0.1462965562
 40
0.169915788
 40
0.1953053067
 40
0.2224385887
 40
0.2512838436
 40
0.3139611561
 40
0.3829768713
 40
0.4578896148
 40
0.5382033012
 40
0.6233631517
 40
0.7127762355
 40
0.8057934703
 40
0.9017557993
 40
1.0
 40
1.0
 40
1.0
 40
1.0
 10
5.7872775772
 20
2.3774628446
 30
0.0
 10
5.7872775772
 20
2.3784556249
 30
0.0
 10
5.7870282814
 20
2.3805005478
 30
0.0
 10
5.7859274211
 20
2.3835076884
 30
0.0
 10
5.7841176755
 20
2.3864768007
 30
0.0
 10
5.7816172535
 20
2.3894084128
 30
0.0
 10
5.7784349853
 20
2.3923070484
 30
0.0
 10
5.7745756046
 20
2.3951729853
 30
0.0
 10
5.7700434226
 20
2.3980033952
 30
0.0
 10
5.7648455172
 20
2.4007950094
 30
0.0
 10
5.7589909104
 20
2.4035439226
 30
0.0
 10
5.7524894349
 20
2.4062451648
 30
0.0
 10
5.7453518164
 20
2.4088932771
 30
0.0
 10
5.7375907508
 20
2.4114830622
 30
0.0
 10
5.7292209967
 20
2.4140103883
 30
0.0
 10
5.7169263659
 20
2.4173842495
 30
0.0
 10
5.7001400764
 20
2.4213706745
 30
0.0
 10
5.6783680844
 20
2.4257131154
 30
0.0
 10
5.6546054125
 20
2.4297022076
 30
0.0
 10
5.6290291688
 20
2.433306299
 30
0.0
 10
5.6018294034
 20
2.4364984207
 30
0.0
 10
5.5732106238
 20
2.439252111
 30
0.0
 10
5.5433875539
 20
2.4415485308
 30
0.0
 10
5.5125813139
 20
2.443367799
 30
0.0
 10
5.4917337409
 20
2.4442462823
 30
0.0
 10
5.4811847959
 20
2.4446053286
 30
0.0
  0
SPLINE
  5
347
100
AcDbEntity
  8
ALL_ASSEMBLY_MEMBERS
100
AcDbSpline
 62
7
  6
CONTINUOUS
 70
0
 71
3
 72
30
 73
26
 74
0
 42
0.0000001
 43
0.0000001
 44
0.0000000001
 40
0.0
 40
0.0
 40
0.0
 40
0.0
 40
0.0086446991
 40
0.0178659048
 40
0.0281366121
 40
0.0397965036
 40
0.0530709085
 40
0.068094547
 40
0.0849458225
 40
0.1036689389
 40
0.1242829845
 40
0.146779776
 40
0.1711373884
 40
0.1973265211
 40
0.2253097781
 40
0.2550342054
 40
0.3194655663
 40
0.3901091049
 40
0.4663490435
 40
0.5475171841
 40
0.6328622557
 40
0.7216063255
 40
0.8129605083
 40
0.9060909344
 40
1.0
 40
1.0
 40
1.0
 40
1.0
 10
5.1260287267
 20
2.2570121326
 30
0.0
 10
5.1260287267
 20
2.2561516065
 30
0.0
 10
5.1262786307
 20
2.2543653786
 30
0.0
 10
5.1273689759
 20
2.2517591363
 30
0.0
 10
5.1291467724
 20
2.2491963874
 30
0.0
 10
5.1315956684
 20
2.2466731574
 30
0.0
 10
5.1347092059
 20
2.2441850295
 30
0.0
 10
5.1384808249
 20
2.2417308373
 30
0.0
 10
5.1429039755
 20
2.239313462
 30
0.0
 10
5.1479707856
 20
2.236937826
 30
0.0
 10
5.1536711613
 20
2.2346100058
 30
0.0
 10
5.1599917715
 20
2.2323345427
 30
0.0
 10
5.166917754
 20
2.2301169255
 30
0.0
 10
5.1744333978
 20
2.2279628672
 30
0.0
 10
5.1825213614
 20
2.2258782151
 30
0.0
 10
5.1943641383
 20
2.2231227484
 30
0.0
 10
5.2104577916
 20
2.2199200409
 30
0.0
 10
5.2312196237
 20
2.2165208779
 30
0.0
 10
5.2537219181
 20
2.2135016905
 30
0.0
 10
5.2777478427
 20
2.2108957916
 30
0.0
 10
5.3030662942
 20
2.2087260759
 30
0.0
 10
5.3294359344
 20
2.2070166603
 30
0.0
 10
5.3566077847
 20
2.2057826314
 30
0.0
 10
5.3843116183
 20
2.2050388652
 30
0.0
 10
5.4029306622
 20
2.204872256
 30
0.0
 10
5.4122787267
 20
2.204872256
 30
0.0
  0
SPLINE
  5
348
100
AcDbEntity
  8
ALL_ASSEMBLY_MEMBERS
100
AcDbSpline
 62
7
  6
CONTINUOUS
 70
0
 71
3
 72
30
 73
26
 74
0
 42
0.0000001
 43
0.0000001
 44
0.0000000001
 40
0.0
 40
0.0
 40
0.0
 40
0.0
 40
0.0939090656
 40
0.1870394917
 40
0.2783936745
 40
0.3671377443
 40
0.4524828159
 40
0.5336509565
 40
0.6098908951
 40
0.6805344337
 40
0.7449657946
 40
0.7746902219
 40
0.8026734789
 40
0.8288626116
 40
0.853220224
 40
0.8757170155
 40
0.8963310611
 40
0.9150541775
 40
0.931905453
 40
0.9469290915
 40
0.9602034964
 40
0.9718633879
 40
0.9821340952
 40
0.9913553009
 40
1.0
 40
1.0
 40
1.0
 40
1.0
 10
5.4122787267
 20
2.204872256
 30
0.0
 10
5.4216267912
 20
2.204872256
 30
0.0
 10
5.4402458351
 20
2.2050388652
 30
0.0
 10
5.4679496687
 20
2.2057826314
 30
0.0
 10
5.495121519
 20
2.2070166603
 30
0.0
 10
5.5214911592
 20
2.2087260759
 30
0.0
 10
5.5468096107
 20
2.2108957916
 30
0.0
 10
5.5708355353
 20
2.2135016905
 30
0.0
 10
5.5933378298
 20
2.2165208779
 30
0.0
 10
5.6140996619
 20
2.2199200409
 30
0.0
 10
5.6301933151
 20
2.2231227484
 30
0.0
 10
5.642036092
 20
2.2258782151
 30
0.0
 10
5.6501240556
 20
2.2279628672
 30
0.0
 10
5.6576396994
 20
2.2301169255
 30
0.0
 10
5.6645656819
 20
2.2323345427
 30
0.0
 10
5.6708862921
 20
2.2346100058
 30
0.0
 10
5.6765866678
 20
2.236937826
 30
0.0
 10
5.6816534779
 20
2.239313462
 30
0.0
 10
5.6860766286
 20
2.2417308373
 30
0.0
 10
5.6898482475
 20
2.2441850295
 30
0.0
 10
5.6929617851
 20
2.2466731574
 30
0.0
 10
5.695410681
 20
2.2491963874
 30
0.0
 10
5.6971884775
 20
2.2517591363
 30
0.0
 10
5.6982788227
 20
2.2543653786
 30
0.0
 10
5.6985287267
 20
2.2561516065
 30
0.0
 10
5.6985287267
 20
2.2570121326
 30
0.0
  0
SPLINE
  5
349
100
AcDbEntity
  8
ALL_ASSEMBLY_MEMBERS
100
AcDbSpline
 62
7
  6
CONTINUOUS
 70
0
 71
3
 72
15
 73
11
 74
0
 42
0.0000001
 43
0.0000001
 44
0.0000000001
 40
0.0
 40
0.0
 40
0.0
 40
0.0
 40
0.1342904653
 40
0.2677807009
 40
0.3994200493
 40
0.5283218833
 40
0.6536531579
 40
0.7745810689
 40
0.8902827506
 40
1.0
 40
1.0
 40
1.0
 40
1.0
 10
5.4122787267
 20
2.3326035695
 30
0.0
 10
5.4238529025
 20
2.3326035695
 30
0.0
 10
5.4469326676
 20
2.3324272632
 30
0.0
 10
5.4813500054
 20
2.3316388257
 30
0.0
 10
5.515286811
 20
2.3303288756
 30
0.0
 10
5.5484959247
 20
2.328508891
 30
0.0
 10
5.5807485821
 20
2.3261905615
 30
0.0
 10
5.6118212655
 20
2.3233923785
 30
0.0
 10
5.6414954779
 20
2.32013237
 30
0.0
 10
5.6607594488
 20
2.3175950291
 30
0.0
 10
5.670118623
 20
2.3162434085
 30
0.0
  0
LINE
  5
34A
100
AcDbEntity
  8
ALL_ASSEMBLY_MEMBERS
100
AcDbLine
 62
7
  6
CONTINUOUS
 10
5.670118623
 20
2.3162434085
 11
5.6718073427
 21
2.3159982224
  0
LINE
  5
34B
100
AcDbEntity
  8
ALL_ASSEMBLY_MEMBERS
100
AcDbLine
 62
7
  6
CONTINUOUS
 10
5.6777059179
 20
2.3151208918
 11
5.6790611032
 21
2.3149146247
  0
LINE
  5
34C
100
AcDbEntity
  8
ALL_ASSEMBLY_MEMBERS
100
AcDbLine
 62
7
  6
CONTINUOUS
 10
5.682630214
 20
2.3143627331
 11
5.684553191
 21
2.3140600901
  0
SPLINE
  5
34D
100
AcDbEntity
  8
ALL_ASSEMBLY_MEMBERS
100
AcDbSpline
 62
7
  6
CONTINUOUS
 70
0
 71
3
 72
50
 73
46
 74
0
 42
0.0000001
 43
0.0000001
 44
0.0000000001
 40
0.0
 40
0.0
 40
0.0
 40
0.0
 40
0.0392581341
 40
0.0578804601
 40
0.0757994907
 40
0.1094387948
 40
0.1400282703
 40
0.167442145
 40
0.1799322639
 40
0.1916027085
 40
0.2024510701
 40
0.212478933
 40
0.2216959862
 40
0.2301206688
 40
0.2377807927
 40
0.24471741
 40
0.2509911068
 40
0.2566903089
 40
0.2619352882
 40
0.2668815192
 40
0.2717154276
 40
0.2766376246
 40
0.2818374144
 40
0.2874744746
 40
0.2936732373
 40
0.3005257879
 40
0.3080957207
 40
0.316426035
 40
0.3255459111
 40
0.335474783
 40
0.3462235101
 40
0.3577943816
 40
0.3701853826
 40
0.3833916402
 40
0.4122145005
 40
0.4441607045
 40
0.4790953088
 40
0.5168535159
 40
0.5572444954
 40
0.600062477
 40
0.6450782846
 40
0.6920536353
 40
0.7908294793
 40
0.8942503997
 40
1.0
 40
1.0
 40
1.0
 40
1.0
 10
5.684553191
 20
2.3140600901
 30
0.0
 10
5.6922147253
 20
2.3128468062
 30
0.0
 10
5.703491081
 20
2.310929451
 30
0.0
 10
5.718202263
 20
2.3081168322
 30
0.0
 10
5.7317835787
 20
2.3053148324
 30
0.0
 10
5.7476039457
 20
2.3016692066
 30
0.0
 10
5.7650904491
 20
2.2969498195
 30
0.0
 10
5.7783663368
 20
2.2927119833
 30
0.0
 10
5.7879279376
 20
2.2891828269
 30
0.0
 10
5.7943358554
 20
2.286573367
 30
0.0
 10
5.8001969106
 20
2.283922441
 30
0.0
 10
5.8055026265
 20
2.2812330422
 30
0.0
 10
5.8102461922
 20
2.2785088869
 30
0.0
 10
5.8144223937
 20
2.275753673
 30
0.0
 10
5.8180265149
 20
2.2729701922
 30
0.0
 10
5.8210540386
 20
2.2701601706
 30
0.0
 10
5.8234999277
 20
2.2673233721
 30
0.0
 10
5.8253595906
 20
2.2644595959
 30
0.0
 10
5.8266249176
 20
2.2615681591
 30
0.0
 10
5.8272830655
 20
2.2586526629
 30
0.0
 10
5.8273208897
 20
2.2557260916
 30
0.0
 10
5.8267373091
 20
2.2528083464
 30
0.0
 10
5.8255448215
 20
2.2499136515
 30
0.0
 10
5.823756653
 20
2.2470465341
 30
0.0
 10
5.8213815485
 20
2.2442064937
 30
0.0
 10
5.8184242586
 20
2.2413932475
 30
0.0
 10
5.814889775
 20
2.2386065016
 30
0.0
 10
5.8107826667
 20
2.2358477232
 30
0.0
 10
5.8061076052
 20
2.2331196319
 30
0.0
 10
5.800869706
 20
2.2304257967
 30
0.0
 10
5.7950755277
 20
2.2277700396
 30
0.0
 10
5.7887334027
 20
2.2251554419
 30
0.0
 10
5.7818523355
 20
2.2225856447
 30
0.0
 10
5.7716710519
 20
2.2191225134
 30
0.0
 10
5.757649558
 20
2.2149722566
 30
0.0
 10
5.7393069901
 20
2.2103577157
 30
0.0
 10
5.7190912094
 20
2.2060047128
 30
0.0
 10
5.6971173614
 20
2.201938667
 30
0.0
 10
5.6735100986
 20
2.1981831256
 30
0.0
 10
5.648404347
 20
2.1947620655
 30
0.0
 10
5.621943112
 20
2.1916934183
 30
0.0
 10
5.5844254007
 20
2.1880383838
 30
0.0
 10
5.5353080691
 20
2.1845199525
 30
0.0
 10
5.4745061748
 20
2.1819863755
 30
0.0
 10
5.4331737709
 20
2.1814206958
 30
0.0
 10
5.4122787267
 20
2.1814206958
 30
0.0
  0
SPLINE
  5
34E
100
AcDbEntity
  8
ALL_ASSEMBLY_MEMBERS
100
AcDbSpline
 62
7
  6
CONTINUOUS
 70
0
 71
3
 72
49
 73
45
 74
0
 42
0.0000001
 43
0.0000001
 44
0.0000000001
 40
0.0
 40
0.0
 40
0.0
 40
0.0
 40
0.1056838045
 40
0.2090305996
 40
0.3077168878
 40
0.3546393796
 40
0.3995960153
 40
0.4423478929
 40
0.482665283
 40
0.5203421744
 40
0.5551873413
 40
0.5870363118
 40
0.6157541615
 40
0.6289053174
 40
0.6412397018
 40
0.6527525743
 40
0.6634421221
 40
0.6733110514
 40
0.6823708906
 40
0.690641713
 40
0.6981536235
 40
0.7049509818
 40
0.7110995229
 40
0.7166939838
 40
0.721861958
 40
0.7267664288
 40
0.7315991588
 40
0.7365612046
 40
0.741837419
 40
0.7475806968
 40
0.7539086525
 40
0.7609072371
 40
0.7686349989
 40
0.7771316369
 40
0.7864239849
 40
0.7965297248
 40
0.8074575821
 40
0.8192085957
 40
0.8317800119
 40
0.8593574714
 40
0.8901086875
 40
0.9239060545
 40
0.9605982886
 40
1.0
 40
1.0
 40
1.0
 40
1.0
 10
5.4122787267
 20
2.1814206958
 30
0.0
 10
5.3913414689
 20
2.1814206958
 30
0.0
 10
5.3499274889
 20
2.181988623
 30
0.0
 10
5.2890104421
 20
2.184532225
 30
0.0
 10
5.2398065354
 20
2.1880645408
 30
0.0
 10
5.2022302085
 20
2.1917340382
 30
0.0
 10
5.1757349453
 20
2.1948144085
 30
0.0
 10
5.1506030769
 20
2.1982482852
 30
0.0
 10
5.1269783338
 20
2.2020176386
 30
0.0
 10
5.1049962929
 20
2.2060982032
 30
0.0
 10
5.084782132
 20
2.2104663936
 30
0.0
 10
5.0664514403
 20
2.2150964033
 30
0.0
 10
5.0524468955
 20
2.219260757
 30
0.0
 10
5.042284901
 20
2.22273558
 30
0.0
 10
5.0354219769
 20
2.2253133818
 30
0.0
 10
5.0291007451
 20
2.2279359323
 30
0.0
 10
5.0233302355
 20
2.2305995878
 30
0.0
 10
5.0181187559
 20
2.2333012717
 30
0.0
 10
5.0134727641
 20
2.2360370729
 30
0.0
 10
5.0093973573
 20
2.2388034822
 30
0.0
 10
5.0058972034
 20
2.2415978099
 30
0.0
 10
5.002976936
 20
2.2444187585
 30
0.0
 10
5.0006415311
 20
2.2472666497
 30
0.0
 10
4.998895927
 20
2.2501418559
 30
0.0
 10
4.997749367
 20
2.2530447294
 30
0.0
 10
4.9972154228
 20
2.2559700504
 30
0.0
 10
4.9973061359
 20
2.2589026409
 30
0.0
 10
4.9980189135
 20
2.2618225525
 30
0.0
 10
4.9993401461
 20
2.2647175922
 30
0.0
 10
5.0012571891
 20
2.2675847714
 30
0.0
 10
5.0037623288
 20
2.2704248734
 30
0.0
 10
5.0068509982
 20
2.2732380857
 30
0.0
 10
5.0105181287
 20
2.2760245713
 30
0.0
 10
5.0147592035
 20
2.2787824191
 30
0.0
 10
5.0195694466
 20
2.2815087643
 30
0.0
 10
5.024943518
 20
2.2841997823
 30
0.0
 10
5.030874347
 20
2.2868518685
 30
0.0
 10
5.0373533194
 20
2.2894619302
 30
0.0
 10
5.0470125209
 20
2.2929904472
 30
0.0
 10
5.0604121844
 20
2.2972260018
 30
0.0
 10
5.0780485188
 20
2.3019413302
 30
0.0
 10
5.0976063485
 20
2.306406074
 30
0.0
 10
5.1189739848
 20
2.3105912185
 30
0.0
 10
5.1338415834
 20
2.3130950783
 30
0.0
 10
5.1415533357
 20
2.3143041782
 30
0.0
  0
SPLINE
  5
34F
100
AcDbEntity
  8
ALL_ASSEMBLY_MEMBERS
100
AcDbSpline
 62
7
  6
CONTINUOUS
 70
0
 71
3
 72
13
 73
9
 74
0
 42
0.0000001
 43
0.0000001
 44
0.0000000001
 40
0.0
 40
0.0
 40
0.0
 40
0.0
 40
0.1111028138
 40
0.2276625887
 40
0.3489720922
 40
0.4742801302
 40
0.7338661269
 40
1.0
 40
1.0
 40
1.0
 40
1.0
 10
5.1644094707
 20
2.3176390499
 30
0.0
 10
5.1735286802
 20
2.3188759611
 30
0.0
 10
5.1922442171
 20
2.3211985281
 30
0.0
 10
5.2209966853
 20
2.3241853311
 30
0.0
 10
5.2509712835
 20
2.3267465141
 30
0.0
 10
5.2928045678
 20
2.329605093
 30
0.0
 10
5.3466865447
 20
2.3319749188
 30
0.0
 10
5.3902346969
 20
2.3326035695
 30
0.0
 10
5.4122787267
 20
2.3326035695
 30
0.0
  0
SPLINE
  5
350
100
AcDbEntity
  8
ALL_ASSEMBLY_MEMBERS
100
AcDbSpline
 62
7
  6
CONTINUOUS
 70
0
 71
3
 72
15
 73
11
 74
0
 42
0.0000001
 43
0.0000001
 44
0.0000000001
 40
0.0
 40
0.0
 40
0.0
 40
0.0
 40
0.1336554723
 40
0.2665739933
 40
0.3977719843
 40
0.526415529
 40
0.6517290532
 40
0.7729367467
 40
0.8892672133
 40
1.0
 40
1.0
 40
1.0
 40
1.0
 10
5.4122787267
 20
2.3926114589
 30
0.0
 10
5.4238096999
 20
2.3926114589
 30
0.0
 10
5.4468084241
 20
2.3924414984
 30
0.0
 10
5.4811185421
 20
2.3916814222
 30
0.0
 10
5.5149812658
 20
2.390418409
 30
0.0
 10
5.5481650633
 20
2.3886626082
 30
0.0
 10
5.5804560278
 20
2.3864247319
 30
0.0
 10
5.6116453855
 20
2.3837210627
 30
0.0
 10
5.64152801
 20
2.3805687134
 30
0.0
 10
5.6609654207
 20
2.3781168957
 30
0.0
 10
5.6704291001
 20
2.3768110754
 30
0.0
  0
SPLINE
  5
351
100
AcDbEntity
  8
ALL_ASSEMBLY_MEMBERS
100
AcDbSpline
 62
7
  6
CONTINUOUS
 70
0
 71
3
 72
14
 73
10
 74
0
 42
0.0000001
 43
0.0000001
 44
0.0000000001
 40
0.0
 40
0.0
 40
0.0
 40
0.0
 40
0.294735538
 40
0.4317302304
 40
0.561327202
 40
0.6832053485
 40
0.797099303
 40
0.9027651421
 40
1.0
 40
1.0
 40
1.0
 40
1.0
 10
5.678310275
 20
2.3756970185
 30
0.0
 10
5.6898758196
 20
2.3740223965
 30
0.0
 10
5.7067831897
 20
2.3713165294
 30
0.0
 10
5.7286510642
 20
2.3671697124
 30
0.0
 10
5.7437219829
 20
2.3639837324
 30
0.0
 10
5.7578225663
 20
2.3606547701
 30
0.0
 10
5.770912539
 20
2.3571938159
 30
0.0
 10
5.7829537678
 20
2.3536112799
 30
0.0
 10
5.7905794627
 20
2.3510402201
 30
0.0
 10
5.7942042971
 20
2.3497271662
 30
0.0
  0
SPLINE
  5
352
100
AcDbEntity
  8
ALL_ASSEMBLY_MEMBERS
100
AcDbSpline
 62
7
  6
CONTINUOUS
 70
0
 71
3
 72
20
 73
16
 74
0
 42
0.0000001
 43
0.0000001
 44
0.0000000001
 40
0.0
 40
0.0
 40
0.0
 40
0.0
 40
0.1875343048
 40
0.3554192889
 40
0.5037542441
 40
0.5707642798
 40
0.633135836
 40
0.6910254658
 40
0.7446434349
 40
0.7942733436
 40
0.8402991014
 40
0.8832118953
 40
0.9236230841
 40
0.9622698257
 40
1.0
 40
1.0
 40
1.0
 40
1.0
 10
5.7942042971
 20
2.3497271662
 30
0.0
 10
5.7977475575
 20
2.3484436617
 30
0.0
 10
5.8044117877
 20
2.3458643397
 30
0.0
 10
5.8136368029
 20
2.3416817687
 30
0.0
 10
5.8204157791
 20
2.3380067002
 30
0.0
 10
5.825120432
 20
2.3350006698
 30
0.0
 10
5.8281797741
 20
2.3328055535
 30
0.0
 10
5.8308887317
 20
2.3305944789
 30
0.0
 10
5.8332448895
 20
2.3283684333
 30
0.0
 10
5.8352457964
 20
2.3261279833
 30
0.0
 10
5.8368897646
 20
2.3238739901
 30
0.0
 10
5.8381747059
 20
2.321607039
 30
0.0
 10
5.8390974888
 20
2.3193277228
 30
0.0
 10
5.8396540375
 20
2.3170388887
 30
0.0
 10
5.8397787269
 20
2.315501372
 30
0.0
 10
5.8397787267
 20
2.3147431716
 30
0.0
  0
SPLINE
  5
353
100
AcDbEntity
  8
ALL_ASSEMBLY_MEMBERS
100
AcDbSpline
 62
7
  6
CONTINUOUS
 70
0
 71
3
 72
15
 73
11
 74
0
 42
0.0000001
 43
0.0000001
 44
0.0000000001
 40
0.0
 40
0.0
 40
0.0
 40
0.0
 40
0.1344259636
 40
0.268037988
 40
0.3997714128
 40
0.5287283402
 40
0.6540633021
 40
0.7749313375
 40
0.8904990269
 40
1.0
 40
1.0
 40
1.0
 40
1.0
 10
5.4122787267
 20
2.347171309
 30
0.0
 10
5.4242831821
 20
2.347171309
 30
0.0
 10
5.4482198101
 20
2.3469871959
 30
0.0
 10
5.4839119189
 20
2.3461639027
 30
0.0
 10
5.5190987083
 20
2.3447961868
 30
0.0
 10
5.5535205921
 20
2.3428961716
 30
0.0
 10
5.5869371876
 20
2.340476139
 30
0.0
 10
5.6191136159
 20
2.3375557435
 30
0.0
 10
5.6498205162
 20
2.3341539753
 30
0.0
 10
5.6697464805
 20
2.3315059033
 30
0.0
 10
5.6794228057
 20
2.3300952247
 30
0.0
  0
LINE
  5
354
100
AcDbEntity
  8
ALL_ASSEMBLY_MEMBERS
100
AcDbLine
 62
7
  6
CONTINUOUS
 10
5.6871070496
 20
2.3289479928
 11
5.6887152267
 21
2.3287009067
  0
SPLINE
  5
355
100
AcDbEntity
  8
ALL_ASSEMBLY_MEMBERS
100
AcDbSpline
 62
7
  6
CONTINUOUS
 70
0
 71
3
 72
26
 73
22
 74
0
 42
0.0000001
 43
0.0000001
 44
0.0000000001
 40
0.0
 40
0.0
 40
0.0
 40
0.0
 40
0.2025250645
 40
0.2962284684
 40
0.3845618124
 40
0.4673240859
 40
0.5443371399
 40
0.6154406161
 40
0.6805272655
 40
0.739540163
 40
0.7667660539
 40
0.7924747938
 40
0.839397307
 40
0.8805283142
 40
0.9162486735
 40
0.9322884165
 40
0.9472601198
 40
0.9613157337
 40
0.9746403491
 40
0.9874526359
 40
1.0
 40
1.0
 40
1.0
 40
1.0
 10
5.6887152267
 20
2.3287009067
 30
0.0
 10
5.6999711925
 20
2.3269628274
 30
0.0
 10
5.7163983264
 20
2.3241635205
 30
0.0
 10
5.7375979007
 20
2.3198807659
 30
0.0
 10
5.752126012
 20
2.3166046761
 30
0.0
 10
5.7656567453
 20
2.3131917653
 30
0.0
 10
5.7781511762
 20
2.3096527664
 30
0.0
 10
5.7895730496
 20
2.3059971933
 30
0.0
 10
5.7998897197
 20
2.3022362864
 30
0.0
 10
5.8077411743
 20
2.2989419769
 30
0.0
 10
5.8134310226
 20
2.2962449615
 30
0.0
 10
5.8184229926
 20
2.2936714411
 30
0.0
 10
5.8239506363
 20
2.29043444
 30
0.0
 10
5.8296086965
 20
2.2863601853
 30
0.0
 10
5.8334532527
 20
2.2827919944
 30
0.0
 10
5.835853531
 20
2.2799008174
 30
0.0
 10
5.8372783341
 20
2.2777992752
 30
0.0
 10
5.8383912959
 20
2.2756873904
 30
0.0
 10
5.8391898671
 20
2.2735657835
 30
0.0
 10
5.8396710535
 20
2.2714369809
 30
0.0
 10
5.8397787267
 20
2.2700086456
 30
0.0
 10
5.8397787267
 20
2.2693030216
 30
0.0
  0
SPLINE
  5
356
100
AcDbEntity
  8
ALL_ASSEMBLY_MEMBERS
100
AcDbSpline
 62
7
  6
CONTINUOUS
 70
0
 71
3
 72
9
 73
5
 74
0
 42
0.0000001
 43
0.0000001
 44
0.0000000001
 40
0.0
 40
0.0
 40
0.0
 40
0.0
 40
0.5067303761
 40
1.0
 40
1.0
 40
1.0
 40
1.0
 10
5.4122787267
 20
2.4028339399
 30
0.0
 10
5.435290062
 20
2.4028339399
 30
0.0
 10
5.4807040237
 20
2.4021541209
 30
0.0
 10
5.5260769579
 20
2.4000805796
 30
0.0
 10
5.5484329043
 20
2.3986754051
 30
0.0
  0
SPLINE
  5
357
100
AcDbEntity
  8
ALL_ASSEMBLY_MEMBERS
100
AcDbSpline
 62
7
  6
CONTINUOUS
 70
0
 71
3
 72
26
 73
22
 74
0
 42
0.0000001
 43
0.0000001
 44
0.0000000001
 40
0.0
 40
0.0
 40
0.0
 40
0.0
 40
0.0125471203
 40
0.0253597242
 40
0.0386851157
 40
0.0527418525
 40
0.0677149184
 40
0.0837561698
 40
0.1194796918
 40
0.1606136631
 40
0.2075386874
 40
0.2332484642
 40
0.2604752259
 40
0.3194893299
 40
0.3845764456
 40
0.4556796376
 40
0.5326916467
 40
0.615452132
 40
0.7037829739
 40
0.797483191
 40
1.0
 40
1.0
 40
1.0
 40
1.0
 10
4.9847787276
 20
2.2693080138
 30
0.0
 10
4.9847789766
 20
2.2700136032
 30
0.0
 10
4.9848871447
 20
2.2714418613
 30
0.0
 10
4.9853690126
 20
2.2735704894
 30
0.0
 10
4.9861682113
 20
2.275691918
 30
0.0
 10
4.9872817478
 20
2.2778036239
 30
0.0
 10
4.9887070751
 20
2.2799049881
 30
0.0
 10
4.9911080071
 20
2.2827959149
 30
0.0
 10
4.9949532215
 20
2.2863637812
 30
0.0
 10
5.0006118707
 20
2.2904376862
 30
0.0
 10
5.0061398696
 20
2.2936744237
 30
0.0
 10
5.0111320429
 20
2.2962477295
 30
0.0
 10
5.016821996
 20
2.2989444972
 30
0.0
 10
5.0246734564
 20
2.3022385079
 30
0.0
 10
5.0349899835
 20
2.3059990852
 30
0.0
 10
5.0464115358
 20
2.3096543374
 30
0.0
 10
5.0589054726
 20
2.3131930281
 30
0.0
 10
5.072435545
 20
2.3166056452
 30
0.0
 10
5.0869628364
 20
2.3198814579
 30
0.0
 10
5.108161032
 20
2.3241638501
 30
0.0
 10
5.1245870482
 20
2.3269629489
 30
0.0
 10
5.1358422227
 20
2.328700906
 30
0.0
  0
LINE
  5
358
100
AcDbEntity
  8
ALL_ASSEMBLY_MEMBERS
100
AcDbLine
 62
7
  6
CONTINUOUS
 10
5.1358422227
 20
2.328700906
 11
5.1374506592
 21
2.3289480319
  0
LINE
  5
359
100
AcDbEntity
  8
ALL_ASSEMBLY_MEMBERS
100
AcDbLine
 62
7
  6
CONTINUOUS
 10
5.155246416
 20
2.3315246692
 11
5.1569529576
 21
2.3317573331
  0
SPLINE
  5
35A
100
AcDbEntity
  8
ALL_ASSEMBLY_MEMBERS
100
AcDbSpline
 62
7
  6
CONTINUOUS
 70
0
 71
3
 72
13
 73
9
 74
0
 42
0.0000001
 43
0.0000001
 44
0.0000000001
 40
0.0
 40
0.0
 40
0.0
 40
0.0
 40
0.1111946659
 40
0.2278110842
 40
0.3491454461
 40
0.4744516911
 40
0.7339750066
 40
1.0
 40
1.0
 40
1.0
 40
1.0
 10
5.1576528752
 20
2.3318520611
 30
0.0
 10
5.1670289659
 20
2.3331183365
 30
0.0
 10
5.1862680334
 20
2.3354960646
 30
0.0
 10
5.2158195953
 20
2.3385540146
 30
0.0
 10
5.2466182583
 20
2.341176049
 30
0.0
 10
5.2895884098
 20
2.3441020111
 30
0.0
 10
5.3449236847
 20
2.346527711
 30
0.0
 10
5.3896434787
 20
2.347171309
 30
0.0
 10
5.4122787267
 20
2.347171309
 30
0.0
  0
SPLINE
  5
35B
100
AcDbEntity
  8
ALL_ASSEMBLY_MEMBERS
100
AcDbSpline
 62
7
  6
CONTINUOUS
 70
0
 71
3
 72
9
 73
5
 74
0
 42
0.0000001
 43
0.0000001
 44
0.0000000001
 40
0.0
 40
0.0
 40
0.0
 40
0.0
 40
0.4932696254
 40
1.0
 40
1.0
 40
1.0
 40
1.0
 10
5.2761245048
 20
2.3986754023
 30
0.0
 10
5.2984804585
 20
2.4000805778
 30
0.0
 10
5.3438534075
 20
2.4021541206
 30
0.0
 10
5.389267384
 20
2.4028339399
 30
0.0
 10
5.4122787267
 20
2.4028339399
 30
0.0
  0
ENDSEC
  0
SECTION
  2
OBJECTS
  0
DICTIONARY
  5
C
100
AcDbDictionary
280
0
281
1
  3
ACAD_GROUP
350
D
  3
ACAD_MLINESTYLE
350
17
  3
ACAD_LAYOUT
350
1A
  3
ACAD_PLOTSETTINGS
350
19
  3
ACAD_PLOTSTYLENAME
350
E
  0
DICTIONARY
  5
D
102
{ACAD_REACTORS
330
C
102
}
100
AcDbDictionary
280
0
281
1
  0
ACDBDICTIONARYWDFLT
  5
E
102
{ACAD_REACTORS
330
C
102
}
100
AcDbDictionary
281
1
  3
Normal
350
F
100
AcDbDictionaryWithDefault
340
F
  0
DICTIONARY
  5
17
102
{ACAD_REACTORS
330
C
102
}
100
AcDbDictionary
280
0
281
1
  3
Standard
350
18
  0
DICTIONARY
  5
19
102
{ACAD_REACTORS
330
C
102
}
100
AcDbDictionary
281
1
  0
DICTIONARY
  5
1A
102
{ACAD_REACTORS
330
C
102
}
100
AcDbDictionary
281
1
  3
Model
350
35C
  3
Layout1
350
35D
  0
ACDBPLACEHOLDER
  5
F
102
{ACAD_REACTORS
330
E
102
}
  0
MLINESTYLE
  5
18
102
{ACAD_REACTORS
330
17
102
}
100
AcDbMlineStyle
  2
STANDARD
 70
0
  3

 62
256
 51
90.0
 52
90.0
 71
2
 49
0.5
 62
256
  6
BYLAYER
 49
-0.5
 62
256
  6
BYLAYER
  0
LAYOUT
  5
35C
102
{ACAD_REACTORS
330
1A
102
}
100
AcDbPlotSettings
  1

  2
none_device
  4
ANSI_A_(11.00_x_8.50_Inches)
  6

 40
0.0
 41
0.0
 42
0.0
 43
0.0
 44
279.4
 45
215.9
 46
0.0
 47
0.0
 48
0.0
 49
0.0
140
0.0
141
0.0
142
1.0
143
1.0
 70
1024
 72
0
 73
0
 74
0
  7

 75
0
147
1.0
148
0.0
149
0.0
100
AcDbLayout
  1
Model
 70
0
 71
0
 10
0.0
 20
0.0
 11
11.0
 21
8.5
 12
0.0
 22
0.0
 32
0.0
 14
0.0
 24
0.0
 34
0.0
 15
0.0
 25
0.0
 35
0.0
146
0.0
 13
0.0
 23
0.0
 33
0.0
 16
1.0
 26
0.0
 36
0.0
 17
0.0
 27
1.0
 37
0.0
 76
0
330
22D
345
0
346
0
  0
LAYOUT
  5
35D
102
{ACAD_REACTORS
330
1A
102
}
100
AcDbPlotSettings
  1

  2
none_device
  4
ANSI_A_(11.00_x_8.50_Inches)
  6

 40
0.0
 41
0.0
 42
0.0
 43
0.0
 44
279.4
 45
215.9
 46
0.0
 47
0.0
 48
0.0
 49
0.0
140
0.0
141
0.0
142
1.0
143
1.0
 70
0
 72
0
 73
0
 74
0
  7

 75
0
147
1.0
148
0.0
149
0.0
100
AcDbLayout
  1
Layout1
 70
0
 71
1
 10
0.0
 20
0.0
 11
11.0
 21
8.5
 12
0.0
 22
0.0
 32
0.0
 14
0.0
 24
0.0
 34
0.0
 15
0.0
 25
0.0
 35
0.0
146
0.0
 13
0.0
 23
0.0
 33
0.0
 16
1.0
 26
0.0
 36
0.0
 17
0.0
 27
1.0
 37
0.0
 76
0
330
22E
345
0
346
0
  0
ENDSEC
  0
EOF
