999
DXF file: E:\BT Custom\CADOUTPUT\_RIGHT.dxf
999
Pro/ENGINEER 2018400 by Parametric Technology Corporation
  0
SECTION
  2
HEADER
  9
$ACADVER
  1
AC1018
  9
$DWGCODEPAGE
  3
ANSI_1252
  9
$EXTMAX
 10
22.0
 20
17.0
 30
0.0
  9
$EXTMIN
 10
0.0
 20
0.0
 30
0.0
  9
$LIMMIN
 10
0.0
 20
0.0
  9
$LIMMAX
 10
22.0
 20
17.0
  9
$VIEWCTR
 10
11.0
 20
8.5
  9
$VIEWSIZE
 40
17.0
  9
$CLAYER
  8
0
  9
$LTSCALE
 40
1.21
  9
$CELTYPE
  6
BYLAYER
  9
$DIMSCALE
 40
1.0
  9
$DIMASZ
 40
0.1
  9
$DIMEXO
 40
0.0625
  9
$DIMDLI
 40
0.836
  9
$DIMEXE
 40
0.125
  9
$DIMCEN
 40
0.198
  9
$DIMLFAC
 40
1.0
  9
$DIMBLK
  1
_FILLED
  9
$DIMALT
 70
1
  9
$DIMALTD
 70
2
  9
$DIMALTTD
 70
2
  9
$DIMALTF
 40
25.4
  9
$DIMTXT
 40
0.08
  9
$DIMTOL
 70
1
  9
$DIMLIM
 70
0
  9
$DIMTFAC
 40
1.0
  9
$DIMTP
 40
0.001
  9
$DIMTM
 40
0.001
  9
$DIMGAP
 40
0.09
  9
$DIMDSEP
 70
46
  9
$AUNITS
 70
0
  9
$PDMODE
 70
3
  9
$PDSIZE
 40
0.06
  9
$HANDSEED
  5
4EF
  9
$TILEMODE
 70
1
  9
$MEASUREMENT
 70
0
  9
$INSUNITS
 70
1
  0
ENDSEC
  0
SECTION
  2
CLASSES
  0
CLASS
  1
ACDBDICTIONARYWDFLT
  2
AcDbDictionaryWithDefault
  3
AutoCAD 2000
 90
0
 91
1
280
0
281
0
  0
CLASS
  1
ACDBPLACEHOLDER
  2
AcDbPlaceHolder
  3
AutoCAD 2000
 90
0
 91
1
280
0
281
0
  0
CLASS
  1
LAYOUT
  2
AcDbLayout
  3
AutoCAD 2000
 90
0
 91
0
280
0
281
0
  0
ENDSEC
  0
SECTION
  2
TABLES
  0
TABLE
  2
VPORT
  5
8
100
AcDbSymbolTable
 70
2
  0
VPORT
  5
1F4
100
AcDbSymbolTableRecord
100
AcDbViewportTableRecord
  2
*ACTIVE
 70
0
 10
0.0
 20
0.0
 11
1.0
 21
1.0
 12
11.0
 22
8.5
 13
0.0
 23
0.0
 14
1.0
 24
1.0
 15
0.0
 25
0.0
 16
0.0
 26
0.0
 36
1.0
 17
0.0
 27
0.0
 37
0.0
 40
17.0
 41
1.2941176471
 42
50.0
 43
0.0
 44
0.0
 50
0.0
 51
0.0
 71
0
 72
100
 73
1
 74
1
 75
0
 76
0
 77
0
 78
0
  0
ENDTAB
  0
TABLE
  2
LTYPE
  5
5
100
AcDbSymbolTable
 70
6
  0
LTYPE
  5
14
100
AcDbSymbolTableRecord
100
AcDbLinetypeTableRecord
  2
BYBLOCK
 70
0
  3

 72
65
 73
0
 40
0.0
  0
LTYPE
  5
15
100
AcDbSymbolTableRecord
100
AcDbLinetypeTableRecord
  2
BYLAYER
 70
0
  3

 72
65
 73
0
 40
0.0
  0
LTYPE
  5
16
100
AcDbSymbolTableRecord
100
AcDbLinetypeTableRecord
  2
CONTINUOUS
 70
64
  3
Solid line
 72
65
 73
0
 40
0.0
  0
LTYPE
  5
1F5
100
AcDbSymbolTableRecord
100
AcDbLinetypeTableRecord
  2
CENTER
 70
64
  3
____ _ ____ _ ____ _ ____ _ ____ _ ____ _ ____
 72
65
 73
4
 40
0.6
 49
0.375
 74
0
 49
-0.075
 74
0
 49
0.075
 74
0
 49
-0.075
 74
0
  0
LTYPE
  5
1F6
100
AcDbSymbolTableRecord
100
AcDbLinetypeTableRecord
  2
HIDDEN
 70
64
  3
- - - - - - - - - - - - - - - - - - - -
 72
65
 73
2
 40
0.2
 49
0.1
 74
0
 49
-0.1
 74
0
  0
LTYPE
  5
1F7
100
AcDbSymbolTableRecord
100
AcDbLinetypeTableRecord
  2
PHANTOM
 70
64
  3
_____ _ _ _____ _ _ _____ _ _ _____
 72
65
 73
6
 40
0.8
 49
0.45
 74
0
 49
-0.05
 74
0
 49
0.1
 74
0
 49
-0.05
 74
0
 49
0.1
 74
0
 49
-0.05
 74
0
  0
LTYPE
  5
1F8
100
AcDbSymbolTableRecord
100
AcDbLinetypeTableRecord
  2
DOT
 70
64
  3
. . . . . . . . . . . . . . . . . . . .
 72
65
 73
2
 40
0.2
 49
0.1
 74
0
 49
-0.1
 74
0
  0
LTYPE
  5
1F9
100
AcDbSymbolTableRecord
100
AcDbLinetypeTableRecord
  2
DASHED
 70
64
  3
- - - - - - - - - - - - - - - - - - - -
 72
65
 73
2
 40
0.2
 49
0.1
 74
0
 49
-0.1
 74
0
  0
ENDTAB
  0
TABLE
  2
LAYER
  5
2
100
AcDbSymbolTable
 70
36
  0
LAYER
  5
10
100
AcDbSymbolTableRecord
100
AcDbLayerTableRecord
  2
0
 70
0
 62
7
  6
CONTINUOUS
370
-3
390
F
  0
LAYER
  5
1FA
100
AcDbSymbolTableRecord
100
AcDbLayerTableRecord
  2
DEFAULT_1
 70
0
 62
7
  6
CENTER
370
-3
390
F
  0
LAYER
  5
1FB
100
AcDbSymbolTableRecord
100
AcDbLayerTableRecord
  2
DEFAULT_2
 70
0
 62
8
  6
HIDDEN
370
-3
390
F
  0
LAYER
  5
1FC
100
AcDbSymbolTableRecord
100
AcDbLayerTableRecord
  2
DEFAULT_3
 70
0
 62
7
  6
PHANTOM
370
-3
390
F
  0
LAYER
  5
1FD
100
AcDbSymbolTableRecord
100
AcDbLayerTableRecord
  2
ALL_FEATURES
 70
0
 62
7
  6
CONTINUOUS
370
-3
390
F
  0
LAYER
  5
1FE
100
AcDbSymbolTableRecord
100
AcDbLayerTableRecord
  2
AXES_FEATURES
 70
0
 62
7
  6
CONTINUOUS
370
-3
390
F
  0
LAYER
  5
1FF
100
AcDbSymbolTableRecord
100
AcDbLayerTableRecord
  2
DEFAULT_COORDINATE_SYSTEM
 70
0
 62
7
  6
CONTINUOUS
370
-3
390
F
  0
LAYER
  5
200
100
AcDbSymbolTableRecord
100
AcDbLayerTableRecord
  2
DEFAULT_DATUM_AXES
 70
0
 62
7
  6
CONTINUOUS
370
-3
390
F
  0
LAYER
  5
201
100
AcDbSymbolTableRecord
100
AcDbLayerTableRecord
  2
DEFAULT_DATUM_PLANES
 70
0
 62
7
  6
CONTINUOUS
370
-3
390
F
  0
LAYER
  5
202
100
AcDbSymbolTableRecord
100
AcDbLayerTableRecord
  2
DIMENSIONS
 70
0
 62
7
  6
CONTINUOUS
370
-3
390
F
  0
ENDTAB
  0
TABLE
  2
STYLE
  5
3
100
AcDbSymbolTable
 70
1
  0
STYLE
  5
11
100
AcDbSymbolTableRecord
100
AcDbTextStyleTableRecord
  2
STANDARD
 70
0
 40
0.0
 41
0.8
 50
0.0
 71
0
 42
0.2
  3
txt
  4

  0
STYLE
  5
203
100
AcDbSymbolTableRecord
100
AcDbTextStyleTableRecord
  2
TEXTSTYLE_1
 70
0
 40
0.0
 41
0.8
 50
0.0
 71
0
 42
0.2
  3
gdt
  4

  0
ENDTAB
  0
TABLE
  2
VIEW
  5
6
100
AcDbSymbolTable
 70
0
  0
ENDTAB
  0
TABLE
  2
UCS
  5
7
100
AcDbSymbolTable
 70
0
  0
ENDTAB
  0
TABLE
  2
APPID
  5
9
100
AcDbSymbolTable
 70
1
  0
APPID
  5
204
100
AcDbSymbolTableRecord
100
AcDbRegAppTableRecord
  2
ACAD
 70
0
  0
ENDTAB
  0
TABLE
  2
BLOCK_RECORD
  5
1
100
AcDbSymbolTable
 70
0
  0
BLOCK_RECORD
  5
205
100
AcDbSymbolTableRecord
100
AcDbBlockTableRecord
  2
*Model_Space
  0
BLOCK_RECORD
  5
206
100
AcDbSymbolTableRecord
100
AcDbBlockTableRecord
  2
*Paper_Space
  0
BLOCK_RECORD
  5
207
100
AcDbSymbolTableRecord
100
AcDbBlockTableRecord
  2
_FILLED
  0
ENDTAB
  0
TABLE
  2
DIMSTYLE
  5
A
100
AcDbSymbolTable
 70
1
100
AcDbDimStyleTable
 71
0
  0
DIMSTYLE
105
208
100
AcDbSymbolTableRecord
100
AcDbDimStyleTableRecord
  2
STANDARD
 70
0
  3

  4

 40
1.0
 41
0.1
 42
0.0625
 43
0.38
 44
0.125
 45
0.0
 46
0.0
 47
0.001
 48
0.001
140
0.08
141
0.09
142
0.0
143
25.4
144
1.0
145
0.0
146
1.0
147
0.09
 71
1.0
 72
0.0
 73
1
 74
1
 75
0
 76
0
 77
0
 78
4
 79
1
170
1
171
2
172
0
173
0
174
0
175
0
176
0
177
0
178
0
270
2
179
3
271
3
272
3
273
2
274
2
275
0
280
0
281
0
282
0
283
1
284
4
285
0
286
0
287
3
288
0
340
11
278
46
341
207
342
207
343
207
344
207
  0
ENDTAB
  0
ENDSEC
  0
SECTION
  2
BLOCKS
  0
BLOCK
  5
20
100
AcDbEntity
  8
0
100
AcDbBlockBegin
  2
*Model_Space
 70
0
 10
0.0
 20
0.0
 30
0.0
  3
*Model_Space
  1

  0
ENDBLK
  5
21
100
AcDbEntity
  8
0
100
AcDbBlockEnd
  0
BLOCK
  5
1C
100
AcDbEntity
  8
0
100
AcDbBlockBegin
  2
*Paper_Space
 70
0
 10
0.0
 20
0.0
 30
0.0
  3
*Paper_Space
  1

  0
ENDBLK
  5
1D
100
AcDbEntity
  8
0
100
AcDbBlockEnd
  0
BLOCK
  5
209
100
AcDbEntity
  8
0
100
AcDbBlockBegin
  2
_FILLED
 70
64
 10
0.0
 20
0.0
  3
_FILLED
  1

  0
SOLID
  5
20A
100
AcDbEntity
  8
0
  6
BYBLOCK
 62
0
100
AcDbTrace
 10
0.0
 20
0.0
 11
-1.0
 21
0.2
 12
-1.0
 22
-0.2
 13
-1.0
 23
-0.2
  0
ENDBLK
  5
20B
100
AcDbEntity
  8
0
  6
BYBLOCK
 62
0
100
AcDbBlockEnd
  0
ENDSEC
  0
SECTION
  2
ENTITIES
  0
LINE
  5
20C
100
AcDbEntity
  8
0
100
AcDbLine
 62
7
  6
CONTINUOUS
 10
5.7099834891
 20
8.3440390679
 11
5.7099834891
 21
7.1640390679
  0
LINE
  5
20D
100
AcDbEntity
  8
0
100
AcDbLine
 62
9
  6
CONTINUOUS
 10
5.7899834891
 20
7.1240390679
 11
5.7899834891
 21
8.3840390679
  0
LINE
  5
20E
100
AcDbEntity
  8
0
100
AcDbLine
 62
7
  6
CONTINUOUS
 10
7.968098421
 20
12.7945953195
 11
8.662900731
 21
13.3776036814
  0
LINE
  5
20F
100
AcDbEntity
  8
0
100
AcDbLine
 62
7
  6
CONTINUOUS
 10
7.946565675
 20
12.7634731273
 11
8.6972892292
 21
13.3934049848
  0
LINE
  5
210
100
AcDbEntity
  8
0
100
AcDbLine
 62
9
  6
CONTINUOUS
 10
7.9453331066
 20
12.7493848067
 11
8.7113775497
 21
13.3921724164
  0
LINE
  5
211
100
AcDbEntity
  8
0
100
AcDbLine
 62
7
  6
CONTINUOUS
 10
13.1409834891
 20
4.6240390679
 11
15.6409834891
 21
4.6240390679
  0
LINE
  5
212
100
AcDbEntity
  8
0
100
AcDbLine
 62
9
  6
CONTINUOUS
 10
6.3399834891
 20
7.1240390679
 11
6.3399834891
 21
7.5540390679
  0
LINE
  5
213
100
AcDbEntity
  8
0
100
AcDbLine
 62
7
  6
CONTINUOUS
 10
6.3799834891
 20
7.1640390679
 11
6.3799834891
 21
7.5540390679
  0
LINE
  5
214
100
AcDbEntity
  8
0
100
AcDbLine
 62
9
  6
CONTINUOUS
 10
6.5399834891
 20
7.7540390679
 11
6.5399834891
 21
7.7140390679
  0
LINE
  5
215
100
AcDbEntity
  8
0
100
AcDbLine
 62
7
  6
CONTINUOUS
 10
8.2373177021
 20
12.3547394013
 11
8.2578885818
 21
12.3768956963
  0
LINE
  5
216
100
AcDbEntity
  8
0
100
AcDbLine
 62
9
  6
CONTINUOUS
 10
8.2326422714
 20
12.2855458847
 11
8.2332565162
 21
12.2860612973
  0
LINE
  5
217
100
AcDbEntity
  8
0
100
AcDbLine
 62
9
  6
CONTINUOUS
 10
8.2418474638
 20
12.2932699582
 11
8.2563927014
 21
12.3054748618
  0
LINE
  5
218
100
AcDbEntity
  8
0
100
AcDbLine
 62
7
  6
CONTINUOUS
 10
8.3015964631
 20
12.278134957
 11
8.3269882499
 21
12.2945459186
  0
LINE
  5
219
100
AcDbEntity
  8
0
100
AcDbLine
 62
9
  6
CONTINUOUS
 10
13.1409834891
 20
4.8940390681
 11
15.6409834891
 21
4.8940390681
  0
LINE
  5
21A
100
AcDbEntity
  8
0
100
AcDbLine
 62
7
  6
CONTINUOUS
 10
13.1809834891
 20
4.9340390679
 11
15.6009834891
 21
4.9340390679
  0
LINE
  5
21B
100
AcDbEntity
  8
0
100
AcDbLine
 62
9
  6
CONTINUOUS
 10
13.3759834891
 20
4.9440390679
 11
13.8434834891
 21
4.9440390679
  0
LINE
  5
21C
100
AcDbEntity
  8
0
100
AcDbLine
 62
9
  6
CONTINUOUS
 10
14.9384834891
 20
4.9440390679
 11
15.4059834891
 21
4.9440390679
  0
LINE
  5
21D
100
AcDbEntity
  8
0
100
AcDbLine
 62
7
  6
CONTINUOUS
 10
13.4059834891
 20
4.9740390679
 11
13.8434834891
 21
4.9740390679
  0
LINE
  5
21E
100
AcDbEntity
  8
0
100
AcDbLine
 62
7
  6
CONTINUOUS
 10
14.9384834891
 20
4.9740390679
 11
15.3759834891
 21
4.9740390679
  0
LWPOLYLINE
  5
21F
100
AcDbEntity
  8
0
100
AcDbPolyline
 62
7
  6
CONTINUOUS
 90
7
 70
0
 10
8.2230594724
 20
12.3281463483
 10
8.2219424118
 20
12.3257186195
 10
8.2208328978
 20
12.3219489792
 10
8.2203297756
 20
12.3179624852
 10
8.2204138955
 20
12.3138211328
 10
8.2210519464
 20
12.3095950028
 10
8.2221942996
 20
12.3053575522
  0
LWPOLYLINE
  5
220
100
AcDbEntity
  8
0
100
AcDbPolyline
 62
7
  6
CONTINUOUS
 90
8
 70
0
 10
8.2163242533
 20
12.3155844431
 10
8.2159427459
 20
12.3147660852
 10
8.2154882286
 20
12.3131972641
 10
8.2153363822
 20
12.3116039546
 10
8.215441824
 20
12.3100745349
 10
8.2157406753
 20
12.3086228488
 10
8.2161944022
 20
12.3071994771
 10
8.2167897773
 20
12.3057510361
  0
LINE
  5
221
100
AcDbEntity
  8
0
100
AcDbLine
 62
7
  6
CONTINUOUS
 10
8.2163238611
 20
12.3155837405
 11
8.2373177021
 21
12.3547394013
  0
LINE
  5
222
100
AcDbEntity
  8
0
100
AcDbLine
 62
7
  6
CONTINUOUS
 10
8.4027322679
 20
12.093430852
 11
8.4237261089
 21
12.1325865128
  0
LINE
  5
223
100
AcDbEntity
  8
0
100
AcDbLine
 62
7
  6
CONTINUOUS
 10
8.4237261089
 20
12.1325865128
 11
8.4442969887
 21
12.1547428078
  0
LINE
  5
224
100
AcDbEntity
  8
0
100
AcDbLine
 62
7
  6
CONTINUOUS
 10
8.6101345157
 20
11.9104336243
 11
8.6307053955
 21
11.9325899193
  0
LINE
  5
225
100
AcDbEntity
  8
0
100
AcDbLine
 62
9
  6
CONTINUOUS
 10
8.4190506782
 20
12.0633929962
 11
8.419664923
 21
12.0639084087
  0
LINE
  5
226
100
AcDbEntity
  8
0
100
AcDbLine
 62
9
  6
CONTINUOUS
 10
8.4282558706
 20
12.0711170697
 11
8.4428011083
 21
12.0833219733
  0
LINE
  5
227
100
AcDbEntity
  8
0
100
AcDbLine
 62
9
  6
CONTINUOUS
 10
8.605459085
 20
11.8412401077
 11
8.6060733298
 21
11.8417555202
  0
LINE
  5
228
100
AcDbEntity
  8
0
100
AcDbLine
 62
9
  6
CONTINUOUS
 10
8.6146642774
 20
11.8489641812
 11
8.6292095151
 21
11.8611690848
  0
LINE
  5
229
100
AcDbEntity
  8
0
100
AcDbLine
 62
7
  6
CONTINUOUS
 10
8.4880048699
 20
12.0559820685
 11
8.5133966567
 21
12.0723930301
  0
LINE
  5
22A
100
AcDbEntity
  8
0
100
AcDbLine
 62
7
  6
CONTINUOUS
 10
8.2593900074
 20
12.264259331
 11
8.3015964631
 21
12.278134957
  0
LINE
  5
22B
100
AcDbEntity
  8
0
100
AcDbLine
 62
7
  6
CONTINUOUS
 10
8.4457984142
 20
12.0421064425
 11
8.4880048699
 21
12.0559820685
  0
LINE
  5
22C
100
AcDbEntity
  8
0
100
AcDbLine
 62
9
  6
CONTINUOUS
 10
13.1509834891
 20
5.1940390679
 11
13.8109834891
 21
5.1940390679
  0
LINE
  5
22D
100
AcDbEntity
  8
0
100
AcDbLine
 62
9
  6
CONTINUOUS
 10
14.9709834891
 20
5.1940390679
 11
15.6309834891
 21
5.1940390679
  0
LINE
  5
22E
100
AcDbEntity
  8
0
100
AcDbLine
 62
7
  6
CONTINUOUS
 10
13.1909834891
 20
5.2340390679
 11
13.8109834891
 21
5.2340390679
  0
LINE
  5
22F
100
AcDbEntity
  8
0
100
AcDbLine
 62
7
  6
CONTINUOUS
 10
14.9709834891
 20
5.2340390679
 11
15.5909834891
 21
5.2340390679
  0
LINE
  5
230
100
AcDbEntity
  8
0
100
AcDbLine
 62
9
  6
CONTINUOUS
 10
14.157515441
 20
5.3433283899
 11
14.6244515373
 21
5.34332839
  0
LINE
  5
231
100
AcDbEntity
  8
0
100
AcDbLine
 62
9
  6
CONTINUOUS
 10
14.2576118432
 20
5.378683729
 11
14.524355135
 21
5.378683729
  0
LINE
  5
232
100
AcDbEntity
  8
0
100
AcDbLine
 62
9
  6
CONTINUOUS
 10
13.8434834891
 20
5.4662104994
 11
14.9384834891
 21
5.4662104994
  0
LWPOLYLINE
  5
233
100
AcDbEntity
  8
0
100
AcDbPolyline
 62
7
  6
CONTINUOUS
 90
7
 70
0
 10
8.4094678792
 20
12.1059934598
 10
8.4083508186
 20
12.103565731
 10
8.4072413047
 20
12.0997960907
 10
8.4067381824
 20
12.0958095967
 10
8.4068223024
 20
12.0916682443
 10
8.4074603532
 20
12.0874421143
 10
8.4086027064
 20
12.0832046637
  0
LWPOLYLINE
  5
234
100
AcDbEntity
  8
0
100
AcDbPolyline
 62
7
  6
CONTINUOUS
 90
7
 70
0
 10
8.595876286
 20
11.8838405713
 10
8.5947592254
 20
11.8814128425
 10
8.5936497115
 20
11.8776432022
 10
8.5931465892
 20
11.8736567082
 10
8.5932307092
 20
11.8695153558
 10
8.59386876
 20
11.8652892258
 10
8.5950111132
 20
11.8610517752
  0
LWPOLYLINE
  5
235
100
AcDbEntity
  8
0
100
AcDbPolyline
 62
7
  6
CONTINUOUS
 90
8
 70
0
 10
8.4027326601
 20
12.0934315545
 10
8.4023511527
 20
12.0926131967
 10
8.4018966355
 20
12.0910443756
 10
8.401744789
 20
12.0894510661
 10
8.4018502309
 20
12.0879216464
 10
8.4021490821
 20
12.0864699603
 10
8.402602809
 20
12.0850465886
 10
8.4031981841
 20
12.0835981476
  0
LWPOLYLINE
  5
236
100
AcDbEntity
  8
0
100
AcDbPolyline
 62
7
  6
CONTINUOUS
 90
8
 70
0
 10
8.5891410669
 20
11.871278666
 10
8.5887595595
 20
11.8704603082
 10
8.5883050423
 20
11.868891487
 10
8.5881531958
 20
11.8672981776
 10
8.5882586377
 20
11.8657687579
 10
8.5885574889
 20
11.8643170718
 10
8.5890112158
 20
11.8628937001
 10
8.5896065909
 20
11.8614452591
  0
LINE
  5
237
100
AcDbEntity
  8
0
100
AcDbLine
 62
7
  6
CONTINUOUS
 10
8.5891406747
 20
11.8712779635
 11
8.6101345157
 21
11.9104336243
  0
LINE
  5
238
100
AcDbEntity
  8
0
100
AcDbLine
 62
7
  6
CONTINUOUS
 10
8.7965429225
 20
11.6882807358
 11
8.8171138023
 21
11.7104370308
  0
LINE
  5
239
100
AcDbEntity
  8
0
100
AcDbLine
 62
9
  6
CONTINUOUS
 10
8.7918674918
 20
11.6190872192
 11
8.7924817366
 21
11.6196026317
  0
LINE
  5
23A
100
AcDbEntity
  8
0
100
AcDbLine
 62
9
  6
CONTINUOUS
 10
8.8010726842
 20
11.6268112927
 11
8.8156179219
 21
11.6390161963
  0
LINE
  5
23B
100
AcDbEntity
  8
0
100
AcDbLine
 62
7
  6
CONTINUOUS
 10
8.6744132767
 20
11.83382918
 11
8.6998050635
 21
11.8502401416
  0
LINE
  5
23C
100
AcDbEntity
  8
0
100
AcDbLine
 62
7
  6
CONTINUOUS
 10
8.8608216835
 20
11.6116762915
 11
8.8862134703
 21
11.6280872531
  0
LINE
  5
23D
100
AcDbEntity
  8
0
100
AcDbLine
 62
7
  6
CONTINUOUS
 10
8.632206821
 20
11.819953554
 11
8.6744132767
 21
11.83382918
  0
LINE
  5
23E
100
AcDbEntity
  8
0
100
AcDbLine
 62
7
  6
CONTINUOUS
 10
8.8186152278
 20
11.5978006655
 11
8.8608216835
 21
11.6116762915
  0
LINE
  5
23F
100
AcDbEntity
  8
0
100
AcDbLine
 62
9
  6
CONTINUOUS
 10
13.8734834891
 20
5.5376247837
 11
14.9084834891
 21
5.5376247837
  0
LINE
  5
240
100
AcDbEntity
  8
0
100
AcDbLine
 62
7
  6
CONTINUOUS
 10
14.8784834891
 20
5.6090390679
 11
13.9034834891
 21
5.6090390679
  0
LWPOLYLINE
  5
241
100
AcDbEntity
  8
0
100
AcDbPolyline
 62
7
  6
CONTINUOUS
 90
7
 70
0
 10
8.7822846929
 20
11.6616876828
 10
8.7811676322
 20
11.659259954
 10
8.7800581183
 20
11.6554903137
 10
8.779554996
 20
11.6515038197
 10
8.779639116
 20
11.6473624673
 10
8.7802771668
 20
11.6431363373
 10
8.7814195201
 20
11.6388988867
  0
LWPOLYLINE
  5
242
100
AcDbEntity
  8
0
100
AcDbPolyline
 62
7
  6
CONTINUOUS
 90
8
 70
0
 10
8.7755494737
 20
11.6491257775
 10
8.7751679663
 20
11.6483074197
 10
8.7747134491
 20
11.6467385985
 10
8.7745616026
 20
11.6451452891
 10
8.7746670445
 20
11.6436158694
 10
8.7749658957
 20
11.6421641832
 10
8.7754196226
 20
11.6407408116
 10
8.7760149977
 20
11.6392923706
  0
LWPOLYLINE
  5
243
100
AcDbEntity
  8
0
100
AcDbPolyline
 62
7
  6
CONTINUOUS
 90
8
 70
0
 10
8.9619578805
 20
11.426972889
 10
8.9615763732
 20
11.4261545312
 10
8.9611218559
 20
11.42458571
 10
8.9609700094
 20
11.4229924006
 10
8.9610754513
 20
11.4214629809
 10
8.9613743026
 20
11.4200112947
 10
8.9618280294
 20
11.4185879231
 10
8.9624234045
 20
11.4171394821
  0
LINE
  5
244
100
AcDbEntity
  8
0
100
AcDbLine
 62
7
  6
CONTINUOUS
 10
8.7755490816
 20
11.649125075
 11
8.7965429225
 21
11.6882807358
  0
LINE
  5
245
100
AcDbEntity
  8
0
100
AcDbLine
 62
7
  6
CONTINUOUS
 10
8.9619574884
 20
11.4269721865
 11
8.9829513293
 21
11.4661278473
  0
LINE
  5
246
100
AcDbEntity
  8
0
100
AcDbLine
 62
7
  6
CONTINUOUS
 10
8.9829513293
 20
11.4661278473
 11
9.0035222091
 21
11.4882841423
  0
LINE
  5
247
100
AcDbEntity
  8
0
100
AcDbLine
 62
7
  6
CONTINUOUS
 10
9.1693597361
 20
11.2439749588
 11
9.1899306159
 21
11.2661312538
  0
LINE
  5
248
100
AcDbEntity
  8
0
100
AcDbLine
 62
9
  6
CONTINUOUS
 10
8.9782758986
 20
11.3969343307
 11
8.9788901434
 21
11.3974497432
  0
LINE
  5
249
100
AcDbEntity
  8
0
100
AcDbLine
 62
9
  6
CONTINUOUS
 10
8.987481091
 20
11.4046584042
 11
9.0020263287
 21
11.4168633078
  0
LINE
  5
24A
100
AcDbEntity
  8
0
100
AcDbLine
 62
9
  6
CONTINUOUS
 10
9.1646843054
 20
11.1747814422
 11
9.1652985502
 21
11.1752968547
  0
LINE
  5
24B
100
AcDbEntity
  8
0
100
AcDbLine
 62
9
  6
CONTINUOUS
 10
9.1738894978
 20
11.1825055157
 11
9.1884347355
 21
11.1947104193
  0
LINE
  5
24C
100
AcDbEntity
  8
0
100
AcDbLine
 62
7
  6
CONTINUOUS
 10
9.0472300903
 20
11.389523403
 11
9.0726218771
 21
11.4059343646
  0
LINE
  5
24D
100
AcDbEntity
  8
0
100
AcDbLine
 62
7
  6
CONTINUOUS
 10
9.2336384971
 20
11.1673705145
 11
9.2590302839
 21
11.1837814761
  0
LINE
  5
24E
100
AcDbEntity
  8
0
100
AcDbLine
 62
7
  6
CONTINUOUS
 10
9.0050236346
 20
11.375647777
 11
9.0472300903
 21
11.389523403
  0
LWPOLYLINE
  5
24F
100
AcDbEntity
  8
0
100
AcDbPolyline
 62
7
  6
CONTINUOUS
 90
7
 70
0
 10
8.9686930997
 20
11.4395347943
 10
8.967576039
 20
11.4371070655
 10
8.9664665251
 20
11.4333374252
 10
8.9659634028
 20
11.4293509312
 10
8.9660475228
 20
11.4252095788
 10
8.9666855736
 20
11.4209834488
 10
8.9678279269
 20
11.4167459982
  0
LWPOLYLINE
  5
250
100
AcDbEntity
  8
0
100
AcDbPolyline
 62
7
  6
CONTINUOUS
 90
7
 70
0
 10
9.1551015065
 20
11.2173819058
 10
9.1539844458
 20
11.214954177
 10
9.1528749319
 20
11.2111845367
 10
9.1523718096
 20
11.2071980427
 10
9.1524559296
 20
11.2030566903
 10
9.1530939804
 20
11.1988305603
 10
9.1542363337
 20
11.1945931097
  0
LWPOLYLINE
  5
251
100
AcDbEntity
  8
0
100
AcDbPolyline
 62
7
  6
CONTINUOUS
 90
8
 70
0
 10
9.1483662873
 20
11.2048200005
 10
9.14798478
 20
11.2040016427
 10
9.1475302627
 20
11.2024328215
 10
9.1473784162
 20
11.2008395121
 10
9.1474838581
 20
11.1993100924
 10
9.1477827094
 20
11.1978584062
 10
9.1482364362
 20
11.1964350346
 10
9.1488318113
 20
11.1949865936
  0
LINE
  5
252
100
AcDbEntity
  8
0
100
AcDbLine
 62
7
  6
CONTINUOUS
 10
9.1483658952
 20
11.204819298
 11
9.1693597361
 21
11.2439749588
  0
LINE
  5
253
100
AcDbEntity
  8
0
100
AcDbLine
 62
7
  6
CONTINUOUS
 10
9.3557681429
 20
11.0218220703
 11
9.3763390227
 21
11.0439783652
  0
LINE
  5
254
100
AcDbEntity
  8
0
100
AcDbLine
 62
9
  6
CONTINUOUS
 10
9.3510927122
 20
10.9526285537
 11
9.351706957
 21
10.9531439662
  0
LINE
  5
255
100
AcDbEntity
  8
0
100
AcDbLine
 62
9
  6
CONTINUOUS
 10
9.3602979046
 20
10.9603526272
 11
9.3748431423
 21
10.9725575308
  0
LINE
  5
256
100
AcDbEntity
  8
0
100
AcDbLine
 62
7
  6
CONTINUOUS
 10
9.4200469039
 20
10.945217626
 11
9.4454386907
 21
10.9616285876
  0
LINE
  5
257
100
AcDbEntity
  8
0
100
AcDbLine
 62
7
  6
CONTINUOUS
 10
9.1914320414
 20
11.1534948885
 11
9.2336384971
 21
11.1673705145
  0
LINE
  5
258
100
AcDbEntity
  8
0
100
AcDbLine
 62
7
  6
CONTINUOUS
 10
9.3778404483
 20
10.9313419999
 11
9.4200469039
 21
10.945217626
  0
LWPOLYLINE
  5
259
100
AcDbEntity
  8
0
100
AcDbPolyline
 62
7
  6
CONTINUOUS
 90
13
 70
0
 10
14.7659834852
 20
7.2232002191
 10
14.767403846
 20
7.2234756858
 10
14.7709838698
 20
7.2244964764
 10
14.7744077082
 20
7.2259516984
 10
14.7776244675
 20
7.2278190716
 10
14.7805861198
 20
7.2300707463
 10
14.7832480417
 20
7.232673614
 10
14.7855695292
 20
7.235589657
 10
14.7875127605
 20
7.2387734434
 10
14.7890427046
 20
7.242165329
 10
14.7901356007
 20
7.2456983047
 10
14.790781175
 20
7.2493015945
 10
14.7909835988
 20
7.2527807409
  0
LINE
  5
25A
100
AcDbEntity
  8
0
100
AcDbLine
 62
9
  6
CONTINUOUS
 10
14.3858526696
 20
6.6140390679
 11
14.9709834891
 21
6.6140390679
  0
LINE
  5
25B
100
AcDbEntity
  8
0
100
AcDbLine
 62
7
  6
CONTINUOUS
 10
14.3606796807
 20
6.6440390679
 11
14.9409834891
 21
6.6440390679
  0
LINE
  5
25C
100
AcDbEntity
  8
0
100
AcDbLine
 62
7
  6
CONTINUOUS
 10
14.7159837137
 20
6.6740390679
 11
14.3355066918
 21
6.6740390679
  0
LWPOLYLINE
  5
25D
100
AcDbEntity
  8
0
100
AcDbPolyline
 62
7
  6
CONTINUOUS
 90
7
 70
0
 10
9.3415099133
 20
10.9952290173
 10
9.3403928526
 20
10.9928012885
 10
9.3392833387
 20
10.9890316482
 10
9.3387802164
 20
10.9850451542
 10
9.3388643364
 20
10.9809038018
 10
9.3395023872
 20
10.9766776718
 10
9.3406447405
 20
10.9724402212
  0
LWPOLYLINE
  5
25E
100
AcDbEntity
  8
0
100
AcDbPolyline
 62
7
  6
CONTINUOUS
 90
7
 70
0
 10
9.5279183201
 20
10.7730761288
 10
9.5268012594
 20
10.7706484
 10
9.5256917455
 20
10.7668787597
 10
9.5251886232
 20
10.7628922657
 10
9.5252727432
 20
10.7587509133
 10
9.5259107941
 20
10.7545247833
 10
9.5270531473
 20
10.7502873327
  0
LWPOLYLINE
  5
25F
100
AcDbEntity
  8
0
100
AcDbPolyline
 62
7
  6
CONTINUOUS
 90
8
 70
0
 10
9.3347746941
 20
10.982667112
 10
9.3343931868
 20
10.9818487542
 10
9.3339386695
 20
10.980279933
 10
9.333786823
 20
10.9786866236
 10
9.3338922649
 20
10.9771572038
 10
9.3341911162
 20
10.9757055177
 10
9.334644843
 20
10.9742821461
 10
9.3352402182
 20
10.9728337051
  0
LWPOLYLINE
  5
260
100
AcDbEntity
  8
0
100
AcDbPolyline
 62
7
  6
CONTINUOUS
 90
8
 70
0
 10
9.5211831009
 20
10.7605142235
 10
9.5208015936
 20
10.7596958657
 10
9.5203470763
 20
10.7581270445
 10
9.5201952298
 20
10.7565337351
 10
9.5203006717
 20
10.7550043153
 10
9.520599523
 20
10.7535526292
 10
9.5210532499
 20
10.7521292576
 10
9.521648625
 20
10.7506808166
  0
LINE
  5
261
100
AcDbEntity
  8
0
100
AcDbLine
 62
7
  6
CONTINUOUS
 10
9.334774302
 20
10.9826664095
 11
9.3557681429
 21
11.0218220703
  0
LINE
  5
262
100
AcDbEntity
  8
0
100
AcDbLine
 62
7
  6
CONTINUOUS
 10
9.5211827088
 20
10.760513521
 11
9.5421765497
 21
10.7996691818
  0
LINE
  5
263
100
AcDbEntity
  8
0
100
AcDbLine
 62
7
  6
CONTINUOUS
 10
9.5421765497
 20
10.7996691818
 11
9.5627474295
 21
10.8218254767
  0
LINE
  5
264
100
AcDbEntity
  8
0
100
AcDbLine
 62
7
  6
CONTINUOUS
 10
9.7285849566
 20
10.5775162933
 11
9.7491558363
 21
10.5996725882
  0
LINE
  5
265
100
AcDbEntity
  8
0
100
AcDbLine
 62
9
  6
CONTINUOUS
 10
9.537501119
 20
10.7304756651
 11
9.5381153638
 21
10.7309910777
  0
LINE
  5
266
100
AcDbEntity
  8
0
100
AcDbLine
 62
9
  6
CONTINUOUS
 10
9.5467063114
 20
10.7381997387
 11
9.5612515491
 21
10.7504046423
  0
LINE
  5
267
100
AcDbEntity
  8
0
100
AcDbLine
 62
9
  6
CONTINUOUS
 10
9.7239095259
 20
10.5083227766
 11
9.7245237706
 21
10.5088381892
  0
LINE
  5
268
100
AcDbEntity
  8
0
100
AcDbLine
 62
9
  6
CONTINUOUS
 10
9.7331147182
 20
10.5160468502
 11
9.7476599559
 21
10.5282517538
  0
LINE
  5
269
100
AcDbEntity
  8
0
100
AcDbLine
 62
7
  6
CONTINUOUS
 10
9.6064553107
 20
10.7230647375
 11
9.6318470975
 21
10.7394756991
  0
LINE
  5
26A
100
AcDbEntity
  8
0
100
AcDbLine
 62
7
  6
CONTINUOUS
 10
9.7928637175
 20
10.500911849
 11
9.8182555044
 21
10.5173228106
  0
LINE
  5
26B
100
AcDbEntity
  8
0
100
AcDbLine
 62
7
  6
CONTINUOUS
 10
9.5642488551
 20
10.7091891114
 11
9.6064553107
 21
10.7230647375
  0
LINE
  5
26C
100
AcDbEntity
  8
0
100
AcDbLine
 62
7
  6
CONTINUOUS
 10
5.7499834891
 20
7.1240390679
 11
6.3399834891
 21
7.1240390679
  0
LINE
  5
26D
100
AcDbEntity
  8
0
100
AcDbLine
 62
9
  6
CONTINUOUS
 10
14.7159834891
 20
7.1640390679
 11
14.0659834891
 21
7.1640390679
  0
LINE
  5
26E
100
AcDbEntity
  8
0
100
AcDbLine
 62
9
  6
CONTINUOUS
 10
5.7099834891
 20
7.1640390679
 11
6.3799834891
 21
7.1640390679
  0
LINE
  5
26F
100
AcDbEntity
  8
0
100
AcDbLine
 62
7
  6
CONTINUOUS
 10
14.7609834891
 20
7.2240390679
 11
14.0209834891
 21
7.2240390679
  0
LINE
  5
270
100
AcDbEntity
  8
0
100
AcDbLine
 62
9
  6
CONTINUOUS
 10
14.7909834891
 20
7.2540390679
 11
13.9909834891
 21
7.2540390679
  0
LWPOLYLINE
  5
271
100
AcDbEntity
  8
0
100
AcDbPolyline
 62
7
  6
CONTINUOUS
 90
7
 70
0
 10
9.7143267269
 20
10.5509232403
 10
9.7132096662
 20
10.5484955115
 10
9.7121001523
 20
10.5447258712
 10
9.71159703
 20
10.5407393772
 10
9.71168115
 20
10.5365980248
 10
9.7123192009
 20
10.5323718948
 10
9.7134615541
 20
10.5281344442
  0
LWPOLYLINE
  5
272
100
AcDbEntity
  8
0
100
AcDbPolyline
 62
7
  6
CONTINUOUS
 90
7
 70
0
 10
9.9007351337
 20
10.3287703518
 10
9.8996180731
 20
10.326342623
 10
9.8985085591
 20
10.3225729827
 10
9.8980054369
 20
10.3185864887
 10
9.8980895568
 20
10.3144451362
 10
9.8987276077
 20
10.3102190063
 10
9.8998699609
 20
10.3059815557
  0
LWPOLYLINE
  5
273
100
AcDbEntity
  8
0
100
AcDbPolyline
 62
7
  6
CONTINUOUS
 90
8
 70
0
 10
9.7075915077
 20
10.538361335
 10
9.7072100004
 20
10.5375429772
 10
9.7067554831
 20
10.535974156
 10
9.7066036366
 20
10.5343808466
 10
9.7067090785
 20
10.5328514268
 10
9.7070079298
 20
10.5313997407
 10
9.7074616567
 20
10.5299763691
 10
9.7080570318
 20
10.5285279281
  0
LWPOLYLINE
  5
274
100
AcDbEntity
  8
0
100
AcDbPolyline
 62
7
  6
CONTINUOUS
 90
8
 70
0
 10
9.8939999145
 20
10.3162084465
 10
9.8936184072
 20
10.3153900887
 10
9.8931638899
 20
10.3138212675
 10
9.8930120435
 20
10.3122279581
 10
9.8931174853
 20
10.3106985383
 10
9.8934163366
 20
10.3092468522
 10
9.8938700635
 20
10.3078234806
 10
9.8944654386
 20
10.3063750396
  0
LINE
  5
275
100
AcDbEntity
  8
0
100
AcDbLine
 62
7
  6
CONTINUOUS
 10
9.7075911156
 20
10.5383606325
 11
9.7285849566
 21
10.5775162933
  0
LINE
  5
276
100
AcDbEntity
  8
0
100
AcDbLine
 62
7
  6
CONTINUOUS
 10
9.8939995224
 20
10.316207744
 11
9.9149933634
 21
10.3553634048
  0
LINE
  5
277
100
AcDbEntity
  8
0
100
AcDbLine
 62
7
  6
CONTINUOUS
 10
9.9149933634
 20
10.3553634048
 11
9.9355642431
 21
10.3775196997
  0
LINE
  5
278
100
AcDbEntity
  8
0
100
AcDbLine
 62
9
  6
CONTINUOUS
 10
9.9103179327
 20
10.2861698881
 11
9.9109321775
 21
10.2866853007
  0
LINE
  5
279
100
AcDbEntity
  8
0
100
AcDbLine
 62
9
  6
CONTINUOUS
 10
9.919523125
 20
10.2938939617
 11
9.9340683627
 21
10.3060988652
  0
LINE
  5
27A
100
AcDbEntity
  8
0
100
AcDbLine
 62
7
  6
CONTINUOUS
 10
9.9792721243
 20
10.2787589605
 11
10.0046639112
 21
10.2951699221
  0
LINE
  5
27B
100
AcDbEntity
  8
0
100
AcDbLine
 62
7
  6
CONTINUOUS
 10
9.7506572619
 20
10.4870362229
 11
9.7928637175
 21
10.500911849
  0
LINE
  5
27C
100
AcDbEntity
  8
0
100
AcDbLine
 62
7
  6
CONTINUOUS
 10
9.9370656687
 20
10.2648833344
 11
9.9792721243
 21
10.2787589605
  0
LINE
  5
27D
100
AcDbEntity
  8
0
100
AcDbLine
 62
9
  6
CONTINUOUS
 10
13.7809834891
 20
7.5540390679
 11
13.7409834891
 21
7.5540390679
  0
LINE
  5
27E
100
AcDbEntity
  8
0
100
AcDbLine
 62
9
  6
CONTINUOUS
 10
6.3399834891
 20
7.5540390679
 11
6.3799834891
 21
7.5540390679
  0
LINE
  5
27F
100
AcDbEntity
  8
0
100
AcDbLine
 62
9
  6
CONTINUOUS
 10
15.0009834891
 20
7.5540390679
 11
15.0409834891
 21
7.5540390679
  0
LINE
  5
280
100
AcDbEntity
  8
0
100
AcDbLine
 62
9
  6
CONTINUOUS
 10
13.9909834891
 20
7.6440390679
 11
14.7909834891
 21
7.6440390679
  0
LINE
  5
281
100
AcDbEntity
  8
0
100
AcDbLine
 62
7
  6
CONTINUOUS
 10
14.0209834891
 20
7.6740390679
 11
14.7609834891
 21
7.6740390679
  0
LINE
  5
282
100
AcDbEntity
  8
0
100
AcDbLine
 62
7
  6
CONTINUOUS
 10
6.5399834891
 20
7.7140390679
 11
12.1704898589
 21
7.7140390679
  0
LINE
  5
283
100
AcDbEntity
  8
0
100
AcDbLine
 62
7
  6
CONTINUOUS
 10
13.4758971482
 20
7.7140390679
 11
13.5809834891
 21
7.7140390679
  0
LINE
  5
284
100
AcDbEntity
  8
0
100
AcDbLine
 62
7
  6
CONTINUOUS
 10
15.2009834891
 20
7.7140390679
 11
15.6699834891
 21
7.7140390679
  0
LINE
  5
285
100
AcDbEntity
  8
0
100
AcDbLine
 62
7
  6
CONTINUOUS
 10
8.4021407639
 20
12.0865022083
 11
8.4025885073
 21
12.0850862407
  0
LWPOLYLINE
  5
286
100
AcDbEntity
  8
0
100
AcDbPolyline
 62
7
  6
CONTINUOUS
 90
7
 70
0
 10
10.0871435405
 20
10.1066174633
 10
10.0860264799
 20
10.1041897345
 10
10.0849169659
 20
10.1004200942
 10
10.0844138437
 20
10.0964336002
 10
10.0844979636
 20
10.0922922477
 10
10.0851360145
 20
10.0880661178
 10
10.0862783677
 20
10.0838286672
  0
LWPOLYLINE
  5
287
100
AcDbEntity
  8
0
100
AcDbPolyline
 62
7
  6
CONTINUOUS
 90
8
 70
0
 10
10.0804083213
 20
10.094055558
 10
10.080026814
 20
10.0932372002
 10
10.0795722967
 20
10.091668379
 10
10.0794204503
 20
10.0900750695
 10
10.0795258921
 20
10.0885456498
 10
10.0798247434
 20
10.0870939637
 10
10.0802784703
 20
10.085670592
 10
10.0808738454
 20
10.0842221511
  0
LINE
  5
288
100
AcDbEntity
  8
0
100
AcDbLine
 62
7
  6
CONTINUOUS
 10
10.0804079292
 20
10.0940548555
 11
10.1014017702
 21
10.1332105163
  0
LINE
  5
289
100
AcDbEntity
  8
0
100
AcDbLine
 62
7
  6
CONTINUOUS
 10
10.1014017702
 20
10.1332105163
 11
10.1219726499
 21
10.1553668112
  0
LINE
  5
28A
100
AcDbEntity
  8
0
100
AcDbLine
 62
9
  6
CONTINUOUS
 10
10.0967263395
 20
10.0640169996
 11
10.0973405843
 21
10.0645324122
  0
LINE
  5
28B
100
AcDbEntity
  8
0
100
AcDbLine
 62
9
  6
CONTINUOUS
 10
10.1059315319
 20
10.0717410732
 11
10.1204767695
 21
10.0839459767
  0
LINE
  5
28C
100
AcDbEntity
  8
0
100
AcDbLine
 62
7
  6
CONTINUOUS
 10
10.1656805311
 20
10.056606072
 11
10.191072318
 21
10.0730170336
  0
LINE
  5
28D
100
AcDbEntity
  8
0
100
AcDbLine
 62
7
  6
CONTINUOUS
 10
10.1234740755
 20
10.0427304459
 11
10.1656805311
 21
10.056606072
  0
LINE
  5
28E
100
AcDbEntity
  8
0
100
AcDbLine
 62
9
  6
CONTINUOUS
 10
6.5399834891
 20
7.7540390679
 11
12.1369258737
 21
7.7540390679
  0
LINE
  5
28F
100
AcDbEntity
  8
0
100
AcDbLine
 62
9
  6
CONTINUOUS
 10
13.442333163
 20
7.7540390679
 11
13.5809834891
 21
7.7540390679
  0
LINE
  5
290
100
AcDbEntity
  8
0
100
AcDbLine
 62
9
  6
CONTINUOUS
 10
15.2009834891
 20
7.7540390679
 11
15.7099834891
 21
7.7540390679
  0
LINE
  5
291
100
AcDbEntity
  8
0
100
AcDbLine
 62
7
  6
CONTINUOUS
 10
8.2221942996
 20
12.3053575522
 11
8.2237783016
 21
12.3011835561
  0
LINE
  5
292
100
AcDbEntity
  8
0
100
AcDbLine
 62
7
  6
CONTINUOUS
 10
8.4086027064
 20
12.0832046637
 11
8.4101867084
 21
12.0790306676
  0
LINE
  5
293
100
AcDbEntity
  8
0
100
AcDbLine
 62
7
  6
CONTINUOUS
 10
8.5950111132
 20
11.8610517752
 11
8.5965951153
 21
11.8568777791
  0
LINE
  5
294
100
AcDbEntity
  8
0
100
AcDbLine
 62
7
  6
CONTINUOUS
 10
8.7814195201
 20
11.6388988867
 11
8.7830035221
 21
11.6347248905
  0
LINE
  5
295
100
AcDbEntity
  8
0
100
AcDbLine
 62
7
  6
CONTINUOUS
 10
9.1477743911
 20
11.1978906542
 11
9.1482221345
 21
11.1964746867
  0
LINE
  5
296
100
AcDbEntity
  8
0
100
AcDbLine
 62
9
  6
CONTINUOUS
 10
11.6418570913
 20
8.3440390679
 11
5.7099834891
 21
8.3440390679
  0
LINE
  5
297
100
AcDbEntity
  8
0
100
AcDbLine
 62
9
  6
CONTINUOUS
 10
12.9472643806
 20
8.3440390679
 11
15.7099834891
 21
8.3440390679
  0
LINE
  5
298
100
AcDbEntity
  8
0
100
AcDbLine
 62
7
  6
CONTINUOUS
 10
15.6699834891
 20
8.3840390679
 11
12.9137003953
 21
8.3840390679
  0
LINE
  5
299
100
AcDbEntity
  8
0
100
AcDbLine
 62
7
  6
CONTINUOUS
 10
11.608293106
 20
8.3840390679
 11
5.7499834891
 21
8.3840390679
  0
LINE
  5
29A
100
AcDbEntity
  8
0
100
AcDbLine
 62
7
  6
CONTINUOUS
 10
8.2183976712
 20
12.3026458392
 11
8.2195070543
 21
12.300799857
  0
LINE
  5
29B
100
AcDbEntity
  8
0
100
AcDbLine
 62
7
  6
CONTINUOUS
 10
8.404806078
 20
12.0804929507
 11
8.4059154611
 21
12.0786469685
  0
LINE
  5
29C
100
AcDbEntity
  8
0
100
AcDbLine
 62
7
  6
CONTINUOUS
 10
8.2175047561
 20
12.3042775423
 11
8.2184279624
 21
12.3025929556
  0
LINE
  5
29D
100
AcDbEntity
  8
0
100
AcDbLine
 62
7
  6
CONTINUOUS
 10
8.4039131629
 20
12.0821246538
 11
8.4048363692
 21
12.0804400671
  0
LINE
  5
29E
100
AcDbEntity
  8
0
100
AcDbLine
 62
7
  6
CONTINUOUS
 10
8.5903215697
 20
11.8599717653
 11
8.591244776
 21
11.8582871786
  0
LINE
  5
29F
100
AcDbEntity
  8
0
100
AcDbLine
 62
7
  6
CONTINUOUS
 10
8.7767299765
 20
11.6378188768
 11
8.7776531829
 21
11.6361342901
  0
LINE
  5
2A0
100
AcDbEntity
  8
0
100
AcDbLine
 62
7
  6
CONTINUOUS
 10
8.2167699199
 20
12.3057947374
 11
8.217529075
 21
12.3042307954
  0
LINE
  5
2A1
100
AcDbEntity
  8
0
100
AcDbLine
 62
7
  6
CONTINUOUS
 10
8.4031783267
 20
12.0836418489
 11
8.4039374818
 21
12.0820779069
  0
LINE
  5
2A2
100
AcDbEntity
  8
0
100
AcDbLine
 62
7
  6
CONTINUOUS
 10
8.5895867336
 20
11.8614889604
 11
8.5903458886
 21
11.8599250184
  0
LINE
  5
2A3
100
AcDbEntity
  8
0
100
AcDbLine
 62
7
  6
CONTINUOUS
 10
8.7759951404
 20
11.6393360719
 11
8.7767542955
 21
11.6377721299
  0
LINE
  5
2A4
100
AcDbEntity
  8
0
100
AcDbLine
 62
7
  6
CONTINUOUS
 10
8.9624035472
 20
11.4171831834
 11
8.9631627023
 21
11.4156192414
  0
LINE
  5
2A5
100
AcDbEntity
  8
0
100
AcDbLine
 62
7
  6
CONTINUOUS
 10
9.148811954
 20
11.1950302949
 11
9.1495711091
 21
11.1934663529
  0
LWPOLYLINE
  5
2A6
100
AcDbEntity
  8
0
100
AcDbPolyline
 62
7
  6
CONTINUOUS
 90
16
 70
0
 10
8.2237783016
 20
12.3011835561
 10
8.2257263464
 20
12.29714372
 10
8.2279897679
 20
12.293255946
 10
8.2305272855
 20
12.2895340147
 10
8.2333099161
 20
12.2859933503
 10
8.2363185667
 20
12.2826499758
 10
8.2395367129
 20
12.27952505
 10
8.2429557221
 20
12.2766492986
 10
8.2465722915
 20
12.2740548189
 10
8.2503744188
 20
12.2717977266
 10
8.2543162953
 20
12.269954218
 10
8.2583403627
 20
12.2685997435
 10
8.2623886023
 20
12.267796469
 10
8.2664038085
 20
12.2675934659
 10
8.2703203448
 20
12.2680274671
 10
8.2729312415
 20
12.2687110555
  0
LWPOLYLINE
  5
2A7
100
AcDbEntity
  8
0
100
AcDbPolyline
 62
7
  6
CONTINUOUS
 90
16
 70
0
 10
8.4101867084
 20
12.0790306676
 10
8.4121347532
 20
12.0749908314
 10
8.4143981747
 20
12.0711030575
 10
8.4169356923
 20
12.0673811262
 10
8.4197183229
 20
12.0638404618
 10
8.4227269735
 20
12.0604970873
 10
8.4259451197
 20
12.0573721615
 10
8.4293641289
 20
12.0544964101
 10
8.4329806983
 20
12.0519019304
 10
8.4367828256
 20
12.0496448381
 10
8.4407247021
 20
12.0478013295
 10
8.4447487695
 20
12.046446855
 10
8.4487970091
 20
12.0456435805
 10
8.4528122153
 20
12.0454405774
 10
8.4567287516
 20
12.0458745786
 10
8.4593396483
 20
12.046558167
  0
LWPOLYLINE
  5
2A8
100
AcDbEntity
  8
0
100
AcDbPolyline
 62
7
  6
CONTINUOUS
 90
16
 70
0
 10
8.5965951153
 20
11.8568777791
 10
8.5985431601
 20
11.8528379429
 10
8.6008065815
 20
11.848950169
 10
8.6033440991
 20
11.8452282377
 10
8.6061267297
 20
11.8416875733
 10
8.6091353803
 20
11.8383441988
 10
8.6123535266
 20
11.835219273
 10
8.6157725357
 20
11.8323435216
 10
8.6193891051
 20
11.8297490419
 10
8.6231912324
 20
11.8274919496
 10
8.6271331089
 20
11.825648441
 10
8.6311571763
 20
11.8242939665
 10
8.6352054159
 20
11.823490692
 10
8.6392206222
 20
11.8232876889
 10
8.6431371584
 20
11.8237216901
 10
8.6457480551
 20
11.8244052785
  0
LWPOLYLINE
  5
2A9
100
AcDbEntity
  8
0
100
AcDbPolyline
 62
7
  6
CONTINUOUS
 90
16
 70
0
 10
8.7830035221
 20
11.6347248905
 10
8.7849515669
 20
11.6306850544
 10
8.7872149883
 20
11.6267972805
 10
8.7897525059
 20
11.6230753491
 10
8.7925351365
 20
11.6195346848
 10
8.7955437871
 20
11.6161913103
 10
8.7987619334
 20
11.6130663845
 10
8.8021809425
 20
11.6101906331
 10
8.805797512
 20
11.6075961534
 10
8.8095996392
 20
11.6053390611
 10
8.8135415158
 20
11.6034955525
 10
8.8175655831
 20
11.602141078
 10
8.8216138227
 20
11.6013378035
 10
8.825629029
 20
11.6011348004
 10
8.8295455652
 20
11.6015688016
 10
8.8321564619
 20
11.60225239
  0
LWPOLYLINE
  5
2AA
100
AcDbEntity
  8
0
100
AcDbPolyline
 62
7
  6
CONTINUOUS
 90
16
 70
0
 10
8.9694119289
 20
11.412572002
 10
8.9713599737
 20
11.4085321659
 10
8.9736233951
 20
11.404644392
 10
8.9761609127
 20
11.4009224606
 10
8.9789435433
 20
11.3973817963
 10
8.9819521939
 20
11.3940384218
 10
8.9851703402
 20
11.390913496
 10
8.9885893493
 20
11.3880377446
 10
8.9922059188
 20
11.3854432648
 10
8.996008046
 20
11.3831861726
 10
8.9999499226
 20
11.381342664
 10
9.0039739899
 20
11.3799881894
 10
9.0080222295
 20
11.3791849149
 10
9.0120374358
 20
11.3789819119
 10
9.015953972
 20
11.3794159131
 10
9.0185648687
 20
11.3800995015
  0
LWPOLYLINE
  5
2AB
100
AcDbEntity
  8
0
100
AcDbPolyline
 62
7
  6
CONTINUOUS
 90
16
 70
0
 10
9.1558203357
 20
11.1904191135
 10
9.1577683805
 20
11.1863792774
 10
9.1600318019
 20
11.1824915035
 10
9.1625693196
 20
11.1787695721
 10
9.1653519501
 20
11.1752289078
 10
9.1683606007
 20
11.1718855333
 10
9.171578747
 20
11.1687606075
 10
9.1749977561
 20
11.1658848561
 10
9.1786143256
 20
11.1632903763
 10
9.1824164528
 20
11.1610332841
 10
9.1863583294
 20
11.1591897755
 10
9.1903823968
 20
11.1578353009
 10
9.1944306363
 20
11.1570320264
 10
9.1984458426
 20
11.1568290234
 10
9.2023623788
 20
11.1572630246
 10
9.2049732755
 20
11.157946613
  0
LINE
  5
2AC
100
AcDbEntity
  8
0
100
AcDbLine
 62
7
  6
CONTINUOUS
 10
8.9678279269
 20
11.4167459982
 11
8.9694119289
 21
11.412572002
  0
LINE
  5
2AD
100
AcDbEntity
  8
0
100
AcDbLine
 62
7
  6
CONTINUOUS
 10
9.1542363337
 20
11.1945931097
 11
9.1558203357
 21
11.1904191135
  0
LINE
  5
2AE
100
AcDbEntity
  8
0
100
AcDbLine
 62
7
  6
CONTINUOUS
 10
9.3406447405
 20
10.9724402212
 11
9.3422287425
 21
10.968266225
  0
LINE
  5
2AF
100
AcDbEntity
  8
0
100
AcDbLine
 62
7
  6
CONTINUOUS
 10
9.5270531473
 20
10.7502873327
 11
9.5286371493
 21
10.7461133365
  0
LINE
  5
2B0
100
AcDbEntity
  8
0
100
AcDbLine
 62
7
  6
CONTINUOUS
 10
9.7134615541
 20
10.5281344442
 11
9.7150455561
 21
10.523960448
  0
LINE
  5
2B1
100
AcDbEntity
  8
0
100
AcDbLine
 62
7
  6
CONTINUOUS
 10
9.8934080183
 20
10.3092791002
 11
9.8938557618
 21
10.3078631326
  0
LWPOLYLINE
  5
2B2
100
AcDbEntity
  8
0
100
AcDbPolyline
 62
7
  6
CONTINUOUS
 90
6
 70
0
 10
8.2207854267
 20
12.2988241018
 10
8.2222801515
 20
12.2966470342
 10
8.2239981398
 20
12.2942669067
 10
8.2259360469
 20
12.2916953452
 10
8.2280817571
 20
12.2889552128
 10
8.230411712
 20
12.286083246
  0
LWPOLYLINE
  5
2B3
100
AcDbEntity
  8
0
100
AcDbPolyline
 62
7
  6
CONTINUOUS
 90
6
 70
0
 10
8.4071938335
 20
12.0766712133
 10
8.4086885583
 20
12.0744941457
 10
8.4104065466
 20
12.0721140182
 10
8.4123444537
 20
12.0695424567
 10
8.4144901639
 20
12.0668023243
 10
8.4168201188
 20
12.0639303575
  0
LWPOLYLINE
  5
2B4
100
AcDbEntity
  8
0
100
AcDbPolyline
 62
7
  6
CONTINUOUS
 90
6
 70
0
 10
8.5936022403
 20
11.8545183248
 10
8.5950969651
 20
11.8523412572
 10
8.5968149534
 20
11.8499611297
 10
8.5987528605
 20
11.8473895682
 10
8.6008985707
 20
11.8446494358
 10
8.6032285256
 20
11.841777469
  0
LWPOLYLINE
  5
2B5
100
AcDbEntity
  8
0
100
AcDbPolyline
 62
7
  6
CONTINUOUS
 90
6
 70
0
 10
8.7800106471
 20
11.6323654363
 10
8.7815053719
 20
11.6301883687
 10
8.7832233602
 20
11.6278082412
 10
8.7851612674
 20
11.6252366797
 10
8.7873069775
 20
11.6224965473
 10
8.7896369324
 20
11.6196245805
  0
LWPOLYLINE
  5
2B6
100
AcDbEntity
  8
0
100
AcDbPolyline
 62
7
  6
CONTINUOUS
 90
6
 70
0
 10
8.9664190539
 20
11.4102125478
 10
8.9679137787
 20
11.4080354802
 10
8.969631767
 20
11.4056553527
 10
8.9715696742
 20
11.4030837912
 10
8.9737153843
 20
11.4003436588
 10
8.9760453392
 20
11.397471692
  0
LWPOLYLINE
  5
2B7
100
AcDbEntity
  8
0
100
AcDbPolyline
 62
7
  6
CONTINUOUS
 90
6
 70
0
 10
9.1528274607
 20
11.1880596593
 10
9.1543221855
 20
11.1858825917
 10
9.1560401738
 20
11.1835024642
 10
9.157978081
 20
11.1809309027
 10
9.1601237911
 20
11.1781907703
 10
9.162453746
 20
11.1753188035
  0
LWPOLYLINE
  5
2B8
100
AcDbEntity
  8
0
100
AcDbPolyline
 62
7
  6
CONTINUOUS
 90
6
 70
0
 10
9.3392358675
 20
10.9659067708
 10
9.3407305923
 20
10.9637297032
 10
9.3424485806
 20
10.9613495757
 10
9.3443864878
 20
10.9587780142
 10
9.346532198
 20
10.9560378818
 10
9.3488621529
 20
10.953165915
  0
LWPOLYLINE
  5
2B9
100
AcDbEntity
  8
0
100
AcDbPolyline
 62
7
  6
CONTINUOUS
 90
6
 70
0
 10
9.5256442744
 20
10.7437538823
 10
9.5271389991
 20
10.7415768146
 10
9.5288569875
 20
10.7391966872
 10
9.5307948946
 20
10.7366251257
 10
9.5329406048
 20
10.7338849933
 10
9.5352705597
 20
10.7310130265
  0
LWPOLYLINE
  5
2BA
100
AcDbEntity
  8
0
100
AcDbPolyline
 62
7
  6
CONTINUOUS
 90
6
 70
0
 10
9.7120526812
 20
10.5216009938
 10
9.713547406
 20
10.5194239261
 10
9.7152653943
 20
10.5170437987
 10
9.7172033014
 20
10.5144722372
 10
9.7193490116
 20
10.5117321048
 10
9.7216789665
 20
10.508860138
  0
LINE
  5
2BB
100
AcDbEntity
  8
0
100
AcDbLine
 62
7
  6
CONTINUOUS
 10
8.2194700496
 20
12.3008588501
 11
8.2207854267
 21
12.2988241018
  0
LINE
  5
2BC
100
AcDbEntity
  8
0
100
AcDbLine
 62
7
  6
CONTINUOUS
 10
8.4058784564
 20
12.0787059616
 11
8.4071938335
 21
12.0766712133
  0
LINE
  5
2BD
100
AcDbEntity
  8
0
100
AcDbLine
 62
7
  6
CONTINUOUS
 10
8.5922868632
 20
11.8565530731
 11
8.5936022403
 21
11.8545183248
  0
LINE
  5
2BE
100
AcDbEntity
  8
0
100
AcDbLine
 62
7
  6
CONTINUOUS
 10
8.77869527
 20
11.6344001846
 11
8.7800106471
 21
11.6323654363
  0
LINE
  5
2BF
100
AcDbEntity
  8
0
100
AcDbLine
 62
7
  6
CONTINUOUS
 10
8.9651036769
 20
11.4122472961
 11
8.9664190539
 21
11.4102125478
  0
LINE
  5
2C0
100
AcDbEntity
  8
0
100
AcDbLine
 62
7
  6
CONTINUOUS
 10
9.1515120837
 20
11.1900944076
 11
9.1528274607
 21
11.1880596593
  0
LINE
  5
2C1
100
AcDbEntity
  8
0
100
AcDbLine
 62
7
  6
CONTINUOUS
 10
9.3379204905
 20
10.9679415191
 11
9.3392358675
 21
10.9659067708
  0
LINE
  5
2C2
100
AcDbEntity
  8
0
100
AcDbLine
 62
7
  6
CONTINUOUS
 10
9.5243288973
 20
10.7457886306
 11
9.5256442744
 21
10.7437538823
  0
LINE
  5
2C3
100
AcDbEntity
  8
0
100
AcDbLine
 62
7
  6
CONTINUOUS
 10
9.7107373041
 20
10.5236357421
 11
9.7120526812
 21
10.5216009938
  0
LINE
  5
2C4
100
AcDbEntity
  8
0
100
AcDbLine
 62
7
  6
CONTINUOUS
 10
9.8971457109
 20
10.3014828536
 11
9.898461088
 21
10.2994481053
  0
LINE
  5
2C5
100
AcDbEntity
  8
0
100
AcDbLine
 62
7
  6
CONTINUOUS
 10
10.0835541177
 20
10.0793299651
 11
10.0848694948
 21
10.0772952168
  0
LINE
  5
2C6
100
AcDbEntity
  8
0
100
AcDbLine
 62
7
  6
CONTINUOUS
 10
8.5912144848
 20
11.8583400622
 11
8.5923238679
 21
11.85649408
  0
LINE
  5
2C7
100
AcDbEntity
  8
0
100
AcDbLine
 62
7
  6
CONTINUOUS
 10
8.7776228916
 20
11.6361871737
 11
8.7787322747
 21
11.6343411914
  0
LINE
  5
2C8
100
AcDbEntity
  8
0
100
AcDbLine
 62
7
  6
CONTINUOUS
 10
8.9640312984
 20
11.4140342852
 11
8.9651406815
 21
11.4121883029
  0
LINE
  5
2C9
100
AcDbEntity
  8
0
100
AcDbLine
 62
7
  6
CONTINUOUS
 10
9.1504397052
 20
11.1918813966
 11
9.1515490883
 21
11.1900354144
  0
LINE
  5
2CA
100
AcDbEntity
  8
0
100
AcDbLine
 62
7
  6
CONTINUOUS
 10
9.3368481121
 20
10.9697285081
 11
9.3379574951
 21
10.9678825259
  0
LINE
  5
2CB
100
AcDbEntity
  8
0
100
AcDbLine
 62
7
  6
CONTINUOUS
 10
9.5232565189
 20
10.7475756196
 11
9.5243659019
 21
10.7457296374
  0
LINE
  5
2CC
100
AcDbEntity
  8
0
100
AcDbLine
 62
7
  6
CONTINUOUS
 10
9.7096649257
 20
10.5254227311
 11
9.7107743087
 21
10.5235767489
  0
LINE
  5
2CD
100
AcDbEntity
  8
0
100
AcDbLine
 62
7
  6
CONTINUOUS
 10
9.8960733325
 20
10.3032698426
 11
9.8971827155
 21
10.3014238604
  0
LINE
  5
2CE
100
AcDbEntity
  8
0
100
AcDbLine
 62
7
  6
CONTINUOUS
 10
10.0824817393
 20
10.0811169541
 11
10.0835911223
 21
10.0792709719
  0
LINE
  5
2CF
100
AcDbEntity
  8
0
100
AcDbLine
 62
7
  6
CONTINUOUS
 10
8.9631383833
 20
11.4156659883
 11
8.9640615897
 21
11.4139814016
  0
LINE
  5
2D0
100
AcDbEntity
  8
0
100
AcDbLine
 62
7
  6
CONTINUOUS
 10
9.1495467901
 20
11.1935130998
 11
9.1504699965
 21
11.1918285131
  0
LINE
  5
2D1
100
AcDbEntity
  8
0
100
AcDbLine
 62
7
  6
CONTINUOUS
 10
9.3359551969
 20
10.9713602113
 11
9.3368784033
 21
10.9696756246
  0
LINE
  5
2D2
100
AcDbEntity
  8
0
100
AcDbLine
 62
7
  6
CONTINUOUS
 10
9.5223636037
 20
10.7492073228
 11
9.5232868101
 21
10.7475227361
  0
LINE
  5
2D3
100
AcDbEntity
  8
0
100
AcDbLine
 62
7
  6
CONTINUOUS
 10
9.7087720105
 20
10.5270544343
 11
9.7096952169
 21
10.5253698476
  0
LINE
  5
2D4
100
AcDbEntity
  8
0
100
AcDbLine
 62
7
  6
CONTINUOUS
 10
9.8951804173
 20
10.3049015458
 11
9.8961036237
 21
10.3032169591
  0
LINE
  5
2D5
100
AcDbEntity
  8
0
100
AcDbLine
 62
7
  6
CONTINUOUS
 10
10.0815888241
 20
10.0827486573
 11
10.0825120305
 21
10.0810640706
  0
LINE
  5
2D6
100
AcDbEntity
  8
0
100
AcDbLine
 62
7
  6
CONTINUOUS
 10
9.3352203608
 20
10.9728774064
 11
9.3359795159
 21
10.9713134643
  0
LINE
  5
2D7
100
AcDbEntity
  8
0
100
AcDbLine
 62
7
  6
CONTINUOUS
 10
9.5216287676
 20
10.7507245179
 11
9.5223879227
 21
10.7491605758
  0
LINE
  5
2D8
100
AcDbEntity
  8
0
100
AcDbLine
 62
7
  6
CONTINUOUS
 10
9.7080371744
 20
10.5285716294
 11
9.7087963295
 21
10.5270076873
  0
LINE
  5
2D9
100
AcDbEntity
  8
0
100
AcDbLine
 62
7
  6
CONTINUOUS
 10
9.8944455812
 20
10.3064187408
 11
9.8952047363
 21
10.3048547988
  0
LINE
  5
2DA
100
AcDbEntity
  8
0
100
AcDbLine
 62
7
  6
CONTINUOUS
 10
10.080853988
 20
10.0842658523
 11
10.0816131431
 21
10.0827019103
  0
LWPOLYLINE
  5
2DB
100
AcDbEntity
  8
0
100
AcDbPolyline
 62
7
  6
CONTINUOUS
 90
16
 70
0
 10
9.3422287425
 20
10.968266225
 10
9.3441767873
 20
10.9642263889
 10
9.3464402087
 20
10.960338615
 10
9.3489777264
 20
10.9566166836
 10
9.351760357
 20
10.9530760193
 10
9.3547690075
 20
10.9497326448
 10
9.3579871538
 20
10.946607719
 10
9.3614061629
 20
10.9437319676
 10
9.3650227324
 20
10.9411374878
 10
9.3688248597
 20
10.9388803956
 10
9.3727667362
 20
10.937036887
 10
9.3767908036
 20
10.9356824124
 10
9.3808390431
 20
10.9348791379
 10
9.3848542494
 20
10.9346761349
 10
9.3887707856
 20
10.9351101361
 10
9.3913816824
 20
10.9357937245
  0
LWPOLYLINE
  5
2DC
100
AcDbEntity
  8
0
100
AcDbPolyline
 62
7
  6
CONTINUOUS
 90
16
 70
0
 10
9.5286371493
 20
10.7461133365
 10
9.5305851941
 20
10.7420735004
 10
9.5328486155
 20
10.7381857265
 10
9.5353861332
 20
10.7344637951
 10
9.5381687638
 20
10.7309231308
 10
9.5411774143
 20
10.7275797563
 10
9.5443955606
 20
10.7244548305
 10
9.5478145697
 20
10.7215790791
 10
9.5514311392
 20
10.7189845993
 10
9.5552332665
 20
10.7167275071
 10
9.559175143
 20
10.7148839985
 10
9.5631992104
 20
10.7135295239
 10
9.5672474499
 20
10.7127262494
 10
9.5712626562
 20
10.7125232464
 10
9.5751791924
 20
10.7129572476
 10
9.5777900892
 20
10.713640836
  0
LWPOLYLINE
  5
2DD
100
AcDbEntity
  8
0
100
AcDbPolyline
 62
7
  6
CONTINUOUS
 90
16
 70
0
 10
9.7150455561
 20
10.523960448
 10
9.7169936009
 20
10.5199206119
 10
9.7192570223
 20
10.516032838
 10
9.72179454
 20
10.5123109066
 10
9.7245771706
 20
10.5087702423
 10
9.7275858211
 20
10.5054268678
 10
9.7308039674
 20
10.502301942
 10
9.7342229766
 20
10.4994261906
 10
9.737839546
 20
10.4968317108
 10
9.7416416733
 20
10.4945746186
 10
9.7455835498
 20
10.49273111
 10
9.7496076172
 20
10.4913766354
 10
9.7536558567
 20
10.4905733609
 10
9.757671063
 20
10.4903703579
 10
9.7615875993
 20
10.4908043591
 10
9.764198496
 20
10.4914879475
  0
LWPOLYLINE
  5
2DE
100
AcDbEntity
  8
0
100
AcDbPolyline
 62
7
  6
CONTINUOUS
 90
16
 70
0
 10
9.9014539629
 20
10.3018075595
 10
9.9034020077
 20
10.2977677234
 10
9.9056654291
 20
10.2938799495
 10
9.9082029468
 20
10.2901580181
 10
9.9109855774
 20
10.2866173538
 10
9.9139942279
 20
10.2832739793
 10
9.9172123742
 20
10.2801490535
 10
9.9206313834
 20
10.2772733021
 10
9.9242479528
 20
10.2746788223
 10
9.9280500801
 20
10.2724217301
 10
9.9319919566
 20
10.2705782215
 10
9.936016024
 20
10.2692237469
 10
9.9400642635
 20
10.2684204724
 10
9.9440794698
 20
10.2682174693
 10
9.9479960061
 20
10.2686514706
 10
9.9506069028
 20
10.2693350589
  0
LWPOLYLINE
  5
2DF
100
AcDbEntity
  8
0
100
AcDbPolyline
 62
7
  6
CONTINUOUS
 90
16
 70
0
 10
10.0878623697
 20
10.079654671
 10
10.0898104145
 20
10.0756148349
 10
10.0920738359
 20
10.071727061
 10
10.0946113536
 20
10.0680051296
 10
10.0973939842
 20
10.0644644653
 10
10.1004026348
 20
10.0611210908
 10
10.103620781
 20
10.057996165
 10
10.1070397902
 20
10.0551204136
 10
10.1106563596
 20
10.0525259338
 10
10.1144584869
 20
10.0502688416
 10
10.1184003634
 20
10.048425333
 10
10.1224244308
 20
10.0470708584
 10
10.1264726703
 20
10.0462675839
 10
10.1304878766
 20
10.0460645808
 10
10.1344044129
 20
10.0464985821
 10
10.1370153096
 20
10.0471821704
  0
LINE
  5
2E0
100
AcDbEntity
  8
0
100
AcDbLine
 62
7
  6
CONTINUOUS
 10
9.8998699609
 20
10.3059815557
 11
9.9014539629
 21
10.3018075595
  0
LINE
  5
2E1
100
AcDbEntity
  8
0
100
AcDbLine
 62
7
  6
CONTINUOUS
 10
10.0862783677
 20
10.0838286672
 11
10.0878623697
 21
10.079654671
  0
LINE
  5
2E2
100
AcDbEntity
  8
0
100
AcDbLine
 62
7
  6
CONTINUOUS
 10
10.1127416767
 20
10.045707738
 11
10.1140641619
 21
10.0447669426
  0
LINE
  5
2E3
100
AcDbEntity
  8
0
100
AcDbLine
 62
7
  6
CONTINUOUS
 10
10.1113557061
 20
10.0468012521
 11
10.1127815679
 21
10.0456776033
  0
LWPOLYLINE
  5
2E4
100
AcDbEntity
  8
0
100
AcDbPolyline
 62
7
  6
CONTINUOUS
 90
3
 70
0
 10
9.9249472993
 20
10.2689541406
 10
9.9263332699
 20
10.2678606265
 10
9.9276557551
 20
10.2669198311
  0
LINE
  5
2E5
100
AcDbEntity
  8
0
100
AcDbLine
 62
7
  6
CONTINUOUS
 10
10.109879888
 20
10.0480642704
 11
10.1114011001
 21
10.0467640781
  0
LINE
  5
2E6
100
AcDbEntity
  8
0
100
AcDbLine
 62
7
  6
CONTINUOUS
 10
9.9234714812
 20
10.2702171589
 11
9.9249926933
 21
10.2689169666
  0
LINE
  5
2E7
100
AcDbEntity
  8
0
100
AcDbLine
 62
7
  6
CONTINUOUS
 10
9.7370630744
 20
10.4923700474
 11
9.7385842865
 21
10.4910698551
  0
LINE
  5
2E8
100
AcDbEntity
  8
0
100
AcDbLine
 62
7
  6
CONTINUOUS
 10
10.1082993761
 20
10.0495080362
 11
10.1099322612
 21
10.0480178416
  0
LINE
  5
2E9
100
AcDbEntity
  8
0
100
AcDbLine
 62
7
  6
CONTINUOUS
 10
9.9218909693
 20
10.2716609247
 11
9.9235238544
 21
10.2701707301
  0
LINE
  5
2EA
100
AcDbEntity
  8
0
100
AcDbLine
 62
7
  6
CONTINUOUS
 10
9.7354825625
 20
10.4938138132
 11
9.7371154476
 21
10.4923236186
  0
LINE
  5
2EB
100
AcDbEntity
  8
0
100
AcDbLine
 62
7
  6
CONTINUOUS
 10
9.5490741557
 20
10.7159667017
 11
9.5507070408
 21
10.7144765071
  0
LWPOLYLINE
  5
2EC
100
AcDbEntity
  8
0
100
AcDbPolyline
 62
7
  6
CONTINUOUS
 90
7
 70
0
 10
10.0966934138
 20
10.061932125
 10
10.0988559305
 20
10.0594291506
 10
10.1009524329
 20
10.0570759469
 10
10.1029608745
 20
10.0548935874
 10
10.1048698778
 20
10.0528915334
 10
10.1066706857
 20
10.0510768025
 10
10.1083307788
 20
10.0494789948
  0
LWPOLYLINE
  5
2ED
100
AcDbEntity
  8
0
100
AcDbPolyline
 62
7
  6
CONTINUOUS
 90
7
 70
0
 10
9.910285007
 20
10.2840850135
 10
9.9124475237
 20
10.2815820391
 10
9.9145440261
 20
10.2792288354
 10
9.9165524677
 20
10.2770464759
 10
9.918461471
 20
10.2750444219
 10
9.9202622789
 20
10.273229691
 10
9.921922372
 20
10.2716318833
  0
LWPOLYLINE
  5
2EE
100
AcDbEntity
  8
0
100
AcDbPolyline
 62
7
  6
CONTINUOUS
 90
7
 70
0
 10
9.7238766002
 20
10.506237902
 10
9.7260391169
 20
10.5037349276
 10
9.7281356193
 20
10.5013817239
 10
9.7301440609
 20
10.4991993644
 10
9.7320530642
 20
10.4971973104
 10
9.7338538721
 20
10.4953825795
 10
9.7355139651
 20
10.4937847718
  0
LWPOLYLINE
  5
2EF
100
AcDbEntity
  8
0
100
AcDbPolyline
 62
7
  6
CONTINUOUS
 90
7
 70
0
 10
9.5374681934
 20
10.7283907905
 10
9.5396307101
 20
10.7258878162
 10
9.5417272125
 20
10.7235346124
 10
9.543735654
 20
10.7213522529
 10
9.5456446574
 20
10.719350199
 10
9.5474454653
 20
10.717535468
 10
9.5491055583
 20
10.7159376603
  0
LWPOLYLINE
  5
2F0
100
AcDbEntity
  8
0
100
AcDbPolyline
 62
7
  6
CONTINUOUS
 90
7
 70
0
 10
9.3510597866
 20
10.950543679
 10
9.3532223033
 20
10.9480407047
 10
9.3553188057
 20
10.9456875009
 10
9.3573272472
 20
10.9435051414
 10
9.3592362506
 20
10.9415030875
 10
9.3610370584
 20
10.9396883565
 10
9.3626971515
 20
10.9380905488
  0
LWPOLYLINE
  5
2F1
100
AcDbEntity
  8
0
100
AcDbPolyline
 62
7
  6
CONTINUOUS
 90
7
 70
0
 10
9.1646513797
 20
11.1726965676
 10
9.1668138965
 20
11.1701935932
 10
9.1689103989
 20
11.1678403894
 10
9.1709188404
 20
11.1656580299
 10
9.1728278438
 20
11.163655976
 10
9.1746286516
 20
11.161841245
 10
9.1762887447
 20
11.1602434373
  0
LWPOLYLINE
  5
2F2
100
AcDbEntity
  8
0
100
AcDbPolyline
 62
7
  6
CONTINUOUS
 90
7
 70
0
 10
8.9782429729
 20
11.3948494561
 10
8.9804054897
 20
11.3923464817
 10
8.9825019921
 20
11.3899932779
 10
8.9845104336
 20
11.3878109184
 10
8.986419437
 20
11.3858088645
 10
8.9882202448
 20
11.3839941335
 10
8.9898803379
 20
11.3823963258
  0
LWPOLYLINE
  5
2F3
100
AcDbEntity
  8
0
100
AcDbPolyline
 62
7
  6
CONTINUOUS
 90
7
 70
0
 10
8.7918345661
 20
11.6170023446
 10
8.7939970829
 20
11.6144993702
 10
8.7960935853
 20
11.6121461664
 10
8.7981020268
 20
11.6099638069
 10
8.8000110302
 20
11.607961753
 10
8.801811838
 20
11.606147022
 10
8.8034719311
 20
11.6045492143
  0
LWPOLYLINE
  5
2F4
100
AcDbEntity
  8
0
100
AcDbPolyline
 62
7
  6
CONTINUOUS
 90
7
 70
0
 10
8.6054261593
 20
11.8391552331
 10
8.6075886761
 20
11.8366522587
 10
8.6096851785
 20
11.8342990549
 10
8.61169362
 20
11.8321166954
 10
8.6136026233
 20
11.8301146415
 10
8.6154034312
 20
11.8282999105
 10
8.6170635243
 20
11.8267021028
  0
LWPOLYLINE
  5
2F5
100
AcDbEntity
  8
0
100
AcDbPolyline
 62
7
  6
CONTINUOUS
 90
7
 70
0
 10
8.4190177525
 20
12.0613081216
 10
8.4211802693
 20
12.0588051472
 10
8.4232767717
 20
12.0564519434
 10
8.4252852132
 20
12.0542695839
 10
8.4271942165
 20
12.05226753
 10
8.4289950244
 20
12.050452799
 10
8.4306551175
 20
12.0488549913
  0
LWPOLYLINE
  5
2F6
100
AcDbEntity
  8
0
100
AcDbPolyline
 62
7
  6
CONTINUOUS
 90
7
 70
0
 10
8.2326093457
 20
12.2834610101
 10
8.2347718624
 20
12.2809580357
 10
8.2368683648
 20
12.2786048319
 10
8.2388768064
 20
12.2764224724
 10
8.2407858097
 20
12.2744204185
 10
8.2425866176
 20
12.2726056875
 10
8.2442467107
 20
12.2710078798
  0
LINE
  5
2F7
100
AcDbEntity
  8
0
100
AcDbLine
 62
7
  6
CONTINUOUS
 10
10.0956761927
 20
10.0631358221
 11
10.0966934138
 21
10.061932125
  0
LINE
  5
2F8
100
AcDbEntity
  8
0
100
AcDbLine
 62
7
  6
CONTINUOUS
 10
9.9092677859
 20
10.2852887106
 11
9.910285007
 21
10.2840850135
  0
LINE
  5
2F9
100
AcDbEntity
  8
0
100
AcDbLine
 62
7
  6
CONTINUOUS
 10
9.7228593791
 20
10.5074415991
 11
9.7238766002
 21
10.506237902
  0
LINE
  5
2FA
100
AcDbEntity
  8
0
100
AcDbLine
 62
7
  6
CONTINUOUS
 10
9.5364509723
 20
10.7295944876
 11
9.5374681934
 21
10.7283907905
  0
LINE
  5
2FB
100
AcDbEntity
  8
0
100
AcDbLine
 62
7
  6
CONTINUOUS
 10
9.3500425655
 20
10.9517473761
 11
9.3510597866
 21
10.950543679
  0
LINE
  5
2FC
100
AcDbEntity
  8
0
100
AcDbLine
 62
7
  6
CONTINUOUS
 10
9.1636341586
 20
11.1739002646
 11
9.1646513797
 21
11.1726965676
  0
LINE
  5
2FD
100
AcDbEntity
  8
0
100
AcDbLine
 62
7
  6
CONTINUOUS
 10
8.9772257518
 20
11.3960531532
 11
8.9782429729
 21
11.3948494561
  0
LINE
  5
2FE
100
AcDbEntity
  8
0
100
AcDbLine
 62
7
  6
CONTINUOUS
 10
8.790817345
 20
11.6182060417
 11
8.7918345661
 21
11.6170023446
  0
LINE
  5
2FF
100
AcDbEntity
  8
0
100
AcDbLine
 62
7
  6
CONTINUOUS
 10
8.6044089382
 20
11.8403589302
 11
8.6054261593
 21
11.8391552331
  0
LINE
  5
300
100
AcDbEntity
  8
0
100
AcDbLine
 62
7
  6
CONTINUOUS
 10
8.4180005314
 20
12.0625118187
 11
8.4190177525
 21
12.0613081216
  0
LINE
  5
301
100
AcDbEntity
  8
0
100
AcDbLine
 62
7
  6
CONTINUOUS
 10
8.2315921246
 20
12.2846647072
 11
8.2326093457
 21
12.2834610101
  0
LINE
  5
302
100
AcDbEntity
  8
0
100
AcDbLine
 62
7
  6
CONTINUOUS
 10
8.3015964631
 20
12.278134957
 11
8.2792174705
 21
12.3048052092
  0
LINE
  5
303
100
AcDbEntity
  8
0
100
AcDbLine
 62
7
  6
CONTINUOUS
 10
10.1656805311
 20
10.056606072
 11
10.1433015386
 21
10.0832763241
  0
LINE
  5
304
100
AcDbEntity
  8
0
100
AcDbLine
 62
7
  6
CONTINUOUS
 10
8.8608216835
 20
11.6116762915
 11
8.8384426958
 21
11.6383465317
  0
LINE
  5
305
100
AcDbEntity
  8
0
100
AcDbLine
 62
7
  6
CONTINUOUS
 10
9.7928637175
 20
10.500911849
 11
9.7704847299
 21
10.5275820892
  0
LINE
  5
306
100
AcDbEntity
  8
0
100
AcDbLine
 62
7
  6
CONTINUOUS
 10
8.6744132767
 20
11.83382918
 11
8.6520342897
 21
11.8604994185
  0
LINE
  5
307
100
AcDbEntity
  8
0
100
AcDbLine
 62
7
  6
CONTINUOUS
 10
9.6064553107
 20
10.7230647375
 11
9.5840763238
 21
10.7497349759
  0
LINE
  5
308
100
AcDbEntity
  8
0
100
AcDbLine
 62
7
  6
CONTINUOUS
 10
9.4200469039
 20
10.945217626
 11
9.397667917
 21
10.9718878644
  0
LINE
  5
309
100
AcDbEntity
  8
0
100
AcDbLine
 62
7
  6
CONTINUOUS
 10
9.2336384971
 20
11.1673705145
 11
9.2112595102
 21
11.1940407529
  0
LINE
  5
30A
100
AcDbEntity
  8
0
100
AcDbLine
 62
7
  6
CONTINUOUS
 10
9.0472300903
 20
11.389523403
 11
9.0248511034
 21
11.4161936414
  0
LINE
  5
30B
100
AcDbEntity
  8
0
100
AcDbLine
 62
7
  6
CONTINUOUS
 10
9.9792721243
 20
10.2787589605
 11
9.9568931381
 21
10.3054291973
  0
LINE
  5
30C
100
AcDbEntity
  8
0
100
AcDbLine
 62
7
  6
CONTINUOUS
 10
9.9373723501
 20
10.328693167
 11
9.9149933634
 21
10.3553634048
  0
LINE
  5
30D
100
AcDbEntity
  8
0
100
AcDbLine
 62
7
  6
CONTINUOUS
 10
9.5645555364
 20
10.7729989441
 11
9.5421765497
 21
10.7996691818
  0
LINE
  5
30E
100
AcDbEntity
  8
0
100
AcDbLine
 62
7
  6
CONTINUOUS
 10
9.3781471296
 20
10.9951518326
 11
9.3557681429
 21
11.0218220703
  0
LINE
  5
30F
100
AcDbEntity
  8
0
100
AcDbLine
 62
7
  6
CONTINUOUS
 10
9.1917387228
 20
11.2173047211
 11
9.1693597361
 21
11.2439749588
  0
LINE
  5
310
100
AcDbEntity
  8
0
100
AcDbLine
 62
7
  6
CONTINUOUS
 10
9.005330316
 20
11.4394576096
 11
8.9829513293
 21
11.4661278473
  0
LINE
  5
311
100
AcDbEntity
  8
0
100
AcDbLine
 62
7
  6
CONTINUOUS
 10
8.6325135023
 20
11.8837633866
 11
8.6101345157
 21
11.9104336243
  0
LINE
  5
312
100
AcDbEntity
  8
0
100
AcDbLine
 62
7
  6
CONTINUOUS
 10
8.4461050956
 20
12.105916275
 11
8.4237261089
 21
12.1325865128
  0
LINE
  5
313
100
AcDbEntity
  8
0
100
AcDbLine
 62
7
  6
CONTINUOUS
 10
8.4880048699
 20
12.0559820685
 11
8.4656258836
 21
12.0826523053
  0
LINE
  5
314
100
AcDbEntity
  8
0
100
AcDbLine
 62
7
  6
CONTINUOUS
 10
9.7509639471
 20
10.5508460531
 11
9.7285849566
 21
10.5775162933
  0
LINE
  5
315
100
AcDbEntity
  8
0
100
AcDbLine
 62
7
  6
CONTINUOUS
 10
8.8189219131
 20
11.6616104956
 11
8.7965429225
 21
11.6882807358
  0
LINE
  5
316
100
AcDbEntity
  8
0
100
AcDbLine
 62
7
  6
CONTINUOUS
 10
10.123780769
 20
10.1065402709
 11
10.1014017702
 21
10.1332105163
  0
LINE
  5
317
100
AcDbEntity
  8
0
100
AcDbLine
 62
7
  6
CONTINUOUS
 10
8.2596967009
 20
12.3280691559
 11
8.2373177021
 21
12.3547394013
  0
LINE
  5
318
100
AcDbEntity
  8
0
100
AcDbLine
 62
7
  6
CONTINUOUS
 10
7.9453331066
 20
12.7493848067
 11
13.3961720368
 21
6.2533279291
  0
LINE
  5
319
100
AcDbEntity
  8
0
100
AcDbLine
 62
7
  6
CONTINUOUS
 10
13.71879841
 20
5.8843940281
 11
13.4295439856
 21
6.2291140275
  0
LINE
  5
31A
100
AcDbEntity
  8
0
100
AcDbLine
 62
7
  6
CONTINUOUS
 10
13.8654657111
 20
5.7134920545
 11
13.7335692733
 21
5.8706801082
  0
LINE
  5
31B
100
AcDbEntity
  8
0
100
AcDbLine
 62
9
  6
CONTINUOUS
 10
7.9886981193
 20
12.7988264458
 11
13.4523928017
 21
6.2874486793
  0
LINE
  5
31C
100
AcDbEntity
  8
0
100
AcDbLine
 62
9
  6
CONTINUOUS
 10
13.4971228999
 20
6.3119276153
 11
13.4906950238
 21
6.3195880598
  0
LINE
  5
31D
100
AcDbEntity
  8
0
100
AcDbLine
 62
9
  6
CONTINUOUS
 10
8.0217215321
 20
12.8395904521
 11
8.0281494082
 21
12.8319300077
  0
LINE
  5
31E
100
AcDbEntity
  8
0
100
AcDbLine
 62
7
  6
CONTINUOUS
 10
8.230411712
 20
12.286083246
 11
8.2315921246
 21
12.2846647072
  0
LINE
  5
31F
100
AcDbEntity
  8
0
100
AcDbLine
 62
7
  6
CONTINUOUS
 10
8.4168201188
 20
12.0639303575
 11
8.4180005314
 21
12.0625118187
  0
LINE
  5
320
100
AcDbEntity
  8
0
100
AcDbLine
 62
7
  6
CONTINUOUS
 10
8.6032285256
 20
11.841777469
 11
8.6044089382
 21
11.8403589302
  0
LINE
  5
321
100
AcDbEntity
  8
0
100
AcDbLine
 62
7
  6
CONTINUOUS
 10
8.7896369324
 20
11.6196245805
 11
8.790817345
 21
11.6182060417
  0
LINE
  5
322
100
AcDbEntity
  8
0
100
AcDbLine
 62
7
  6
CONTINUOUS
 10
8.9760453392
 20
11.397471692
 11
8.9772257518
 21
11.3960531532
  0
LINE
  5
323
100
AcDbEntity
  8
0
100
AcDbLine
 62
7
  6
CONTINUOUS
 10
9.162453746
 20
11.1753188035
 11
9.1636341586
 21
11.1739002646
  0
LINE
  5
324
100
AcDbEntity
  8
0
100
AcDbLine
 62
7
  6
CONTINUOUS
 10
9.3488621529
 20
10.953165915
 11
9.3500425655
 21
10.9517473761
  0
LINE
  5
325
100
AcDbEntity
  8
0
100
AcDbLine
 62
7
  6
CONTINUOUS
 10
9.5352705597
 20
10.7310130265
 11
9.5364509723
 21
10.7295944876
  0
LINE
  5
326
100
AcDbEntity
  8
0
100
AcDbLine
 62
7
  6
CONTINUOUS
 10
9.7216789665
 20
10.508860138
 11
9.7228593791
 21
10.5074415991
  0
LINE
  5
327
100
AcDbEntity
  8
0
100
AcDbLine
 62
7
  6
CONTINUOUS
 10
9.9080873733
 20
10.2867072495
 11
9.9092677859
 21
10.2852887106
  0
LINE
  5
328
100
AcDbEntity
  8
0
100
AcDbLine
 62
7
  6
CONTINUOUS
 10
10.0944957801
 20
10.064554361
 11
10.0956761927
 21
10.0631358221
  0
LWPOLYLINE
  5
329
100
AcDbEntity
  8
0
100
AcDbPolyline
 62
7
  6
CONTINUOUS
 90
6
 70
0
 10
9.898461088
 20
10.2994481053
 10
9.8999558128
 20
10.2972710376
 10
9.9016738011
 20
10.2948909102
 10
9.9036117082
 20
10.2923193487
 10
9.9057574184
 20
10.2895792163
 10
9.9080873733
 20
10.2867072495
  0
LWPOLYLINE
  5
32A
100
AcDbEntity
  8
0
100
AcDbPolyline
 62
7
  6
CONTINUOUS
 90
6
 70
0
 10
10.0848694948
 20
10.0772952168
 10
10.0863642196
 20
10.0751181491
 10
10.0880822079
 20
10.0727380217
 10
10.090020115
 20
10.0701664602
 10
10.0921658252
 20
10.0674263278
 10
10.0944957801
 20
10.064554361
  0
LWPOLYLINE
  5
32B
100
AcDbEntity
  8
0
100
AcDbPolyline
 62
7
  6
CONTINUOUS
 90
8
 70
0
 10
10.1141017083
 20
10.0447417394
 10
10.115391063
 20
10.0439465834
 10
10.1166892272
 20
10.0432868946
 10
10.1180536566
 20
10.042767744
 10
10.1195309131
 20
10.042425047
 10
10.1211000053
 20
10.04232409
 10
10.1226825731
 20
10.0425146143
 10
10.1234743027
 20
10.0427310132
  0
LWPOLYLINE
  5
32C
100
AcDbEntity
  8
0
100
AcDbPolyline
 62
7
  6
CONTINUOUS
 90
8
 70
0
 10
9.9276933015
 20
10.2668946279
 10
9.9289826562
 20
10.2660994719
 10
9.9302808204
 20
10.2654397831
 10
9.9316452498
 20
10.2649206325
 10
9.9331225063
 20
10.2645779355
 10
9.9346915985
 20
10.2644769785
 10
9.9362741663
 20
10.2646675028
 10
9.9370658959
 20
10.2648839017
  0
LWPOLYLINE
  5
32D
100
AcDbEntity
  8
0
100
AcDbPolyline
 62
7
  6
CONTINUOUS
 90
8
 70
0
 10
9.7412848947
 20
10.4890475164
 10
9.7425742494
 20
10.4882523604
 10
9.7438724136
 20
10.4875926716
 10
9.745236843
 20
10.4870735211
 10
9.7467140995
 20
10.486730824
 10
9.7482831916
 20
10.486629867
 10
9.7498657595
 20
10.4868203913
 10
9.750657489
 20
10.4870367902
  0
LWPOLYLINE
  5
32E
100
AcDbEntity
  8
0
100
AcDbPolyline
 62
7
  6
CONTINUOUS
 90
8
 70
0
 10
9.5548764879
 20
10.7112004049
 10
9.5561658426
 20
10.7104052489
 10
9.5574640068
 20
10.7097455601
 10
9.5588284362
 20
10.7092264096
 10
9.5603056927
 20
10.7088837125
 10
9.5618747848
 20
10.7087827555
 10
9.5634573527
 20
10.7089732798
 10
9.5642490822
 20
10.7091896787
  0
LWPOLYLINE
  5
32F
100
AcDbEntity
  8
0
100
AcDbPolyline
 62
7
  6
CONTINUOUS
 90
8
 70
0
 10
9.368468081
 20
10.9333532934
 10
9.3697574357
 20
10.9325581374
 10
9.3710556
 20
10.9318984486
 10
9.3724200294
 20
10.9313792981
 10
9.3738972859
 20
10.931036601
 10
9.375466378
 20
10.930935644
 10
9.3770489459
 20
10.9311261683
 10
9.3778406754
 20
10.9313425672
  0
LINE
  5
330
100
AcDbEntity
  8
0
100
AcDbLine
 62
7
  6
CONTINUOUS
 10
9.7399248631
 20
10.490013515
 11
9.7412473483
 21
10.4890727196
  0
LINE
  5
331
100
AcDbEntity
  8
0
100
AcDbLine
 62
7
  6
CONTINUOUS
 10
9.5535164563
 20
10.7121664035
 11
9.5548389415
 21
10.7112256081
  0
LINE
  5
332
100
AcDbEntity
  8
0
100
AcDbLine
 62
7
  6
CONTINUOUS
 10
9.3671080495
 20
10.934319292
 11
9.3684305347
 21
10.9333784966
  0
LINE
  5
333
100
AcDbEntity
  8
0
100
AcDbLine
 62
7
  6
CONTINUOUS
 10
9.1806996427
 20
11.1564721805
 11
9.1820221279
 21
11.1555313851
  0
LINE
  5
334
100
AcDbEntity
  8
0
100
AcDbLine
 62
7
  6
CONTINUOUS
 10
8.9942912359
 20
11.378625069
 11
8.9956137211
 21
11.3776842736
  0
LINE
  5
335
100
AcDbEntity
  8
0
100
AcDbLine
 62
7
  6
CONTINUOUS
 10
9.9249926933
 20
10.2689169666
 11
9.9263731611
 21
10.2678304918
  0
LINE
  5
336
100
AcDbEntity
  8
0
100
AcDbLine
 62
7
  6
CONTINUOUS
 10
9.7385388925
 20
10.4911070291
 11
9.7399647543
 21
10.4899833803
  0
LINE
  5
337
100
AcDbEntity
  8
0
100
AcDbLine
 62
7
  6
CONTINUOUS
 10
9.5521304857
 20
10.7132599176
 11
9.5535563475
 21
10.7121362688
  0
LINE
  5
338
100
AcDbEntity
  8
0
100
AcDbLine
 62
7
  6
CONTINUOUS
 10
9.3657220789
 20
10.9354128062
 11
9.3671479407
 21
10.9342891573
  0
LINE
  5
339
100
AcDbEntity
  8
0
100
AcDbLine
 62
7
  6
CONTINUOUS
 10
9.1793136721
 20
11.1575656947
 11
9.1807395338
 21
11.1564420458
  0
LINE
  5
33A
100
AcDbEntity
  8
0
100
AcDbLine
 62
7
  6
CONTINUOUS
 10
8.9929052653
 20
11.3797185832
 11
8.994331127
 21
11.3785949343
  0
LINE
  5
33B
100
AcDbEntity
  8
0
100
AcDbLine
 62
7
  6
CONTINUOUS
 10
8.8064968585
 20
11.6018714717
 11
8.8079227202
 21
11.6007478228
  0
LINE
  5
33C
100
AcDbEntity
  8
0
100
AcDbLine
 62
7
  6
CONTINUOUS
 10
8.6200884517
 20
11.8240243602
 11
8.6215143134
 21
11.8229007113
  0
LINE
  5
33D
100
AcDbEntity
  8
0
100
AcDbLine
 62
7
  6
CONTINUOUS
 10
9.5506546676
 20
10.7145229359
 11
9.5521758797
 21
10.7132227436
  0
LINE
  5
33E
100
AcDbEntity
  8
0
100
AcDbLine
 62
7
  6
CONTINUOUS
 10
9.3642462608
 20
10.9366758244
 11
9.3657674729
 21
10.9353756321
  0
LINE
  5
33F
100
AcDbEntity
  8
0
100
AcDbLine
 62
7
  6
CONTINUOUS
 10
9.1778378539
 20
11.158828713
 11
9.1793590661
 21
11.1575285206
  0
LINE
  5
340
100
AcDbEntity
  8
0
100
AcDbLine
 62
7
  6
CONTINUOUS
 10
8.9914294471
 20
11.3809816015
 11
8.9929506593
 21
11.3796814091
  0
LINE
  5
341
100
AcDbEntity
  8
0
100
AcDbLine
 62
7
  6
CONTINUOUS
 10
8.8050210403
 20
11.60313449
 11
8.8065422524
 21
11.6018342976
  0
LINE
  5
342
100
AcDbEntity
  8
0
100
AcDbLine
 62
7
  6
CONTINUOUS
 10
8.6186126335
 20
11.8252873785
 11
8.6201338456
 21
11.8239871861
  0
LINE
  5
343
100
AcDbEntity
  8
0
100
AcDbLine
 62
7
  6
CONTINUOUS
 10
8.4322042267
 20
12.047440267
 11
8.4337254388
 21
12.0461400746
  0
LINE
  5
344
100
AcDbEntity
  8
0
100
AcDbLine
 62
7
  6
CONTINUOUS
 10
8.2457958199
 20
12.2695931555
 11
8.247317032
 21
12.2682929631
  0
LINE
  5
345
100
AcDbEntity
  8
0
100
AcDbLine
 62
7
  6
CONTINUOUS
 10
9.3626657489
 20
10.9381195902
 11
9.364298634
 21
10.9366293956
  0
LINE
  5
346
100
AcDbEntity
  8
0
100
AcDbLine
 62
7
  6
CONTINUOUS
 10
9.1762573421
 20
11.1602724787
 11
9.1778902272
 21
11.1587822841
  0
LINE
  5
347
100
AcDbEntity
  8
0
100
AcDbLine
 62
7
  6
CONTINUOUS
 10
8.9898489352
 20
11.3824253672
 11
8.9914818204
 21
11.3809351726
  0
LINE
  5
348
100
AcDbEntity
  8
0
100
AcDbLine
 62
7
  6
CONTINUOUS
 10
8.8034405284
 20
11.6045782558
 11
8.8050734136
 21
11.6030880611
  0
LINE
  5
349
100
AcDbEntity
  8
0
100
AcDbLine
 62
7
  6
CONTINUOUS
 10
8.6170321216
 20
11.8267311443
 11
8.6186650068
 21
11.8252409496
  0
LINE
  5
34A
100
AcDbEntity
  8
0
100
AcDbLine
 62
7
  6
CONTINUOUS
 10
8.4306237148
 20
12.0488840328
 11
8.4322566
 21
12.0473938381
  0
LINE
  5
34B
100
AcDbEntity
  8
0
100
AcDbLine
 62
7
  6
CONTINUOUS
 10
8.244215308
 20
12.2710369213
 11
8.2458481932
 21
12.2695467266
  0
LINE
  5
34C
100
AcDbEntity
  8
0
100
AcDbLine
 62
7
  6
CONTINUOUS
 10
13.9044515661
 20
6.2098784706
 11
13.698759531
 21
6.4550126924
  0
LINE
  5
34D
100
AcDbEntity
  8
0
100
AcDbLine
 62
7
  6
CONTINUOUS
 10
14.1167440295
 20
6.3880129984
 11
13.9110519944
 21
6.6331472202
  0
LWPOLYLINE
  5
34E
100
AcDbEntity
  8
0
100
AcDbPolyline
 62
7
  6
CONTINUOUS
 90
8
 70
0
 10
9.1820596742
 20
11.1555061819
 10
9.1833490289
 20
11.1547110259
 10
9.1846471932
 20
11.1540513371
 10
9.1860116226
 20
11.1535321866
 10
9.1874888791
 20
11.1531894895
 10
9.1890579712
 20
11.1530885325
 10
9.1906405391
 20
11.1532790568
 10
9.1914322686
 20
11.1534954557
  0
LWPOLYLINE
  5
34F
100
AcDbEntity
  8
0
100
AcDbPolyline
 62
7
  6
CONTINUOUS
 90
8
 70
0
 10
8.9956512674
 20
11.3776590704
 10
8.9969406221
 20
11.3768639144
 10
8.9982387864
 20
11.3762042256
 10
8.9996032158
 20
11.3756850751
 10
9.0010804722
 20
11.3753423781
 10
9.0026495644
 20
11.375241421
 10
9.0042321323
 20
11.3754319453
 10
9.0050238618
 20
11.3756483442
  0
LWPOLYLINE
  5
350
100
AcDbEntity
  8
0
100
AcDbPolyline
 62
7
  6
CONTINUOUS
 90
8
 70
0
 10
8.8092428606
 20
11.5998119589
 10
8.8105322153
 20
11.5990168029
 10
8.8118303795
 20
11.5983571141
 10
8.813194809
 20
11.5978379636
 10
8.8146720654
 20
11.5974952666
 10
8.8162411576
 20
11.5973943096
 10
8.8178237254
 20
11.5975848338
 10
8.818615455
 20
11.5978012327
  0
LWPOLYLINE
  5
351
100
AcDbEntity
  8
0
100
AcDbPolyline
 62
7
  6
CONTINUOUS
 90
8
 70
0
 10
8.6228344538
 20
11.8219648474
 10
8.6241238085
 20
11.8211696914
 10
8.6254219727
 20
11.8205100026
 10
8.6267864021
 20
11.8199908521
 10
8.6282636586
 20
11.8196481551
 10
8.6298327508
 20
11.8195471981
 10
8.6314153186
 20
11.8197377223
 10
8.6322070482
 20
11.8199541212
  0
LWPOLYLINE
  5
352
100
AcDbEntity
  8
0
100
AcDbPolyline
 62
7
  6
CONTINUOUS
 90
8
 70
0
 10
8.436426047
 20
12.0441177359
 10
8.4377154017
 20
12.0433225799
 10
8.4390135659
 20
12.0426628911
 10
8.4403779953
 20
12.0421437406
 10
8.4418552518
 20
12.0418010436
 10
8.443424344
 20
12.0417000866
 10
8.4450069118
 20
12.0418906108
 10
8.4457986414
 20
12.0421070097
  0
LINE
  5
353
100
AcDbEntity
  8
0
100
AcDbLine
 62
7
  6
CONTINUOUS
 10
8.807882829
 20
11.6007779575
 11
8.8092053143
 21
11.5998371621
  0
LINE
  5
354
100
AcDbEntity
  8
0
100
AcDbLine
 62
7
  6
CONTINUOUS
 10
8.6214744222
 20
11.822930846
 11
8.6227969075
 21
11.8219900506
  0
LINE
  5
355
100
AcDbEntity
  8
0
100
AcDbLine
 62
7
  6
CONTINUOUS
 10
8.4350660154
 20
12.0450837345
 11
8.4363885007
 21
12.0441429391
  0
LINE
  5
356
100
AcDbEntity
  8
0
100
AcDbLine
 62
7
  6
CONTINUOUS
 10
8.2486576086
 20
12.267236623
 11
8.2499800939
 21
12.2662958276
  0
LINE
  5
357
100
AcDbEntity
  8
0
100
AcDbLine
 62
7
  6
CONTINUOUS
 10
8.4336800449
 20
12.0461772487
 11
8.4351059066
 21
12.0450535998
  0
LINE
  5
358
100
AcDbEntity
  8
0
100
AcDbLine
 62
7
  6
CONTINUOUS
 10
8.2472716381
 20
12.2683301372
 11
8.2486974998
 21
12.2672064883
  0
LINE
  5
359
100
AcDbEntity
  8
0
100
AcDbLine
 62
9
  6
CONTINUOUS
 10
8.6092776199
 20
13.3326085488
 11
8.615705496
 21
13.3249481043
  0
LINE
  5
35A
100
AcDbEntity
  8
0
100
AcDbLine
 62
9
  6
CONTINUOUS
 10
14.0869771211
 20
6.8068740748
 11
14.080549245
 21
6.8145345192
  0
LINE
  5
35B
100
AcDbEntity
  8
0
100
AcDbLine
 62
9
  6
CONTINUOUS
 10
8.6551567849
 20
13.3580516662
 11
14.1188514672
 21
6.8466738997
  0
LINE
  5
35C
100
AcDbEntity
  8
0
100
AcDbLine
 62
7
  6
CONTINUOUS
 10
14.6123590432
 20
6.340209974
 11
14.4804626053
 21
6.4973980277
  0
LINE
  5
35D
100
AcDbEntity
  8
0
100
AcDbLine
 62
7
  6
CONTINUOUS
 10
14.4695219642
 20
6.5143258856
 11
14.1802675398
 21
6.859045885
  0
LINE
  5
35E
100
AcDbEntity
  8
0
100
AcDbLine
 62
7
  6
CONTINUOUS
 10
8.7113775497
 20
13.3921724164
 11
14.1622164799
 21
6.8961155388
  0
LWPOLYLINE
  5
35F
100
AcDbEntity
  8
0
100
AcDbPolyline
 62
7
  6
CONTINUOUS
 90
8
 70
0
 10
8.2500176402
 20
12.2662706244
 10
8.2513069949
 20
12.2654754684
 10
8.2526051591
 20
12.2648157796
 10
8.2539695885
 20
12.2642966291
 10
8.255446845
 20
12.2639539321
 10
8.2570159372
 20
12.2638529751
 10
8.258598505
 20
12.2640434993
 10
8.2593902346
 20
12.2642598982
  0
LINE
  5
360
100
AcDbEntity
  8
0
100
AcDbLine
 62
7
  6
CONTINUOUS
 10
13.1409834891
 20
4.8940390681
 11
13.1409834891
 21
4.6240390681
  0
LINE
  5
361
100
AcDbEntity
  8
0
100
AcDbLine
 62
7
  6
CONTINUOUS
 10
13.1509834891
 20
5.1940390679
 11
13.1509834891
 21
4.9204879385
  0
LINE
  5
362
100
AcDbEntity
  8
0
100
AcDbLine
 62
9
  6
CONTINUOUS
 10
13.1809834891
 20
4.9340390681
 11
13.1809834891
 21
4.6240390681
  0
LINE
  5
363
100
AcDbEntity
  8
0
100
AcDbLine
 62
9
  6
CONTINUOUS
 10
13.1909834891
 20
5.2340390679
 11
13.1909834891
 21
4.9340390679
  0
LINE
  5
364
100
AcDbEntity
  8
0
100
AcDbLine
 62
7
  6
CONTINUOUS
 10
13.3759834891
 20
4.9440390679
 11
13.3759834891
 21
4.9340390679
  0
LINE
  5
365
100
AcDbEntity
  8
0
100
AcDbLine
 62
7
  6
CONTINUOUS
 10
13.3909834891
 20
4.9440390679
 11
13.3909834891
 21
4.9340390679
  0
LINE
  5
366
100
AcDbEntity
  8
0
100
AcDbLine
 62
9
  6
CONTINUOUS
 10
13.4059834891
 20
4.9740390679
 11
13.4059834891
 21
4.9700159923
  0
LINE
  5
367
100
AcDbEntity
  8
0
100
AcDbLine
 62
9
  6
CONTINUOUS
 10
13.4209834891
 20
4.9740390679
 11
13.4209834891
 21
4.9340390679
  0
LINE
  5
368
100
AcDbEntity
  8
0
100
AcDbLine
 62
9
  6
CONTINUOUS
 10
13.5809834891
 20
7.7540390679
 11
13.5809834891
 21
7.7140390679
  0
LINE
  5
369
100
AcDbEntity
  8
0
100
AcDbLine
 62
7
  6
CONTINUOUS
 10
13.7409834891
 20
7.5540390679
 11
13.7409834891
 21
7.3981214688
  0
LINE
  5
36A
100
AcDbEntity
  8
0
100
AcDbLine
 62
7
  6
CONTINUOUS
 10
13.7409834891
 20
5.8785177784
 11
13.7409834891
 21
5.876901374
  0
LINE
  5
36B
100
AcDbEntity
  8
0
100
AcDbLine
 62
7
  6
CONTINUOUS
 10
13.7409834891
 20
5.8618441898
 11
13.7409834891
 21
5.2340390679
  0
LINE
  5
36C
100
AcDbEntity
  8
0
100
AcDbLine
 62
9
  6
CONTINUOUS
 10
13.7809834891
 20
7.5540390679
 11
13.7809834891
 21
7.3504513251
  0
LINE
  5
36D
100
AcDbEntity
  8
0
100
AcDbLine
 62
9
  6
CONTINUOUS
 10
13.7809834891
 20
5.8141740461
 11
13.7809834891
 21
5.2340390679
  0
LINE
  5
36E
100
AcDbEntity
  8
0
100
AcDbLine
 62
7
  6
CONTINUOUS
 10
13.8109834891
 20
5.7784214383
 11
13.8109834891
 21
4.9740390679
  0
LINE
  5
36F
100
AcDbEntity
  8
0
100
AcDbLine
 62
9
  6
CONTINUOUS
 10
13.8409834891
 20
5.7426688305
 11
13.8409834891
 21
4.9740390679
  0
LINE
  5
370
100
AcDbEntity
  8
0
100
AcDbLine
 62
7
  6
CONTINUOUS
 10
13.8434834891
 20
5.4662104994
 11
13.8434834891
 21
4.9340390679
  0
LWPOLYLINE
  5
371
100
AcDbEntity
  8
0
100
AcDbPolyline
 62
7
  6
CONTINUOUS
 90
13
 70
0
 10
13.9909833794
 20
7.2527807409
 10
13.9911858033
 20
7.2493015945
 10
13.9918313776
 20
7.2456983047
 10
13.9929242736
 20
7.242165329
 10
13.9944542178
 20
7.2387734434
 10
13.9963974491
 20
7.235589657
 10
13.9987189365
 20
7.232673614
 10
14.0013808584
 20
7.2300707463
 10
14.0043425107
 20
7.2278190716
 10
14.00755927
 20
7.2259516984
 10
14.0109831085
 20
7.2244964764
 10
14.0145631322
 20
7.2234756858
 10
14.015983493
 20
7.2232002191
  0
LINE
  5
372
100
AcDbEntity
  8
0
100
AcDbLine
 62
7
  6
CONTINUOUS
 10
13.9909834891
 20
7.6440390679
 11
13.9909834891
 21
7.2527807566
  0
LINE
  5
373
100
AcDbEntity
  8
0
100
AcDbLine
 62
9
  6
CONTINUOUS
 10
14.0209834891
 20
7.2240390679
 11
14.0209834891
 21
7.6740390679
  0
LINE
  5
374
100
AcDbEntity
  8
0
100
AcDbLine
 62
7
  6
CONTINUOUS
 10
14.0659834891
 20
7.1640390679
 11
14.0659834891
 21
7.0108015512
  0
LINE
  5
375
100
AcDbEntity
  8
0
100
AcDbLine
 62
9
  6
CONTINUOUS
 10
14.157515441
 20
5.3433283899
 11
14.157515441
 21
4.9340390679
  0
LINE
  5
376
100
AcDbEntity
  8
0
100
AcDbLine
 62
9
  6
CONTINUOUS
 10
14.1788367239
 20
5.3433283899
 11
14.1788367239
 21
4.934039068
  0
LINE
  5
377
100
AcDbEntity
  8
0
100
AcDbLine
 62
9
  6
CONTINUOUS
 10
14.6031302544
 20
4.934039068
 11
14.6031302544
 21
5.3433283899
  0
LINE
  5
378
100
AcDbEntity
  8
0
100
AcDbLine
 62
9
  6
CONTINUOUS
 10
14.6244515373
 20
4.9340390679
 11
14.6244515373
 21
5.34332839
  0
LINE
  5
379
100
AcDbEntity
  8
0
100
AcDbLine
 62
7
  6
CONTINUOUS
 10
14.6524834891
 20
6.6740390679
 11
14.6524834891
 21
6.6440390679
  0
LINE
  5
37A
100
AcDbEntity
  8
0
100
AcDbLine
 62
7
  6
CONTINUOUS
 10
14.7159834891
 20
7.1640390679
 11
14.7159834891
 21
6.6740390679
  0
LINE
  5
37B
100
AcDbEntity
  8
0
100
AcDbLine
 62
9
  6
CONTINUOUS
 10
14.1622164799
 20
6.8961155388
 11
13.3961720368
 21
6.2533279291
  0
LINE
  5
37C
100
AcDbEntity
  8
0
100
AcDbLine
 62
7
  6
CONTINUOUS
 10
14.1609839116
 20
6.8820272182
 11
13.4102603573
 21
6.2520953608
  0
LINE
  5
37D
100
AcDbEntity
  8
0
100
AcDbLine
 62
7
  6
CONTINUOUS
 10
14.1520908988
 20
6.8615110216
 11
13.4320091223
 21
6.2572906685
  0
LINE
  5
37E
100
AcDbEntity
  8
0
100
AcDbLine
 62
9
  6
CONTINUOUS
 10
14.1802675398
 20
6.859045885
 11
13.9110519945
 21
6.6331472201
  0
LINE
  5
37F
100
AcDbEntity
  8
0
100
AcDbLine
 62
9
  6
CONTINUOUS
 10
13.6987595311
 20
6.4550126924
 11
13.4295439856
 21
6.2291140275
  0
LINE
  5
380
100
AcDbEntity
  8
0
100
AcDbLine
 62
9
  6
CONTINUOUS
 10
14.7609834891
 20
7.6740390679
 11
14.7609834891
 21
7.2240390679
  0
LINE
  5
381
100
AcDbEntity
  8
0
100
AcDbLine
 62
7
  6
CONTINUOUS
 10
14.7909834891
 20
7.2527807566
 11
14.7909834891
 21
7.6440390679
  0
LINE
  5
382
100
AcDbEntity
  8
0
100
AcDbLine
 62
7
  6
CONTINUOUS
 10
14.9384834891
 20
5.4662104994
 11
14.9384834891
 21
4.9340390679
  0
LINE
  5
383
100
AcDbEntity
  8
0
100
AcDbLine
 62
9
  6
CONTINUOUS
 10
14.9409834891
 20
4.9740390679
 11
14.9409834891
 21
6.6440390679
  0
LINE
  5
384
100
AcDbEntity
  8
0
100
AcDbLine
 62
7
  6
CONTINUOUS
 10
14.9709834891
 20
6.6140390679
 11
14.9709834891
 21
4.9740390679
  0
LINE
  5
385
100
AcDbEntity
  8
0
100
AcDbLine
 62
9
  6
CONTINUOUS
 10
15.0009834891
 20
5.2340390679
 11
15.0009834891
 21
7.5540390679
  0
LINE
  5
386
100
AcDbEntity
  8
0
100
AcDbLine
 62
7
  6
CONTINUOUS
 10
15.0409834891
 20
5.2340390679
 11
15.0409834891
 21
7.5540390679
  0
LINE
  5
387
100
AcDbEntity
  8
0
100
AcDbLine
 62
9
  6
CONTINUOUS
 10
15.2009834891
 20
7.7540390679
 11
15.2009834891
 21
7.7140390679
  0
LINE
  5
388
100
AcDbEntity
  8
0
100
AcDbLine
 62
7
  6
CONTINUOUS
 10
13.9044515661
 20
6.2098784706
 11
14.1167440295
 21
6.3880129984
  0
LINE
  5
389
100
AcDbEntity
  8
0
100
AcDbLine
 62
9
  6
CONTINUOUS
 10
14.4695219642
 20
6.5143258856
 11
13.71879841
 21
5.8843940281
  0
LINE
  5
38A
100
AcDbEntity
  8
0
100
AcDbLine
 62
7
  6
CONTINUOUS
 10
13.733569181
 20
5.8706800308
 11
14.4804626975
 21
6.4973981051
  0
LINE
  5
38B
100
AcDbEntity
  8
0
100
AcDbLine
 62
9
  6
CONTINUOUS
 10
15.3609834891
 20
4.9740390679
 11
15.3609834891
 21
4.9340390679
  0
LINE
  5
38C
100
AcDbEntity
  8
0
100
AcDbLine
 62
9
  6
CONTINUOUS
 10
15.3759834891
 20
4.9740390679
 11
15.3759834891
 21
4.9700159923
  0
LINE
  5
38D
100
AcDbEntity
  8
0
100
AcDbLine
 62
7
  6
CONTINUOUS
 10
15.3909834891
 20
4.9440390679
 11
15.3909834891
 21
4.9340390679
  0
LINE
  5
38E
100
AcDbEntity
  8
0
100
AcDbLine
 62
7
  6
CONTINUOUS
 10
15.4059834891
 20
4.9440390679
 11
15.4059834891
 21
4.9340390679
  0
LINE
  5
38F
100
AcDbEntity
  8
0
100
AcDbLine
 62
9
  6
CONTINUOUS
 10
15.5909834891
 20
5.2340390679
 11
15.5909834891
 21
4.9340390679
  0
LINE
  5
390
100
AcDbEntity
  8
0
100
AcDbLine
 62
9
  6
CONTINUOUS
 10
15.6009834891
 20
4.6240390681
 11
15.6009834891
 21
4.9340390681
  0
LINE
  5
391
100
AcDbEntity
  8
0
100
AcDbLine
 62
7
  6
CONTINUOUS
 10
15.6309834891
 20
5.1940390679
 11
15.6309834891
 21
4.9204960461
  0
LINE
  5
392
100
AcDbEntity
  8
0
100
AcDbLine
 62
7
  6
CONTINUOUS
 10
15.6409834891
 20
4.8940390681
 11
15.6409834891
 21
4.6240390681
  0
LINE
  5
393
100
AcDbEntity
  8
0
100
AcDbLine
 62
9
  6
CONTINUOUS
 10
13.8654657111
 20
5.7134920545
 11
14.6123590432
 21
6.340209974
  0
LINE
  5
394
100
AcDbEntity
  8
0
100
AcDbLine
 62
9
  6
CONTINUOUS
 10
15.6699834891
 20
7.7140390679
 11
15.6699834891
 21
8.3840390679
  0
LINE
  5
395
100
AcDbEntity
  8
0
100
AcDbLine
 62
7
  6
CONTINUOUS
 10
15.7099834891
 20
7.7540390679
 11
15.7099834891
 21
8.3440390679
  0
ARC
  5
396
100
AcDbEntity
  8
0
100
AcDbCircle
 62
9
  6
CONTINUOUS
 10
6.5399834891
 20
7.5540390679
 40
0.2
100
AcDbArc
 50
90.0
 51
180.0
  0
ARC
  5
397
100
AcDbEntity
  8
0
100
AcDbCircle
 62
7
  6
CONTINUOUS
 10
6.5399834891
 20
7.5540390679
 40
0.16
100
AcDbArc
 50
90.0
 51
180.0
  0
ARC
  5
398
100
AcDbEntity
  8
0
100
AcDbCircle
 62
7
  6
CONTINUOUS
 10
5.7499834891
 20
8.3440390679
 40
0.04
100
AcDbArc
 50
90.0
 51
180.0
  0
ARC
  5
399
100
AcDbEntity
  8
0
100
AcDbCircle
 62
7
  6
CONTINUOUS
 10
5.7499834891
 20
7.1640390679
 40
0.04
100
AcDbArc
 50
180.0
 51
270.0
  0
ARC
  5
39A
100
AcDbEntity
  8
0
100
AcDbCircle
 62
7
  6
CONTINUOUS
 10
6.3399834891
 20
7.1640390679
 40
0.04
100
AcDbArc
 50
270.0
 51
360.0
  0
ARC
  5
39B
100
AcDbEntity
  8
0
100
AcDbCircle
 62
7
  6
CONTINUOUS
 10
8.8869045689
 20
11.6988366144
 40
0.124064548
100
AcDbArc
 50
220.0013510243
 51
221.2322727401
  0
ARC
  5
39C
100
AcDbEntity
  8
0
100
AcDbCircle
 62
9
  6
CONTINUOUS
 10
9.020902141
 20
11.4457773428
 40
0.0649544796
100
AcDbArc
 50
212.1856393089
 51
212.378425147
  0
ARC
  5
39D
100
AcDbEntity
  8
0
100
AcDbCircle
 62
9
  6
CONTINUOUS
 10
8.8344937328
 20
11.6679302304
 40
0.0649544779
100
AcDbArc
 50
212.1856393068
 51
212.37842515
  0
ARC
  5
39E
100
AcDbEntity
  8
0
100
AcDbCircle
 62
9
  6
CONTINUOUS
 10
8.8465070798
 20
11.6516341398
 40
0.063670767
100
AcDbArc
 50
227.6247962465
 51
227.881602825
  0
ARC
  5
39F
100
AcDbEntity
  8
0
100
AcDbCircle
 62
9
  6
CONTINUOUS
 10
9.0329154862
 20
11.4294812507
 40
0.0636707663
100
AcDbArc
 50
227.6247962455
 51
227.8816028269
  0
ARC
  5
3A0
100
AcDbEntity
  8
0
100
AcDbCircle
 62
9
  6
CONTINUOUS
 10
8.9841945768
 20
11.4019007528
 40
0.0396073665
100
AcDbArc
 50
20.5136557263
 51
59.4841120504
  0
ARC
  5
3A1
100
AcDbEntity
  8
0
100
AcDbCircle
 62
7
  6
CONTINUOUS
 10
8.3276793485
 20
12.3652952799
 40
0.124064548
100
AcDbArc
 50
220.0013510245
 51
221.2322727399
  0
ARC
  5
3A2
100
AcDbEntity
  8
0
100
AcDbCircle
 62
7
  6
CONTINUOUS
 10
8.5140877553
 20
12.1431423914
 40
0.124064548
100
AcDbArc
 50
220.0013510244
 51
221.2322727401
  0
ARC
  5
3A3
100
AcDbEntity
  8
0
100
AcDbCircle
 62
7
  6
CONTINUOUS
 10
8.7004961621
 20
11.9209895029
 40
0.124064548
100
AcDbArc
 50
220.0013510243
 51
221.2322727401
  0
ARC
  5
3A4
100
AcDbEntity
  8
0
100
AcDbCircle
 62
9
  6
CONTINUOUS
 10
8.2752685135
 20
12.3343888966
 40
0.0649544792
100
AcDbArc
 50
212.1856393084
 51
212.3784251476
  0
ARC
  5
3A5
100
AcDbEntity
  8
0
100
AcDbCircle
 62
9
  6
CONTINUOUS
 10
8.4616769199
 20
12.1122360079
 40
0.0649544787
100
AcDbArc
 50
212.1856393073
 51
212.378425148
  0
ARC
  5
3A6
100
AcDbEntity
  8
0
100
AcDbCircle
 62
9
  6
CONTINUOUS
 10
8.6480853263
 20
11.8900831191
 40
0.0649544783
100
AcDbArc
 50
212.185639307
 51
212.378425149
  0
ARC
  5
3A7
100
AcDbEntity
  8
0
100
AcDbCircle
 62
9
  6
CONTINUOUS
 10
8.6600986727
 20
11.8737870279
 40
0.0636707666
100
AcDbArc
 50
227.6247962456
 51
227.881602826
  0
ARC
  5
3A8
100
AcDbEntity
  8
0
100
AcDbCircle
 62
9
  6
CONTINUOUS
 10
8.4736902657
 20
12.0959399162
 40
0.0636707663
100
AcDbArc
 50
227.6247962454
 51
227.8816028269
  0
ARC
  5
3A9
100
AcDbEntity
  8
0
100
AcDbCircle
 62
9
  6
CONTINUOUS
 10
8.2872818585
 20
12.3180928043
 40
0.0636707657
100
AcDbArc
 50
227.6247962441
 51
227.8816028279
  0
ARC
  5
3AA
100
AcDbEntity
  8
0
100
AcDbCircle
 62
9
  6
CONTINUOUS
 10
8.6113774135
 20
11.84620621
 40
0.0396078282
100
AcDbArc
 50
20.5146741602
 51
59.4839111924
  0
ARC
  5
3AB
100
AcDbEntity
  8
0
100
AcDbCircle
 62
7
  6
CONTINUOUS
 10
8.7037171053
 20
13.3857445403
 40
0.01
100
AcDbArc
 50
40.0
 51
130.0
  0
ARC
  5
3AC
100
AcDbEntity
  8
0
100
AcDbCircle
 62
7
  6
CONTINUOUS
 10
7.9529935511
 20
12.7558126828
 40
0.01
100
AcDbArc
 50
130.0
 51
220.0
  0
ARC
  5
3AD
100
AcDbEntity
  8
0
100
AcDbCircle
 62
7
  6
CONTINUOUS
 10
7.9745262971
 20
12.786934875
 40
0.01
100
AcDbArc
 50
130.0
 51
220.0
  0
ARC
  5
3AE
100
AcDbEntity
  8
0
100
AcDbCircle
 62
7
  6
CONTINUOUS
 10
8.669328607
 20
13.369943237
 40
0.01
100
AcDbArc
 50
40.0
 51
130.0
  0
ARC
  5
3AF
100
AcDbEntity
  8
0
100
AcDbCircle
 62
7
  6
CONTINUOUS
 10
9.0733129758
 20
11.4766837259
 40
0.124064548
100
AcDbArc
 50
220.0013510245
 51
221.2322727399
  0
ARC
  5
3B0
100
AcDbEntity
  8
0
100
AcDbCircle
 62
7
  6
CONTINUOUS
 10
9.818946603
 20
10.5880721719
 40
0.124064548
100
AcDbArc
 50
220.0013510245
 51
221.2322727399
  0
ARC
  5
3B1
100
AcDbEntity
  8
0
100
AcDbCircle
 62
7
  6
CONTINUOUS
 10
10.0053550098
 20
10.3659192834
 40
0.124064548
100
AcDbArc
 50
220.0013510245
 51
221.2322727399
  0
ARC
  5
3B2
100
AcDbEntity
  8
0
100
AcDbCircle
 62
7
  6
CONTINUOUS
 10
10.1917634166
 20
10.1437663949
 40
0.124064548
100
AcDbArc
 50
220.0013510245
 51
221.2322727399
  0
ARC
  5
3B3
100
AcDbEntity
  8
0
100
AcDbCircle
 62
7
  6
CONTINUOUS
 10
9.2597213825
 20
11.2545308374
 40
0.124064548
100
AcDbArc
 50
220.0013510242
 51
221.2322727402
  0
ARC
  5
3B4
100
AcDbEntity
  8
0
100
AcDbCircle
 62
7
  6
CONTINUOUS
 10
9.4461297894
 20
11.0323779489
 40
0.124064548
100
AcDbArc
 50
220.0013510243
 51
221.2322727401
  0
ARC
  5
3B5
100
AcDbEntity
  8
0
100
AcDbCircle
 62
7
  6
CONTINUOUS
 10
9.6325381962
 20
10.8102250604
 40
0.124064548
100
AcDbArc
 50
220.0013510243
 51
221.2322727401
  0
ARC
  5
3B6
100
AcDbEntity
  8
0
100
AcDbCircle
 62
9
  6
CONTINUOUS
 10
9.5801273607
 20
10.7793186768
 40
0.0649544787
100
AcDbArc
 50
212.1856393077
 51
212.3784251484
  0
ARC
  5
3B7
100
AcDbEntity
  8
0
100
AcDbCircle
 62
9
  6
CONTINUOUS
 10
10.1393525809
 20
10.1128600112
 40
0.0649544785
100
AcDbArc
 50
212.1856393076
 51
212.3784251489
  0
ARC
  5
3B8
100
AcDbEntity
  8
0
100
AcDbCircle
 62
9
  6
CONTINUOUS
 10
9.9529441741
 20
10.3350128997
 40
0.0649544785
100
AcDbArc
 50
212.1856393069
 51
212.3784251482
  0
ARC
  5
3B9
100
AcDbEntity
  8
0
100
AcDbCircle
 62
9
  6
CONTINUOUS
 10
9.7665357672
 20
10.5571657882
 40
0.0649544784
100
AcDbArc
 50
212.1856393068
 51
212.3784251485
  0
ARC
  5
3BA
100
AcDbEntity
  8
0
100
AcDbCircle
 62
9
  6
CONTINUOUS
 10
9.2073105468
 20
11.2236244537
 40
0.0649544784
100
AcDbArc
 50
212.185639307
 51
212.3784251488
  0
ARC
  5
3BB
100
AcDbEntity
  8
0
100
AcDbCircle
 62
9
  6
CONTINUOUS
 10
9.3937189532
 20
11.0014715649
 40
0.0649544779
100
AcDbArc
 50
212.1856393063
 51
212.3784251494
  0
ARC
  5
3BC
100
AcDbEntity
  8
0
100
AcDbCircle
 62
9
  6
CONTINUOUS
 10
9.9649575208
 20
10.3187168089
 40
0.0636707673
100
AcDbArc
 50
227.6247962473
 51
227.8816028249
  0
ARC
  5
3BD
100
AcDbEntity
  8
0
100
AcDbCircle
 62
9
  6
CONTINUOUS
 10
9.5921407069
 20
10.7630225856
 40
0.0636707668
100
AcDbArc
 50
227.6247962465
 51
227.881602826
  0
ARC
  5
3BE
100
AcDbEntity
  8
0
100
AcDbCircle
 62
9
  6
CONTINUOUS
 10
9.4057323001
 20
10.9851754741
 40
0.0636707668
100
AcDbArc
 50
227.6247962466
 51
227.8816028261
  0
ARC
  5
3BF
100
AcDbEntity
  8
0
100
AcDbCircle
 62
9
  6
CONTINUOUS
 10
10.1513659273
 20
10.09656392
 40
0.0636707667
100
AcDbArc
 50
227.6247962462
 51
227.881602826
  0
ARC
  5
3C0
100
AcDbEntity
  8
0
100
AcDbCircle
 62
9
  6
CONTINUOUS
 10
9.2193238931
 20
11.2073283623
 40
0.0636707664
100
AcDbArc
 50
227.6247962459
 51
227.8816028268
  0
ARC
  5
3C1
100
AcDbEntity
  8
0
100
AcDbCircle
 62
9
  6
CONTINUOUS
 10
9.7785491134
 20
10.5408696967
 40
0.0636707663
100
AcDbArc
 50
227.6247962455
 51
227.8816028269
  0
ARC
  5
3C2
100
AcDbEntity
  8
0
100
AcDbCircle
 62
9
  6
CONTINUOUS
 10
9.5434197644
 20
10.7354420534
 40
0.0396074078
100
AcDbArc
 50
20.5125880211
 51
59.4840960884
  0
ARC
  5
3C3
100
AcDbEntity
  8
0
100
AcDbCircle
 62
9
  6
CONTINUOUS
 10
9.3570113904
 20
10.9575949758
 40
0.0396073665
100
AcDbArc
 50
20.5136557289
 51
59.4841120478
  0
ARC
  5
3C4
100
AcDbEntity
  8
0
100
AcDbCircle
 62
9
  6
CONTINUOUS
 10
9.1706029836
 20
11.1797478643
 40
0.0396073665
100
AcDbArc
 50
20.513655729
 51
59.4841120477
  0
ARC
  5
3C5
100
AcDbEntity
  8
0
100
AcDbCircle
 62
7
  6
CONTINUOUS
 10
13.7409834891
 20
5.6090390679
 40
1.1375
100
AcDbArc
 50
0.0
 51
40.0
  0
ARC
  5
3C6
100
AcDbEntity
  8
0
100
AcDbCircle
 62
9
  6
CONTINUOUS
 10
14.3911349077
 20
4.8326331744
 40
0.5996147778
100
AcDbArc
 50
75.8457522619
 51
90.0144686557
  0
ARC
  5
3C7
100
AcDbEntity
  8
0
100
AcDbCircle
 62
9
  6
CONTINUOUS
 10
14.3907853886
 20
4.8330176486
 40
0.5992286545
100
AcDbArc
 50
89.981058548
 51
104.1589092244
  0
ARC
  5
3C8
100
AcDbEntity
  8
0
100
AcDbCircle
 62
9
  6
CONTINUOUS
 10
14.3909845408
 20
4.8993939055
 40
0.4975001246
100
AcDbArc
 50
74.4498639573
 51
105.5497021299
  0
ARC
  5
3C9
100
AcDbEntity
  8
0
100
AcDbCircle
 62
7
  6
CONTINUOUS
 10
13.7409834891
 20
5.6090390679
 40
0.1625
100
AcDbArc
 50
0.0
 51
40.0
  0
ARC
  5
3CA
100
AcDbEntity
  8
0
100
AcDbCircle
 62
7
  6
CONTINUOUS
 10
13.8034834891
 20
5.6090390679
 40
0.1
100
AcDbArc
 50
314.4270040008
 51
360.0
  0
ARC
  5
3CB
100
AcDbEntity
  8
0
100
AcDbCircle
 62
7
  6
CONTINUOUS
 10
13.9434834891
 20
5.4662104994
 40
0.1
100
AcDbArc
 50
134.4270040008
 51
180.0
  0
ARC
  5
3CC
100
AcDbEntity
  8
0
100
AcDbCircle
 62
7
  6
CONTINUOUS
 10
13.1809834891
 20
4.8940390681
 40
0.04
100
AcDbArc
 50
90.0
 51
180.0
  0
ARC
  5
3CD
100
AcDbEntity
  8
0
100
AcDbCircle
 62
7
  6
CONTINUOUS
 10
13.1909834891
 20
5.1940390679
 40
0.04
100
AcDbArc
 50
90.0
 51
180.0
  0
ARC
  5
3CE
100
AcDbEntity
  8
0
100
AcDbCircle
 62
7
  6
CONTINUOUS
 10
13.4059834891
 20
4.9440390679
 40
0.03
100
AcDbArc
 50
90.0
 51
180.0
  0
ARC
  5
3CF
100
AcDbEntity
  8
0
100
AcDbCircle
 62
7
  6
CONTINUOUS
 10
13.4209834891
 20
4.9440390679
 40
0.03
100
AcDbArc
 50
90.0
 51
180.0
  0
ARC
  5
3D0
100
AcDbEntity
  8
0
100
AcDbCircle
 62
7
  6
CONTINUOUS
 10
13.7341192988
 20
5.8972497803
 40
0.02
100
AcDbArc
 50
220.0
 51
310.0
  0
ARC
  5
3D1
100
AcDbEntity
  8
0
100
AcDbCircle
 62
7
  6
CONTINUOUS
 10
13.4448648745
 20
6.2419697797
 40
0.02
100
AcDbArc
 50
130.0
 51
220.0
  0
ARC
  5
3D2
100
AcDbEntity
  8
0
100
AcDbCircle
 62
7
  6
CONTINUOUS
 10
13.4038324812
 20
6.2597558052
 40
0.01
100
AcDbArc
 50
220.0
 51
310.0
  0
ARC
  5
3D3
100
AcDbEntity
  8
0
100
AcDbCircle
 62
7
  6
CONTINUOUS
 10
13.4382209795
 20
6.2755571085
 40
0.01
100
AcDbArc
 50
220.0
 51
310.0
  0
ARC
  5
3D4
100
AcDbEntity
  8
0
100
AcDbCircle
 62
9
  6
CONTINUOUS
 10
13.5809834891
 20
7.5540390679
 40
0.2
100
AcDbArc
 50
0.0
 51
90.0
  0
ARC
  5
3D5
100
AcDbEntity
  8
0
100
AcDbCircle
 62
7
  6
CONTINUOUS
 10
13.5809834891
 20
7.5540390679
 40
0.16
100
AcDbArc
 50
0.0
 51
90.0
  0
ARC
  5
3D6
100
AcDbEntity
  8
0
100
AcDbCircle
 62
7
  6
CONTINUOUS
 10
14.0059834891
 20
7.1640390679
 40
0.06
100
AcDbArc
 50
0.0
 51
80.4059853617
  0
ARC
  5
3D7
100
AcDbEntity
  8
0
100
AcDbCircle
 62
7
  6
CONTINUOUS
 10
14.0209834891
 20
7.6440390679
 40
0.03
100
AcDbArc
 50
90.0
 51
180.0
  0
ARC
  5
3D8
100
AcDbEntity
  8
0
100
AcDbCircle
 62
7
  6
CONTINUOUS
 10
14.0209834891
 20
7.2540390679
 40
0.03
100
AcDbArc
 50
180.0000000116
 51
270.0
  0
ARC
  5
3D9
100
AcDbEntity
  8
0
100
AcDbCircle
 62
7
  6
CONTINUOUS
 10
14.164946651
 20
6.8461901328
 40
0.02
100
AcDbArc
 50
40.0
 51
130.0
  0
ARC
  5
3DA
100
AcDbEntity
  8
0
100
AcDbCircle
 62
7
  6
CONTINUOUS
 10
14.1545560355
 20
6.8896876627
 40
0.01
100
AcDbArc
 50
310.0
 51
40.0
  0
ARC
  5
3DB
100
AcDbEntity
  8
0
100
AcDbCircle
 62
7
  6
CONTINUOUS
 10
14.1330232894
 20
6.8585654705
 40
0.01
100
AcDbArc
 50
310.0
 51
40.0
  0
ARC
  5
3DC
100
AcDbEntity
  8
0
100
AcDbCircle
 62
7
  6
CONTINUOUS
 10
14.9784834891
 20
5.6090390679
 40
0.1
100
AcDbArc
 50
180.0
 51
225.5729959992
  0
ARC
  5
3DD
100
AcDbEntity
  8
0
100
AcDbCircle
 62
7
  6
CONTINUOUS
 10
14.8384834891
 20
5.4662104994
 40
0.1
100
AcDbArc
 50
0.0
 51
45.5729959992
  0
ARC
  5
3DE
100
AcDbEntity
  8
0
100
AcDbCircle
 62
7
  6
CONTINUOUS
 10
15.6009834891
 20
4.8940390681
 40
0.04
100
AcDbArc
 50
0.0
 51
90.0
  0
ARC
  5
3DF
100
AcDbEntity
  8
0
100
AcDbCircle
 62
7
  6
CONTINUOUS
 10
15.5909834891
 20
5.1940390679
 40
0.04
100
AcDbArc
 50
0.0
 51
90.0
  0
ARC
  5
3E0
100
AcDbEntity
  8
0
100
AcDbCircle
 62
7
  6
CONTINUOUS
 10
15.3759834891
 20
4.9440390679
 40
0.03
100
AcDbArc
 50
0.0
 51
90.0
  0
ARC
  5
3E1
100
AcDbEntity
  8
0
100
AcDbCircle
 62
7
  6
CONTINUOUS
 10
15.3609834891
 20
4.9440390679
 40
0.03
100
AcDbArc
 50
0.0
 51
90.0
  0
ARC
  5
3E2
100
AcDbEntity
  8
0
100
AcDbCircle
 62
7
  6
CONTINUOUS
 10
14.4542010753
 20
6.5014701334
 40
0.02
100
AcDbArc
 50
310.0
 51
40.0
  0
ARC
  5
3E3
100
AcDbEntity
  8
0
100
AcDbCircle
 62
9
  6
CONTINUOUS
 10
15.2009834891
 20
7.5540390679
 40
0.2
100
AcDbArc
 50
90.0
 51
180.0
  0
ARC
  5
3E4
100
AcDbEntity
  8
0
100
AcDbCircle
 62
7
  6
CONTINUOUS
 10
15.2009834891
 20
7.5540390679
 40
0.16
100
AcDbArc
 50
90.0
 51
180.0
  0
ARC
  5
3E5
100
AcDbEntity
  8
0
100
AcDbCircle
 62
7
  6
CONTINUOUS
 10
14.7759834891
 20
7.1640390679
 40
0.06
100
AcDbArc
 50
99.5940146383
 51
180.0
  0
ARC
  5
3E6
100
AcDbEntity
  8
0
100
AcDbCircle
 62
7
  6
CONTINUOUS
 10
15.6699834891
 20
8.3440390679
 40
0.04
100
AcDbArc
 50
0.0
 51
90.0
  0
ARC
  5
3E7
100
AcDbEntity
  8
0
100
AcDbCircle
 62
7
  6
CONTINUOUS
 10
15.6699834891
 20
7.7540390679
 40
0.04
100
AcDbArc
 50
270.0
 51
360.0
  0
ARC
  5
3E8
100
AcDbEntity
  8
0
100
AcDbCircle
 62
7
  6
CONTINUOUS
 10
14.7609834891
 20
7.6440390679
 40
0.03
100
AcDbArc
 50
0.0
 51
90.0
  0
ARC
  5
3E9
100
AcDbEntity
  8
0
100
AcDbCircle
 62
7
  6
CONTINUOUS
 10
14.7609834891
 20
7.2540390679
 40
0.03
100
AcDbArc
 50
270.0
 51
360.0
  0
ARC
  5
3EA
100
AcDbEntity
  8
0
100
AcDbCircle
 62
7
  6
CONTINUOUS
 10
14.9409834891
 20
6.6140390679
 40
0.03
100
AcDbArc
 50
0.0
 51
90.0
  0
LINE
  5
3EB
100
AcDbEntity
  8
0
100
AcDbLine
 62
7
  6
CONTINUOUS
 10
10.1105921521
 20
10.0518279217
 11
10.110892227
 21
10.0523672285
  0
LINE
  5
3EC
100
AcDbEntity
  8
0
100
AcDbLine
 62
7
  6
CONTINUOUS
 10
9.9241837453
 20
10.2739808102
 11
9.9244838202
 21
10.274520117
  0
LINE
  5
3ED
100
AcDbEntity
  8
0
100
AcDbLine
 62
7
  6
CONTINUOUS
 10
9.7377753385
 20
10.4961336987
 11
9.7380754134
 21
10.4966730055
  0
LINE
  5
3EE
100
AcDbEntity
  8
0
100
AcDbLine
 62
7
  6
CONTINUOUS
 10
9.5513669317
 20
10.7182865872
 11
9.5516670066
 21
10.718825894
  0
LINE
  5
3EF
100
AcDbEntity
  8
0
100
AcDbLine
 62
7
  6
CONTINUOUS
 10
9.3649585248
 20
10.9404394757
 11
9.3652585998
 21
10.9409787825
  0
LINE
  5
3F0
100
AcDbEntity
  8
0
100
AcDbLine
 62
7
  6
CONTINUOUS
 10
9.178550118
 20
11.1625923642
 11
9.178850193
 21
11.163131671
  0
LINE
  5
3F1
100
AcDbEntity
  8
0
100
AcDbLine
 62
7
  6
CONTINUOUS
 10
8.9921417112
 20
11.3847452528
 11
8.9924417862
 21
11.3852845595
  0
LINE
  5
3F2
100
AcDbEntity
  8
0
100
AcDbLine
 62
7
  6
CONTINUOUS
 10
8.8057333044
 20
11.6068981413
 11
8.8060333794
 21
11.607437448
  0
LINE
  5
3F3
100
AcDbEntity
  8
0
100
AcDbLine
 62
7
  6
CONTINUOUS
 10
8.6193248976
 20
11.8290510298
 11
8.6196249726
 21
11.8295903365
  0
LINE
  5
3F4
100
AcDbEntity
  8
0
100
AcDbLine
 62
7
  6
CONTINUOUS
 10
8.4329164908
 20
12.0512039183
 11
8.4332165658
 21
12.051743225
  0
SPLINE
  5
3F5
100
AcDbEntity
  8
0
100
AcDbSpline
 62
7
  6
CONTINUOUS
 70
0
 71
3
 72
20
 73
16
 74
0
 42
0.0000001
 43
0.0000001
 44
0.0000000001
 40
0.0
 40
0.0
 40
0.0
 40
0.0
 40
0.1599658398
 40
0.3154655569
 40
0.3903954457
 40
0.4628048231
 40
0.5979490401
 40
0.6599543878
 40
0.7179833948
 40
0.7720983745
 40
0.8225010527
 40
0.8696091002
 40
0.9141289652
 40
0.9571254817
 40
1.0
 40
1.0
 40
1.0
 40
1.0
 10
8.2563927014
 20
12.3054748618
 30
0.0
 10
8.2555719619
 20
12.3064530189
 30
0.0
 10
8.2538345441
 20
12.3082849031
 30
0.0
 10
8.2514433173
 20
12.3102940114
 30
0.0
 10
8.2494587469
 20
12.3116770793
 30
0.0
 10
8.2475293817
 20
12.3128453404
 30
0.0
 10
8.2455732599
 20
12.3137692767
 30
0.0
 10
8.2436239995
 20
12.3143704751
 30
0.0
 10
8.2422577788
 20
12.3146416821
 30
0.0
 10
8.2409611536
 20
12.3147456141
 30
0.0
 10
8.2397483977
 20
12.3146799402
 30
0.0
 10
8.2386345758
 20
12.3144414935
 30
0.0
 10
8.2376357274
 20
12.3140263293
 30
0.0
 10
8.2367732684
 20
12.3134292605
 30
0.0
 10
8.2363069096
 20
12.3129178844
 30
0.0
 10
8.2361046256
 20
12.3126418347
 30
0.0
  0
LINE
  5
3F6
100
AcDbEntity
  8
0
100
AcDbLine
 62
7
  6
CONTINUOUS
 10
8.246508084
 20
12.2733568068
 11
8.2468081589
 21
12.2738961135
  0
SPLINE
  5
3F7
100
AcDbEntity
  8
0
100
AcDbSpline
 62
7
  6
CONTINUOUS
 70
0
 71
3
 72
20
 73
16
 74
0
 42
0.0000001
 43
0.0000001
 44
0.0000000001
 40
0.0
 40
0.0
 40
0.0
 40
0.0
 40
0.0428745183
 40
0.0858710348
 40
0.1303908998
 40
0.1774989473
 40
0.2279016255
 40
0.2820166052
 40
0.3400456122
 40
0.4020509599
 40
0.5371951769
 40
0.6096045543
 40
0.6845344431
 40
0.8400341602
 40
1.0
 40
1.0
 40
1.0
 40
1.0
 10
10.1240118726
 20
10.0627215906
 30
0.0
 10
10.1243188547
 20
10.0628728659
 30
0.0
 10
10.1249034442
 20
10.0632433402
 30
0.0
 10
10.1256412066
 20
10.0639890165
 30
0.0
 10
10.1262235118
 20
10.0649005977
 30
0.0
 10
10.1266517491
 20
10.0659560922
 30
0.0
 10
10.1269270181
 20
10.0671390195
 30
0.0
 10
10.1270498217
 20
10.0684339937
 30
0.0
 10
10.1270199767
 20
10.069826553
 30
0.0
 10
10.1267663974
 20
10.0718505968
 30
0.0
 10
10.1261961747
 20
10.0739374406
 30
0.0
 10
10.1253806929
 20
10.0760403608
 30
0.0
 10
10.1243632539
 20
10.0782349483
 30
0.0
 10
10.1227999007
 20
10.080938725
 30
0.0
 10
10.1212975463
 20
10.0829678509
 30
0.0
 10
10.1204767695
 20
10.0839459767
 30
0.0
  0
SPLINE
  5
3F8
100
AcDbEntity
  8
0
100
AcDbSpline
 62
7
  6
CONTINUOUS
 70
0
 71
3
 72
20
 73
16
 74
0
 42
0.0000001
 43
0.0000001
 44
0.0000000001
 40
0.0
 40
0.0
 40
0.0
 40
0.0
 40
0.1599658398
 40
0.3154655569
 40
0.3903954457
 40
0.4628048231
 40
0.5979490401
 40
0.6599543878
 40
0.7179833948
 40
0.7720983745
 40
0.8225010527
 40
0.8696091002
 40
0.9141289652
 40
0.9571254817
 40
1.0
 40
1.0
 40
1.0
 40
1.0
 10
8.4428011083
 20
12.0833219733
 30
0.0
 10
8.4419803687
 20
12.0843001304
 30
0.0
 10
8.4402429509
 20
12.0861320146
 30
0.0
 10
8.4378517241
 20
12.0881411229
 30
0.0
 10
8.4358671537
 20
12.0895241908
 30
0.0
 10
8.4339377885
 20
12.0906924519
 30
0.0
 10
8.4319816667
 20
12.0916163882
 30
0.0
 10
8.4300324063
 20
12.0922175866
 30
0.0
 10
8.4286661856
 20
12.0924887936
 30
0.0
 10
8.4273695604
 20
12.0925927256
 30
0.0
 10
8.4261568045
 20
12.0925270517
 30
0.0
 10
8.4250429826
 20
12.092288605
 30
0.0
 10
8.4240441342
 20
12.0918734407
 30
0.0
 10
8.4231816753
 20
12.091276372
 30
0.0
 10
8.4227153164
 20
12.0907649959
 30
0.0
 10
8.4225130324
 20
12.0904889462
 30
0.0
  0
SPLINE
  5
3F9
100
AcDbEntity
  8
0
100
AcDbSpline
 62
7
  6
CONTINUOUS
 70
0
 71
3
 72
20
 73
16
 74
0
 42
0.0000001
 43
0.0000001
 44
0.0000000001
 40
0.0
 40
0.0
 40
0.0
 40
0.0
 40
0.0428745183
 40
0.0858710348
 40
0.1303908998
 40
0.1774989473
 40
0.2279016255
 40
0.2820166052
 40
0.3400456122
 40
0.4020509599
 40
0.5371951769
 40
0.6096045543
 40
0.6845344431
 40
0.8400341602
 40
1.0
 40
1.0
 40
1.0
 40
1.0
 10
9.9376034658
 20
10.2848744791
 30
0.0
 10
9.9379104479
 20
10.2850257544
 30
0.0
 10
9.9384950374
 20
10.2853962287
 30
0.0
 10
9.9392327998
 20
10.286141905
 30
0.0
 10
9.939815105
 20
10.2870534862
 30
0.0
 10
9.9402433423
 20
10.2881089807
 30
0.0
 10
9.9405186113
 20
10.289291908
 30
0.0
 10
9.9406414149
 20
10.2905868822
 30
0.0
 10
9.9406115698
 20
10.2919794415
 30
0.0
 10
9.9403579906
 20
10.2940034853
 30
0.0
 10
9.9397877679
 20
10.2960903291
 30
0.0
 10
9.9389722861
 20
10.2981932493
 30
0.0
 10
9.9379548471
 20
10.3003878368
 30
0.0
 10
9.9363914939
 20
10.3030916135
 30
0.0
 10
9.9348891395
 20
10.3051207394
 30
0.0
 10
9.9340683627
 20
10.3060988652
 30
0.0
  0
SPLINE
  5
3FA
100
AcDbEntity
  8
0
100
AcDbSpline
 62
7
  6
CONTINUOUS
 70
0
 71
3
 72
20
 73
16
 74
0
 42
0.0000001
 43
0.0000001
 44
0.0000000001
 40
0.0
 40
0.0
 40
0.0
 40
0.0
 40
0.0428745183
 40
0.0858710348
 40
0.1303908998
 40
0.1774989473
 40
0.2279016255
 40
0.2820166052
 40
0.3400456122
 40
0.4020509599
 40
0.5371951769
 40
0.6096045543
 40
0.6845344431
 40
0.8400341602
 40
1.0
 40
1.0
 40
1.0
 40
1.0
 10
9.751195059
 20
10.5070273676
 30
0.0
 10
9.7515020411
 20
10.5071786429
 30
0.0
 10
9.7520866306
 20
10.5075491172
 30
0.0
 10
9.752824393
 20
10.5082947935
 30
0.0
 10
9.7534066982
 20
10.5092063747
 30
0.0
 10
9.7538349355
 20
10.5102618692
 30
0.0
 10
9.7541102045
 20
10.5114447965
 30
0.0
 10
9.7542330081
 20
10.5127397707
 30
0.0
 10
9.754203163
 20
10.51413233
 30
0.0
 10
9.7539495838
 20
10.5161563738
 30
0.0
 10
9.7533793611
 20
10.5182432176
 30
0.0
 10
9.7525638793
 20
10.5203461378
 30
0.0
 10
9.7515464403
 20
10.5225407253
 30
0.0
 10
9.7499830871
 20
10.525244502
 30
0.0
 10
9.7484807327
 20
10.5272736279
 30
0.0
 10
9.7476599559
 20
10.5282517538
 30
0.0
  0
SPLINE
  5
3FB
100
AcDbEntity
  8
0
100
AcDbSpline
 62
7
  6
CONTINUOUS
 70
0
 71
3
 72
20
 73
16
 74
0
 42
0.0000001
 43
0.0000001
 44
0.0000000001
 40
0.0
 40
0.0
 40
0.0
 40
0.0
 40
0.0428745183
 40
0.0858710348
 40
0.1303908998
 40
0.1774989473
 40
0.2279016255
 40
0.2820166052
 40
0.3400456122
 40
0.4020509599
 40
0.5371951769
 40
0.6096045543
 40
0.6845344431
 40
0.8400341602
 40
1.0
 40
1.0
 40
1.0
 40
1.0
 10
9.5647866522
 20
10.7291802561
 30
0.0
 10
9.5650936343
 20
10.7293315314
 30
0.0
 10
9.5656782238
 20
10.7297020057
 30
0.0
 10
9.5664159862
 20
10.730447682
 30
0.0
 10
9.5669982914
 20
10.7313592632
 30
0.0
 10
9.5674265287
 20
10.7324147577
 30
0.0
 10
9.5677017977
 20
10.733597685
 30
0.0
 10
9.5678246013
 20
10.7348926592
 30
0.0
 10
9.5677947562
 20
10.7362852185
 30
0.0
 10
9.567541177
 20
10.7383092623
 30
0.0
 10
9.5669709543
 20
10.7403961061
 30
0.0
 10
9.5661554725
 20
10.7424990263
 30
0.0
 10
9.5651380335
 20
10.7446936138
 30
0.0
 10
9.5635746802
 20
10.7473973905
 30
0.0
 10
9.5620723259
 20
10.7494265164
 30
0.0
 10
9.5612515491
 20
10.7504046423
 30
0.0
  0
SPLINE
  5
3FC
100
AcDbEntity
  8
0
100
AcDbSpline
 62
7
  6
CONTINUOUS
 70
0
 71
3
 72
20
 73
16
 74
0
 42
0.0000001
 43
0.0000001
 44
0.0000000001
 40
0.0
 40
0.0
 40
0.0
 40
0.0
 40
0.1599658398
 40
0.3154655569
 40
0.3903954457
 40
0.4628048231
 40
0.5979490401
 40
0.6599543878
 40
0.7179833948
 40
0.7720983745
 40
0.8225010527
 40
0.8696091002
 40
0.9141289652
 40
0.9571254817
 40
1.0
 40
1.0
 40
1.0
 40
1.0
 10
8.6292095151
 20
11.8611690848
 30
0.0
 10
8.6283887755
 20
11.8621472419
 30
0.0
 10
8.6266513577
 20
11.8639791261
 30
0.0
 10
8.6242601309
 20
11.8659882344
 30
0.0
 10
8.6222755605
 20
11.8673713023
 30
0.0
 10
8.6203461953
 20
11.8685395634
 30
0.0
 10
8.6183900735
 20
11.8694634997
 30
0.0
 10
8.6164408131
 20
11.8700646981
 30
0.0
 10
8.6150745924
 20
11.8703359051
 30
0.0
 10
8.6137779672
 20
11.8704398371
 30
0.0
 10
8.6125652113
 20
11.8703741632
 30
0.0
 10
8.6114513894
 20
11.8701357165
 30
0.0
 10
8.610452541
 20
11.8697205522
 30
0.0
 10
8.6095900821
 20
11.8691234835
 30
0.0
 10
8.6091237232
 20
11.8686121074
 30
0.0
 10
8.6089214392
 20
11.8683360577
 30
0.0
  0
SPLINE
  5
3FD
100
AcDbEntity
  8
0
100
AcDbSpline
 62
7
  6
CONTINUOUS
 70
0
 71
3
 72
20
 73
16
 74
0
 42
0.0000001
 43
0.0000001
 44
0.0000000001
 40
0.0
 40
0.0
 40
0.0
 40
0.0
 40
0.0428745183
 40
0.0858710348
 40
0.1303908998
 40
0.1774989473
 40
0.2279016255
 40
0.2820166052
 40
0.3400456122
 40
0.4020509599
 40
0.5371951769
 40
0.6096045543
 40
0.6845344431
 40
0.8400341602
 40
1.0
 40
1.0
 40
1.0
 40
1.0
 10
9.3783782454
 20
10.9513331446
 30
0.0
 10
9.3786852275
 20
10.9514844199
 30
0.0
 10
9.379269817
 20
10.9518548942
 30
0.0
 10
9.3800075794
 20
10.9526005705
 30
0.0
 10
9.3805898846
 20
10.9535121517
 30
0.0
 10
9.3810181219
 20
10.9545676463
 30
0.0
 10
9.3812933909
 20
10.9557505735
 30
0.0
 10
9.3814161945
 20
10.9570455477
 30
0.0
 10
9.3813863494
 20
10.958438107
 30
0.0
 10
9.3811327701
 20
10.9604621508
 30
0.0
 10
9.3805625475
 20
10.9625489946
 30
0.0
 10
9.3797470657
 20
10.9646519148
 30
0.0
 10
9.3787296267
 20
10.9668465023
 30
0.0
 10
9.3771662734
 20
10.969550279
 30
0.0
 10
9.3756639191
 20
10.9715794049
 30
0.0
 10
9.3748431423
 20
10.9725575308
 30
0.0
  0
SPLINE
  5
3FE
100
AcDbEntity
  8
0
100
AcDbSpline
 62
7
  6
CONTINUOUS
 70
0
 71
3
 72
20
 73
16
 74
0
 42
0.0000001
 43
0.0000001
 44
0.0000000001
 40
0.0
 40
0.0
 40
0.0
 40
0.0
 40
0.0428745183
 40
0.0858710348
 40
0.1303908998
 40
0.1774989473
 40
0.2279016255
 40
0.2820166052
 40
0.3400456122
 40
0.4020509599
 40
0.5371951769
 40
0.6096045543
 40
0.6845344431
 40
0.8400341602
 40
1.0
 40
1.0
 40
1.0
 40
1.0
 10
9.1919698386
 20
11.1734860331
 30
0.0
 10
9.1922768207
 20
11.1736373084
 30
0.0
 10
9.1928614102
 20
11.1740077827
 30
0.0
 10
9.1935991726
 20
11.174753459
 30
0.0
 10
9.1941814778
 20
11.1756650402
 30
0.0
 10
9.1946097151
 20
11.1767205348
 30
0.0
 10
9.1948849841
 20
11.177903462
 30
0.0
 10
9.1950077877
 20
11.1791984362
 30
0.0
 10
9.1949779426
 20
11.1805909955
 30
0.0
 10
9.1947243633
 20
11.1826150393
 30
0.0
 10
9.1941541407
 20
11.1847018831
 30
0.0
 10
9.1933386589
 20
11.1868048033
 30
0.0
 10
9.1923212199
 20
11.1889993908
 30
0.0
 10
9.1907578666
 20
11.1917031675
 30
0.0
 10
9.1892555123
 20
11.1937322934
 30
0.0
 10
9.1884347355
 20
11.1947104193
 30
0.0
  0
SPLINE
  5
3FF
100
AcDbEntity
  8
0
100
AcDbSpline
 62
7
  6
CONTINUOUS
 70
0
 71
3
 72
20
 73
16
 74
0
 42
0.0000001
 43
0.0000001
 44
0.0000000001
 40
0.0
 40
0.0
 40
0.0
 40
0.0
 40
0.1599658398
 40
0.3154655569
 40
0.3903954457
 40
0.4628048231
 40
0.5979490401
 40
0.6599543878
 40
0.7179833948
 40
0.7720983745
 40
0.8225010527
 40
0.8696091002
 40
0.9141289652
 40
0.9571254817
 40
1.0
 40
1.0
 40
1.0
 40
1.0
 10
8.8156179219
 20
11.6390161963
 30
0.0
 10
8.8147971824
 20
11.6399943534
 30
0.0
 10
8.8130597645
 20
11.6418262376
 30
0.0
 10
8.8106685377
 20
11.6438353459
 30
0.0
 10
8.8086839674
 20
11.6452184138
 30
0.0
 10
8.8067546021
 20
11.6463866749
 30
0.0
 10
8.8047984804
 20
11.6473106112
 30
0.0
 10
8.8028492199
 20
11.6479118096
 30
0.0
 10
8.8014829992
 20
11.6481830166
 30
0.0
 10
8.800186374
 20
11.6482869486
 30
0.0
 10
8.7989736181
 20
11.6482212747
 30
0.0
 10
8.7978597962
 20
11.647982828
 30
0.0
 10
8.7968609478
 20
11.6475676637
 30
0.0
 10
8.7959984889
 20
11.646970595
 30
0.0
 10
8.7955321301
 20
11.6464592188
 30
0.0
 10
8.795329846
 20
11.6461831692
 30
0.0
  0
SPLINE
  5
400
100
AcDbEntity
  8
0
100
AcDbSpline
 62
7
  6
CONTINUOUS
 70
0
 71
3
 72
20
 73
16
 74
0
 42
0.0000001
 43
0.0000001
 44
0.0000000001
 40
0.0
 40
0.0
 40
0.0
 40
0.0
 40
0.0428745183
 40
0.0858710348
 40
0.1303908998
 40
0.1774989473
 40
0.2279016255
 40
0.2820166052
 40
0.3400456122
 40
0.4020509599
 40
0.5371951769
 40
0.6096045543
 40
0.6845344431
 40
0.8400341602
 40
1.0
 40
1.0
 40
1.0
 40
1.0
 10
9.0055614318
 20
11.3956389216
 30
0.0
 10
9.0058684139
 20
11.3957901969
 30
0.0
 10
9.0064530034
 20
11.3961606712
 30
0.0
 10
9.0071907658
 20
11.3969063475
 30
0.0
 10
9.007773071
 20
11.3978179287
 30
0.0
 10
9.0082013082
 20
11.3988734233
 30
0.0
 10
9.0084765773
 20
11.4000563505
 30
0.0
 10
9.0085993809
 20
11.4013513247
 30
0.0
 10
9.0085695358
 20
11.402743884
 30
0.0
 10
9.0083159565
 20
11.4047679278
 30
0.0
 10
9.0077457338
 20
11.4068547716
 30
0.0
 10
9.0069302521
 20
11.4089576918
 30
0.0
 10
9.005912813
 20
11.4111522793
 30
0.0
 10
9.0043494598
 20
11.413856056
 30
0.0
 10
9.0028471055
 20
11.4158851819
 30
0.0
 10
9.0020263287
 20
11.4168633078
 30
0.0
  0
SPLINE
  5
401
100
AcDbEntity
  8
0
100
AcDbSpline
 62
7
  6
CONTINUOUS
 70
0
 71
3
 72
20
 73
16
 74
0
 42
0.0000001
 43
0.0000001
 44
0.0000000001
 40
0.0
 40
0.0
 40
0.0
 40
0.0
 40
0.0428745183
 40
0.0858710348
 40
0.1303908998
 40
0.1774989473
 40
0.2279016255
 40
0.2820166052
 40
0.3400456122
 40
0.4020509599
 40
0.5371951769
 40
0.6096045543
 40
0.6845344431
 40
0.8400341602
 40
1.0
 40
1.0
 40
1.0
 40
1.0
 10
8.8191530249
 20
11.6177918101
 30
0.0
 10
8.8194600071
 20
11.6179430855
 30
0.0
 10
8.8200445966
 20
11.6183135597
 30
0.0
 10
8.820782359
 20
11.619059236
 30
0.0
 10
8.8213646642
 20
11.6199708172
 30
0.0
 10
8.8217929014
 20
11.6210263118
 30
0.0
 10
8.8220681705
 20
11.622209239
 30
0.0
 10
8.8221909741
 20
11.6235042132
 30
0.0
 10
8.822161129
 20
11.6248967725
 30
0.0
 10
8.8219075497
 20
11.6269208163
 30
0.0
 10
8.821337327
 20
11.6290076601
 30
0.0
 10
8.8205218453
 20
11.6311105803
 30
0.0
 10
8.8195044062
 20
11.6333051678
 30
0.0
 10
8.817941053
 20
11.6360089445
 30
0.0
 10
8.8164386987
 20
11.6380380704
 30
0.0
 10
8.8156179219
 20
11.6390161963
 30
0.0
  0
SPLINE
  5
402
100
AcDbEntity
  8
0
100
AcDbSpline
 62
7
  6
CONTINUOUS
 70
0
 71
3
 72
20
 73
16
 74
0
 42
0.0000001
 43
0.0000001
 44
0.0000000001
 40
0.0
 40
0.0
 40
0.0
 40
0.0
 40
0.0428745183
 40
0.0858710348
 40
0.1303908998
 40
0.1774989473
 40
0.2279016255
 40
0.2820166052
 40
0.3400456122
 40
0.4020509599
 40
0.5371951769
 40
0.6096045543
 40
0.6845344431
 40
0.8400341602
 40
1.0
 40
1.0
 40
1.0
 40
1.0
 10
8.6327446181
 20
11.8399446986
 30
0.0
 10
8.6330516003
 20
11.840095974
 30
0.0
 10
8.6336361898
 20
11.8404664482
 30
0.0
 10
8.6343739522
 20
11.8412121245
 30
0.0
 10
8.6349562574
 20
11.8421237057
 30
0.0
 10
8.6353844946
 20
11.8431792003
 30
0.0
 10
8.6356597637
 20
11.8443621275
 30
0.0
 10
8.6357825672
 20
11.8456571017
 30
0.0
 10
8.6357527222
 20
11.847049661
 30
0.0
 10
8.6354991429
 20
11.8490737048
 30
0.0
 10
8.6349289202
 20
11.8511605486
 30
0.0
 10
8.6341134384
 20
11.8532634688
 30
0.0
 10
8.6330959994
 20
11.8554580563
 30
0.0
 10
8.6315326462
 20
11.858161833
 30
0.0
 10
8.6300302919
 20
11.8601909589
 30
0.0
 10
8.6292095151
 20
11.8611690848
 30
0.0
  0
SPLINE
  5
403
100
AcDbEntity
  8
0
100
AcDbSpline
 62
7
  6
CONTINUOUS
 70
0
 71
3
 72
20
 73
16
 74
0
 42
0.0000001
 43
0.0000001
 44
0.0000000001
 40
0.0
 40
0.0
 40
0.0
 40
0.0
 40
0.1599658398
 40
0.3154655569
 40
0.3903954457
 40
0.4628048231
 40
0.5979490401
 40
0.6599543878
 40
0.7179833948
 40
0.7720983745
 40
0.8225010527
 40
0.8696091002
 40
0.9141289652
 40
0.9571254817
 40
1.0
 40
1.0
 40
1.0
 40
1.0
 10
9.0020263287
 20
11.4168633078
 30
0.0
 10
9.0012055892
 20
11.4178414649
 30
0.0
 10
8.9994681713
 20
11.4196733491
 30
0.0
 10
8.9970769445
 20
11.4216824574
 30
0.0
 10
8.9950923742
 20
11.4230655253
 30
0.0
 10
8.9931630089
 20
11.4242337864
 30
0.0
 10
8.9912068872
 20
11.4251577227
 30
0.0
 10
8.9892576267
 20
11.4257589211
 30
0.0
 10
8.987891406
 20
11.4260301281
 30
0.0
 10
8.9865947808
 20
11.4261340601
 30
0.0
 10
8.9853820249
 20
11.4260683862
 30
0.0
 10
8.984268203
 20
11.4258299395
 30
0.0
 10
8.9832693546
 20
11.4254147752
 30
0.0
 10
8.9824068957
 20
11.4248177064
 30
0.0
 10
8.9819405369
 20
11.4243063303
 30
0.0
 10
8.9817382528
 20
11.4240302807
 30
0.0
  0
SPLINE
  5
404
100
AcDbEntity
  8
0
100
AcDbSpline
 62
7
  6
CONTINUOUS
 70
0
 71
3
 72
20
 73
16
 74
0
 42
0.0000001
 43
0.0000001
 44
0.0000000001
 40
0.0
 40
0.0
 40
0.0
 40
0.0
 40
0.0428745183
 40
0.0858710348
 40
0.1303908998
 40
0.1774989473
 40
0.2279016255
 40
0.2820166052
 40
0.3400456122
 40
0.4020509599
 40
0.5371951769
 40
0.6096045543
 40
0.6845344431
 40
0.8400341602
 40
1.0
 40
1.0
 40
1.0
 40
1.0
 10
8.4463362113
 20
12.0620975871
 30
0.0
 10
8.4466431935
 20
12.0622488625
 30
0.0
 10
8.447227783
 20
12.0626193367
 30
0.0
 10
8.4479655453
 20
12.063365013
 30
0.0
 10
8.4485478506
 20
12.0642765942
 30
0.0
 10
8.4489760878
 20
12.0653320888
 30
0.0
 10
8.4492513568
 20
12.066515016
 30
0.0
 10
8.4493741604
 20
12.0678099902
 30
0.0
 10
8.4493443154
 20
12.0692025495
 30
0.0
 10
8.4490907361
 20
12.0712265933
 30
0.0
 10
8.4485205134
 20
12.0733134371
 30
0.0
 10
8.4477050316
 20
12.0754163573
 30
0.0
 10
8.4466875926
 20
12.0776109448
 30
0.0
 10
8.4451242394
 20
12.0803147215
 30
0.0
 10
8.4436218851
 20
12.0823438474
 30
0.0
 10
8.4428011083
 20
12.0833219733
 30
0.0
  0
SPLINE
  5
405
100
AcDbEntity
  8
0
100
AcDbSpline
 62
7
  6
CONTINUOUS
 70
0
 71
3
 72
20
 73
16
 74
0
 42
0.0000001
 43
0.0000001
 44
0.0000000001
 40
0.0
 40
0.0
 40
0.0
 40
0.0
 40
0.0428745183
 40
0.0858710348
 40
0.1303908998
 40
0.1774989473
 40
0.2279016255
 40
0.2820166052
 40
0.3400456122
 40
0.4020509599
 40
0.5371951769
 40
0.6096045543
 40
0.6845344431
 40
0.8400341602
 40
1.0
 40
1.0
 40
1.0
 40
1.0
 10
8.2599278045
 20
12.2842504756
 30
0.0
 10
8.2602347866
 20
12.284401751
 30
0.0
 10
8.2608193761
 20
12.2847722252
 30
0.0
 10
8.2615571385
 20
12.2855179015
 30
0.0
 10
8.2621394438
 20
12.2864294827
 30
0.0
 10
8.262567681
 20
12.2874849773
 30
0.0
 10
8.26284295
 20
12.2886679045
 30
0.0
 10
8.2629657536
 20
12.2899628787
 30
0.0
 10
8.2629359086
 20
12.291355438
 30
0.0
 10
8.2626823293
 20
12.2933794819
 30
0.0
 10
8.2621121066
 20
12.2954663256
 30
0.0
 10
8.2612966248
 20
12.2975692458
 30
0.0
 10
8.2602791858
 20
12.2997638333
 30
0.0
 10
8.2587158326
 20
12.3024676101
 30
0.0
 10
8.2572134782
 20
12.3044967359
 30
0.0
 10
8.2563927014
 20
12.3054748618
 30
0.0
  0
SPLINE
  5
406
100
AcDbEntity
  8
0
100
AcDbSpline
 62
7
  6
CONTINUOUS
 70
0
 71
3
 72
20
 73
16
 74
0
 42
0.0000001
 43
0.0000001
 44
0.0000000001
 40
0.0
 40
0.0
 40
0.0
 40
0.0
 40
0.1599658398
 40
0.3154655569
 40
0.3903954457
 40
0.4628048231
 40
0.5979490401
 40
0.6599543878
 40
0.7179833948
 40
0.7720983745
 40
0.8225010527
 40
0.8696091002
 40
0.9141289652
 40
0.9571254817
 40
1.0
 40
1.0
 40
1.0
 40
1.0
 10
9.1884347355
 20
11.1947104193
 30
0.0
 10
9.187613996
 20
11.1956885764
 30
0.0
 10
9.1858765782
 20
11.1975204606
 30
0.0
 10
9.1834853513
 20
11.1995295689
 30
0.0
 10
9.181500781
 20
11.2009126368
 30
0.0
 10
9.1795714158
 20
11.2020808979
 30
0.0
 10
9.177615294
 20
11.2030048342
 30
0.0
 10
9.1756660335
 20
11.2036060326
 30
0.0
 10
9.1742998128
 20
11.2038772396
 30
0.0
 10
9.1730031876
 20
11.2039811716
 30
0.0
 10
9.1717904317
 20
11.2039154977
 30
0.0
 10
9.1706766098
 20
11.203677051
 30
0.0
 10
9.1696777614
 20
11.2032618867
 30
0.0
 10
9.1688153025
 20
11.2026648179
 30
0.0
 10
9.1683489437
 20
11.2021534418
 30
0.0
 10
9.1681466596
 20
11.2018773922
 30
0.0
  0
SPLINE
  5
407
100
AcDbEntity
  8
0
100
AcDbSpline
 62
7
  6
CONTINUOUS
 70
0
 71
3
 72
20
 73
16
 74
0
 42
0.0000001
 43
0.0000001
 44
0.0000000001
 40
0.0
 40
0.0
 40
0.0
 40
0.0
 40
0.1599658398
 40
0.3154655569
 40
0.3903954457
 40
0.4628048231
 40
0.5979490401
 40
0.6599543878
 40
0.7179833948
 40
0.7720983745
 40
0.8225010527
 40
0.8696091002
 40
0.9141289652
 40
0.9571254817
 40
1.0
 40
1.0
 40
1.0
 40
1.0
 10
9.3748431423
 20
10.9725575308
 30
0.0
 10
9.3740224028
 20
10.9735356879
 30
0.0
 10
9.372284985
 20
10.9753675721
 30
0.0
 10
9.3698937581
 20
10.9773766804
 30
0.0
 10
9.3679091878
 20
10.9787597483
 30
0.0
 10
9.3659798226
 20
10.9799280094
 30
0.0
 10
9.3640237008
 20
10.9808519457
 30
0.0
 10
9.3620744403
 20
10.9814531441
 30
0.0
 10
9.3607082196
 20
10.9817243511
 30
0.0
 10
9.3594115944
 20
10.9818282831
 30
0.0
 10
9.3581988385
 20
10.9817626092
 30
0.0
 10
9.3570850166
 20
10.9815241625
 30
0.0
 10
9.3560861682
 20
10.9811089982
 30
0.0
 10
9.3552237093
 20
10.9805119294
 30
0.0
 10
9.3547573505
 20
10.9800005533
 30
0.0
 10
9.3545550664
 20
10.9797245037
 30
0.0
  0
SPLINE
  5
408
100
AcDbEntity
  8
0
100
AcDbSpline
 62
7
  6
CONTINUOUS
 70
0
 71
3
 72
20
 73
16
 74
0
 42
0.0000001
 43
0.0000001
 44
0.0000000001
 40
0.0
 40
0.0
 40
0.0
 40
0.0
 40
0.1599658398
 40
0.3154655569
 40
0.3903954457
 40
0.4628048231
 40
0.5979490401
 40
0.6599543878
 40
0.7179833948
 40
0.7720983745
 40
0.8225010527
 40
0.8696091002
 40
0.9141289652
 40
0.9571254817
 40
1.0
 40
1.0
 40
1.0
 40
1.0
 10
9.5612515491
 20
10.7504046423
 30
0.0
 10
9.5604308096
 20
10.7513827994
 30
0.0
 10
9.5586933918
 20
10.7532146836
 30
0.0
 10
9.5563021649
 20
10.7552237919
 30
0.0
 10
9.5543175946
 20
10.7566068598
 30
0.0
 10
9.5523882294
 20
10.7577751209
 30
0.0
 10
9.5504321076
 20
10.7586990572
 30
0.0
 10
9.5484828471
 20
10.7593002556
 30
0.0
 10
9.5471166265
 20
10.7595714626
 30
0.0
 10
9.5458200012
 20
10.7596753946
 30
0.0
 10
9.5446072453
 20
10.7596097207
 30
0.0
 10
9.5434934235
 20
10.759371274
 30
0.0
 10
9.542494575
 20
10.7589561097
 30
0.0
 10
9.5416321161
 20
10.7583590409
 30
0.0
 10
9.5411657573
 20
10.7578476648
 30
0.0
 10
9.5409634733
 20
10.7575716151
 30
0.0
  0
SPLINE
  5
409
100
AcDbEntity
  8
0
100
AcDbSpline
 62
7
  6
CONTINUOUS
 70
0
 71
3
 72
20
 73
16
 74
0
 42
0.0000001
 43
0.0000001
 44
0.0000000001
 40
0.0
 40
0.0
 40
0.0
 40
0.0
 40
0.1599658398
 40
0.3154655569
 40
0.3903954457
 40
0.4628048231
 40
0.5979490401
 40
0.6599543878
 40
0.7179833948
 40
0.7720983745
 40
0.8225010527
 40
0.8696091002
 40
0.9141289652
 40
0.9571254817
 40
1.0
 40
1.0
 40
1.0
 40
1.0
 10
9.7476599559
 20
10.5282517538
 30
0.0
 10
9.7468392164
 20
10.5292299109
 30
0.0
 10
9.7451017986
 20
10.5310617951
 30
0.0
 10
9.7427105717
 20
10.5330709034
 30
0.0
 10
9.7407260014
 20
10.5344539713
 30
0.0
 10
9.7387966362
 20
10.5356222324
 30
0.0
 10
9.7368405144
 20
10.5365461687
 30
0.0
 10
9.7348912539
 20
10.5371473671
 30
0.0
 10
9.7335250333
 20
10.5374185741
 30
0.0
 10
9.732228408
 20
10.5375225061
 30
0.0
 10
9.7310156521
 20
10.5374568322
 30
0.0
 10
9.7299018303
 20
10.5372183855
 30
0.0
 10
9.7289029818
 20
10.5368032212
 30
0.0
 10
9.7280405229
 20
10.5362061524
 30
0.0
 10
9.7275741641
 20
10.5356947763
 30
0.0
 10
9.7273718801
 20
10.5354187266
 30
0.0
  0
SPLINE
  5
40A
100
AcDbEntity
  8
0
100
AcDbSpline
 62
7
  6
CONTINUOUS
 70
0
 71
3
 72
20
 73
16
 74
0
 42
0.0000001
 43
0.0000001
 44
0.0000000001
 40
0.0
 40
0.0
 40
0.0
 40
0.0
 40
0.1599658398
 40
0.3154655569
 40
0.3903954457
 40
0.4628048231
 40
0.5979490401
 40
0.6599543878
 40
0.7179833948
 40
0.7720983745
 40
0.8225010527
 40
0.8696091002
 40
0.9141289652
 40
0.9571254817
 40
1.0
 40
1.0
 40
1.0
 40
1.0
 10
9.9340683627
 20
10.3060988652
 30
0.0
 10
9.9332476232
 20
10.3070770224
 30
0.0
 10
9.9315102054
 20
10.3089089066
 30
0.0
 10
9.9291189785
 20
10.3109180149
 30
0.0
 10
9.9271344082
 20
10.3123010828
 30
0.0
 10
9.925205043
 20
10.3134693439
 30
0.0
 10
9.9232489212
 20
10.3143932802
 30
0.0
 10
9.9212996607
 20
10.3149944785
 30
0.0
 10
9.9199334401
 20
10.3152656856
 30
0.0
 10
9.9186368148
 20
10.3153696176
 30
0.0
 10
9.9174240589
 20
10.3153039436
 30
0.0
 10
9.9163102371
 20
10.315065497
 30
0.0
 10
9.9153113886
 20
10.3146503327
 30
0.0
 10
9.9144489297
 20
10.3140532639
 30
0.0
 10
9.9139825709
 20
10.3135418878
 30
0.0
 10
9.9137802869
 20
10.3132658381
 30
0.0
  0
SPLINE
  5
40B
100
AcDbEntity
  8
0
100
AcDbSpline
 62
7
  6
CONTINUOUS
 70
0
 71
3
 72
20
 73
16
 74
0
 42
0.0000001
 43
0.0000001
 44
0.0000000001
 40
0.0
 40
0.0
 40
0.0
 40
0.0
 40
0.1599658398
 40
0.3154655569
 40
0.3903954457
 40
0.4628048231
 40
0.5979490401
 40
0.6599543878
 40
0.7179833948
 40
0.7720983745
 40
0.8225010527
 40
0.8696091002
 40
0.9141289652
 40
0.9571254817
 40
1.0
 40
1.0
 40
1.0
 40
1.0
 10
10.1204767695
 20
10.0839459767
 30
0.0
 10
10.11965603
 20
10.0849241339
 30
0.0
 10
10.1179186122
 20
10.0867560181
 30
0.0
 10
10.1155273853
 20
10.0887651264
 30
0.0
 10
10.113542815
 20
10.0901481943
 30
0.0
 10
10.1116134498
 20
10.0913164554
 30
0.0
 10
10.109657328
 20
10.0922403917
 30
0.0
 10
10.1077080675
 20
10.09284159
 30
0.0
 10
10.1063418469
 20
10.0931127971
 30
0.0
 10
10.1050452216
 20
10.0932167291
 30
0.0
 10
10.1038324657
 20
10.0931510551
 30
0.0
 10
10.1027186439
 20
10.0929126085
 30
0.0
 10
10.1017197954
 20
10.0924974442
 30
0.0
 10
10.1008573365
 20
10.0919003754
 30
0.0
 10
10.1003909777
 20
10.0913889993
 30
0.0
 10
10.1001886937
 20
10.0911129496
 30
0.0
  0
LINE
  5
40C
100
AcDbEntity
  8
0
100
AcDbLine
 62
7
  6
CONTINUOUS
 10
8.2236338485
 20
12.3015193432
 11
8.2230461458
 21
12.3013176558
  0
LINE
  5
40D
100
AcDbEntity
  8
0
100
AcDbLine
 62
7
  6
CONTINUOUS
 10
8.4100422553
 20
12.0793664547
 11
8.4094545527
 21
12.0791647673
  0
LINE
  5
40E
100
AcDbEntity
  8
0
100
AcDbLine
 62
7
  6
CONTINUOUS
 10
8.5964506621
 20
11.8572135662
 11
8.5958629595
 21
11.8570118788
  0
LINE
  5
40F
100
AcDbEntity
  8
0
100
AcDbLine
 62
7
  6
CONTINUOUS
 10
8.7828590689
 20
11.6350606777
 11
8.7822713663
 21
11.6348589903
  0
LINE
  5
410
100
AcDbEntity
  8
0
100
AcDbLine
 62
7
  6
CONTINUOUS
 10
8.9692674757
 20
11.4129077892
 11
8.9686797731
 21
11.4127061018
  0
LINE
  5
411
100
AcDbEntity
  8
0
100
AcDbLine
 62
7
  6
CONTINUOUS
 10
9.1556758825
 20
11.1907549007
 11
9.1550881799
 21
11.1905532133
  0
LINE
  5
412
100
AcDbEntity
  8
0
100
AcDbLine
 62
7
  6
CONTINUOUS
 10
9.3420842893
 20
10.9686020122
 11
9.3414965867
 21
10.9684003248
  0
LINE
  5
413
100
AcDbEntity
  8
0
100
AcDbLine
 62
7
  6
CONTINUOUS
 10
9.5284926961
 20
10.7464491237
 11
9.5279049935
 21
10.7462474363
  0
LINE
  5
414
100
AcDbEntity
  8
0
100
AcDbLine
 62
7
  6
CONTINUOUS
 10
9.7149011029
 20
10.5242962352
 11
9.7143134003
 21
10.5240945478
  0
LINE
  5
415
100
AcDbEntity
  8
0
100
AcDbLine
 62
7
  6
CONTINUOUS
 10
9.9013095097
 20
10.3021433467
 11
9.9007218071
 21
10.3019416593
  0
LINE
  5
416
100
AcDbEntity
  8
0
100
AcDbLine
 62
7
  6
CONTINUOUS
 10
10.0877179165
 20
10.0799904582
 11
10.0871302139
 21
10.0797887708
  0
SPLINE
  5
417
100
AcDbEntity
  8
0
100
AcDbSpline
 62
7
  6
CONTINUOUS
 70
0
 71
3
 72
9
 73
5
 74
0
 42
0.0000001
 43
0.0000001
 44
0.0000000001
 40
0.0
 40
0.0
 40
0.0
 40
0.0
 40
0.5142238131
 40
1.0
 40
1.0
 40
1.0
 40
1.0
 10
8.8133614141
 20
11.6371227615
 30
0.0
 10
8.8145124853
 20
11.6357509683
 30
0.0
 10
8.8169055747
 20
11.6332093304
 30
0.0
 10
8.8195765745
 20
11.6309597331
 30
0.0
 10
8.820939495
 20
11.6299576175
 30
0.0
  0
SPLINE
  5
418
100
AcDbEntity
  8
0
100
AcDbSpline
 62
7
  6
CONTINUOUS
 70
0
 71
3
 72
9
 73
5
 74
0
 42
0.0000001
 43
0.0000001
 44
0.0000000001
 40
0.0
 40
0.0
 40
0.0
 40
0.0
 40
0.5142238131
 40
1.0
 40
1.0
 40
1.0
 40
1.0
 10
8.8133614141
 20
11.6371227615
 30
0.0
 10
8.812210343
 20
11.6384945546
 30
0.0
 10
8.810122874
 20
11.6412926384
 30
0.0
 10
8.8083712673
 20
11.6443136982
 30
0.0
 10
8.8076210448
 20
11.6458299284
 30
0.0
  0
SPLINE
  5
419
100
AcDbEntity
  8
0
100
AcDbSpline
 62
7
  6
CONTINUOUS
 70
0
 71
3
 72
19
 73
15
 74
0
 42
0.0000001
 43
0.0000001
 44
0.0000000001
 40
0.0
 40
0.0
 40
0.0
 40
0.0
 40
0.0423900202
 40
0.0866875015
 40
0.1334976334
 40
0.1832377682
 40
0.236172129
 40
0.2924555131
 40
0.4151110624
 40
0.4813159956
 40
0.5502799463
 40
0.6948843401
 40
0.8458405377
 40
1.0
 40
1.0
 40
1.0
 40
1.0
 10
8.9817382528
 20
11.4240302807
 30
0.0
 10
8.9815594374
 20
11.4237862577
 30
0.0
 10
8.9812397545
 20
11.4232522453
 30
0.0
 10
8.9808891975
 20
11.4223625923
 30
0.0
 10
8.9806578407
 20
11.4213812136
 30
0.0
 10
8.980544741
 20
11.4203179806
 30
0.0
 10
8.9805487218
 20
11.4191815139
 30
0.0
 10
8.980714685
 20
11.417532955
 30
0.0
 10
8.9811216719
 20
11.4158224613
 30
0.0
 10
8.9817281173
 20
11.4140846124
 30
0.0
 10
8.9825000585
 20
11.4122419169
 30
0.0
 10
8.9837027548
 20
11.4099296245
 30
0.0
 10
8.9854421188
 20
11.4072278243
 30
0.0
 10
8.9867738992
 20
11.4055012026
 30
0.0
 10
8.987481091
 20
11.4046584042
 30
0.0
  0
SPLINE
  5
41A
100
AcDbEntity
  8
0
100
AcDbSpline
 62
7
  6
CONTINUOUS
 70
0
 71
3
 72
19
 73
15
 74
0
 42
0.0000001
 43
0.0000001
 44
0.0000000001
 40
0.0
 40
0.0
 40
0.0
 40
0.0
 40
0.0423900202
 40
0.0866875015
 40
0.1334976334
 40
0.1832377682
 40
0.236172129
 40
0.2924555131
 40
0.4151110624
 40
0.4813159956
 40
0.5502799463
 40
0.6948843401
 40
0.8458405377
 40
1.0
 40
1.0
 40
1.0
 40
1.0
 10
8.795329846
 20
11.6461831692
 30
0.0
 10
8.7951510306
 20
11.6459391462
 30
0.0
 10
8.7948313477
 20
11.6454051338
 30
0.0
 10
8.7944807907
 20
11.6445154808
 30
0.0
 10
8.7942494339
 20
11.6435341021
 30
0.0
 10
8.7941363342
 20
11.6424708692
 30
0.0
 10
8.794140315
 20
11.6413344024
 30
0.0
 10
8.7943062782
 20
11.6396858435
 30
0.0
 10
8.7947132651
 20
11.6379753498
 30
0.0
 10
8.7953197105
 20
11.6362375009
 30
0.0
 10
8.7960916517
 20
11.6343948054
 30
0.0
 10
8.797294348
 20
11.632082513
 30
0.0
 10
8.7990337119
 20
11.6293807128
 30
0.0
 10
8.8003654924
 20
11.6276540911
 30
0.0
 10
8.8010726842
 20
11.6268112927
 30
0.0
  0
SPLINE
  5
41B
100
AcDbEntity
  8
0
100
AcDbSpline
 62
7
  6
CONTINUOUS
 70
0
 71
3
 72
19
 73
15
 74
0
 42
0.0000001
 43
0.0000001
 44
0.0000000001
 40
0.0
 40
0.0
 40
0.0
 40
0.0
 40
0.1541594623
 40
0.3051156599
 40
0.4497200537
 40
0.5186840044
 40
0.5848889376
 40
0.7075444869
 40
0.763827871
 40
0.8167622318
 40
0.8665023666
 40
0.9133124985
 40
0.9576099798
 40
1.0
 40
1.0
 40
1.0
 40
1.0
 10
8.987481091
 20
11.4046584042
 30
0.0
 10
8.9881882828
 20
11.4038156058
 30
0.0
 10
8.989657412
 20
11.4022042334
 30
0.0
 10
8.9920161285
 20
11.4000221316
 30
0.0
 10
8.9940844459
 20
11.3984361816
 30
0.0
 10
8.9957651006
 20
11.3973559872
 30
0.0
 10
8.9973712395
 20
11.3964569808
 30
0.0
 10
8.9989850744
 20
11.3957591528
 30
0.0
 10
9.0005797687
 20
11.3953094417
 30
0.0
 10
9.0016982788
 20
11.3951081761
 30
0.0
 10
9.0027649983
 20
11.395034929
 30
0.0
 10
9.0037716424
 20
11.3950923564
 30
0.0
 10
9.0047086531
 20
11.395283101
 30
0.0
 10
9.0052900651
 20
11.3955051969
 30
0.0
 10
9.0055614318
 20
11.3956389216
 30
0.0
  0
SPLINE
  5
41C
100
AcDbEntity
  8
0
100
AcDbSpline
 62
7
  6
CONTINUOUS
 70
0
 71
3
 72
9
 73
5
 74
0
 42
0.0000001
 43
0.0000001
 44
0.0000000001
 40
0.0
 40
0.0
 40
0.0
 40
0.0
 40
0.5142238131
 40
1.0
 40
1.0
 40
1.0
 40
1.0
 10
8.9997698209
 20
11.414969873
 30
0.0
 10
9.0009208921
 20
11.4135980798
 30
0.0
 10
9.0033139815
 20
11.4110564419
 30
0.0
 10
9.0059849813
 20
11.4088068446
 30
0.0
 10
9.0073479018
 20
11.407804729
 30
0.0
  0
SPLINE
  5
41D
100
AcDbEntity
  8
0
100
AcDbSpline
 62
7
  6
CONTINUOUS
 70
0
 71
3
 72
19
 73
15
 74
0
 42
0.0000001
 43
0.0000001
 44
0.0000000001
 40
0.0
 40
0.0
 40
0.0
 40
0.0
 40
0.0423900202
 40
0.0866875015
 40
0.1334976334
 40
0.1832377682
 40
0.236172129
 40
0.2924555131
 40
0.4151110624
 40
0.4813159956
 40
0.5502799463
 40
0.6948843401
 40
0.8458405377
 40
1.0
 40
1.0
 40
1.0
 40
1.0
 10
8.6089214392
 20
11.8683360577
 30
0.0
 10
8.6087426238
 20
11.8680920347
 30
0.0
 10
8.6084229409
 20
11.8675580223
 30
0.0
 10
8.6080723839
 20
11.8666683693
 30
0.0
 10
8.6078410271
 20
11.8656869906
 30
0.0
 10
8.6077279274
 20
11.8646237577
 30
0.0
 10
8.6077319082
 20
11.8634872909
 30
0.0
 10
8.6078978714
 20
11.8618387321
 30
0.0
 10
8.6083048583
 20
11.8601282383
 30
0.0
 10
8.6089113037
 20
11.8583903894
 30
0.0
 10
8.6096832449
 20
11.8565476939
 30
0.0
 10
8.6108859412
 20
11.8542354015
 30
0.0
 10
8.6126253051
 20
11.8515336013
 30
0.0
 10
8.6139570856
 20
11.8498069796
 30
0.0
 10
8.6146642774
 20
11.8489641812
 30
0.0
  0
SPLINE
  5
41E
100
AcDbEntity
  8
0
100
AcDbSpline
 62
7
  6
CONTINUOUS
 70
0
 71
3
 72
9
 73
5
 74
0
 42
0.0000001
 43
0.0000001
 44
0.0000000001
 40
0.0
 40
0.0
 40
0.0
 40
0.0
 40
0.5142238131
 40
1.0
 40
1.0
 40
1.0
 40
1.0
 10
8.9997698209
 20
11.414969873
 30
0.0
 10
8.9986187498
 20
11.4163416661
 30
0.0
 10
8.9965312808
 20
11.4191397499
 30
0.0
 10
8.9947796741
 20
11.4221608097
 30
0.0
 10
8.9940294516
 20
11.4236770399
 30
0.0
  0
SPLINE
  5
41F
100
AcDbEntity
  8
0
100
AcDbSpline
 62
7
  6
CONTINUOUS
 70
0
 71
3
 72
19
 73
15
 74
0
 42
0.0000001
 43
0.0000001
 44
0.0000000001
 40
0.0
 40
0.0
 40
0.0
 40
0.0
 40
0.0423900202
 40
0.0866875015
 40
0.1334976334
 40
0.1832377682
 40
0.236172129
 40
0.2924555131
 40
0.4151110624
 40
0.4813159956
 40
0.5502799463
 40
0.6948843401
 40
0.8458405377
 40
1.0
 40
1.0
 40
1.0
 40
1.0
 10
8.4225130324
 20
12.0904889462
 30
0.0
 10
8.4223342169
 20
12.0902449232
 30
0.0
 10
8.4220145341
 20
12.0897109108
 30
0.0
 10
8.4216639771
 20
12.0888212578
 30
0.0
 10
8.4214326203
 20
12.0878398791
 30
0.0
 10
8.4213195206
 20
12.0867766462
 30
0.0
 10
8.4213235014
 20
12.0856401794
 30
0.0
 10
8.4214894646
 20
12.0839916206
 30
0.0
 10
8.4218964515
 20
12.0822811268
 30
0.0
 10
8.4225028969
 20
12.0805432779
 30
0.0
 10
8.4232748381
 20
12.0787005824
 30
0.0
 10
8.4244775344
 20
12.0763882901
 30
0.0
 10
8.4262168983
 20
12.0736864898
 30
0.0
 10
8.4275486787
 20
12.0719598681
 30
0.0
 10
8.4282558706
 20
12.0711170697
 30
0.0
  0
SPLINE
  5
420
100
AcDbEntity
  8
0
100
AcDbSpline
 62
7
  6
CONTINUOUS
 70
0
 71
3
 72
19
 73
15
 74
0
 42
0.0000001
 43
0.0000001
 44
0.0000000001
 40
0.0
 40
0.0
 40
0.0
 40
0.0
 40
0.0423900202
 40
0.0866875015
 40
0.1334976334
 40
0.1832377682
 40
0.236172129
 40
0.2924555131
 40
0.4151110624
 40
0.4813159956
 40
0.5502799463
 40
0.6948843401
 40
0.8458405377
 40
1.0
 40
1.0
 40
1.0
 40
1.0
 10
8.2361046256
 20
12.3126418347
 30
0.0
 10
8.2359258101
 20
12.3123978117
 30
0.0
 10
8.2356061273
 20
12.3118637993
 30
0.0
 10
8.2352555703
 20
12.3109741463
 30
0.0
 10
8.2350242135
 20
12.3099927676
 30
0.0
 10
8.2349111138
 20
12.3089295347
 30
0.0
 10
8.2349150945
 20
12.3077930679
 30
0.0
 10
8.2350810578
 20
12.3061445091
 30
0.0
 10
8.2354880447
 20
12.3044340153
 30
0.0
 10
8.2360944901
 20
12.3026961664
 30
0.0
 10
8.2368664313
 20
12.3008534709
 30
0.0
 10
8.2380691276
 20
12.2985411786
 30
0.0
 10
8.2398084915
 20
12.2958393783
 30
0.0
 10
8.2411402719
 20
12.2941127566
 30
0.0
 10
8.2418474638
 20
12.2932699582
 30
0.0
  0
SPLINE
  5
421
100
AcDbEntity
  8
0
100
AcDbSpline
 62
7
  6
CONTINUOUS
 70
0
 71
3
 72
19
 73
15
 74
0
 42
0.0000001
 43
0.0000001
 44
0.0000000001
 40
0.0
 40
0.0
 40
0.0
 40
0.0
 40
0.1541594623
 40
0.3051156599
 40
0.4497200537
 40
0.5186840044
 40
0.5848889376
 40
0.7075444869
 40
0.763827871
 40
0.8167622318
 40
0.8665023666
 40
0.9133124985
 40
0.9576099798
 40
1.0
 40
1.0
 40
1.0
 40
1.0
 10
9.1738894978
 20
11.1825055157
 30
0.0
 10
9.1745966896
 20
11.1816627173
 30
0.0
 10
9.1760658189
 20
11.1800513449
 30
0.0
 10
9.1784245353
 20
11.1778692431
 30
0.0
 10
9.1804928527
 20
11.1762832931
 30
0.0
 10
9.1821735074
 20
11.1752030987
 30
0.0
 10
9.1837796463
 20
11.1743040923
 30
0.0
 10
9.1853934812
 20
11.1736062643
 30
0.0
 10
9.1869881755
 20
11.1731565532
 30
0.0
 10
9.1881066856
 20
11.1729552875
 30
0.0
 10
9.1891734051
 20
11.1728820405
 30
0.0
 10
9.1901800492
 20
11.1729394679
 30
0.0
 10
9.1911170599
 20
11.1731302125
 30
0.0
 10
9.1916984719
 20
11.1733523084
 30
0.0
 10
9.1919698386
 20
11.1734860331
 30
0.0
  0
SPLINE
  5
422
100
AcDbEntity
  8
0
100
AcDbSpline
 62
7
  6
CONTINUOUS
 70
0
 71
3
 72
9
 73
5
 74
0
 42
0.0000001
 43
0.0000001
 44
0.0000000001
 40
0.0
 40
0.0
 40
0.0
 40
0.0
 40
0.5142238131
 40
1.0
 40
1.0
 40
1.0
 40
1.0
 10
9.1861782278
 20
11.1928169844
 30
0.0
 10
9.1873292989
 20
11.1914451913
 30
0.0
 10
9.1897223883
 20
11.1889035534
 30
0.0
 10
9.1923933881
 20
11.186653956
 30
0.0
 10
9.1937563086
 20
11.1856518405
 30
0.0
  0
SPLINE
  5
423
100
AcDbEntity
  8
0
100
AcDbSpline
 62
7
  6
CONTINUOUS
 70
0
 71
3
 72
9
 73
5
 74
0
 42
0.0000001
 43
0.0000001
 44
0.0000000001
 40
0.0
 40
0.0
 40
0.0
 40
0.0
 40
0.5142238131
 40
1.0
 40
1.0
 40
1.0
 40
1.0
 10
9.1861782278
 20
11.1928169844
 30
0.0
 10
9.1850271566
 20
11.1941887776
 30
0.0
 10
9.1829396876
 20
11.1969868614
 30
0.0
 10
9.1811880809
 20
11.2000079212
 30
0.0
 10
9.1804378584
 20
11.2015241514
 30
0.0
  0
SPLINE
  5
424
100
AcDbEntity
  8
0
100
AcDbSpline
 62
7
  6
CONTINUOUS
 70
0
 71
3
 72
19
 73
15
 74
0
 42
0.0000001
 43
0.0000001
 44
0.0000000001
 40
0.0
 40
0.0
 40
0.0
 40
0.0
 40
0.1541594623
 40
0.3051156599
 40
0.4497200537
 40
0.5186840044
 40
0.5848889376
 40
0.7075444869
 40
0.763827871
 40
0.8167622318
 40
0.8665023666
 40
0.9133124985
 40
0.9576099798
 40
1.0
 40
1.0
 40
1.0
 40
1.0
 10
9.3602979046
 20
10.9603526272
 30
0.0
 10
9.3610050964
 20
10.9595098288
 30
0.0
 10
9.3624742257
 20
10.9578984564
 30
0.0
 10
9.3648329421
 20
10.9557163546
 30
0.0
 10
9.3669012595
 20
10.9541304046
 30
0.0
 10
9.3685819142
 20
10.9530502102
 30
0.0
 10
9.3701880531
 20
10.9521512038
 30
0.0
 10
9.371801888
 20
10.9514533758
 30
0.0
 10
9.3733965823
 20
10.9510036647
 30
0.0
 10
9.3745150924
 20
10.950802399
 30
0.0
 10
9.375581812
 20
10.950729152
 30
0.0
 10
9.376588456
 20
10.9507865794
 30
0.0
 10
9.3775254668
 20
10.950977324
 30
0.0
 10
9.3781068787
 20
10.9511994199
 30
0.0
 10
9.3783782454
 20
10.9513331446
 30
0.0
  0
SPLINE
  5
425
100
AcDbEntity
  8
0
100
AcDbSpline
 62
7
  6
CONTINUOUS
 70
0
 71
3
 72
9
 73
5
 74
0
 42
0.0000001
 43
0.0000001
 44
0.0000000001
 40
0.0
 40
0.0
 40
0.0
 40
0.0
 40
0.5142238131
 40
1.0
 40
1.0
 40
1.0
 40
1.0
 10
9.3725866346
 20
10.9706640959
 30
0.0
 10
9.3737377057
 20
10.9692923028
 30
0.0
 10
9.3761307951
 20
10.9667506649
 30
0.0
 10
9.3788017949
 20
10.9645010675
 30
0.0
 10
9.3801647154
 20
10.963498952
 30
0.0
  0
SPLINE
  5
426
100
AcDbEntity
  8
0
100
AcDbSpline
 62
9
  6
CONTINUOUS
 70
0
 71
3
 72
18
 73
14
 74
0
 42
0.0000001
 43
0.0000001
 44
0.0000000001
 40
0.0
 40
0.0
 40
0.0
 40
0.0
 40
0.0352826001
 40
0.0696732369
 40
0.1047549384
 40
0.1420171708
 40
0.1826999344
 40
0.2277399198
 40
0.3332926836
 40
0.4621876099
 40
0.6159460772
 40
0.7951932286
 40
1.0
 40
1.0
 40
1.0
 40
1.0
 10
10.0804080892
 20
10.0940551518
 30
0.0
 10
10.0804330757
 20
10.0941016935
 30
0.0
 10
10.0804914832
 20
10.0941891922
 30
0.0
 10
10.0806056817
 20
10.0942984948
 30
0.0
 10
10.080743465
 20
10.0943818063
 30
0.0
 10
10.0809037426
 20
10.0944390482
 30
0.0
 10
10.0810858668
 20
10.0944707665
 30
0.0
 10
10.0813728337
 20
10.0944800172
 30
0.0
 10
10.0817897641
 20
10.0944201269
 30
0.0
 10
10.0823482739
 20
10.0942555261
 30
0.0
 10
10.0829896749
 20
10.0939945589
 30
0.0
 10
10.0837119139
 20
10.093637489
 30
0.0
 10
10.0842126839
 20
10.0933543393
 30
0.0
 10
10.0844764261
 20
10.0931979272
 30
0.0
  0
SPLINE
  5
427
100
AcDbEntity
  8
0
100
AcDbSpline
 62
7
  6
CONTINUOUS
 70
0
 71
3
 72
9
 73
5
 74
0
 42
0.0000001
 43
0.0000001
 44
0.0000000001
 40
0.0
 40
0.0
 40
0.0
 40
0.0
 40
0.5142238131
 40
1.0
 40
1.0
 40
1.0
 40
1.0
 10
9.3725866346
 20
10.9706640959
 30
0.0
 10
9.3714355634
 20
10.9720358891
 30
0.0
 10
9.3693480944
 20
10.9748339729
 30
0.0
 10
9.3675964877
 20
10.9778550327
 30
0.0
 10
9.3668462652
 20
10.9793712629
 30
0.0
  0
SPLINE
  5
428
100
AcDbEntity
  8
0
100
AcDbSpline
 62
9
  6
CONTINUOUS
 70
0
 71
3
 72
19
 73
15
 74
0
 42
0.0000001
 43
0.0000001
 44
0.0000000001
 40
0.0
 40
0.0
 40
0.0
 40
0.0
 40
0.0463214964
 40
0.0921786636
 40
0.1384766632
 40
0.1860191283
 40
0.2872164253
 40
0.3420283302
 40
0.4000569578
 40
0.4615564373
 40
0.5267262094
 40
0.6685510025
 40
0.8263843618
 40
1.0
 40
1.0
 40
1.0
 40
1.0
 10
10.0871444657
 20
10.1066191794
 30
0.0
 10
10.0874405374
 20
10.1071713748
 30
0.0
 10
10.0881157631
 20
10.1082268038
 30
0.0
 10
10.0893666773
 20
10.109630804
 30
0.0
 10
10.0908317384
 20
10.1108358678
 30
0.0
 10
10.0930976527
 20
10.1122020377
 30
0.0
 10
10.0957271439
 20
10.1131233887
 30
0.0
 10
10.0985802
 20
10.1136304611
 30
0.0
 10
10.1009356628
 20
10.1138103228
 30
0.0
 10
10.1034367729
 20
10.1137722131
 30
0.0
 10
10.1070540904
 20
10.1134100174
 30
0.0
 10
10.1118888174
 20
10.1123205382
 30
0.0
 10
10.1178827706
 20
10.1100168613
 30
0.0
 10
10.1218139756
 20
10.1078234845
 30
0.0
 10
10.123780769
 20
10.1065402709
 30
0.0
  0
SPLINE
  5
429
100
AcDbEntity
  8
0
100
AcDbSpline
 62
7
  6
CONTINUOUS
 70
0
 71
3
 72
19
 73
15
 74
0
 42
0.0000001
 43
0.0000001
 44
0.0000000001
 40
0.0
 40
0.0
 40
0.0
 40
0.0
 40
0.1541594623
 40
0.3051156599
 40
0.4497200537
 40
0.5186840044
 40
0.5848889376
 40
0.7075444869
 40
0.763827871
 40
0.8167622318
 40
0.8665023666
 40
0.9133124985
 40
0.9576099798
 40
1.0
 40
1.0
 40
1.0
 40
1.0
 10
9.5467063114
 20
10.7381997387
 30
0.0
 10
9.5474135032
 20
10.7373569403
 30
0.0
 10
9.5488826325
 20
10.7357455679
 30
0.0
 10
9.5512413489
 20
10.7335634661
 30
0.0
 10
9.5533096663
 20
10.7319775161
 30
0.0
 10
9.554990321
 20
10.7308973217
 30
0.0
 10
9.5565964599
 20
10.7299983153
 30
0.0
 10
9.5582102949
 20
10.7293004873
 30
0.0
 10
9.5598049891
 20
10.7288507762
 30
0.0
 10
9.5609234992
 20
10.7286495105
 30
0.0
 10
9.5619902188
 20
10.7285762635
 30
0.0
 10
9.5629968628
 20
10.7286336908
 30
0.0
 10
9.5639338736
 20
10.7288244355
 30
0.0
 10
9.5645152855
 20
10.7290465314
 30
0.0
 10
9.5647866522
 20
10.7291802561
 30
0.0
  0
SPLINE
  5
42A
100
AcDbEntity
  8
0
100
AcDbSpline
 62
7
  6
CONTINUOUS
 70
0
 71
3
 72
9
 73
5
 74
0
 42
0.0000001
 43
0.0000001
 44
0.0000000001
 40
0.0
 40
0.0
 40
0.0
 40
0.0
 40
0.5142238131
 40
1.0
 40
1.0
 40
1.0
 40
1.0
 10
9.5589950414
 20
10.7485112074
 30
0.0
 10
9.5601461125
 20
10.7471394143
 30
0.0
 10
9.5625392019
 20
10.7445977764
 30
0.0
 10
9.5652102017
 20
10.742348179
 30
0.0
 10
9.5665731222
 20
10.7413460635
 30
0.0
  0
SPLINE
  5
42B
100
AcDbEntity
  8
0
100
AcDbSpline
 62
7
  6
CONTINUOUS
 70
0
 71
3
 72
9
 73
5
 74
0
 42
0.0000001
 43
0.0000001
 44
0.0000000001
 40
0.0
 40
0.0
 40
0.0
 40
0.0
 40
0.5142238131
 40
1.0
 40
1.0
 40
1.0
 40
1.0
 10
9.5589950414
 20
10.7485112074
 30
0.0
 10
9.5578439702
 20
10.7498830006
 30
0.0
 10
9.5557565012
 20
10.7526810844
 30
0.0
 10
9.5540048945
 20
10.7557021442
 30
0.0
 10
9.553254672
 20
10.7572183744
 30
0.0
  0
SPLINE
  5
42C
100
AcDbEntity
  8
0
100
AcDbSpline
 62
7
  6
CONTINUOUS
 70
0
 71
3
 72
19
 73
15
 74
0
 42
0.0000001
 43
0.0000001
 44
0.0000000001
 40
0.0
 40
0.0
 40
0.0
 40
0.0
 40
0.1541594623
 40
0.3051156599
 40
0.4497200537
 40
0.5186840044
 40
0.5848889376
 40
0.7075444869
 40
0.763827871
 40
0.8167622318
 40
0.8665023666
 40
0.9133124985
 40
0.9576099798
 40
1.0
 40
1.0
 40
1.0
 40
1.0
 10
9.7331147182
 20
10.5160468502
 30
0.0
 10
9.7338219101
 20
10.5152040518
 30
0.0
 10
9.7352910393
 20
10.5135926794
 30
0.0
 10
9.7376497557
 20
10.5114105776
 30
0.0
 10
9.7397180732
 20
10.5098246276
 30
0.0
 10
9.7413987278
 20
10.5087444332
 30
0.0
 10
9.7430048667
 20
10.5078454268
 30
0.0
 10
9.7446187017
 20
10.5071475988
 30
0.0
 10
9.746213396
 20
10.5066978877
 30
0.0
 10
9.747331906
 20
10.506496622
 30
0.0
 10
9.7483986256
 20
10.506423375
 30
0.0
 10
9.7494052697
 20
10.5064808023
 30
0.0
 10
9.7503422804
 20
10.506671547
 30
0.0
 10
9.7509236923
 20
10.5068936429
 30
0.0
 10
9.751195059
 20
10.5070273676
 30
0.0
  0
SPLINE
  5
42D
100
AcDbEntity
  8
0
100
AcDbSpline
 62
7
  6
CONTINUOUS
 70
0
 71
3
 72
9
 73
5
 74
0
 42
0.0000001
 43
0.0000001
 44
0.0000000001
 40
0.0
 40
0.0
 40
0.0
 40
0.0
 40
0.5142238131
 40
1.0
 40
1.0
 40
1.0
 40
1.0
 10
9.7454034482
 20
10.5263583189
 30
0.0
 10
9.7465545193
 20
10.5249865258
 30
0.0
 10
9.7489476087
 20
10.5224448879
 30
0.0
 10
9.7516186086
 20
10.5201952905
 30
0.0
 10
9.752981529
 20
10.519193175
 30
0.0
  0
SPLINE
  5
42E
100
AcDbEntity
  8
0
100
AcDbSpline
 62
7
  6
CONTINUOUS
 70
0
 71
3
 72
9
 73
5
 74
0
 42
0.0000001
 43
0.0000001
 44
0.0000000001
 40
0.0
 40
0.0
 40
0.0
 40
0.0
 40
0.5142238131
 40
1.0
 40
1.0
 40
1.0
 40
1.0
 10
9.7454034482
 20
10.5263583189
 30
0.0
 10
9.7442523771
 20
10.5277301121
 30
0.0
 10
9.742164908
 20
10.5305281959
 30
0.0
 10
9.7404133013
 20
10.5335492557
 30
0.0
 10
9.7396630788
 20
10.5350654859
 30
0.0
  0
SPLINE
  5
42F
100
AcDbEntity
  8
0
100
AcDbSpline
 62
7
  6
CONTINUOUS
 70
0
 71
3
 72
19
 73
15
 74
0
 42
0.0000001
 43
0.0000001
 44
0.0000000001
 40
0.0
 40
0.0
 40
0.0
 40
0.0
 40
0.1541594623
 40
0.3051156599
 40
0.4497200537
 40
0.5186840044
 40
0.5848889376
 40
0.7075444869
 40
0.763827871
 40
0.8167622318
 40
0.8665023666
 40
0.9133124985
 40
0.9576099798
 40
1.0
 40
1.0
 40
1.0
 40
1.0
 10
9.919523125
 20
10.2938939617
 30
0.0
 10
9.9202303169
 20
10.2930511633
 30
0.0
 10
9.9216994461
 20
10.2914397909
 30
0.0
 10
9.9240581625
 20
10.2892576891
 30
0.0
 10
9.92612648
 20
10.2876717391
 30
0.0
 10
9.9278071346
 20
10.2865915447
 30
0.0
 10
9.9294132735
 20
10.2856925383
 30
0.0
 10
9.9310271085
 20
10.2849947103
 30
0.0
 10
9.9326218028
 20
10.2845449992
 30
0.0
 10
9.9337403128
 20
10.2843437335
 30
0.0
 10
9.9348070324
 20
10.2842704865
 30
0.0
 10
9.9358136765
 20
10.2843279138
 30
0.0
 10
9.9367506872
 20
10.2845186585
 30
0.0
 10
9.9373320991
 20
10.2847407544
 30
0.0
 10
9.9376034658
 20
10.2848744791
 30
0.0
  0
SPLINE
  5
430
100
AcDbEntity
  8
0
100
AcDbSpline
 62
7
  6
CONTINUOUS
 70
0
 71
3
 72
9
 73
5
 74
0
 42
0.0000001
 43
0.0000001
 44
0.0000000001
 40
0.0
 40
0.0
 40
0.0
 40
0.0
 40
0.5142238131
 40
1.0
 40
1.0
 40
1.0
 40
1.0
 10
9.931811855
 20
10.3042054304
 30
0.0
 10
9.9329629261
 20
10.3028336373
 30
0.0
 10
9.9353560155
 20
10.3002919994
 30
0.0
 10
9.9380270154
 20
10.298042402
 30
0.0
 10
9.9393899358
 20
10.2970402865
 30
0.0
  0
SPLINE
  5
431
100
AcDbEntity
  8
0
100
AcDbSpline
 62
9
  6
CONTINUOUS
 70
0
 71
3
 72
18
 73
14
 74
0
 42
0.0000001
 43
0.0000001
 44
0.0000000001
 40
0.0
 40
0.0
 40
0.0
 40
0.0
 40
0.0352826001
 40
0.0696732369
 40
0.1047549384
 40
0.1420171708
 40
0.1826999344
 40
0.2277399198
 40
0.3332926836
 40
0.4621876099
 40
0.6159460772
 40
0.7951932286
 40
1.0
 40
1.0
 40
1.0
 40
1.0
 10
9.8939996824
 20
10.3162080403
 30
0.0
 10
9.8940246689
 20
10.316254582
 30
0.0
 10
9.8940830764
 20
10.3163420807
 30
0.0
 10
9.8941972749
 20
10.3164513833
 30
0.0
 10
9.8943350582
 20
10.3165346948
 30
0.0
 10
9.8944953358
 20
10.3165919367
 30
0.0
 10
9.89467746
 20
10.316623655
 30
0.0
 10
9.8949644269
 20
10.3166329057
 30
0.0
 10
9.8953813573
 20
10.3165730154
 30
0.0
 10
9.8959398671
 20
10.3164084146
 30
0.0
 10
9.8965812681
 20
10.3161474474
 30
0.0
 10
9.8973035071
 20
10.3157903775
 30
0.0
 10
9.8978042771
 20
10.3155072278
 30
0.0
 10
9.8980680193
 20
10.3153508157
 30
0.0
  0
SPLINE
  5
432
100
AcDbEntity
  8
0
100
AcDbSpline
 62
9
  6
CONTINUOUS
 70
0
 71
3
 72
19
 73
15
 74
0
 42
0.0000001
 43
0.0000001
 44
0.0000000001
 40
0.0
 40
0.0
 40
0.0
 40
0.0
 40
0.0463215015
 40
0.0921786737
 40
0.1384766779
 40
0.1860191467
 40
0.2872164488
 40
0.3420283548
 40
0.4000569826
 40
0.4615564614
 40
0.526726232
 40
0.6685510195
 40
0.8263843709
 40
1.0
 40
1.0
 40
1.0
 40
1.0
 10
9.9007360589
 20
10.328772068
 30
0.0
 10
9.9010321305
 20
10.3293242632
 30
0.0
 10
9.901707356
 20
10.3303796919
 30
0.0
 10
9.9029582699
 20
10.3317836919
 30
0.0
 10
9.9044233305
 20
10.3329887554
 30
0.0
 10
9.9066892439
 20
10.3343549252
 30
0.0
 10
9.9093187342
 20
10.3352762763
 30
0.0
 10
9.9121717893
 20
10.3357833491
 30
0.0
 10
9.9145272512
 20
10.3359632112
 30
0.0
 10
9.9170283604
 20
10.3359251019
 30
0.0
 10
9.9206456766
 20
10.3355629071
 30
0.0
 10
9.925480402
 20
10.3344734293
 30
0.0
 10
9.9314743531
 20
10.3321697544
 30
0.0
 10
9.9354055576
 20
10.3299763802
 30
0.0
 10
9.9373723501
 20
10.328693167
 30
0.0
  0
SPLINE
  5
433
100
AcDbEntity
  8
0
100
AcDbSpline
 62
7
  6
CONTINUOUS
 70
0
 71
3
 72
9
 73
5
 74
0
 42
0.0000001
 43
0.0000001
 44
0.0000000001
 40
0.0
 40
0.0
 40
0.0
 40
0.0
 40
0.5142238131
 40
1.0
 40
1.0
 40
1.0
 40
1.0
 10
9.931811855
 20
10.3042054304
 30
0.0
 10
9.9306607839
 20
10.3055772236
 30
0.0
 10
9.9285733148
 20
10.3083753074
 30
0.0
 10
9.9268217081
 20
10.3113963672
 30
0.0
 10
9.9260714856
 20
10.3129125974
 30
0.0
  0
SPLINE
  5
434
100
AcDbEntity
  8
0
100
AcDbSpline
 62
7
  6
CONTINUOUS
 70
0
 71
3
 72
19
 73
15
 74
0
 42
0.0000001
 43
0.0000001
 44
0.0000000001
 40
0.0
 40
0.0
 40
0.0
 40
0.0
 40
0.1541594623
 40
0.3051156599
 40
0.4497200537
 40
0.5186840044
 40
0.5848889376
 40
0.7075444869
 40
0.763827871
 40
0.8167622318
 40
0.8665023666
 40
0.9133124985
 40
0.9576099798
 40
1.0
 40
1.0
 40
1.0
 40
1.0
 10
10.1059315319
 20
10.0717410732
 30
0.0
 10
10.1066387237
 20
10.0708982748
 30
0.0
 10
10.1081078529
 20
10.0692869024
 30
0.0
 10
10.1104665693
 20
10.0671048006
 30
0.0
 10
10.1125348868
 20
10.0655188506
 30
0.0
 10
10.1142155414
 20
10.0644386562
 30
0.0
 10
10.1158216803
 20
10.0635396498
 30
0.0
 10
10.1174355153
 20
10.0628418218
 30
0.0
 10
10.1190302096
 20
10.0623921107
 30
0.0
 10
10.1201487196
 20
10.062190845
 30
0.0
 10
10.1212154392
 20
10.062117598
 30
0.0
 10
10.1222220833
 20
10.0621750253
 30
0.0
 10
10.123159094
 20
10.06236577
 30
0.0
 10
10.1237405059
 20
10.0625878659
 30
0.0
 10
10.1240118726
 20
10.0627215906
 30
0.0
  0
SPLINE
  5
435
100
AcDbEntity
  8
0
100
AcDbSpline
 62
7
  6
CONTINUOUS
 70
0
 71
3
 72
9
 73
5
 74
0
 42
0.0000001
 43
0.0000001
 44
0.0000000001
 40
0.0
 40
0.0
 40
0.0
 40
0.0
 40
0.5142238131
 40
1.0
 40
1.0
 40
1.0
 40
1.0
 10
10.1182202618
 20
10.0820525419
 30
0.0
 10
10.1193713329
 20
10.0806807488
 30
0.0
 10
10.1217644223
 20
10.0781391109
 30
0.0
 10
10.1244354222
 20
10.0758895135
 30
0.0
 10
10.1257983426
 20
10.074887398
 30
0.0
  0
SPLINE
  5
436
100
AcDbEntity
  8
0
100
AcDbSpline
 62
7
  6
CONTINUOUS
 70
0
 71
3
 72
9
 73
5
 74
0
 42
0.0000001
 43
0.0000001
 44
0.0000000001
 40
0.0
 40
0.0
 40
0.0
 40
0.0
 40
0.5142238131
 40
1.0
 40
1.0
 40
1.0
 40
1.0
 10
10.1182202618
 20
10.0820525419
 30
0.0
 10
10.1170691907
 20
10.0834243351
 30
0.0
 10
10.1149817216
 20
10.0862224189
 30
0.0
 10
10.1132301149
 20
10.0892434787
 30
0.0
 10
10.1124798924
 20
10.0907597089
 30
0.0
  0
SPLINE
  5
437
100
AcDbEntity
  8
0
100
AcDbSpline
 62
7
  6
CONTINUOUS
 70
0
 71
3
 72
23
 73
19
 74
0
 42
0.0000001
 43
0.0000001
 44
0.0000000001
 40
0.0
 40
0.0
 40
0.0
 40
0.0
 40
0.1904276749
 40
0.3705665337
 40
0.4552185358
 40
0.5354148918
 40
0.6104482876
 40
0.6796780496
 40
0.7427128443
 40
0.7992790911
 40
0.8492045985
 40
0.8923382843
 40
0.9286002663
 40
0.9580854914
 40
0.9704412476
 40
0.9813603194
 40
0.9910833725
 40
1.0
 40
1.0
 40
1.0
 40
1.0
 10
8.2343773778
 20
12.283522703
 30
0.0
 10
8.2350536519
 20
12.282751078
 30
0.0
 10
8.2363883092
 20
12.2812657452
 30
0.0
 10
8.2380763008
 20
12.2794856972
 30
0.0
 10
8.239388518
 20
12.2781690342
 30
0.0
 10
8.2403179249
 20
12.2772707117
 30
0.0
 10
8.2412059127
 20
12.2764494811
 30
0.0
 10
8.2420460834
 20
12.2757132669
 30
0.0
 10
8.2428323621
 20
12.2750672433
 30
0.0
 10
8.2435602976
 20
12.2745149944
 30
0.0
 10
8.2442256998
 20
12.2740591773
 30
0.0
 10
8.2448249139
 20
12.2737021499
 30
0.0
 10
8.2453538898
 20
12.2734467802
 30
0.0
 10
8.2457552795
 20
12.2733126629
 30
0.0
 10
8.2460367431
 20
12.2732681462
 30
0.0
 10
8.2462152864
 20
12.2732652862
 30
0.0
 10
8.2463733961
 20
12.2732920416
 30
0.0
 10
8.2464669015
 20
12.2733320648
 30
0.0
 10
8.246508084
 20
12.2733568068
 30
0.0
  0
SPLINE
  5
438
100
AcDbEntity
  8
0
100
AcDbSpline
 62
9
  6
CONTINUOUS
 70
0
 71
3
 72
18
 73
14
 74
0
 42
0.0000001
 43
0.0000001
 44
0.0000000001
 40
0.0
 40
0.0
 40
0.0
 40
0.0
 40
0.204823817
 40
0.3840832235
 40
0.5378505264
 40
0.6667501133
 40
0.77229226
 40
0.8173213144
 40
0.8579928807
 40
0.8952486496
 40
0.930329296
 40
0.9647204861
 40
1.0
 40
1.0
 40
1.0
 40
1.0
 10
8.2592516247
 20
12.2684176871
 30
0.0
 10
8.2593599993
 20
12.2681305761
 30
0.0
 10
8.259552172
 20
12.2675878547
 30
0.0
 10
8.2597787721
 20
12.2668140172
 30
0.0
 10
8.2599245217
 20
12.2661365089
 30
0.0
 10
8.2599896632
 20
12.2655574779
 30
0.0
 10
8.2599763869
 20
12.2651362028
 30
0.0
 10
8.2599175336
 20
12.264855019
 30
0.0
 10
8.259854692
 20
12.264681062
 30
0.0
 10
8.2597704406
 20
12.2645330725
 30
0.0
 10
8.2596643797
 20
12.2644117839
 30
0.0
 10
8.2595368015
 20
12.2643182587
 30
0.0
 10
8.2594404149
 20
12.2642759207
 30
0.0
 10
8.2593902055
 20
12.2642593964
 30
0.0
  0
SPLINE
  5
439
100
AcDbEntity
  8
0
100
AcDbSpline
 62
9
  6
CONTINUOUS
 70
0
 71
3
 72
18
 73
14
 74
0
 42
0.0000001
 43
0.0000001
 44
0.0000000001
 40
0.0
 40
0.0
 40
0.0
 40
0.0
 40
0.0352826001
 40
0.0696732369
 40
0.1047549384
 40
0.1420171708
 40
0.1826999344
 40
0.2277399198
 40
0.3332926836
 40
0.4621876099
 40
0.6159460772
 40
0.7951932286
 40
1.0
 40
1.0
 40
1.0
 40
1.0
 10
9.7075912756
 20
10.5383609288
 30
0.0
 10
9.7076162621
 20
10.5384074705
 30
0.0
 10
9.7076746696
 20
10.5384949692
 30
0.0
 10
9.7077888681
 20
10.5386042718
 30
0.0
 10
9.7079266514
 20
10.5386875833
 30
0.0
 10
9.708086929
 20
10.5387448252
 30
0.0
 10
9.7082690532
 20
10.5387765435
 30
0.0
 10
9.7085560201
 20
10.5387857942
 30
0.0
 10
9.7089729505
 20
10.538725904
 30
0.0
 10
9.7095314603
 20
10.5385613031
 30
0.0
 10
9.7101728613
 20
10.5383003359
 30
0.0
 10
9.7108951003
 20
10.537943266
 30
0.0
 10
9.7113958703
 20
10.5376601163
 30
0.0
 10
9.7116596125
 20
10.5375037042
 30
0.0
  0
SPLINE
  5
43A
100
AcDbEntity
  8
0
100
AcDbSpline
 62
9
  6
CONTINUOUS
 70
0
 71
3
 72
19
 73
15
 74
0
 42
0.0000001
 43
0.0000001
 44
0.0000000001
 40
0.0
 40
0.0
 40
0.0
 40
0.0
 40
0.1736155984
 40
0.3314488577
 40
0.4732735633
 40
0.5384433466
 40
0.5999427365
 40
0.657971286
 40
0.7127832217
 40
0.8139806243
 40
0.8615232562
 40
0.9078216764
 40
0.9536790675
 40
1.0
 40
1.0
 40
1.0
 40
1.0
 10
8.2792174705
 20
12.3048052092
 30
0.0
 10
8.2801396555
 20
12.302645467
 30
0.0
 10
8.2816170752
 20
12.2983931148
 30
0.0
 10
8.2828448924
 20
12.2920901934
 30
0.0
 10
8.2830782995
 20
12.2871397323
 30
0.0
 10
8.282806826
 20
12.2835144796
 30
0.0
 10
8.282410065
 20
12.2810447485
 30
0.0
 10
8.2818239227
 20
12.2787563019
 30
0.0
 10
8.2808291186
 20
12.2760346437
 30
0.0
 10
8.2794651569
 20
12.2736050876
 30
0.0
 10
8.2777262603
 20
12.271610826
 30
0.0
 10
8.2762850848
 20
12.2703772791
 30
0.0
 10
8.2746851955
 20
12.2693891702
 30
0.0
 10
8.273528556
 20
12.2689074713
 30
0.0
 10
8.2729333448
 20
12.268711787
 30
0.0
  0
SPLINE
  5
43B
100
AcDbEntity
  8
0
100
AcDbSpline
 62
7
  6
CONTINUOUS
 70
0
 71
3
 72
23
 73
19
 74
0
 42
0.0000001
 43
0.0000001
 44
0.0000000001
 40
0.0
 40
0.0
 40
0.0
 40
0.0
 40
0.1904276749
 40
0.3705665337
 40
0.4552185358
 40
0.5354148918
 40
0.6104482876
 40
0.6796780496
 40
0.7427128443
 40
0.7992790911
 40
0.8492045985
 40
0.8923382843
 40
0.9286002663
 40
0.9580854914
 40
0.9704412476
 40
0.9813603194
 40
0.9910833725
 40
1.0
 40
1.0
 40
1.0
 40
1.0
 10
8.4207857846
 20
12.0613698145
 30
0.0
 10
8.4214620587
 20
12.0605981895
 30
0.0
 10
8.422796716
 20
12.0591128567
 30
0.0
 10
8.4244847076
 20
12.0573328087
 30
0.0
 10
8.4257969248
 20
12.0560161457
 30
0.0
 10
8.4267263318
 20
12.0551178232
 30
0.0
 10
8.4276143195
 20
12.0542965926
 30
0.0
 10
8.4284544902
 20
12.0535603784
 30
0.0
 10
8.4292407689
 20
12.0529143548
 30
0.0
 10
8.4299687044
 20
12.0523621059
 30
0.0
 10
8.4306341067
 20
12.0519062888
 30
0.0
 10
8.4312333207
 20
12.0515492613
 30
0.0
 10
8.4317622966
 20
12.0512938917
 30
0.0
 10
8.4321636863
 20
12.0511597744
 30
0.0
 10
8.4324451499
 20
12.0511152577
 30
0.0
 10
8.4326236932
 20
12.0511123977
 30
0.0
 10
8.4327818029
 20
12.0511391531
 30
0.0
 10
8.4328753083
 20
12.0511791763
 30
0.0
 10
8.4329164908
 20
12.0512039183
 30
0.0
  0
SPLINE
  5
43C
100
AcDbEntity
  8
0
100
AcDbSpline
 62
9
  6
CONTINUOUS
 70
0
 71
3
 72
19
 73
15
 74
0
 42
0.0000001
 43
0.0000001
 44
0.0000000001
 40
0.0
 40
0.0
 40
0.0
 40
0.0
 40
0.0463214999
 40
0.0921786705
 40
0.1384766732
 40
0.1860191409
 40
0.2872164413
 40
0.342028347
 40
0.4000569747
 40
0.4615564537
 40
0.5267262248
 40
0.6685510141
 40
0.826384368
 40
1.0
 40
1.0
 40
1.0
 40
1.0
 10
9.7143276521
 20
10.5509249565
 30
0.0
 10
9.7146237237
 20
10.5514771517
 30
0.0
 10
9.7152989493
 20
10.5525325805
 30
0.0
 10
9.7165498633
 20
10.5539365806
 30
0.0
 10
9.718014924
 20
10.5551416442
 30
0.0
 10
9.7202808377
 20
10.556507814
 30
0.0
 10
9.7229103283
 20
10.5574291651
 30
0.0
 10
9.7257633838
 20
10.5579362377
 30
0.0
 10
9.7281188459
 20
10.5581160997
 30
0.0
 10
9.7306199554
 20
10.5580779903
 30
0.0
 10
9.734237272
 20
10.5577157952
 30
0.0
 10
9.7390719979
 20
10.556626317
 30
0.0
 10
9.7450659497
 20
10.5543226415
 30
0.0
 10
9.7489971544
 20
10.5521292664
 30
0.0
 10
9.7509639471
 20
10.5508460531
 30
0.0
  0
SPLINE
  5
43D
100
AcDbEntity
  8
0
100
AcDbSpline
 62
7
  6
CONTINUOUS
 70
0
 71
3
 72
23
 73
19
 74
0
 42
0.0000001
 43
0.0000001
 44
0.0000000001
 40
0.0
 40
0.0
 40
0.0
 40
0.0
 40
0.1904276749
 40
0.3705665337
 40
0.4552185358
 40
0.5354148918
 40
0.6104482876
 40
0.6796780496
 40
0.7427128443
 40
0.7992790911
 40
0.8492045985
 40
0.8923382843
 40
0.9286002663
 40
0.9580854914
 40
0.9704412476
 40
0.9813603194
 40
0.9910833725
 40
1.0
 40
1.0
 40
1.0
 40
1.0
 10
8.6071941914
 20
11.839216926
 30
0.0
 10
8.6078704655
 20
11.838445301
 30
0.0
 10
8.6092051228
 20
11.8369599682
 30
0.0
 10
8.6108931144
 20
11.8351799202
 30
0.0
 10
8.6122053316
 20
11.8338632572
 30
0.0
 10
8.6131347386
 20
11.8329649347
 30
0.0
 10
8.6140227264
 20
11.8321437041
 30
0.0
 10
8.614862897
 20
11.8314074899
 30
0.0
 10
8.6156491757
 20
11.8307614663
 30
0.0
 10
8.6163771112
 20
11.8302092174
 30
0.0
 10
8.6170425135
 20
11.8297534003
 30
0.0
 10
8.6176417275
 20
11.8293963728
 30
0.0
 10
8.6181707034
 20
11.8291410032
 30
0.0
 10
8.6185720932
 20
11.8290068859
 30
0.0
 10
8.6188535567
 20
11.8289623692
 30
0.0
 10
8.6190321
 20
11.8289595092
 30
0.0
 10
8.6191902097
 20
11.8289862646
 30
0.0
 10
8.6192837151
 20
11.8290262877
 30
0.0
 10
8.6193248976
 20
11.8290510298
 30
0.0
  0
SPLINE
  5
43E
100
AcDbEntity
  8
0
100
AcDbSpline
 62
7
  6
CONTINUOUS
 70
0
 71
3
 72
23
 73
19
 74
0
 42
0.0000001
 43
0.0000001
 44
0.0000000001
 40
0.0
 40
0.0
 40
0.0
 40
0.0
 40
0.1904276749
 40
0.3705665337
 40
0.4552185358
 40
0.5354148918
 40
0.6104482876
 40
0.6796780496
 40
0.7427128443
 40
0.7992790911
 40
0.8492045985
 40
0.8923382843
 40
0.9286002663
 40
0.9580854914
 40
0.9704412476
 40
0.9813603194
 40
0.9910833725
 40
1.0
 40
1.0
 40
1.0
 40
1.0
 10
8.7936025982
 20
11.6170640375
 30
0.0
 10
8.7942788723
 20
11.6162924125
 30
0.0
 10
8.7956135296
 20
11.6148070797
 30
0.0
 10
8.7973015212
 20
11.6130270317
 30
0.0
 10
8.7986137384
 20
11.6117103687
 30
0.0
 10
8.7995431454
 20
11.6108120462
 30
0.0
 10
8.8004311332
 20
11.6099908156
 30
0.0
 10
8.8012713038
 20
11.6092546014
 30
0.0
 10
8.8020575826
 20
11.6086085778
 30
0.0
 10
8.802785518
 20
11.6080563289
 30
0.0
 10
8.8034509203
 20
11.6076005118
 30
0.0
 10
8.8040501343
 20
11.6072434843
 30
0.0
 10
8.8045791102
 20
11.6069881147
 30
0.0
 10
8.8049805
 20
11.6068539974
 30
0.0
 10
8.8052619635
 20
11.6068094807
 30
0.0
 10
8.8054405068
 20
11.6068066207
 30
0.0
 10
8.8055986165
 20
11.6068333761
 30
0.0
 10
8.8056921219
 20
11.6068733992
 30
0.0
 10
8.8057333044
 20
11.6068981413
 30
0.0
  0
SPLINE
  5
43F
100
AcDbEntity
  8
0
100
AcDbSpline
 62
7
  6
CONTINUOUS
 70
0
 71
3
 72
15
 73
11
 74
0
 42
0.0000001
 43
0.0000001
 44
0.0000000001
 40
0.0
 40
0.0
 40
0.0
 40
0.0
 40
0.2540156097
 40
0.3804893511
 40
0.5063286873
 40
0.6313521081
 40
0.7553799216
 40
0.8169823128
 40
0.8783010748
 40
1.0
 40
1.0
 40
1.0
 40
1.0
 10
8.2700511639
 20
12.3169356726
 30
0.0
 10
8.2692234666
 20
12.3179220904
 30
0.0
 10
8.2679521196
 20
12.3193735076
 30
0.0
 10
8.2662067808
 20
12.3212555742
 30
0.0
 10
8.2648843531
 20
12.3226377218
 30
0.0
 10
8.2635555202
 20
12.3239963477
 30
0.0
 10
8.2624499718
 20
12.325117814
 30
0.0
 10
8.2615770551
 20
12.3260151619
 30
0.0
 10
8.2607193473
 20
12.3269106101
 30
0.0
 10
8.2600934104
 20
12.3275963525
 30
0.0
 10
8.2596968708
 20
12.3280689541
 30
0.0
  0
SPLINE
  5
440
100
AcDbEntity
  8
0
100
AcDbSpline
 62
7
  6
CONTINUOUS
 70
0
 71
3
 72
15
 73
11
 74
0
 42
0.0000001
 43
0.0000001
 44
0.0000000001
 40
0.0
 40
0.0
 40
0.0
 40
0.0
 40
0.1216989152
 40
0.183017638
 40
0.2446200026
 40
0.3686478146
 40
0.4936712284
 40
0.6195105674
 40
0.7459843336
 40
1.0
 40
1.0
 40
1.0
 40
1.0
 10
8.2792173255
 20
12.3048053828
 30
0.0
 10
8.2788207667
 20
12.3052779701
 30
0.0
 10
8.2782541286
 20
12.3060134724
 30
0.0
 10
8.2775212132
 20
12.3070136383
 30
0.0
 10
8.27678908
 20
12.3080291207
 30
0.0
 10
8.2758766326
 20
12.3093126219
 30
0.0
 10
8.2747693927
 20
12.3108571924
 30
0.0
 10
8.2736378748
 20
12.3123995387
 30
0.0
 10
8.2720874697
 20
12.314445183
 30
0.0
 10
8.2708788642
 20
12.3159492529
 30
0.0
 10
8.2700511647
 20
12.3169356733
 30
0.0
  0
SPLINE
  5
441
100
AcDbEntity
  8
0
100
AcDbSpline
 62
7
  6
CONTINUOUS
 70
0
 71
3
 72
23
 73
19
 74
0
 42
0.0000001
 43
0.0000001
 44
0.0000000001
 40
0.0
 40
0.0
 40
0.0
 40
0.0
 40
0.1904276749
 40
0.3705665337
 40
0.4552185358
 40
0.5354148918
 40
0.6104482876
 40
0.6796780496
 40
0.7427128443
 40
0.7992790911
 40
0.8492045985
 40
0.8923382843
 40
0.9286002663
 40
0.9580854914
 40
0.9704412476
 40
0.9813603194
 40
0.9910833725
 40
1.0
 40
1.0
 40
1.0
 40
1.0
 10
8.980011005
 20
11.394911149
 30
0.0
 10
8.9806872792
 20
11.394139524
 30
0.0
 10
8.9820219364
 20
11.3926541912
 30
0.0
 10
8.9837099281
 20
11.3908741432
 30
0.0
 10
8.9850221452
 20
11.3895574802
 30
0.0
 10
8.9859515522
 20
11.3886591576
 30
0.0
 10
8.98683954
 20
11.3878379271
 30
0.0
 10
8.9876797106
 20
11.3871017129
 30
0.0
 10
8.9884659894
 20
11.3864556893
 30
0.0
 10
8.9891939248
 20
11.3859034404
 30
0.0
 10
8.9898593271
 20
11.3854476233
 30
0.0
 10
8.9904585411
 20
11.3850905958
 30
0.0
 10
8.990987517
 20
11.3848352262
 30
0.0
 10
8.9913889068
 20
11.3847011089
 30
0.0
 10
8.9916703703
 20
11.3846565922
 30
0.0
 10
8.9918489136
 20
11.3846537322
 30
0.0
 10
8.9920070233
 20
11.3846804876
 30
0.0
 10
8.9921005287
 20
11.3847205107
 30
0.0
 10
8.9921417112
 20
11.3847452528
 30
0.0
  0
SPLINE
  5
442
100
AcDbEntity
  8
0
100
AcDbSpline
 62
9
  6
CONTINUOUS
 70
0
 71
3
 72
18
 73
14
 74
0
 42
0.0000001
 43
0.0000001
 44
0.0000000001
 40
0.0
 40
0.0
 40
0.0
 40
0.0
 40
0.0352826001
 40
0.0696732369
 40
0.1047549384
 40
0.1420171708
 40
0.1826999344
 40
0.2277399198
 40
0.3332926836
 40
0.4621876099
 40
0.6159460772
 40
0.7951932286
 40
1.0
 40
1.0
 40
1.0
 40
1.0
 10
9.5211828688
 20
10.7605138173
 30
0.0
 10
9.5212078553
 20
10.760560359
 30
0.0
 10
9.5212662628
 20
10.7606478577
 30
0.0
 10
9.5213804613
 20
10.7607571603
 30
0.0
 10
9.5215182446
 20
10.7608404718
 30
0.0
 10
9.5216785222
 20
10.7608977137
 30
0.0
 10
9.5218606464
 20
10.760929432
 30
0.0
 10
9.5221476133
 20
10.7609386827
 30
0.0
 10
9.5225645436
 20
10.7608787925
 30
0.0
 10
9.5231230535
 20
10.7607141916
 30
0.0
 10
9.5237644545
 20
10.7604532244
 30
0.0
 10
9.5244866935
 20
10.7600961545
 30
0.0
 10
9.5249874635
 20
10.7598130048
 30
0.0
 10
9.5252512057
 20
10.7596565927
 30
0.0
  0
SPLINE
  5
443
100
AcDbEntity
  8
0
100
AcDbSpline
 62
7
  6
CONTINUOUS
 70
0
 71
3
 72
23
 73
19
 74
0
 42
0.0000001
 43
0.0000001
 44
0.0000000001
 40
0.0
 40
0.0
 40
0.0
 40
0.0
 40
0.1904276749
 40
0.3705665337
 40
0.4552185358
 40
0.5354148918
 40
0.6104482876
 40
0.6796780496
 40
0.7427128443
 40
0.7992790911
 40
0.8492045985
 40
0.8923382843
 40
0.9286002663
 40
0.9580854914
 40
0.9704412476
 40
0.9813603194
 40
0.9910833725
 40
1.0
 40
1.0
 40
1.0
 40
1.0
 10
9.1664194119
 20
11.1727582605
 30
0.0
 10
9.167095686
 20
11.1719866355
 30
0.0
 10
9.1684303432
 20
11.1705013027
 30
0.0
 10
9.1701183349
 20
11.1687212547
 30
0.0
 10
9.171430552
 20
11.1674045917
 30
0.0
 10
9.172359959
 20
11.1665062691
 30
0.0
 10
9.1732479468
 20
11.1656850386
 30
0.0
 10
9.1740881174
 20
11.1649488244
 30
0.0
 10
9.1748743962
 20
11.1643028008
 30
0.0
 10
9.1756023316
 20
11.1637505519
 30
0.0
 10
9.1762677339
 20
11.1632947348
 30
0.0
 10
9.1768669479
 20
11.1629377073
 30
0.0
 10
9.1773959238
 20
11.1626823377
 30
0.0
 10
9.1777973136
 20
11.1625482204
 30
0.0
 10
9.1780787772
 20
11.1625037037
 30
0.0
 10
9.1782573204
 20
11.1625008437
 30
0.0
 10
9.1784154301
 20
11.162527599
 30
0.0
 10
9.1785089355
 20
11.1625676222
 30
0.0
 10
9.178550118
 20
11.1625923642
 30
0.0
  0
SPLINE
  5
444
100
AcDbEntity
  8
0
100
AcDbSpline
 62
9
  6
CONTINUOUS
 70
0
 71
3
 72
18
 73
14
 74
0
 42
0.0000001
 43
0.0000001
 44
0.0000000001
 40
0.0
 40
0.0
 40
0.0
 40
0.0
 40
0.204823817
 40
0.3840832235
 40
0.5378505264
 40
0.6667501133
 40
0.77229226
 40
0.8173213144
 40
0.8579928807
 40
0.8952486496
 40
0.930329296
 40
0.9647204861
 40
1.0
 40
1.0
 40
1.0
 40
1.0
 10
8.4456600315
 20
12.0462647986
 30
0.0
 10
8.4457684061
 20
12.0459776876
 30
0.0
 10
8.4459605788
 20
12.0454349661
 30
0.0
 10
8.4461871789
 20
12.0446611287
 30
0.0
 10
8.4463329285
 20
12.0439836204
 30
0.0
 10
8.44639807
 20
12.0434045894
 30
0.0
 10
8.4463847938
 20
12.0429833143
 30
0.0
 10
8.4463259404
 20
12.0427021305
 30
0.0
 10
8.4462630988
 20
12.0425281735
 30
0.0
 10
8.4461788474
 20
12.042380184
 30
0.0
 10
8.4460727865
 20
12.0422588954
 30
0.0
 10
8.4459452083
 20
12.0421653702
 30
0.0
 10
8.4458488217
 20
12.0421230322
 30
0.0
 10
8.4457986123
 20
12.0421065079
 30
0.0
  0
SPLINE
  5
445
100
AcDbEntity
  8
0
100
AcDbSpline
 62
7
  6
CONTINUOUS
 70
0
 71
3
 72
23
 73
19
 74
0
 42
0.0000001
 43
0.0000001
 44
0.0000000001
 40
0.0
 40
0.0
 40
0.0
 40
0.0
 40
0.1904276749
 40
0.3705665337
 40
0.4552185358
 40
0.5354148918
 40
0.6104482876
 40
0.6796780496
 40
0.7427128443
 40
0.7992790911
 40
0.8492045985
 40
0.8923382843
 40
0.9286002663
 40
0.9580854914
 40
0.9704412476
 40
0.9813603194
 40
0.9910833725
 40
1.0
 40
1.0
 40
1.0
 40
1.0
 10
9.3528278187
 20
10.950605372
 30
0.0
 10
9.3535040928
 20
10.949833747
 30
0.0
 10
9.3548387501
 20
10.9483484142
 30
0.0
 10
9.3565267417
 20
10.9465683662
 30
0.0
 10
9.3578389588
 20
10.9452517032
 30
0.0
 10
9.3587683658
 20
10.9443533806
 30
0.0
 10
9.3596563536
 20
10.9435321501
 30
0.0
 10
9.3604965242
 20
10.9427959359
 30
0.0
 10
9.361282803
 20
10.9421499123
 30
0.0
 10
9.3620107384
 20
10.9415976634
 30
0.0
 10
9.3626761407
 20
10.9411418463
 30
0.0
 10
9.3632753547
 20
10.9407848188
 30
0.0
 10
9.3638043306
 20
10.9405294492
 30
0.0
 10
9.3642057204
 20
10.9403953319
 30
0.0
 10
9.364487184
 20
10.9403508151
 30
0.0
 10
9.3646657272
 20
10.9403479552
 30
0.0
 10
9.3648238369
 20
10.9403747105
 30
0.0
 10
9.3649173423
 20
10.9404147337
 30
0.0
 10
9.3649585248
 20
10.9404394757
 30
0.0
  0
SPLINE
  5
446
100
AcDbEntity
  8
0
100
AcDbSpline
 62
9
  6
CONTINUOUS
 70
0
 71
3
 72
19
 73
15
 74
0
 42
0.0000001
 43
0.0000001
 44
0.0000000001
 40
0.0
 40
0.0
 40
0.0
 40
0.0
 40
0.0463215016
 40
0.0921786738
 40
0.138476678
 40
0.1860191469
 40
0.287216449
 40
0.342028355
 40
0.4000569828
 40
0.4615564616
 40
0.5267262322
 40
0.6685510197
 40
0.8263843709
 40
1.0
 40
1.0
 40
1.0
 40
1.0
 10
9.5279192452
 20
10.773077845
 30
0.0
 10
9.5282153169
 20
10.7736300402
 30
0.0
 10
9.5288905424
 20
10.7746854689
 30
0.0
 10
9.5301414562
 20
10.7760894689
 30
0.0
 10
9.5316065168
 20
10.7772945324
 30
0.0
 10
9.5338724303
 20
10.7786607022
 30
0.0
 10
9.5365019205
 20
10.7795820534
 30
0.0
 10
9.5393549757
 20
10.7800891261
 30
0.0
 10
9.5417104375
 20
10.7802689882
 30
0.0
 10
9.5442115468
 20
10.7802308789
 30
0.0
 10
9.547828863
 20
10.7798686841
 30
0.0
 10
9.5526635883
 20
10.7787792063
 30
0.0
 10
9.5586575394
 20
10.7764755314
 30
0.0
 10
9.5625887439
 20
10.7742821573
 30
0.0
 10
9.5645555364
 20
10.7729989441
 30
0.0
  0
SPLINE
  5
447
100
AcDbEntity
  8
0
100
AcDbSpline
 62
9
  6
CONTINUOUS
 70
0
 71
3
 72
19
 73
15
 74
0
 42
0.0000001
 43
0.0000001
 44
0.0000000001
 40
0.0
 40
0.0
 40
0.0
 40
0.0
 40
0.173615588
 40
0.3314488379
 40
0.473273537
 40
0.5384433185
 40
0.5999427075
 40
0.6579712574
 40
0.7127831943
 40
0.8139806028
 40
0.8615232391
 40
0.9078216646
 40
0.9536790615
 40
1.0
 40
1.0
 40
1.0
 40
1.0
 10
8.4656258836
 20
12.0826523053
 30
0.0
 10
8.4665480683
 20
12.0804925642
 30
0.0
 10
8.4680254851
 20
12.0762402132
 30
0.0
 10
8.4692533004
 20
12.0699372945
 30
0.0
 10
8.4694867062
 20
12.0649868356
 30
0.0
 10
8.469215232
 20
12.0613615845
 30
0.0
 10
8.4688184706
 20
12.0588918546
 30
0.0
 10
8.4682323282
 20
12.056603409
 30
0.0
 10
8.4672375238
 20
12.0538817521
 30
0.0
 10
8.4658735623
 20
12.0514521971
 30
0.0
 10
8.464134666
 20
12.0494579364
 30
0.0
 10
8.4626934908
 20
12.0482243899
 30
0.0
 10
8.4610936018
 20
12.0472362815
 30
0.0
 10
8.4599369626
 20
12.0467545828
 30
0.0
 10
8.4593417516
 20
12.0465588985
 30
0.0
  0
SPLINE
  5
448
100
AcDbEntity
  8
0
100
AcDbSpline
 62
7
  6
CONTINUOUS
 70
0
 71
3
 72
23
 73
19
 74
0
 42
0.0000001
 43
0.0000001
 44
0.0000000001
 40
0.0
 40
0.0
 40
0.0
 40
0.0
 40
0.1904276749
 40
0.3705665337
 40
0.4552185358
 40
0.5354148918
 40
0.6104482876
 40
0.6796780496
 40
0.7427128443
 40
0.7992790911
 40
0.8492045985
 40
0.8923382843
 40
0.9286002663
 40
0.9580854914
 40
0.9704412476
 40
0.9813603194
 40
0.9910833725
 40
1.0
 40
1.0
 40
1.0
 40
1.0
 10
9.5392362255
 20
10.7284524835
 30
0.0
 10
9.5399124996
 20
10.7276808585
 30
0.0
 10
9.5412471569
 20
10.7261955257
 30
0.0
 10
9.5429351485
 20
10.7244154777
 30
0.0
 10
9.5442473656
 20
10.7230988147
 30
0.0
 10
9.5451767726
 20
10.7222004921
 30
0.0
 10
9.5460647604
 20
10.7213792616
 30
0.0
 10
9.546904931
 20
10.7206430474
 30
0.0
 10
9.5476912098
 20
10.7199970238
 30
0.0
 10
9.5484191453
 20
10.7194447749
 30
0.0
 10
9.5490845475
 20
10.7189889578
 30
0.0
 10
9.5496837615
 20
10.7186319303
 30
0.0
 10
9.5502127374
 20
10.7183765606
 30
0.0
 10
9.5506141272
 20
10.7182424434
 30
0.0
 10
9.5508955908
 20
10.7181979266
 30
0.0
 10
9.551074134
 20
10.7181950667
 30
0.0
 10
9.5512322437
 20
10.718221822
 30
0.0
 10
9.5513257491
 20
10.7182618452
 30
0.0
 10
9.5513669317
 20
10.7182865872
 30
0.0
  0
SPLINE
  5
449
100
AcDbEntity
  8
0
100
AcDbSpline
 62
7
  6
CONTINUOUS
 70
0
 71
3
 72
23
 73
19
 74
0
 42
0.0000001
 43
0.0000001
 44
0.0000000001
 40
0.0
 40
0.0
 40
0.0
 40
0.0
 40
0.1904276749
 40
0.3705665337
 40
0.4552185358
 40
0.5354148918
 40
0.6104482876
 40
0.6796780496
 40
0.7427128443
 40
0.7992790911
 40
0.8492045985
 40
0.8923382843
 40
0.9286002663
 40
0.9580854914
 40
0.9704412476
 40
0.9813603194
 40
0.9910833725
 40
1.0
 40
1.0
 40
1.0
 40
1.0
 10
9.7256446323
 20
10.506299595
 30
0.0
 10
9.7263209064
 20
10.50552797
 30
0.0
 10
9.7276555637
 20
10.5040426372
 30
0.0
 10
9.7293435553
 20
10.5022625892
 30
0.0
 10
9.7306557725
 20
10.5009459262
 30
0.0
 10
9.7315851794
 20
10.5000476036
 30
0.0
 10
9.7324731672
 20
10.4992263731
 30
0.0
 10
9.7333133379
 20
10.4984901589
 30
0.0
 10
9.7340996166
 20
10.4978441353
 30
0.0
 10
9.7348275521
 20
10.4972918864
 30
0.0
 10
9.7354929543
 20
10.4968360693
 30
0.0
 10
9.7360921684
 20
10.4964790418
 30
0.0
 10
9.7366211443
 20
10.4962236721
 30
0.0
 10
9.737022534
 20
10.4960895549
 30
0.0
 10
9.7373039976
 20
10.4960450381
 30
0.0
 10
9.7374825408
 20
10.4960421781
 30
0.0
 10
9.7376406505
 20
10.4960689335
 30
0.0
 10
9.737734156
 20
10.4961089567
 30
0.0
 10
9.7377753385
 20
10.4961336987
 30
0.0
  0
SPLINE
  5
44A
100
AcDbEntity
  8
0
100
AcDbSpline
 62
7
  6
CONTINUOUS
 70
0
 71
3
 72
15
 73
11
 74
0
 42
0.0000001
 43
0.0000001
 44
0.0000000001
 40
0.0
 40
0.0
 40
0.0
 40
0.0
 40
0.2540157935
 40
0.3804896024
 40
0.5063289799
 40
0.631352399
 40
0.7553801954
 40
0.8169825293
 40
0.8783011971
 40
1.0
 40
1.0
 40
1.0
 40
1.0
 10
8.4564595624
 20
12.0947827771
 30
0.0
 10
8.4556318386
 20
12.0957692046
 30
0.0
 10
8.4543604909
 20
12.0972206691
 30
0.0
 10
8.4526151212
 20
12.0991027734
 30
0.0
 10
8.4512926701
 20
12.1004849477
 30
0.0
 10
8.4499638186
 20
12.1018436041
 30
0.0
 10
8.4488582388
 20
12.1029650794
 30
0.0
 10
8.4479853023
 20
12.1038624387
 30
0.0
 10
8.4471275957
 20
12.104757918
 30
0.0
 10
8.4465016613
 20
12.1054436821
 30
0.0
 10
8.4461050953
 20
12.1059162755
 30
0.0
  0
SPLINE
  5
44B
100
AcDbEntity
  8
0
100
AcDbSpline
 62
7
  6
CONTINUOUS
 70
0
 71
3
 72
23
 73
19
 74
0
 42
0.0000001
 43
0.0000001
 44
0.0000000001
 40
0.0
 40
0.0
 40
0.0
 40
0.0
 40
0.1904276749
 40
0.3705665337
 40
0.4552185358
 40
0.5354148918
 40
0.6104482876
 40
0.6796780496
 40
0.7427128443
 40
0.7992790911
 40
0.8492045985
 40
0.8923382843
 40
0.9286002663
 40
0.9580854914
 40
0.9704412476
 40
0.9813603194
 40
0.9910833725
 40
1.0
 40
1.0
 40
1.0
 40
1.0
 10
9.9120530391
 20
10.2841467065
 30
0.0
 10
9.9127293132
 20
10.2833750815
 30
0.0
 10
9.9140639705
 20
10.2818897487
 30
0.0
 10
9.9157519621
 20
10.2801097007
 30
0.0
 10
9.9170641793
 20
10.2787930377
 30
0.0
 10
9.9179935862
 20
10.2778947151
 30
0.0
 10
9.918881574
 20
10.2770734846
 30
0.0
 10
9.9197217447
 20
10.2763372704
 30
0.0
 10
9.9205080234
 20
10.2756912468
 30
0.0
 10
9.9212359589
 20
10.2751389979
 30
0.0
 10
9.9219013611
 20
10.2746831808
 30
0.0
 10
9.9225005752
 20
10.2743261533
 30
0.0
 10
9.9230295511
 20
10.2740707836
 30
0.0
 10
9.9234309408
 20
10.2739366664
 30
0.0
 10
9.9237124044
 20
10.2738921496
 30
0.0
 10
9.9238909476
 20
10.2738892896
 30
0.0
 10
9.9240490574
 20
10.273916045
 30
0.0
 10
9.9241425628
 20
10.2739560682
 30
0.0
 10
9.9241837453
 20
10.2739808102
 30
0.0
  0
SPLINE
  5
44C
100
AcDbEntity
  8
0
100
AcDbSpline
 62
7
  6
CONTINUOUS
 70
0
 71
3
 72
15
 73
11
 74
0
 42
0.0000001
 43
0.0000001
 44
0.0000000001
 40
0.0
 40
0.0
 40
0.0
 40
0.0
 40
0.1216987547
 40
0.1830174132
 40
0.2446197378
 40
0.368647522
 40
0.4936709375
 40
0.6195103109
 40
0.7459841441
 40
1.0
 40
1.0
 40
1.0
 40
1.0
 10
8.4656259384
 20
12.08265224
 30
0.0
 10
8.4652293799
 20
12.0831248439
 30
0.0
 10
8.4646627291
 20
12.0838603594
 30
0.0
 10
8.4639297928
 20
12.0848605416
 30
0.0
 10
8.463197642
 20
12.0858760436
 30
0.0
 10
8.4622851736
 20
12.0871595709
 30
0.0
 10
8.4611779078
 20
12.0887041732
 30
0.0
 10
8.4600463672
 20
12.0902465545
 30
0.0
 10
8.4584959309
 20
12.0922922461
 30
0.0
 10
8.4572872917
 20
12.0937963444
 30
0.0
 10
8.4564595632
 20
12.0947827778
 30
0.0
  0
SPLINE
  5
44D
100
AcDbEntity
  8
0
100
AcDbSpline
 62
7
  6
CONTINUOUS
 70
0
 71
3
 72
23
 73
19
 74
0
 42
0.0000001
 43
0.0000001
 44
0.0000000001
 40
0.0
 40
0.0
 40
0.0
 40
0.0
 40
0.1904276749
 40
0.3705665337
 40
0.4552185358
 40
0.5354148918
 40
0.6104482876
 40
0.6796780496
 40
0.7427128443
 40
0.7992790911
 40
0.8492045985
 40
0.8923382843
 40
0.9286002663
 40
0.9580854914
 40
0.9704412476
 40
0.9813603194
 40
0.9910833725
 40
1.0
 40
1.0
 40
1.0
 40
1.0
 10
10.0984614459
 20
10.061993818
 30
0.0
 10
10.09913772
 20
10.0612221929
 30
0.0
 10
10.1004723773
 20
10.0597368601
 30
0.0
 10
10.1021603689
 20
10.0579568122
 30
0.0
 10
10.1034725861
 20
10.0566401492
 30
0.0
 10
10.104401993
 20
10.0557418266
 30
0.0
 10
10.1052899808
 20
10.0549205961
 30
0.0
 10
10.1061301515
 20
10.0541843818
 30
0.0
 10
10.1069164302
 20
10.0535383583
 30
0.0
 10
10.1076443657
 20
10.0529861094
 30
0.0
 10
10.1083097679
 20
10.0525302923
 30
0.0
 10
10.108908982
 20
10.0521732648
 30
0.0
 10
10.1094379579
 20
10.0519178951
 30
0.0
 10
10.1098393476
 20
10.0517837779
 30
0.0
 10
10.1101208112
 20
10.0517392611
 30
0.0
 10
10.1102993545
 20
10.0517364011
 30
0.0
 10
10.1104574642
 20
10.0517631565
 30
0.0
 10
10.1105509696
 20
10.0518031797
 30
0.0
 10
10.1105921521
 20
10.0518279217
 30
0.0
  0
SPLINE
  5
44E
100
AcDbEntity
  8
0
100
AcDbSpline
 62
9
  6
CONTINUOUS
 70
0
 71
3
 72
19
 73
15
 74
0
 42
0.0000001
 43
0.0000001
 44
0.0000000001
 40
0.0
 40
0.0
 40
0.0
 40
0.0
 40
0.0463215016
 40
0.0921786738
 40
0.138476678
 40
0.1860191469
 40
0.287216449
 40
0.342028355
 40
0.4000569828
 40
0.4615564616
 40
0.5267262322
 40
0.6685510197
 40
0.8263843709
 40
1.0
 40
1.0
 40
1.0
 40
1.0
 10
9.3415108384
 20
10.9952307335
 30
0.0
 10
9.3418069101
 20
10.9957829287
 30
0.0
 10
9.3424821356
 20
10.9968383574
 30
0.0
 10
9.3437330494
 20
10.9982423574
 30
0.0
 10
9.34519811
 20
10.999447421
 30
0.0
 10
9.3474640235
 20
11.0008135907
 30
0.0
 10
9.3500935137
 20
11.0017349419
 30
0.0
 10
9.3529465689
 20
11.0022420146
 30
0.0
 10
9.3553020307
 20
11.0024218767
 30
0.0
 10
9.35780314
 20
11.0023837674
 30
0.0
 10
9.3614204562
 20
11.0020215726
 30
0.0
 10
9.3662551815
 20
11.0009320948
 30
0.0
 10
9.3722491326
 20
10.99862842
 30
0.0
 10
9.3761803371
 20
10.9964350458
 30
0.0
 10
9.3781471296
 20
10.9951518326
 30
0.0
  0
SPLINE
  5
44F
100
AcDbEntity
  8
0
100
AcDbSpline
 62
9
  6
CONTINUOUS
 70
0
 71
3
 72
15
 73
11
 74
0
 42
0.0000001
 43
0.0000001
 44
0.0000000001
 40
0.0
 40
0.0
 40
0.0
 40
0.0
 40
0.0168684794
 40
0.0667879403
 40
0.1490924483
 40
0.2627294721
 40
0.4060715541
 40
0.5776643424
 40
0.7760016835
 40
1.0
 40
1.0
 40
1.0
 40
1.0
 10
14.7659835435
 20
7.2231998755
 30
0.0
 10
14.7659564848
 20
7.223209206
 30
0.0
 10
14.7658486484
 20
7.2232440799
 30
0.0
 10
14.7656071255
 20
7.22331935
 30
0.0
 10
14.765206684
 20
7.2234364245
 30
0.0
 10
14.7646503439
 20
7.2235848287
 30
0.0
 10
14.7639404752
 20
7.2237436915
 30
0.0
 10
14.7630824106
 20
7.2238950287
 30
0.0
 10
14.762080534
 20
7.2240103504
 30
0.0
 10
14.7613635677
 20
7.2240390656
 30
0.0
 10
14.7609834891
 20
7.2240390679
 30
0.0
  0
SPLINE
  5
450
100
AcDbEntity
  8
0
100
AcDbSpline
 62
9
  6
CONTINUOUS
 70
0
 71
3
 72
34
 73
30
 74
0
 42
0.0000001
 43
0.0000001
 44
0.0000000001
 40
0.0
 40
0.0
 40
0.0
 40
0.0
 40
0.0725155893
 40
0.1061115298
 40
0.1379628994
 40
0.1967352862
 40
0.223946096
 40
0.249858221
 40
0.298324584
 40
0.3213276201
 40
0.3437856624
 40
0.3659716702
 40
0.3881958464
 40
0.4107993801
 40
0.4341405349
 40
0.4585785471
 40
0.4844548411
 40
0.51206894
 40
0.541666672
 40
0.573415574
 40
0.6073792835
 40
0.6435139263
 40
0.6816330993
 40
0.7623193263
 40
0.8454053553
 40
0.8863084291
 40
0.9259939564
 40
0.963992681
 40
1.0
 40
1.0
 40
1.0
 40
1.0
 10
10.1397397355
 20
10.0828642993
 30
0.0
 10
10.1405334767
 20
10.0807325309
 30
0.0
 10
10.1414225822
 20
10.0774996839
 30
0.0
 10
10.1419893787
 20
10.0732047419
 30
0.0
 10
10.1421548114
 20
10.0693078307
 30
0.0
 10
10.1418267199
 20
10.0656012705
 30
0.0
 10
10.1410099826
 20
10.062182121
 30
0.0
 10
10.139962863
 20
10.0591685975
 30
0.0
 10
10.1385093002
 20
10.0564460974
 30
0.0
 10
10.1366621426
 20
10.0541419881
 30
0.0
 10
10.1351279474
 20
10.0526666563
 30
0.0
 10
10.1334267731
 20
10.051428037
 30
0.0
 10
10.1315636562
 20
10.0504391142
 30
0.0
 10
10.1295441648
 20
10.0497141683
 30
0.0
 10
10.1273746965
 20
10.0492674643
 30
0.0
 10
10.1250625586
 20
10.0491130446
 30
0.0
 10
10.1226164796
 20
10.049264738
 30
0.0
 10
10.1200469947
 20
10.0497341613
 30
0.0
 10
10.1173678308
 20
10.050532739
 30
0.0
 10
10.1145971904
 20
10.0516680705
 30
0.0
 10
10.1117582013
 20
10.0531419419
 30
0.0
 10
10.1088817029
 20
10.0549514644
 30
0.0
 10
10.1049736542
 20
10.0578476959
 30
0.0
 10
10.1003059279
 20
10.0621588151
 30
0.0
 10
10.0961754833
 20
10.0670989939
 30
0.0
 10
10.0932839251
 20
10.0713455217
 30
0.0
 10
10.0914003558
 20
10.0745570776
 30
0.0
 10
10.0898217248
 20
10.0777584243
 30
0.0
 10
10.088954529
 20
10.0799150109
 30
0.0
 10
10.0885784387
 20
10.0809800744
 30
0.0
  0
SPLINE
  5
451
100
AcDbEntity
  8
0
100
AcDbSpline
 62
9
  6
CONTINUOUS
 70
0
 71
3
 72
11
 73
7
 74
0
 42
0.0000001
 43
0.0000001
 44
0.0000000001
 40
0.0
 40
0.0
 40
0.0
 40
0.0
 40
0.2441854296
 40
0.4999998288
 40
0.7558142784
 40
1.0
 40
1.0
 40
1.0
 40
1.0
 10
10.1227564223
 20
10.1031041722
 30
0.0
 10
10.1246449011
 20
10.101995222
 30
0.0
 10
10.1283255734
 20
10.0993906966
 30
0.0
 10
10.1331385563
 20
10.0945705444
 30
0.0
 10
10.1370497271
 20
10.0889936773
 30
0.0
 10
10.138975556
 20
10.0849166551
 30
0.0
 10
10.1397397355
 20
10.0828642993
 30
0.0
  0
SPLINE
  5
452
100
AcDbEntity
  8
0
100
AcDbSpline
 62
9
  6
CONTINUOUS
 70
0
 71
3
 72
18
 73
14
 74
0
 42
0.0000001
 43
0.0000001
 44
0.0000000001
 40
0.0
 40
0.0
 40
0.0
 40
0.0
 40
0.204823817
 40
0.3840832235
 40
0.5378505264
 40
0.6667501133
 40
0.77229226
 40
0.8173213144
 40
0.8579928807
 40
0.8952486496
 40
0.930329296
 40
0.9647204861
 40
1.0
 40
1.0
 40
1.0
 40
1.0
 10
8.6320684383
 20
11.8241119101
 30
0.0
 10
8.6321768129
 20
11.8238247991
 30
0.0
 10
8.6323689857
 20
11.8232820776
 30
0.0
 10
8.6325955857
 20
11.8225082402
 30
0.0
 10
8.6327413353
 20
11.8218307319
 30
0.0
 10
8.6328064769
 20
11.8212517009
 30
0.0
 10
8.6327932006
 20
11.8208304258
 30
0.0
 10
8.6327343472
 20
11.820549242
 30
0.0
 10
8.6326715056
 20
11.820375285
 30
0.0
 10
8.6325872542
 20
11.8202272955
 30
0.0
 10
8.6324811933
 20
11.8201060069
 30
0.0
 10
8.6323536151
 20
11.8200124817
 30
0.0
 10
8.6322572286
 20
11.8199701437
 30
0.0
 10
8.6322070191
 20
11.8199536194
 30
0.0
  0
SPLINE
  5
453
100
AcDbEntity
  8
0
100
AcDbSpline
 62
9
  6
CONTINUOUS
 70
0
 71
3
 72
19
 73
15
 74
0
 42
0.0000001
 43
0.0000001
 44
0.0000000001
 40
0.0
 40
0.0
 40
0.0
 40
0.0
 40
0.1736155891
 40
0.33144884
 40
0.4732735398
 40
0.5384433215
 40
0.5999427106
 40
0.6579712604
 40
0.7127831973
 40
0.8139806051
 40
0.8615232409
 40
0.9078216659
 40
0.9536790622
 40
1.0
 40
1.0
 40
1.0
 40
1.0
 10
8.6520342897
 20
11.8604994185
 30
0.0
 10
8.6529564745
 20
11.8583396772
 30
0.0
 10
8.6544338915
 20
11.8540873261
 30
0.0
 10
8.6556617071
 20
11.8477844071
 30
0.0
 10
8.655895113
 20
11.842833948
 30
0.0
 10
8.6556236389
 20
11.8392086967
 30
0.0
 10
8.6552268776
 20
11.8367389666
 30
0.0
 10
8.6546407351
 20
11.834450521
 30
0.0
 10
8.6536459308
 20
11.8317288639
 30
0.0
 10
8.6522819692
 20
11.8292993088
 30
0.0
 10
8.6505430729
 20
11.827305048
 30
0.0
 10
8.6491018977
 20
11.8260715015
 30
0.0
 10
8.6475020087
 20
11.825083393
 30
0.0
 10
8.6463453694
 20
11.8246016943
 30
0.0
 10
8.6457501584
 20
11.82440601
 30
0.0
  0
SPLINE
  5
454
100
AcDbEntity
  8
0
100
AcDbSpline
 62
7
  6
CONTINUOUS
 70
0
 71
3
 72
33
 73
29
 74
0
 42
0.0000001
 43
0.0000001
 44
0.0000000001
 40
0.0
 40
0.0
 40
0.0
 40
0.0
 40
0.1249999947
 40
0.2499999346
 40
0.3124999787
 40
0.3750000274
 40
0.437500057
 40
0.5000000099
 40
0.5624997519
 40
0.6249989999
 40
0.656249357
 40
0.6874996863
 40
0.71874997
 40
0.7500001854
 40
0.7812502465
 40
0.8124999775
 40
0.8437490202
 40
0.8749963027
 40
0.8906222504
 40
0.9062480924
 40
0.921873704
 40
0.9374986872
 40
0.9531217417
 40
0.9687379318
 40
0.9765548555
 40
0.9843704391
 40
0.9921862856
 40
1.0
 40
1.0
 40
1.0
 40
1.0
 10
13.7920496554
 20
6.5594005493
 30
0.0
 10
13.7966625822
 20
6.5632712544
 30
0.0
 10
13.8058871578
 20
6.5710141622
 30
0.0
 10
13.8174338569
 20
6.5806738629
 30
0.0
 10
13.8267159011
 20
6.5883478916
 30
0.0
 10
13.8337132825
 20
6.5940598578
 30
0.0
 10
13.8407621394
 20
6.5997083003
 30
0.0
 10
13.8478815203
 20
6.6052678309
 30
0.0
 10
13.8550941096
 20
6.6107061395
 30
0.0
 10
13.8612053461
 20
6.6151022134
 30
0.0
 10
13.8661716292
 20
6.6185081438
 30
0.0
 10
13.8699404413
 20
6.6209973151
 30
0.0
 10
13.8737591457
 20
6.6234094062
 30
0.0
 10
13.8776346591
 20
6.6257293944
 30
0.0
 10
13.881575145
 20
6.6279376032
 30
0.0
 10
13.8855905182
 20
6.6300073585
 30
0.0
 10
13.8896925619
 20
6.6319002786
 30
0.0
 10
13.8931962565
 20
6.6332829395
 30
0.0
 10
13.8960575885
 20
6.6342226496
 30
0.0
 10
13.8982352741
 20
6.6348245449
 30
0.0
 10
13.9004451808
 20
6.6352968479
 30
0.0
 10
13.9026859009
 20
6.6355998526
 30
0.0
 10
13.9049469316
 20
6.6356725042
 30
0.0
 10
13.9068280949
 20
6.6354584896
 30
0.0
 10
13.9082790994
 20
6.6350442926
 30
0.0
 10
13.9093169238
 20
6.6345872852
 30
0.0
 10
13.9102662507
 20
6.6339648131
 30
0.0
 10
13.9108100377
 20
6.6334355729
 30
0.0
 10
13.9110519944
 20
6.6331472202
 30
0.0
  0
SPLINE
  5
455
100
AcDbEntity
  8
0
100
AcDbSpline
 62
7
  6
CONTINUOUS
 70
0
 71
3
 72
14
 73
10
 74
0
 42
0.0000001
 43
0.0000001
 44
0.0000000001
 40
0.0
 40
0.0
 40
0.0
 40
0.0
 40
0.2540179488
 40
0.5063270315
 40
0.6313536816
 40
0.755383843
 40
0.8169865611
 40
0.8783045978
 40
1.0
 40
1.0
 40
1.0
 40
1.0
 10
8.6428697074
 20
11.8726313471
 30
0.0
 10
8.6420420381
 20
11.8736178204
 30
0.0
 10
8.640348524
 20
11.8755477717
 30
0.0
 10
8.638149541
 20
11.877873848
 30
0.0
 10
8.6363739227
 20
11.879692323
 30
0.0
 10
8.635268754
 20
11.8808142314
 30
0.0
 10
8.6343956468
 20
11.8817114218
 30
0.0
 10
8.6335375019
 20
11.8826064442
 30
0.0
 10
8.632910872
 20
11.8832915015
 30
0.0
 10
8.6325135007
 20
11.8837633886
 30
0.0
  0
SPLINE
  5
456
100
AcDbEntity
  8
0
100
AcDbSpline
 62
7
  6
CONTINUOUS
 70
0
 71
3
 72
14
 73
10
 74
0
 42
0.0000001
 43
0.0000001
 44
0.0000000001
 40
0.0
 40
0.0
 40
0.0
 40
0.0
 40
0.1216960667
 40
0.1830141646
 40
0.2446166682
 40
0.3686463015
 40
0.4936728294
 40
0.7459821143
 40
1.0
 40
1.0
 40
1.0
 40
1.0
 10
8.6520343042
 20
11.8604994013
 30
0.0
 10
8.6516385389
 20
11.8609726421
 30
0.0
 10
8.6510725082
 20
11.8617085683
 30
0.0
 10
8.6503401024
 20
11.862709106
 30
0.0
 10
8.6496083261
 20
11.8637248656
 30
0.0
 10
8.6486956406
 20
11.8650082505
 30
0.0
 10
8.6472131493
 20
11.8670726912
 30
0.0
 10
8.6453037537
 20
11.8696418142
 30
0.0
 10
8.6436973789
 20
11.8716448728
 30
0.0
 10
8.6428697082
 20
11.8726313478
 30
0.0
  0
SPLINE
  5
457
100
AcDbEntity
  8
0
100
AcDbSpline
 62
9
  6
CONTINUOUS
 70
0
 71
3
 72
28
 73
24
 74
0
 42
0.0000001
 43
0.0000001
 44
0.0000000001
 40
0.0
 40
0.0
 40
0.0
 40
0.0
 40
0.0158391976
 40
0.0316711341
 40
0.0474789239
 40
0.0632581809
 40
0.0790065857
 40
0.0947261246
 40
0.1260684771
 40
0.1573304891
 40
0.1885348027
 40
0.2197014646
 40
0.2508399381
 40
0.2819630991
 40
0.3130804633
 40
0.3753008198
 40
0.437545833
 40
0.4998271619
 40
0.5621571272
 40
0.6245405066
 40
0.7494666217
 40
0.8746232012
 40
1.0
 40
1.0
 40
1.0
 40
1.0
 10
14.6031302544
 20
5.3433283899
 30
0.0
 10
14.6031308037
 20
5.3438087244
 30
0.0
 10
14.6030720332
 20
5.3447702835
 30
0.0
 10
14.6028095722
 20
5.3461892546
 30
0.0
 10
14.6023886982
 20
5.3475672307
 30
0.0
 10
14.6018318175
 20
5.3488927076
 30
0.0
 10
14.6011549108
 20
5.350157741
 30
0.0
 10
14.6001171019
 20
5.3517570879
 30
0.0
 10
14.5986122478
 20
5.3536040514
 30
0.0
 10
14.5965799271
 20
5.3556006854
 30
0.0
 10
14.5943841253
 20
5.3574058036
 30
0.0
 10
14.5920699687
 20
5.3590478678
 30
0.0
 10
14.5896698935
 20
5.3605559371
 30
0.0
 10
14.5872003472
 20
5.3619437211
 30
0.0
 10
14.5838356174
 20
5.3636555466
 30
0.0
 10
14.5795232268
 20
5.3655780654
 30
0.0
 10
14.5742298122
 20
5.3675966674
 30
0.0
 10
14.5688535657
 20
5.3693915662
 30
0.0
 10
14.5634127108
 20
5.3709934449
 30
0.0
 10
14.5560895024
 20
5.372915898
 30
0.0
 10
14.5468365178
 20
5.3749747022
 30
0.0
 10
14.535633798
 20
5.3770204117
 30
0.0
 10
14.5281210105
 20
5.3781598516
 30
0.0
 10
14.524355135
 20
5.378683729
 30
0.0
  0
SPLINE
  5
458
100
AcDbEntity
  8
0
100
AcDbSpline
 62
9
  6
CONTINUOUS
 70
0
 71
3
 72
19
 73
15
 74
0
 42
0.0000001
 43
0.0000001
 44
0.0000000001
 40
0.0
 40
0.0
 40
0.0
 40
0.0
 40
0.0463215016
 40
0.0921786738
 40
0.138476678
 40
0.1860191469
 40
0.287216449
 40
0.342028355
 40
0.4000569828
 40
0.4615564616
 40
0.5267262322
 40
0.6685510197
 40
0.8263843709
 40
1.0
 40
1.0
 40
1.0
 40
1.0
 10
9.1551024316
 20
11.217383622
 30
0.0
 10
9.1553985033
 20
11.2179358172
 30
0.0
 10
9.1560737288
 20
11.2189912459
 30
0.0
 10
9.1573246426
 20
11.2203952459
 30
0.0
 10
9.1587897032
 20
11.2216003095
 30
0.0
 10
9.1610556166
 20
11.2229664792
 30
0.0
 10
9.1636851069
 20
11.2238878304
 30
0.0
 10
9.1665381621
 20
11.2243949031
 30
0.0
 10
9.1688936239
 20
11.2245747652
 30
0.0
 10
9.1713947332
 20
11.2245366559
 30
0.0
 10
9.1750120494
 20
11.2241744611
 30
0.0
 10
9.1798467747
 20
11.2230849833
 30
0.0
 10
9.1858407258
 20
11.2207813085
 30
0.0
 10
9.1897719303
 20
11.2185879343
 30
0.0
 10
9.1917387228
 20
11.2173047211
 30
0.0
  0
SPLINE
  5
459
100
AcDbEntity
  8
0
100
AcDbSpline
 62
9
  6
CONTINUOUS
 70
0
 71
3
 72
18
 73
14
 74
0
 42
0.0000001
 43
0.0000001
 44
0.0000000001
 40
0.0
 40
0.0
 40
0.0
 40
0.0
 40
0.0352826001
 40
0.0696732369
 40
0.1047549384
 40
0.1420171708
 40
0.1826999344
 40
0.2277399198
 40
0.3332926836
 40
0.4621876099
 40
0.6159460772
 40
0.7951932286
 40
1.0
 40
1.0
 40
1.0
 40
1.0
 10
9.334774462
 20
10.9826667058
 30
0.0
 10
9.3347994485
 20
10.9827132475
 30
0.0
 10
9.334857856
 20
10.9828007462
 30
0.0
 10
9.3349720545
 20
10.9829100488
 30
0.0
 10
9.3351098378
 20
10.9829933603
 30
0.0
 10
9.3352701154
 20
10.9830506023
 30
0.0
 10
9.3354522396
 20
10.9830823206
 30
0.0
 10
9.3357392065
 20
10.9830915712
 30
0.0
 10
9.3361561368
 20
10.983031681
 30
0.0
 10
9.3367146467
 20
10.9828670801
 30
0.0
 10
9.3373560477
 20
10.9826061129
 30
0.0
 10
9.3380782867
 20
10.982249043
 30
0.0
 10
9.3385790567
 20
10.9819658933
 30
0.0
 10
9.3388427989
 20
10.9818094812
 30
0.0
  0
SPLINE
  5
45A
100
AcDbEntity
  8
0
100
AcDbSpline
 62
9
  6
CONTINUOUS
 70
0
 71
3
 72
24
 73
20
 74
0
 42
0.0000001
 43
0.0000001
 44
0.0000000001
 40
0.0
 40
0.0
 40
0.0
 40
0.0
 40
0.0324506863
 40
0.0648478336
 40
0.0971354788
 40
0.1292790003
 40
0.1612546255
 40
0.1930554344
 40
0.2246799751
 40
0.2561435896
 40
0.2874625503
 40
0.3186549635
 40
0.3807173548
 40
0.4425077939
 40
0.5041524781
 40
0.6273328582
 40
0.7508732392
 40
0.8750543447
 40
1.0
 40
1.0
 40
1.0
 40
1.0
 10
14.6244515373
 20
5.3433283898
 30
0.0
 10
14.6244531386
 20
5.344625548
 30
0.0
 10
14.6243295378
 20
5.3472191845
 30
0.0
 10
14.6238032797
 20
5.3510707899
 30
0.0
 10
14.6229469474
 20
5.3548504738
 30
0.0
 10
14.6217759937
 20
5.3585267095
 30
0.0
 10
14.6203176532
 20
5.3620769402
 30
0.0
 10
14.6186094735
 20
5.3654901863
 30
0.0
 10
14.6166723027
 20
5.3687548123
 30
0.0
 10
14.6145328553
 20
5.371866529
 30
0.0
 10
14.6122222948
 20
5.37483105
 30
0.0
 10
14.6089441665
 20
5.378582407
 30
0.0
 10
14.6045023311
 20
5.3829200155
 30
0.0
 10
14.5987556099
 20
5.3876182198
 30
0.0
 10
14.5906653114
 20
5.3932645276
 30
0.0
 10
14.5798851898
 20
5.3993046707
 30
0.0
 10
14.5662813818
 20
5.4052424923
 30
0.0
 10
14.5521977711
 20
5.4101325521
 30
0.0
 10
14.5426015341
 20
5.4128152105
 30
0.0
 10
14.5377593206
 20
5.4140390679
 30
0.0
  0
SPLINE
  5
45B
100
AcDbEntity
  8
0
100
AcDbSpline
 62
9
  6
CONTINUOUS
 70
0
 71
3
 72
18
 73
14
 74
0
 42
0.0000001
 43
0.0000001
 44
0.0000000001
 40
0.0
 40
0.0
 40
0.0
 40
0.0
 40
0.204823817
 40
0.3840832235
 40
0.5378505264
 40
0.6667501133
 40
0.77229226
 40
0.8173213144
 40
0.8579928807
 40
0.8952486496
 40
0.930329296
 40
0.9647204861
 40
1.0
 40
1.0
 40
1.0
 40
1.0
 10
8.8184768451
 20
11.6019590216
 30
0.0
 10
8.8185852197
 20
11.6016719106
 30
0.0
 10
8.8187773925
 20
11.6011291891
 30
0.0
 10
8.8190039925
 20
11.6003553517
 30
0.0
 10
8.8191497421
 20
11.5996778434
 30
0.0
 10
8.8192148837
 20
11.5990988124
 30
0.0
 10
8.8192016074
 20
11.5986775373
 30
0.0
 10
8.819142754
 20
11.5983963535
 30
0.0
 10
8.8190799124
 20
11.5982223965
 30
0.0
 10
8.8189956611
 20
11.598074407
 30
0.0
 10
8.8188896001
 20
11.5979531184
 30
0.0
 10
8.818762022
 20
11.5978595932
 30
0.0
 10
8.8186656354
 20
11.5978172552
 30
0.0
 10
8.8186154259
 20
11.5978007309
 30
0.0
  0
SPLINE
  5
45C
100
AcDbEntity
  8
0
100
AcDbSpline
 62
9
  6
CONTINUOUS
 70
0
 71
3
 72
19
 73
15
 74
0
 42
0.0000001
 43
0.0000001
 44
0.0000000001
 40
0.0
 40
0.0
 40
0.0
 40
0.0
 40
0.1736155903
 40
0.3314488423
 40
0.4732735429
 40
0.5384433248
 40
0.599942714
 40
0.6579712637
 40
0.7127832004
 40
0.8139806076
 40
0.8615232429
 40
0.9078216672
 40
0.9536790629
 40
1.0
 40
1.0
 40
1.0
 40
1.0
 10
8.8384426958
 20
11.6383465317
 30
0.0
 10
8.8393648806
 20
11.6361867903
 30
0.0
 10
8.840842298
 20
11.6319344391
 30
0.0
 10
8.8420701138
 20
11.6256315198
 30
0.0
 10
8.8423035198
 20
11.6206810604
 30
0.0
 10
8.8420320458
 20
11.617055809
 30
0.0
 10
8.8416352845
 20
11.6145860787
 30
0.0
 10
8.8410491421
 20
11.612297633
 30
0.0
 10
8.8400543378
 20
11.6095759758
 30
0.0
 10
8.8386903762
 20
11.6071464205
 30
0.0
 10
8.8369514799
 20
11.6051521596
 30
0.0
 10
8.8355103046
 20
11.6039186131
 30
0.0
 10
8.8339104155
 20
11.6029305046
 30
0.0
 10
8.8327537763
 20
11.6024488058
 30
0.0
 10
8.8321585652
 20
11.6022531215
 30
0.0
  0
SPLINE
  5
45D
100
AcDbEntity
  8
0
100
AcDbSpline
 62
9
  6
CONTINUOUS
 70
0
 71
3
 72
19
 73
15
 74
0
 42
0.0000001
 43
0.0000001
 44
0.0000000001
 40
0.0
 40
0.0
 40
0.0
 40
0.0
 40
0.0463215016
 40
0.0921786738
 40
0.138476678
 40
0.1860191469
 40
0.287216449
 40
0.342028355
 40
0.4000569828
 40
0.4615564616
 40
0.5267262322
 40
0.6685510197
 40
0.8263843709
 40
1.0
 40
1.0
 40
1.0
 40
1.0
 10
8.9686940248
 20
11.4395365105
 30
0.0
 10
8.9689900964
 20
11.4400887057
 30
0.0
 10
8.969665322
 20
11.4411441344
 30
0.0
 10
8.9709162358
 20
11.4425481344
 30
0.0
 10
8.9723812964
 20
11.443753198
 30
0.0
 10
8.9746472098
 20
11.4451193678
 30
0.0
 10
8.9772767001
 20
11.4460407189
 30
0.0
 10
8.9801297553
 20
11.4465477916
 30
0.0
 10
8.9824852171
 20
11.4467276537
 30
0.0
 10
8.9849863263
 20
11.4466895444
 30
0.0
 10
8.9886036425
 20
11.4463273496
 30
0.0
 10
8.9934383679
 20
11.4452378719
 30
0.0
 10
8.999432319
 20
11.442934197
 30
0.0
 10
9.0033635235
 20
11.4407408228
 30
0.0
 10
9.005330316
 20
11.4394576096
 30
0.0
  0
SPLINE
  5
45E
100
AcDbEntity
  8
0
100
AcDbSpline
 62
7
  6
CONTINUOUS
 70
0
 71
3
 72
15
 73
11
 74
0
 42
0.0000001
 43
0.0000001
 44
0.0000000001
 40
0.0
 40
0.0
 40
0.0
 40
0.0
 40
0.2540157364
 40
0.3804895253
 40
0.5063288881
 40
0.6313523037
 40
0.7553801058
 40
0.8169824512
 40
0.8783011395
 40
1.0
 40
1.0
 40
1.0
 40
1.0
 10
8.8292763754
 20
11.6504769996
 30
0.0
 10
8.8284486611
 20
11.6514634244
 30
0.0
 10
8.8271773162
 20
11.6529148754
 30
0.0
 10
8.8254319572
 20
11.6547969673
 30
0.0
 10
8.8241095139
 20
11.6561791326
 30
0.0
 10
8.8227806685
 20
11.6575377786
 30
0.0
 10
8.8216750931
 20
11.6586592448
 30
0.0
 10
8.8208021609
 20
11.6595565979
 30
0.0
 10
8.8199444595
 20
11.6604520722
 30
0.0
 10
8.8193185313
 20
11.661137835
 30
0.0
 10
8.8189219701
 20
11.6616104279
 30
0.0
  0
SPLINE
  5
45F
100
AcDbEntity
  8
0
100
AcDbSpline
 62
7
  6
CONTINUOUS
 70
0
 71
3
 72
15
 73
11
 74
0
 42
0.0000001
 43
0.0000001
 44
0.0000000001
 40
0.0
 40
0.0
 40
0.0
 40
0.0
 40
0.1216988159
 40
0.1830174812
 40
0.2446198087
 40
0.368647596
 40
0.4936710063
 40
0.6195103724
 40
0.7459841895
 40
1.0
 40
1.0
 40
1.0
 40
1.0
 10
8.8384427061
 20
11.6383465196
 30
0.0
 10
8.8380461555
 20
11.6388191267
 30
0.0
 10
8.8374794952
 20
11.639554629
 30
0.0
 10
8.8367465548
 20
11.6405548015
 30
0.0
 10
8.8360144124
 20
11.6415703023
 30
0.0
 10
8.8351019598
 20
11.6428538317
 30
0.0
 10
8.8339946986
 20
11.6443984261
 30
0.0
 10
8.8328631625
 20
11.6459407992
 30
0.0
 10
8.831312732
 20
11.6479864796
 30
0.0
 10
8.8301040966
 20
11.6494905684
 30
0.0
 10
8.8292763762
 20
11.6504770003
 30
0.0
  0
SPLINE
  5
460
100
AcDbEntity
  8
0
100
AcDbSpline
 62
9
  6
CONTINUOUS
 70
0
 71
3
 72
18
 73
14
 74
0
 42
0.0000001
 43
0.0000001
 44
0.0000000001
 40
0.0
 40
0.0
 40
0.0
 40
0.0
 40
0.0352826001
 40
0.0696732369
 40
0.1047549384
 40
0.1420171708
 40
0.1826999344
 40
0.2277399198
 40
0.3332926836
 40
0.4621876099
 40
0.6159460772
 40
0.7951932286
 40
1.0
 40
1.0
 40
1.0
 40
1.0
 10
9.1483660552
 20
11.2048195944
 30
0.0
 10
9.1483910417
 20
11.204866136
 30
0.0
 10
9.1484494491
 20
11.2049536347
 30
0.0
 10
9.1485636477
 20
11.2050629373
 30
0.0
 10
9.148701431
 20
11.2051462488
 30
0.0
 10
9.1488617086
 20
11.2052034908
 30
0.0
 10
9.1490438328
 20
11.2052352091
 30
0.0
 10
9.1493307997
 20
11.2052444597
 30
0.0
 10
9.14974773
 20
11.2051845695
 30
0.0
 10
9.1503062399
 20
11.2050199686
 30
0.0
 10
9.1509476409
 20
11.2047590014
 30
0.0
 10
9.1516698799
 20
11.2044019315
 30
0.0
 10
9.1521706499
 20
11.2041187818
 30
0.0
 10
9.1524343921
 20
11.2039623697
 30
0.0
  0
SPLINE
  5
461
100
AcDbEntity
  8
0
100
AcDbSpline
 62
7
  6
CONTINUOUS
 70
0
 71
3
 72
33
 73
29
 74
0
 42
0.0000001
 43
0.0000001
 44
0.0000000001
 40
0.0
 40
0.0
 40
0.0
 40
0.0
 40
0.0078137064
 40
0.0156295429
 40
0.0234451246
 40
0.0312620467
 40
0.0468782417
 40
0.0625013019
 40
0.0781262864
 40
0.0937519001
 40
0.1093777434
 40
0.1250036921
 40
0.1562509749
 40
0.1875000177
 40
0.2187497487
 40
0.2499998098
 40
0.2812500252
 40
0.3125003089
 40
0.3437506383
 40
0.3750009955
 40
0.4375002438
 40
0.4999999862
 40
0.5624999396
 40
0.6249999697
 40
0.6875000188
 40
0.7500000634
 40
0.8750000043
 40
1.0
 40
1.0
 40
1.0
 40
1.0
 10
13.698759531
 20
6.4550126924
 30
0.0
 10
13.6985175761
 20
6.455301043
 30
0.0
 10
13.6980908065
 20
6.4559284651
 30
0.0
 10
13.6976426411
 20
6.4569714521
 30
0.0
 10
13.6973727923
 20
6.4580728598
 30
0.0
 10
13.6972168479
 20
6.4595737347
 30
0.0
 10
13.6973327388
 20
6.461463471
 30
0.0
 10
13.6977969014
 20
6.4636775235
 30
0.0
 10
13.6984843897
 20
6.4658315742
 30
0.0
 10
13.6993332533
 20
6.4679258819
 30
0.0
 10
13.7003041449
 20
6.4699659548
 30
0.0
 10
13.7017264294
 20
6.4726206238
 30
0.0
 10
13.7036964758
 20
6.4758309763
 30
0.0
 10
13.7062729276
 20
6.4795419794
 30
0.0
 10
13.7090084777
 20
6.4831369223
 30
0.0
 10
13.7118673734
 20
6.4866340739
 30
0.0
 10
13.7148250678
 20
6.4900478303
 30
0.0
 10
13.7178636009
 20
6.4933896474
 30
0.0
 10
13.7209693795
 20
6.4966689456
 30
0.0
 10
13.7251859201
 20
6.5009683238
 30
0.0
 10
13.7305763727
 20
6.5062233189
 30
0.0
 10
13.7371844661
 20
6.5123819472
 30
0.0
 10
13.7438957547
 20
6.5184277332
 30
0.0
 10
13.7506823586
 20
6.5243886267
 30
0.0
 10
13.757522583
 20
6.5302877955
 30
0.0
 10
13.7666917745
 20
6.538096197
 30
0.0
 10
13.7782097107
 20
6.5477900265
 30
0.0
 10
13.7874367581
 20
6.5555298688
 30
0.0
 10
13.7920496554
 20
6.5594005493
 30
0.0
  0
SPLINE
  5
462
100
AcDbEntity
  8
0
100
AcDbSpline
 62
9
  6
CONTINUOUS
 70
0
 71
3
 72
19
 73
15
 74
0
 42
0.0000001
 43
0.0000001
 44
0.0000000001
 40
0.0
 40
0.0
 40
0.0
 40
0.0
 40
0.0463214999
 40
0.0921786705
 40
0.1384766732
 40
0.1860191409
 40
0.2872164413
 40
0.342028347
 40
0.4000569747
 40
0.4615564537
 40
0.5267262248
 40
0.6685510141
 40
0.826384368
 40
1.0
 40
1.0
 40
1.0
 40
1.0
 10
8.782285618
 20
11.661689399
 30
0.0
 10
8.7825816897
 20
11.6622415943
 30
0.0
 10
8.7832569153
 20
11.6632970231
 30
0.0
 10
8.7845078292
 20
11.6647010231
 30
0.0
 10
8.78597289
 20
11.6659060867
 30
0.0
 10
8.7882388037
 20
11.6672722566
 30
0.0
 10
8.7908682942
 20
11.6681936076
 30
0.0
 10
8.7937213497
 20
11.6687006802
 30
0.0
 10
8.7960768119
 20
11.6688805423
 30
0.0
 10
8.7985779214
 20
11.6688424328
 30
0.0
 10
8.802195238
 20
11.6684802377
 30
0.0
 10
8.8070299639
 20
11.6673907595
 30
0.0
 10
8.8130239156
 20
11.665087084
 30
0.0
 10
8.8169551203
 20
11.6628937089
 30
0.0
 10
8.8189219131
 20
11.6616104956
 30
0.0
  0
SPLINE
  5
463
100
AcDbEntity
  8
0
100
AcDbSpline
 62
9
  6
CONTINUOUS
 70
0
 71
3
 72
18
 73
14
 74
0
 42
0.0000001
 43
0.0000001
 44
0.0000000001
 40
0.0
 40
0.0
 40
0.0
 40
0.0
 40
0.204823817
 40
0.3840832235
 40
0.5378505264
 40
0.6667501133
 40
0.77229226
 40
0.8173213144
 40
0.8579928807
 40
0.8952486496
 40
0.930329296
 40
0.9647204861
 40
1.0
 40
1.0
 40
1.0
 40
1.0
 10
9.004885252
 20
11.3798061331
 30
0.0
 10
9.0049936265
 20
11.3795190221
 30
0.0
 10
9.0051857993
 20
11.3789763006
 30
0.0
 10
9.0054123993
 20
11.3782024632
 30
0.0
 10
9.0055581489
 20
11.3775249549
 30
0.0
 10
9.0056232905
 20
11.3769459239
 30
0.0
 10
9.0056100142
 20
11.3765246488
 30
0.0
 10
9.0055511608
 20
11.376243465
 30
0.0
 10
9.0054883192
 20
11.376069508
 30
0.0
 10
9.0054040679
 20
11.3759215185
 30
0.0
 10
9.0052980069
 20
11.3758002299
 30
0.0
 10
9.0051704288
 20
11.3757067047
 30
0.0
 10
9.0050740422
 20
11.3756643667
 30
0.0
 10
9.0050238327
 20
11.3756478424
 30
0.0
  0
SPLINE
  5
464
100
AcDbEntity
  8
0
100
AcDbSpline
 62
9
  6
CONTINUOUS
 70
0
 71
3
 72
19
 73
15
 74
0
 42
0.0000001
 43
0.0000001
 44
0.0000000001
 40
0.0
 40
0.0
 40
0.0
 40
0.0
 40
0.1736155891
 40
0.33144884
 40
0.4732735398
 40
0.5384433215
 40
0.5999427106
 40
0.6579712604
 40
0.7127831973
 40
0.8139806051
 40
0.8615232409
 40
0.9078216659
 40
0.9536790622
 40
1.0
 40
1.0
 40
1.0
 40
1.0
 10
9.0248511034
 20
11.4161936414
 30
0.0
 10
9.0257732881
 20
11.4140339002
 30
0.0
 10
9.0272507052
 20
11.4097815491
 30
0.0
 10
9.0284785207
 20
11.4034786301
 30
0.0
 10
9.0287119266
 20
11.398528171
 30
0.0
 10
9.0284404525
 20
11.3949029197
 30
0.0
 10
9.0280436912
 20
11.3924331896
 30
0.0
 10
9.0274575487
 20
11.3901447439
 30
0.0
 10
9.0264627444
 20
11.3874230869
 30
0.0
 10
9.0250987829
 20
11.3849935318
 30
0.0
 10
9.0233598865
 20
11.382999271
 30
0.0
 10
9.0219187113
 20
11.3817657245
 30
0.0
 10
9.0203188223
 20
11.380777616
 30
0.0
 10
9.019162183
 20
11.3802959173
 30
0.0
 10
9.018566972
 20
11.380100233
 30
0.0
  0
SPLINE
  5
465
100
AcDbEntity
  8
0
100
AcDbSpline
 62
9
  6
CONTINUOUS
 70
0
 71
3
 72
27
 73
23
 74
0
 42
0.0000001
 43
0.0000001
 44
0.0000000001
 40
0.0
 40
0.0
 40
0.0
 40
0.0
 40
0.0793793912
 40
0.1479445245
 40
0.2058137329
 40
0.2534706532
 40
0.2738215744
 40
0.2921393746
 40
0.3087757845
 40
0.3242099381
 40
0.3390471135
 40
0.3539744145
 40
0.3865783146
 40
0.4054314911
 40
0.4264299525
 40
0.4757189511
 40
0.5356340489
 40
0.6065942156
 40
0.6887281902
 40
0.7819371882
 40
0.8858479237
 40
1.0
 40
1.0
 40
1.0
 40
1.0
 10
10.1161087123
 20
10.0494813833
 30
0.0
 10
10.1162274199
 20
10.0491394202
 30
0.0
 10
10.1164322112
 20
10.0484961057
 30
0.0
 10
10.116652752
 20
10.0475826936
 30
0.0
 10
10.1167648986
 20
10.0467954709
 30
0.0
 10
10.1167693157
 20
10.0462182468
 30
0.0
 10
10.1167091885
 20
10.0458283406
 30
0.0
 10
10.1166387241
 20
10.045585293
 30
0.0
 10
10.1165402191
 20
10.0453764199
 30
0.0
 10
10.1164130838
 20
10.0452025342
 30
0.0
 10
10.1162571197
 20
10.0450651499
 30
0.0
 10
10.1160050917
 20
10.0449285309
 30
0.0
 10
10.1156986337
 20
10.0448765457
 30
0.0
 10
10.1153684495
 20
10.0448932839
 30
0.0
 10
10.1149669232
 20
10.0449630101
 30
0.0
 10
10.1144015726
 20
10.0451535898
 30
0.0
 10
10.1136609951
 20
10.0455120259
 30
0.0
 10
10.1128264746
 20
10.0460110346
 30
0.0
 10
10.11190136
 20
10.0466489475
 30
0.0
 10
10.1108897064
 20
10.0474230498
 30
0.0
 10
10.1097962266
 20
10.0483285176
 30
0.0
 10
10.1090503097
 20
10.0489863474
 30
0.0
 10
10.1086641836
 20
10.049335458
 30
0.0
  0
SPLINE
  5
466
100
AcDbEntity
  8
0
100
AcDbSpline
 62
9
  6
CONTINUOUS
 70
0
 71
3
 72
12
 73
8
 74
0
 42
0.0000001
 43
0.0000001
 44
0.0000000001
 40
0.0
 40
0.0
 40
0.0
 40
0.0
 40
0.1038548967
 40
0.2157819706
 40
0.4601935038
 40
0.7248614568
 40
1.0
 40
1.0
 40
1.0
 40
1.0
 10
10.1084529296
 20
10.0495273261
 30
0.0
 10
10.1079753117
 20
10.049963049
 30
0.0
 10
10.1069961574
 20
10.0508828882
 30
0.0
 10
10.1049538573
 20
10.0528920845
 30
0.0
 10
10.1022792481
 20
10.0556845482
 30
0.0
 10
10.0990066923
 20
10.0593077392
 30
0.0
 10
10.0968163687
 20
10.0618566827
 30
0.0
 10
10.0957154042
 20
10.0631687242
 30
0.0
  0
SPLINE
  5
467
100
AcDbEntity
  8
0
100
AcDbSpline
 62
9
  6
CONTINUOUS
 70
0
 71
3
 72
11
 73
7
 74
0
 42
0.0000001
 43
0.0000001
 44
0.0000000001
 40
0.0
 40
0.0
 40
0.0
 40
0.0
 40
0.2751245655
 40
0.539798729
 40
0.7842317564
 40
1.0
 40
1.0
 40
1.0
 40
1.0
 10
10.0957154042
 20
10.0631687242
 30
0.0
 10
10.0946149313
 20
10.0644802785
 30
0.0
 10
10.0924859341
 20
10.0670790362
 30
0.0
 10
10.0894867377
 20
10.0709296374
 30
0.0
 10
10.0868202685
 20
10.0745688094
 30
0.0
 10
10.0852156208
 20
10.0769423501
 30
0.0
 10
10.0844965991
 20
10.0780763149
 30
0.0
  0
SPLINE
  5
468
100
AcDbEntity
  8
0
100
AcDbSpline
 62
9
  6
CONTINUOUS
 70
0
 71
3
 72
26
 73
22
 74
0
 42
0.0000001
 43
0.0000001
 44
0.0000000001
 40
0.0
 40
0.0
 40
0.0
 40
0.0
 40
0.1143446881
 40
0.2184283334
 40
0.3117671145
 40
0.3941002947
 40
0.465259025
 40
0.5252993413
 40
0.5747103553
 40
0.5957691619
 40
0.6146691682
 40
0.6472997281
 40
0.6622045014
 40
0.6769975764
 40
0.7087855364
 40
0.7270152318
 40
0.7472687348
 40
0.7947294644
 40
0.852435259
 40
0.9208262308
 40
1.0
 40
1.0
 40
1.0
 40
1.0
 10
10.0843798715
 20
10.078261088
 30
0.0
 10
10.0841006125
 20
10.0787047998
 30
0.0
 10
10.0835774142
 20
10.0795589548
 30
0.0
 10
10.0828687832
 20
10.0808007263
 30
0.0
 10
10.0822763369
 20
10.0819388632
 30
0.0
 10
10.081803122
 20
10.0829675042
 30
0.0
 10
10.0814513802
 20
10.083882251
 30
0.0
 10
10.0812231702
 20
10.084679537
 30
0.0
 10
10.081130858
 20
10.0852736233
 30
0.0
 10
10.0811297067
 20
10.0856844223
 30
0.0
 10
10.0811687567
 20
10.0860151343
 30
0.0
 10
10.0812715777
 20
10.0863105098
 30
0.0
 10
10.0814491618
 20
10.086537338
 30
0.0
 10
10.0816699763
 20
10.0867163201
 30
0.0
 10
10.081958012
 20
10.0868190269
 30
0.0
 10
10.0822785642
 20
10.0868543474
 30
0.0
 10
10.0826736604
 20
10.0868470324
 30
0.0
 10
10.0832424266
 20
10.0867428676
 30
0.0
 10
10.0840000591
 20
10.086495089
 30
0.0
 10
10.0848637052
 20
10.0861182641
 30
0.0
 10
10.0854634795
 20
10.0858040903
 30
0.0
 10
10.0857805259
 20
10.0856272793
 30
0.0
  0
SPLINE
  5
469
100
AcDbEntity
  8
0
100
AcDbSpline
 62
9
  6
CONTINUOUS
 70
0
 71
3
 72
27
 73
23
 74
0
 42
0.0000001
 43
0.0000001
 44
0.0000000001
 40
0.0
 40
0.0
 40
0.0
 40
0.0
 40
0.0793793912
 40
0.1479445245
 40
0.2058137329
 40
0.2534706532
 40
0.2738215744
 40
0.2921393746
 40
0.3087757845
 40
0.3242099381
 40
0.3390471135
 40
0.3539744145
 40
0.3865783146
 40
0.4054314911
 40
0.4264299525
 40
0.4757189511
 40
0.5356340489
 40
0.6065942156
 40
0.6887281902
 40
0.7819371882
 40
0.8858479237
 40
1.0
 40
1.0
 40
1.0
 40
1.0
 10
9.9297003055
 20
10.2716342718
 30
0.0
 10
9.9298190131
 20
10.2712923087
 30
0.0
 10
9.9300238044
 20
10.2706489942
 30
0.0
 10
9.9302443451
 20
10.2697355821
 30
0.0
 10
9.9303564918
 20
10.2689483594
 30
0.0
 10
9.9303609088
 20
10.2683711353
 30
0.0
 10
9.9303007817
 20
10.2679812291
 30
0.0
 10
9.9302303173
 20
10.2677381815
 30
0.0
 10
9.9301318123
 20
10.2675293084
 30
0.0
 10
9.930004677
 20
10.2673554227
 30
0.0
 10
9.9298487129
 20
10.2672180384
 30
0.0
 10
9.9295966849
 20
10.2670814194
 30
0.0
 10
9.9292902269
 20
10.2670294342
 30
0.0
 10
9.9289600427
 20
10.2670461724
 30
0.0
 10
9.9285585164
 20
10.2671158986
 30
0.0
 10
9.9279931658
 20
10.2673064783
 30
0.0
 10
9.9272525883
 20
10.2676649144
 30
0.0
 10
9.9264180678
 20
10.2681639231
 30
0.0
 10
9.9254929531
 20
10.268801836
 30
0.0
 10
9.9244812996
 20
10.2695759383
 30
0.0
 10
9.9233878198
 20
10.2704814061
 30
0.0
 10
9.9226419028
 20
10.2711392359
 30
0.0
 10
9.9222557768
 20
10.2714883465
 30
0.0
  0
SPLINE
  5
46A
100
AcDbEntity
  8
0
100
AcDbSpline
 62
9
  6
CONTINUOUS
 70
0
 71
3
 72
12
 73
8
 74
0
 42
0.0000001
 43
0.0000001
 44
0.0000000001
 40
0.0
 40
0.0
 40
0.0
 40
0.0
 40
0.1038548967
 40
0.2157819706
 40
0.4601935038
 40
0.7248614568
 40
1.0
 40
1.0
 40
1.0
 40
1.0
 10
9.9220445228
 20
10.2716802146
 30
0.0
 10
9.9215669049
 20
10.2721159375
 30
0.0
 10
9.9205877506
 20
10.2730357767
 30
0.0
 10
9.9185454505
 20
10.275044973
 30
0.0
 10
9.9158708413
 20
10.2778374367
 30
0.0
 10
9.9125982855
 20
10.2814606277
 30
0.0
 10
9.9104079619
 20
10.2840095712
 30
0.0
 10
9.9093069974
 20
10.2853216127
 30
0.0
  0
SPLINE
  5
46B
100
AcDbEntity
  8
0
100
AcDbSpline
 62
9
  6
CONTINUOUS
 70
0
 71
3
 72
11
 73
7
 74
0
 42
0.0000001
 43
0.0000001
 44
0.0000000001
 40
0.0
 40
0.0
 40
0.0
 40
0.0
 40
0.2751245655
 40
0.539798729
 40
0.7842317564
 40
1.0
 40
1.0
 40
1.0
 40
1.0
 10
9.9093069974
 20
10.2853216127
 30
0.0
 10
9.9082065245
 20
10.286633167
 30
0.0
 10
9.9060775273
 20
10.2892319247
 30
0.0
 10
9.9030783309
 20
10.2930825259
 30
0.0
 10
9.9004118617
 20
10.2967216979
 30
0.0
 10
9.8988072139
 20
10.2990952386
 30
0.0
 10
9.8980881923
 20
10.3002292034
 30
0.0
  0
SPLINE
  5
46C
100
AcDbEntity
  8
0
100
AcDbSpline
 62
9
  6
CONTINUOUS
 70
0
 71
3
 72
26
 73
22
 74
0
 42
0.0000001
 43
0.0000001
 44
0.0000000001
 40
0.0
 40
0.0
 40
0.0
 40
0.0
 40
0.1143446881
 40
0.2184283334
 40
0.3117671145
 40
0.3941002947
 40
0.465259025
 40
0.5252993413
 40
0.5747103553
 40
0.5957691619
 40
0.6146691682
 40
0.6472997281
 40
0.6622045014
 40
0.6769975764
 40
0.7087855364
 40
0.7270152318
 40
0.7472687348
 40
0.7947294644
 40
0.852435259
 40
0.9208262308
 40
1.0
 40
1.0
 40
1.0
 40
1.0
 10
9.8979714647
 20
10.3004139765
 30
0.0
 10
9.8976922057
 20
10.3008576883
 30
0.0
 10
9.8971690074
 20
10.3017118433
 30
0.0
 10
9.8964603764
 20
10.3029536148
 30
0.0
 10
9.8958679301
 20
10.3040917517
 30
0.0
 10
9.8953947152
 20
10.3051203927
 30
0.0
 10
9.8950429734
 20
10.3060351395
 30
0.0
 10
9.8948147633
 20
10.3068324255
 30
0.0
 10
9.8947224512
 20
10.3074265118
 30
0.0
 10
9.8947212999
 20
10.3078373108
 30
0.0
 10
9.8947603499
 20
10.3081680228
 30
0.0
 10
9.8948631709
 20
10.3084633983
 30
0.0
 10
9.895040755
 20
10.3086902265
 30
0.0
 10
9.8952615695
 20
10.3088692086
 30
0.0
 10
9.8955496052
 20
10.3089719154
 30
0.0
 10
9.8958701574
 20
10.3090072359
 30
0.0
 10
9.8962652536
 20
10.308999921
 30
0.0
 10
9.8968340198
 20
10.3088957561
 30
0.0
 10
9.8975916523
 20
10.3086479775
 30
0.0
 10
9.8984552984
 20
10.3082711526
 30
0.0
 10
9.8990550727
 20
10.3079569788
 30
0.0
 10
9.8993721191
 20
10.3077801678
 30
0.0
  0
SPLINE
  5
46D
100
AcDbEntity
  8
0
100
AcDbSpline
 62
9
  6
CONTINUOUS
 70
0
 71
3
 72
27
 73
23
 74
0
 42
0.0000001
 43
0.0000001
 44
0.0000000001
 40
0.0
 40
0.0
 40
0.0
 40
0.0
 40
0.0793793912
 40
0.1479445245
 40
0.2058137329
 40
0.2534706532
 40
0.2738215744
 40
0.2921393746
 40
0.3087757845
 40
0.3242099381
 40
0.3390471135
 40
0.3539744145
 40
0.3865783146
 40
0.4054314911
 40
0.4264299525
 40
0.4757189511
 40
0.5356340489
 40
0.6065942156
 40
0.6887281902
 40
0.7819371882
 40
0.8858479237
 40
1.0
 40
1.0
 40
1.0
 40
1.0
 10
9.7432918987
 20
10.4937871603
 30
0.0
 10
9.7434106063
 20
10.4934451972
 30
0.0
 10
9.7436153976
 20
10.4928018827
 30
0.0
 10
9.7438359383
 20
10.4918884706
 30
0.0
 10
9.743948085
 20
10.4911012479
 30
0.0
 10
9.743952502
 20
10.4905240238
 30
0.0
 10
9.7438923749
 20
10.4901341176
 30
0.0
 10
9.7438219105
 20
10.48989107
 30
0.0
 10
9.7437234055
 20
10.4896821969
 30
0.0
 10
9.7435962702
 20
10.4895083112
 30
0.0
 10
9.7434403061
 20
10.4893709269
 30
0.0
 10
9.7431882781
 20
10.4892343079
 30
0.0
 10
9.7428818201
 20
10.4891823227
 30
0.0
 10
9.7425516359
 20
10.4891990609
 30
0.0
 10
9.7421501096
 20
10.4892687871
 30
0.0
 10
9.741584759
 20
10.4894593668
 30
0.0
 10
9.7408441814
 20
10.4898178029
 30
0.0
 10
9.740009661
 20
10.4903168116
 30
0.0
 10
9.7390845463
 20
10.4909547245
 30
0.0
 10
9.7380728928
 20
10.4917288268
 30
0.0
 10
9.7369794129
 20
10.4926342946
 30
0.0
 10
9.736233496
 20
10.4932921244
 30
0.0
 10
9.73584737
 20
10.493641235
 30
0.0
  0
SPLINE
  5
46E
100
AcDbEntity
  8
0
100
AcDbSpline
 62
9
  6
CONTINUOUS
 70
0
 71
3
 72
12
 73
8
 74
0
 42
0.0000001
 43
0.0000001
 44
0.0000000001
 40
0.0
 40
0.0
 40
0.0
 40
0.0
 40
0.1038548967
 40
0.2157819706
 40
0.4601935038
 40
0.7248614568
 40
1.0
 40
1.0
 40
1.0
 40
1.0
 10
9.735636116
 20
10.4938331032
 30
0.0
 10
9.7351584981
 20
10.494268826
 30
0.0
 10
9.7341793438
 20
10.4951886652
 30
0.0
 10
9.7321370437
 20
10.4971978615
 30
0.0
 10
9.7294624344
 20
10.4999903252
 30
0.0
 10
9.7261898787
 20
10.5036135162
 30
0.0
 10
9.7239995551
 20
10.5061624597
 30
0.0
 10
9.7228985906
 20
10.5074745013
 30
0.0
  0
SPLINE
  5
46F
100
AcDbEntity
  8
0
100
AcDbSpline
 62
9
  6
CONTINUOUS
 70
0
 71
3
 72
11
 73
7
 74
0
 42
0.0000001
 43
0.0000001
 44
0.0000000001
 40
0.0
 40
0.0
 40
0.0
 40
0.0
 40
0.2751245655
 40
0.539798729
 40
0.7842317564
 40
1.0
 40
1.0
 40
1.0
 40
1.0
 10
9.7228985906
 20
10.5074745013
 30
0.0
 10
9.7217981176
 20
10.5087860555
 30
0.0
 10
9.7196691205
 20
10.5113848132
 30
0.0
 10
9.7166699241
 20
10.5152354145
 30
0.0
 10
9.7140034549
 20
10.5188745864
 30
0.0
 10
9.7123988071
 20
10.5212481271
 30
0.0
 10
9.7116797855
 20
10.5223820919
 30
0.0
  0
SPLINE
  5
470
100
AcDbEntity
  8
0
100
AcDbSpline
 62
9
  6
CONTINUOUS
 70
0
 71
3
 72
26
 73
22
 74
0
 42
0.0000001
 43
0.0000001
 44
0.0000000001
 40
0.0
 40
0.0
 40
0.0
 40
0.0
 40
0.1143446881
 40
0.2184283334
 40
0.3117671145
 40
0.3941002947
 40
0.465259025
 40
0.5252993413
 40
0.5747103553
 40
0.5957691619
 40
0.6146691682
 40
0.6472997281
 40
0.6622045014
 40
0.6769975764
 40
0.7087855364
 40
0.7270152318
 40
0.7472687348
 40
0.7947294644
 40
0.852435259
 40
0.9208262308
 40
1.0
 40
1.0
 40
1.0
 40
1.0
 10
9.7115630579
 20
10.522566865
 30
0.0
 10
9.7112837989
 20
10.5230105768
 30
0.0
 10
9.7107606006
 20
10.5238647318
 30
0.0
 10
9.7100519696
 20
10.5251065033
 30
0.0
 10
9.7094595233
 20
10.5262446402
 30
0.0
 10
9.7089863084
 20
10.5272732812
 30
0.0
 10
9.7086345666
 20
10.528188028
 30
0.0
 10
9.7084063565
 20
10.528985314
 30
0.0
 10
9.7083140443
 20
10.5295794003
 30
0.0
 10
9.7083128931
 20
10.5299901993
 30
0.0
 10
9.7083519431
 20
10.5303209113
 30
0.0
 10
9.7084547641
 20
10.5306162868
 30
0.0
 10
9.7086323482
 20
10.530843115
 30
0.0
 10
9.7088531627
 20
10.5310220971
 30
0.0
 10
9.7091411984
 20
10.5311248039
 30
0.0
 10
9.7094617506
 20
10.5311601244
 30
0.0
 10
9.7098568468
 20
10.5311528095
 30
0.0
 10
9.710425613
 20
10.5310486446
 30
0.0
 10
9.7111832455
 20
10.530800866
 30
0.0
 10
9.7120468916
 20
10.5304240411
 30
0.0
 10
9.7126466658
 20
10.5301098673
 30
0.0
 10
9.7129637122
 20
10.5299330563
 30
0.0
  0
SPLINE
  5
471
100
AcDbEntity
  8
0
100
AcDbSpline
 62
9
  6
CONTINUOUS
 70
0
 71
3
 72
27
 73
23
 74
0
 42
0.0000001
 43
0.0000001
 44
0.0000000001
 40
0.0
 40
0.0
 40
0.0
 40
0.0
 40
0.0793793912
 40
0.1479445245
 40
0.2058137329
 40
0.2534706532
 40
0.2738215744
 40
0.2921393746
 40
0.3087757845
 40
0.3242099381
 40
0.3390471135
 40
0.3539744145
 40
0.3865783146
 40
0.4054314911
 40
0.4264299525
 40
0.4757189511
 40
0.5356340489
 40
0.6065942156
 40
0.6887281902
 40
0.7819371882
 40
0.8858479237
 40
1.0
 40
1.0
 40
1.0
 40
1.0
 10
9.5568834919
 20
10.7159400488
 30
0.0
 10
9.5570021995
 20
10.7155980857
 30
0.0
 10
9.5572069908
 20
10.7149547713
 30
0.0
 10
9.5574275315
 20
10.7140413591
 30
0.0
 10
9.5575396782
 20
10.7132541364
 30
0.0
 10
9.5575440952
 20
10.7126769123
 30
0.0
 10
9.5574839681
 20
10.7122870061
 30
0.0
 10
9.5574135037
 20
10.7120439585
 30
0.0
 10
9.5573149987
 20
10.7118350854
 30
0.0
 10
9.5571878634
 20
10.7116611997
 30
0.0
 10
9.5570318993
 20
10.7115238154
 30
0.0
 10
9.5567798713
 20
10.7113871964
 30
0.0
 10
9.5564734133
 20
10.7113352112
 30
0.0
 10
9.5561432291
 20
10.7113519494
 30
0.0
 10
9.5557417028
 20
10.7114216756
 30
0.0
 10
9.5551763522
 20
10.7116122553
 30
0.0
 10
9.5544357746
 20
10.7119706914
 30
0.0
 10
9.5536012542
 20
10.7124697001
 30
0.0
 10
9.5526761395
 20
10.713107613
 30
0.0
 10
9.551664486
 20
10.7138817153
 30
0.0
 10
9.5505710061
 20
10.7147871831
 30
0.0
 10
9.5498250892
 20
10.7154450129
 30
0.0
 10
9.5494389632
 20
10.7157941235
 30
0.0
  0
SPLINE
  5
472
100
AcDbEntity
  8
0
100
AcDbSpline
 62
9
  6
CONTINUOUS
 70
0
 71
3
 72
12
 73
8
 74
0
 42
0.0000001
 43
0.0000001
 44
0.0000000001
 40
0.0
 40
0.0
 40
0.0
 40
0.0
 40
0.1038548967
 40
0.2157819706
 40
0.4601935038
 40
0.7248614568
 40
1.0
 40
1.0
 40
1.0
 40
1.0
 10
9.5492277091
 20
10.7159859917
 30
0.0
 10
9.5487500913
 20
10.7164217145
 30
0.0
 10
9.547770937
 20
10.7173415537
 30
0.0
 10
9.5457286369
 20
10.71935075
 30
0.0
 10
9.5430540276
 20
10.7221432137
 30
0.0
 10
9.5397814719
 20
10.7257664047
 30
0.0
 10
9.5375911483
 20
10.7283153483
 30
0.0
 10
9.5364901838
 20
10.7296273898
 30
0.0
  0
SPLINE
  5
473
100
AcDbEntity
  8
0
100
AcDbSpline
 62
9
  6
CONTINUOUS
 70
0
 71
3
 72
11
 73
7
 74
0
 42
0.0000001
 43
0.0000001
 44
0.0000000001
 40
0.0
 40
0.0
 40
0.0
 40
0.0
 40
0.2751245655
 40
0.539798729
 40
0.7842317564
 40
1.0
 40
1.0
 40
1.0
 40
1.0
 10
9.5364901838
 20
10.7296273898
 30
0.0
 10
9.5353897108
 20
10.730938944
 30
0.0
 10
9.5332607137
 20
10.7335377017
 30
0.0
 10
9.5302615173
 20
10.737388303
 30
0.0
 10
9.5275950481
 20
10.7410274749
 30
0.0
 10
9.5259904003
 20
10.7434010156
 30
0.0
 10
9.5252713787
 20
10.7445349804
 30
0.0
  0
SPLINE
  5
474
100
AcDbEntity
  8
0
100
AcDbSpline
 62
9
  6
CONTINUOUS
 70
0
 71
3
 72
26
 73
22
 74
0
 42
0.0000001
 43
0.0000001
 44
0.0000000001
 40
0.0
 40
0.0
 40
0.0
 40
0.0
 40
0.1143446881
 40
0.2184283334
 40
0.3117671145
 40
0.3941002947
 40
0.465259025
 40
0.5252993413
 40
0.5747103553
 40
0.5957691619
 40
0.6146691682
 40
0.6472997281
 40
0.6622045014
 40
0.6769975764
 40
0.7087855364
 40
0.7270152318
 40
0.7472687348
 40
0.7947294644
 40
0.852435259
 40
0.9208262308
 40
1.0
 40
1.0
 40
1.0
 40
1.0
 10
9.5251546511
 20
10.7447197535
 30
0.0
 10
9.5248753921
 20
10.7451634653
 30
0.0
 10
9.5243521938
 20
10.7460176203
 30
0.0
 10
9.5236435628
 20
10.7472593918
 30
0.0
 10
9.5230511165
 20
10.7483975287
 30
0.0
 10
9.5225779016
 20
10.7494261697
 30
0.0
 10
9.5222261598
 20
10.7503409165
 30
0.0
 10
9.5219979497
 20
10.7511382025
 30
0.0
 10
9.5219056375
 20
10.7517322888
 30
0.0
 10
9.5219044863
 20
10.7521430878
 30
0.0
 10
9.5219435362
 20
10.7524737998
 30
0.0
 10
9.5220463573
 20
10.7527691753
 30
0.0
 10
9.5222239414
 20
10.7529960035
 30
0.0
 10
9.5224447559
 20
10.7531749856
 30
0.0
 10
9.5227327915
 20
10.7532776924
 30
0.0
 10
9.5230533438
 20
10.7533130129
 30
0.0
 10
9.52344844
 20
10.753305698
 30
0.0
 10
9.5240172062
 20
10.7532015331
 30
0.0
 10
9.5247748387
 20
10.7529537545
 30
0.0
 10
9.5256384848
 20
10.7525769296
 30
0.0
 10
9.526238259
 20
10.7522627558
 30
0.0
 10
9.5265553054
 20
10.7520859448
 30
0.0
  0
SPLINE
  5
475
100
AcDbEntity
  8
0
100
AcDbSpline
 62
9
  6
CONTINUOUS
 70
0
 71
3
 72
27
 73
23
 74
0
 42
0.0000001
 43
0.0000001
 44
0.0000000001
 40
0.0
 40
0.0
 40
0.0
 40
0.0
 40
0.0793793912
 40
0.1479445245
 40
0.2058137329
 40
0.2534706532
 40
0.2738215744
 40
0.2921393746
 40
0.3087757845
 40
0.3242099381
 40
0.3390471135
 40
0.3539744145
 40
0.3865783146
 40
0.4054314911
 40
0.4264299525
 40
0.4757189511
 40
0.5356340489
 40
0.6065942156
 40
0.6887281902
 40
0.7819371882
 40
0.8858479237
 40
1.0
 40
1.0
 40
1.0
 40
1.0
 10
9.3704750851
 20
10.9380929373
 30
0.0
 10
9.3705937927
 20
10.9377509742
 30
0.0
 10
9.370798584
 20
10.9371076598
 30
0.0
 10
9.3710191247
 20
10.9361942476
 30
0.0
 10
9.3711312713
 20
10.9354070249
 30
0.0
 10
9.3711356884
 20
10.9348298008
 30
0.0
 10
9.3710755613
 20
10.9344398946
 30
0.0
 10
9.3710050968
 20
10.934196847
 30
0.0
 10
9.3709065919
 20
10.9339879739
 30
0.0
 10
9.3707794565
 20
10.9338140882
 30
0.0
 10
9.3706234924
 20
10.9336767039
 30
0.0
 10
9.3703714645
 20
10.933540085
 30
0.0
 10
9.3700650065
 20
10.9334880997
 30
0.0
 10
9.3697348223
 20
10.9335048379
 30
0.0
 10
9.369333296
 20
10.9335745641
 30
0.0
 10
9.3687679453
 20
10.9337651438
 30
0.0
 10
9.3680273678
 20
10.9341235799
 30
0.0
 10
9.3671928474
 20
10.9346225886
 30
0.0
 10
9.3662677327
 20
10.9352605015
 30
0.0
 10
9.3652560792
 20
10.9360346038
 30
0.0
 10
9.3641625993
 20
10.9369400716
 30
0.0
 10
9.3634166824
 20
10.9375979014
 30
0.0
 10
9.3630305563
 20
10.9379470121
 30
0.0
  0
SPLINE
  5
476
100
AcDbEntity
  8
0
100
AcDbSpline
 62
9
  6
CONTINUOUS
 70
0
 71
3
 72
12
 73
8
 74
0
 42
0.0000001
 43
0.0000001
 44
0.0000000001
 40
0.0
 40
0.0
 40
0.0
 40
0.0
 40
0.1038548967
 40
0.2157819706
 40
0.4601935038
 40
0.7248614568
 40
1.0
 40
1.0
 40
1.0
 40
1.0
 10
9.3628193023
 20
10.9381388802
 30
0.0
 10
9.3623416845
 20
10.938574603
 30
0.0
 10
9.3613625302
 20
10.9394944423
 30
0.0
 10
9.3593202301
 20
10.9415036385
 30
0.0
 10
9.3566456208
 20
10.9442961022
 30
0.0
 10
9.3533730651
 20
10.9479192932
 30
0.0
 10
9.3511827415
 20
10.9504682368
 30
0.0
 10
9.3500817769
 20
10.9517802783
 30
0.0
  0
SPLINE
  5
477
100
AcDbEntity
  8
0
100
AcDbSpline
 62
9
  6
CONTINUOUS
 70
0
 71
3
 72
11
 73
7
 74
0
 42
0.0000001
 43
0.0000001
 44
0.0000000001
 40
0.0
 40
0.0
 40
0.0
 40
0.0
 40
0.2751245655
 40
0.539798729
 40
0.7842317564
 40
1.0
 40
1.0
 40
1.0
 40
1.0
 10
9.3500817769
 20
10.9517802783
 30
0.0
 10
9.348981304
 20
10.9530918325
 30
0.0
 10
9.3468523069
 20
10.9556905902
 30
0.0
 10
9.3438531105
 20
10.9595411915
 30
0.0
 10
9.3411866413
 20
10.9631803634
 30
0.0
 10
9.3395819935
 20
10.9655539041
 30
0.0
 10
9.3388629719
 20
10.9666878689
 30
0.0
  0
SPLINE
  5
478
100
AcDbEntity
  8
0
100
AcDbSpline
 62
9
  6
CONTINUOUS
 70
0
 71
3
 72
26
 73
22
 74
0
 42
0.0000001
 43
0.0000001
 44
0.0000000001
 40
0.0
 40
0.0
 40
0.0
 40
0.0
 40
0.1143446881
 40
0.2184283334
 40
0.3117671145
 40
0.3941002947
 40
0.465259025
 40
0.5252993413
 40
0.5747103553
 40
0.5957691619
 40
0.6146691682
 40
0.6472997281
 40
0.6622045014
 40
0.6769975764
 40
0.7087855364
 40
0.7270152318
 40
0.7472687348
 40
0.7947294644
 40
0.852435259
 40
0.9208262308
 40
1.0
 40
1.0
 40
1.0
 40
1.0
 10
9.3387462443
 20
10.966872642
 30
0.0
 10
9.3384669853
 20
10.9673163538
 30
0.0
 10
9.337943787
 20
10.9681705088
 30
0.0
 10
9.3372351559
 20
10.9694122803
 30
0.0
 10
9.3366427097
 20
10.9705504172
 30
0.0
 10
9.3361694948
 20
10.9715790582
 30
0.0
 10
9.335817753
 20
10.972493805
 30
0.0
 10
9.3355895429
 20
10.973291091
 30
0.0
 10
9.3354972307
 20
10.9738851773
 30
0.0
 10
9.3354960795
 20
10.9742959763
 30
0.0
 10
9.3355351294
 20
10.9746266883
 30
0.0
 10
9.3356379504
 20
10.9749220638
 30
0.0
 10
9.3358155345
 20
10.975148892
 30
0.0
 10
9.336036349
 20
10.9753278741
 30
0.0
 10
9.3363243847
 20
10.9754305809
 30
0.0
 10
9.3366449369
 20
10.9754659014
 30
0.0
 10
9.3370400332
 20
10.9754585865
 30
0.0
 10
9.3376087994
 20
10.9753544216
 30
0.0
 10
9.3383664319
 20
10.975106643
 30
0.0
 10
9.339230078
 20
10.9747298181
 30
0.0
 10
9.3398298522
 20
10.9744156443
 30
0.0
 10
9.3401468986
 20
10.9742388333
 30
0.0
  0
SPLINE
  5
479
100
AcDbEntity
  8
0
100
AcDbSpline
 62
9
  6
CONTINUOUS
 70
0
 71
3
 72
27
 73
23
 74
0
 42
0.0000001
 43
0.0000001
 44
0.0000000001
 40
0.0
 40
0.0
 40
0.0
 40
0.0
 40
0.0793793912
 40
0.1479445245
 40
0.2058137329
 40
0.2534706532
 40
0.2738215744
 40
0.2921393746
 40
0.3087757845
 40
0.3242099381
 40
0.3390471135
 40
0.3539744145
 40
0.3865783146
 40
0.4054314911
 40
0.4264299525
 40
0.4757189511
 40
0.5356340489
 40
0.6065942156
 40
0.6887281902
 40
0.7819371882
 40
0.8858479237
 40
1.0
 40
1.0
 40
1.0
 40
1.0
 10
9.1840666783
 20
11.1602458258
 30
0.0
 10
9.1841853858
 20
11.1599038627
 30
0.0
 10
9.1843901772
 20
11.1592605483
 30
0.0
 10
9.1846107179
 20
11.1583471361
 30
0.0
 10
9.1847228645
 20
11.1575599134
 30
0.0
 10
9.1847272816
 20
11.1569826893
 30
0.0
 10
9.1846671545
 20
11.1565927831
 30
0.0
 10
9.18459669
 20
11.1563497356
 30
0.0
 10
9.1844981851
 20
11.1561408624
 30
0.0
 10
9.1843710497
 20
11.1559669767
 30
0.0
 10
9.1842150856
 20
11.1558295924
 30
0.0
 10
9.1839630577
 20
11.1556929735
 30
0.0
 10
9.1836565997
 20
11.1556409882
 30
0.0
 10
9.1833264155
 20
11.1556577264
 30
0.0
 10
9.1829248892
 20
11.1557274526
 30
0.0
 10
9.1823595385
 20
11.1559180323
 30
0.0
 10
9.181618961
 20
11.1562764684
 30
0.0
 10
9.1807844405
 20
11.1567754771
 30
0.0
 10
9.1798593259
 20
11.15741339
 30
0.0
 10
9.1788476723
 20
11.1581874923
 30
0.0
 10
9.1777541925
 20
11.1590929601
 30
0.0
 10
9.1770082756
 20
11.1597507899
 30
0.0
 10
9.1766221495
 20
11.1600999006
 30
0.0
  0
SPLINE
  5
47A
100
AcDbEntity
  8
0
100
AcDbSpline
 62
9
  6
CONTINUOUS
 70
0
 71
3
 72
12
 73
8
 74
0
 42
0.0000001
 43
0.0000001
 44
0.0000000001
 40
0.0
 40
0.0
 40
0.0
 40
0.0
 40
0.1038548967
 40
0.2157819706
 40
0.4601935038
 40
0.7248614568
 40
1.0
 40
1.0
 40
1.0
 40
1.0
 10
9.1764108955
 20
11.1602917687
 30
0.0
 10
9.1759332777
 20
11.1607274915
 30
0.0
 10
9.1749541233
 20
11.1616473308
 30
0.0
 10
9.1729118233
 20
11.163656527
 30
0.0
 10
9.170237214
 20
11.1664489907
 30
0.0
 10
9.1669646583
 20
11.1700721817
 30
0.0
 10
9.1647743347
 20
11.1726211253
 30
0.0
 10
9.1636733701
 20
11.1739331668
 30
0.0
  0
SPLINE
  5
47B
100
AcDbEntity
  8
0
100
AcDbSpline
 62
9
  6
CONTINUOUS
 70
0
 71
3
 72
11
 73
7
 74
0
 42
0.0000001
 43
0.0000001
 44
0.0000000001
 40
0.0
 40
0.0
 40
0.0
 40
0.0
 40
0.2751245655
 40
0.539798729
 40
0.7842317564
 40
1.0
 40
1.0
 40
1.0
 40
1.0
 10
9.1636733701
 20
11.1739331668
 30
0.0
 10
9.1625728972
 20
11.175244721
 30
0.0
 10
9.1604439001
 20
11.1778434787
 30
0.0
 10
9.1574447037
 20
11.18169408
 30
0.0
 10
9.1547782345
 20
11.1853332519
 30
0.0
 10
9.1531735867
 20
11.1877067926
 30
0.0
 10
9.1524545651
 20
11.1888407574
 30
0.0
  0
SPLINE
  5
47C
100
AcDbEntity
  8
0
100
AcDbSpline
 62
9
  6
CONTINUOUS
 70
0
 71
3
 72
26
 73
22
 74
0
 42
0.0000001
 43
0.0000001
 44
0.0000000001
 40
0.0
 40
0.0
 40
0.0
 40
0.0
 40
0.1143446881
 40
0.2184283334
 40
0.3117671145
 40
0.3941002947
 40
0.465259025
 40
0.5252993413
 40
0.5747103553
 40
0.5957691619
 40
0.6146691682
 40
0.6472997281
 40
0.6622045014
 40
0.6769975764
 40
0.7087855364
 40
0.7270152318
 40
0.7472687348
 40
0.7947294644
 40
0.852435259
 40
0.9208262308
 40
1.0
 40
1.0
 40
1.0
 40
1.0
 10
9.1523378374
 20
11.1890255305
 30
0.0
 10
9.1520585785
 20
11.1894692423
 30
0.0
 10
9.1515353802
 20
11.1903233973
 30
0.0
 10
9.1508267491
 20
11.1915651688
 30
0.0
 10
9.1502343029
 20
11.1927033057
 30
0.0
 10
9.149761088
 20
11.1937319467
 30
0.0
 10
9.1494093462
 20
11.1946466935
 30
0.0
 10
9.1491811361
 20
11.1954439795
 30
0.0
 10
9.1490888239
 20
11.1960380658
 30
0.0
 10
9.1490876727
 20
11.1964488648
 30
0.0
 10
9.1491267226
 20
11.1967795768
 30
0.0
 10
9.1492295436
 20
11.1970749523
 30
0.0
 10
9.1494071277
 20
11.1973017805
 30
0.0
 10
9.1496279422
 20
11.1974807626
 30
0.0
 10
9.1499159779
 20
11.1975834694
 30
0.0
 10
9.1502365301
 20
11.1976187899
 30
0.0
 10
9.1506316264
 20
11.197611475
 30
0.0
 10
9.1512003926
 20
11.1975073101
 30
0.0
 10
9.151958025
 20
11.1972595315
 30
0.0
 10
9.1528216712
 20
11.1968827066
 30
0.0
 10
9.1534214454
 20
11.1965685328
 30
0.0
 10
9.1537384918
 20
11.1963917218
 30
0.0
  0
SPLINE
  5
47D
100
AcDbEntity
  8
0
100
AcDbSpline
 62
9
  6
CONTINUOUS
 70
0
 71
3
 72
27
 73
23
 74
0
 42
0.0000001
 43
0.0000001
 44
0.0000000001
 40
0.0
 40
0.0
 40
0.0
 40
0.0
 40
0.0793793912
 40
0.1479445245
 40
0.2058137329
 40
0.2534706532
 40
0.2738215744
 40
0.2921393746
 40
0.3087757845
 40
0.3242099381
 40
0.3390471135
 40
0.3539744145
 40
0.3865783146
 40
0.4054314911
 40
0.4264299525
 40
0.4757189511
 40
0.5356340489
 40
0.6065942156
 40
0.6887281902
 40
0.7819371882
 40
0.8858479237
 40
1.0
 40
1.0
 40
1.0
 40
1.0
 10
8.9976582715
 20
11.3823987143
 30
0.0
 10
8.997776979
 20
11.3820567512
 30
0.0
 10
8.9979817704
 20
11.3814134368
 30
0.0
 10
8.9982023111
 20
11.3805000246
 30
0.0
 10
8.9983144577
 20
11.3797128019
 30
0.0
 10
8.9983188748
 20
11.3791355778
 30
0.0
 10
8.9982587477
 20
11.3787456716
 30
0.0
 10
8.9981882832
 20
11.3785026241
 30
0.0
 10
8.9980897783
 20
11.3782937509
 30
0.0
 10
8.9979626429
 20
11.3781198652
 30
0.0
 10
8.9978066788
 20
11.3779824809
 30
0.0
 10
8.9975546509
 20
11.377845862
 30
0.0
 10
8.9972481928
 20
11.3777938767
 30
0.0
 10
8.9969180087
 20
11.3778106149
 30
0.0
 10
8.9965164824
 20
11.3778803412
 30
0.0
 10
8.9959511317
 20
11.3780709208
 30
0.0
 10
8.9952105542
 20
11.3784293569
 30
0.0
 10
8.9943760337
 20
11.3789283656
 30
0.0
 10
8.9934509191
 20
11.3795662785
 30
0.0
 10
8.9924392655
 20
11.3803403808
 30
0.0
 10
8.9913457857
 20
11.3812458486
 30
0.0
 10
8.9905998688
 20
11.3819036784
 30
0.0
 10
8.9902137427
 20
11.3822527891
 30
0.0
  0
SPLINE
  5
47E
100
AcDbEntity
  8
0
100
AcDbSpline
 62
9
  6
CONTINUOUS
 70
0
 71
3
 72
12
 73
8
 74
0
 42
0.0000001
 43
0.0000001
 44
0.0000000001
 40
0.0
 40
0.0
 40
0.0
 40
0.0
 40
0.1038548967
 40
0.2157819706
 40
0.4601935038
 40
0.7248614568
 40
1.0
 40
1.0
 40
1.0
 40
1.0
 10
8.9900024887
 20
11.3824446572
 30
0.0
 10
8.9895248709
 20
11.38288038
 30
0.0
 10
8.9885457165
 20
11.3838002193
 30
0.0
 10
8.9865034165
 20
11.3858094155
 30
0.0
 10
8.9838288072
 20
11.3886018792
 30
0.0
 10
8.9805562515
 20
11.3922250702
 30
0.0
 10
8.9783659278
 20
11.3947740138
 30
0.0
 10
8.9772649633
 20
11.3960860553
 30
0.0
  0
SPLINE
  5
47F
100
AcDbEntity
  8
0
100
AcDbSpline
 62
9
  6
CONTINUOUS
 70
0
 71
3
 72
11
 73
7
 74
0
 42
0.0000001
 43
0.0000001
 44
0.0000000001
 40
0.0
 40
0.0
 40
0.0
 40
0.0
 40
0.2751245655
 40
0.539798729
 40
0.7842317564
 40
1.0
 40
1.0
 40
1.0
 40
1.0
 10
8.9772649633
 20
11.3960860553
 30
0.0
 10
8.9761644904
 20
11.3973976095
 30
0.0
 10
8.9740354933
 20
11.3999963672
 30
0.0
 10
8.9710362968
 20
11.4038469685
 30
0.0
 10
8.9683698277
 20
11.4074861404
 30
0.0
 10
8.9667651799
 20
11.4098596811
 30
0.0
 10
8.9660461583
 20
11.4109936459
 30
0.0
  0
SPLINE
  5
480
100
AcDbEntity
  8
0
100
AcDbSpline
 62
9
  6
CONTINUOUS
 70
0
 71
3
 72
26
 73
22
 74
0
 42
0.0000001
 43
0.0000001
 44
0.0000000001
 40
0.0
 40
0.0
 40
0.0
 40
0.0
 40
0.1143446881
 40
0.2184283334
 40
0.3117671145
 40
0.3941002947
 40
0.465259025
 40
0.5252993413
 40
0.5747103553
 40
0.5957691619
 40
0.6146691682
 40
0.6472997281
 40
0.6622045014
 40
0.6769975764
 40
0.7087855364
 40
0.7270152318
 40
0.7472687348
 40
0.7947294644
 40
0.852435259
 40
0.9208262308
 40
1.0
 40
1.0
 40
1.0
 40
1.0
 10
8.9659294306
 20
11.411178419
 30
0.0
 10
8.9656501717
 20
11.4116221308
 30
0.0
 10
8.9651269734
 20
11.4124762858
 30
0.0
 10
8.9644183423
 20
11.4137180573
 30
0.0
 10
8.9638258961
 20
11.4148561942
 30
0.0
 10
8.9633526812
 20
11.4158848352
 30
0.0
 10
8.9630009394
 20
11.416799582
 30
0.0
 10
8.9627727293
 20
11.417596868
 30
0.0
 10
8.9626804171
 20
11.4181909543
 30
0.0
 10
8.9626792659
 20
11.4186017533
 30
0.0
 10
8.9627183158
 20
11.4189324653
 30
0.0
 10
8.9628211368
 20
11.4192278408
 30
0.0
 10
8.9629987209
 20
11.419454669
 30
0.0
 10
8.9632195354
 20
11.4196336511
 30
0.0
 10
8.9635075711
 20
11.4197363579
 30
0.0
 10
8.9638281233
 20
11.4197716784
 30
0.0
 10
8.9642232195
 20
11.4197643635
 30
0.0
 10
8.9647919858
 20
11.4196601986
 30
0.0
 10
8.9655496182
 20
11.41941242
 30
0.0
 10
8.9664132644
 20
11.4190355951
 30
0.0
 10
8.9670130386
 20
11.4187214213
 30
0.0
 10
8.967330085
 20
11.4185446103
 30
0.0
  0
SPLINE
  5
481
100
AcDbEntity
  8
0
100
AcDbSpline
 62
9
  6
CONTINUOUS
 70
0
 71
3
 72
27
 73
23
 74
0
 42
0.0000001
 43
0.0000001
 44
0.0000000001
 40
0.0
 40
0.0
 40
0.0
 40
0.0
 40
0.0793793912
 40
0.1479445245
 40
0.2058137329
 40
0.2534706532
 40
0.2738215744
 40
0.2921393746
 40
0.3087757845
 40
0.3242099381
 40
0.3390471135
 40
0.3539744145
 40
0.3865783146
 40
0.4054314911
 40
0.4264299525
 40
0.4757189511
 40
0.5356340489
 40
0.6065942156
 40
0.6887281902
 40
0.7819371882
 40
0.8858479237
 40
1.0
 40
1.0
 40
1.0
 40
1.0
 10
8.8112498647
 20
11.6045516028
 30
0.0
 10
8.8113685722
 20
11.6042096397
 30
0.0
 10
8.8115733635
 20
11.6035663253
 30
0.0
 10
8.8117939043
 20
11.6026529131
 30
0.0
 10
8.8119060509
 20
11.6018656904
 30
0.0
 10
8.811910468
 20
11.6012884663
 30
0.0
 10
8.8118503409
 20
11.6008985601
 30
0.0
 10
8.8117798764
 20
11.6006555126
 30
0.0
 10
8.8116813714
 20
11.6004466394
 30
0.0
 10
8.8115542361
 20
11.6002727537
 30
0.0
 10
8.811398272
 20
11.6001353694
 30
0.0
 10
8.8111462441
 20
11.5999987505
 30
0.0
 10
8.810839786
 20
11.5999467652
 30
0.0
 10
8.8105096019
 20
11.5999635034
 30
0.0
 10
8.8101080756
 20
11.6000332297
 30
0.0
 10
8.8095427249
 20
11.6002238093
 30
0.0
 10
8.8088021474
 20
11.6005822454
 30
0.0
 10
8.8079676269
 20
11.6010812541
 30
0.0
 10
8.8070425123
 20
11.601719167
 30
0.0
 10
8.8060308587
 20
11.6024932693
 30
0.0
 10
8.8049373789
 20
11.6033987371
 30
0.0
 10
8.804191462
 20
11.6040565669
 30
0.0
 10
8.8038053359
 20
11.6044056776
 30
0.0
  0
SPLINE
  5
482
100
AcDbEntity
  8
0
100
AcDbSpline
 62
9
  6
CONTINUOUS
 70
0
 71
3
 72
12
 73
8
 74
0
 42
0.0000001
 43
0.0000001
 44
0.0000000001
 40
0.0
 40
0.0
 40
0.0
 40
0.0
 40
0.1038548967
 40
0.2157819706
 40
0.4601935038
 40
0.7248614568
 40
1.0
 40
1.0
 40
1.0
 40
1.0
 10
8.8035940819
 20
11.6045975457
 30
0.0
 10
8.8031164641
 20
11.6050332685
 30
0.0
 10
8.8021373097
 20
11.6059531078
 30
0.0
 10
8.8000950097
 20
11.607962304
 30
0.0
 10
8.7974204004
 20
11.6107547677
 30
0.0
 10
8.7941478446
 20
11.6143779587
 30
0.0
 10
8.791957521
 20
11.6169269023
 30
0.0
 10
8.7908565565
 20
11.6182389438
 30
0.0
  0
SPLINE
  5
483
100
AcDbEntity
  8
0
100
AcDbSpline
 62
9
  6
CONTINUOUS
 70
0
 71
3
 72
11
 73
7
 74
0
 42
0.0000001
 43
0.0000001
 44
0.0000000001
 40
0.0
 40
0.0
 40
0.0
 40
0.0
 40
0.2751245655
 40
0.539798729
 40
0.7842317564
 40
1.0
 40
1.0
 40
1.0
 40
1.0
 10
8.7908565565
 20
11.6182389438
 30
0.0
 10
8.7897560836
 20
11.619550498
 30
0.0
 10
8.7876270865
 20
11.6221492558
 30
0.0
 10
8.78462789
 20
11.625999857
 30
0.0
 10
8.7819614209
 20
11.6296390289
 30
0.0
 10
8.7803567731
 20
11.6320125696
 30
0.0
 10
8.7796377514
 20
11.6331465344
 30
0.0
  0
SPLINE
  5
484
100
AcDbEntity
  8
0
100
AcDbSpline
 62
9
  6
CONTINUOUS
 70
0
 71
3
 72
26
 73
22
 74
0
 42
0.0000001
 43
0.0000001
 44
0.0000000001
 40
0.0
 40
0.0
 40
0.0
 40
0.0
 40
0.1143446881
 40
0.2184283334
 40
0.3117671145
 40
0.3941002947
 40
0.465259025
 40
0.5252993413
 40
0.5747103553
 40
0.5957691619
 40
0.6146691682
 40
0.6472997281
 40
0.6622045014
 40
0.6769975764
 40
0.7087855364
 40
0.7270152318
 40
0.7472687348
 40
0.7947294644
 40
0.852435259
 40
0.9208262308
 40
1.0
 40
1.0
 40
1.0
 40
1.0
 10
8.7795210238
 20
11.6333313075
 30
0.0
 10
8.7792417649
 20
11.6337750193
 30
0.0
 10
8.7787185665
 20
11.6346291743
 30
0.0
 10
8.7780099355
 20
11.6358709458
 30
0.0
 10
8.7774174893
 20
11.6370090827
 30
0.0
 10
8.7769442744
 20
11.6380377237
 30
0.0
 10
8.7765925326
 20
11.6389524705
 30
0.0
 10
8.7763643225
 20
11.6397497565
 30
0.0
 10
8.7762720103
 20
11.6403438428
 30
0.0
 10
8.7762708591
 20
11.6407546419
 30
0.0
 10
8.776309909
 20
11.6410853538
 30
0.0
 10
8.77641273
 20
11.6413807293
 30
0.0
 10
8.7765903141
 20
11.6416075575
 30
0.0
 10
8.7768111286
 20
11.6417865396
 30
0.0
 10
8.7770991643
 20
11.6418892464
 30
0.0
 10
8.7774197165
 20
11.6419245669
 30
0.0
 10
8.7778148127
 20
11.641917252
 30
0.0
 10
8.778383579
 20
11.6418130871
 30
0.0
 10
8.7791412114
 20
11.6415653085
 30
0.0
 10
8.7800048576
 20
11.6411884836
 30
0.0
 10
8.7806046318
 20
11.6408743098
 30
0.0
 10
8.7809216782
 20
11.6406974989
 30
0.0
  0
SPLINE
  5
485
100
AcDbEntity
  8
0
100
AcDbSpline
 62
9
  6
CONTINUOUS
 70
0
 71
3
 72
27
 73
23
 74
0
 42
0.0000001
 43
0.0000001
 44
0.0000000001
 40
0.0
 40
0.0
 40
0.0
 40
0.0
 40
0.0793793912
 40
0.1479445245
 40
0.2058137329
 40
0.2534706532
 40
0.2738215744
 40
0.2921393746
 40
0.3087757845
 40
0.3242099381
 40
0.3390471135
 40
0.3539744145
 40
0.3865783146
 40
0.4054314911
 40
0.4264299525
 40
0.4757189511
 40
0.5356340489
 40
0.6065942156
 40
0.6887281902
 40
0.7819371882
 40
0.8858479237
 40
1.0
 40
1.0
 40
1.0
 40
1.0
 10
8.6248414579
 20
11.8267044913
 30
0.0
 10
8.6249601654
 20
11.8263625282
 30
0.0
 10
8.6251649567
 20
11.8257192138
 30
0.0
 10
8.6253854975
 20
11.8248058016
 30
0.0
 10
8.6254976441
 20
11.8240185789
 30
0.0
 10
8.6255020612
 20
11.8234413548
 30
0.0
 10
8.6254419341
 20
11.8230514486
 30
0.0
 10
8.6253714696
 20
11.8228084011
 30
0.0
 10
8.6252729646
 20
11.8225995279
 30
0.0
 10
8.6251458293
 20
11.8224256422
 30
0.0
 10
8.6249898652
 20
11.8222882579
 30
0.0
 10
8.6247378373
 20
11.822151639
 30
0.0
 10
8.6244313792
 20
11.8220996537
 30
0.0
 10
8.6241011951
 20
11.822116392
 30
0.0
 10
8.6236996687
 20
11.8221861182
 30
0.0
 10
8.6231343181
 20
11.8223766978
 30
0.0
 10
8.6223937406
 20
11.822735134
 30
0.0
 10
8.6215592201
 20
11.8232341426
 30
0.0
 10
8.6206341055
 20
11.8238720555
 30
0.0
 10
8.6196224519
 20
11.8246461578
 30
0.0
 10
8.6185289721
 20
11.8255516256
 30
0.0
 10
8.6177830552
 20
11.8262094554
 30
0.0
 10
8.6173969291
 20
11.8265585661
 30
0.0
  0
SPLINE
  5
486
100
AcDbEntity
  8
0
100
AcDbSpline
 62
9
  6
CONTINUOUS
 70
0
 71
3
 72
12
 73
8
 74
0
 42
0.0000001
 43
0.0000001
 44
0.0000000001
 40
0.0
 40
0.0
 40
0.0
 40
0.0
 40
0.1038548967
 40
0.2157819706
 40
0.4601935038
 40
0.7248614568
 40
1.0
 40
1.0
 40
1.0
 40
1.0
 10
8.6171856751
 20
11.8267504342
 30
0.0
 10
8.6167080573
 20
11.827186157
 30
0.0
 10
8.6157289029
 20
11.8281059963
 30
0.0
 10
8.6136866029
 20
11.8301151925
 30
0.0
 10
8.6110119936
 20
11.8329076562
 30
0.0
 10
8.6077394378
 20
11.8365308472
 30
0.0
 10
8.6055491142
 20
11.8390797908
 30
0.0
 10
8.6044481497
 20
11.8403918323
 30
0.0
  0
SPLINE
  5
487
100
AcDbEntity
  8
0
100
AcDbSpline
 62
9
  6
CONTINUOUS
 70
0
 71
3
 72
11
 73
7
 74
0
 42
0.0000001
 43
0.0000001
 44
0.0000000001
 40
0.0
 40
0.0
 40
0.0
 40
0.0
 40
0.2751245655
 40
0.539798729
 40
0.7842317564
 40
1.0
 40
1.0
 40
1.0
 40
1.0
 10
8.6044481497
 20
11.8403918323
 30
0.0
 10
8.6033476768
 20
11.8417033865
 30
0.0
 10
8.6012186796
 20
11.8443021443
 30
0.0
 10
8.5982194832
 20
11.8481527455
 30
0.0
 10
8.5955530141
 20
11.8517919174
 30
0.0
 10
8.5939483663
 20
11.8541654581
 30
0.0
 10
8.5932293446
 20
11.8552994229
 30
0.0
  0
SPLINE
  5
488
100
AcDbEntity
  8
0
100
AcDbSpline
 62
9
  6
CONTINUOUS
 70
0
 71
3
 72
26
 73
22
 74
0
 42
0.0000001
 43
0.0000001
 44
0.0000000001
 40
0.0
 40
0.0
 40
0.0
 40
0.0
 40
0.1143446881
 40
0.2184283334
 40
0.3117671145
 40
0.3941002947
 40
0.465259025
 40
0.5252993413
 40
0.5747103553
 40
0.5957691619
 40
0.6146691682
 40
0.6472997281
 40
0.6622045014
 40
0.6769975764
 40
0.7087855364
 40
0.7270152318
 40
0.7472687348
 40
0.7947294644
 40
0.852435259
 40
0.9208262308
 40
1.0
 40
1.0
 40
1.0
 40
1.0
 10
8.593112617
 20
11.855484196
 30
0.0
 10
8.5928333581
 20
11.8559279078
 30
0.0
 10
8.5923101597
 20
11.8567820628
 30
0.0
 10
8.5916015287
 20
11.8580238343
 30
0.0
 10
8.5910090825
 20
11.8591619712
 30
0.0
 10
8.5905358676
 20
11.8601906122
 30
0.0
 10
8.5901841257
 20
11.861105359
 30
0.0
 10
8.5899559157
 20
11.8619026451
 30
0.0
 10
8.5898636035
 20
11.8624967313
 30
0.0
 10
8.5898624523
 20
11.8629075304
 30
0.0
 10
8.5899015022
 20
11.8632382423
 30
0.0
 10
8.5900043232
 20
11.8635336178
 30
0.0
 10
8.5901819073
 20
11.863760446
 30
0.0
 10
8.5904027218
 20
11.8639394282
 30
0.0
 10
8.5906907575
 20
11.8640421349
 30
0.0
 10
8.5910113097
 20
11.8640774554
 30
0.0
 10
8.5914064059
 20
11.8640701405
 30
0.0
 10
8.5919751722
 20
11.8639659756
 30
0.0
 10
8.5927328046
 20
11.863718197
 30
0.0
 10
8.5935964508
 20
11.8633413721
 30
0.0
 10
8.594196225
 20
11.8630271984
 30
0.0
 10
8.5945132714
 20
11.8628503874
 30
0.0
  0
SPLINE
  5
489
100
AcDbEntity
  8
0
100
AcDbSpline
 62
9
  6
CONTINUOUS
 70
0
 71
3
 72
27
 73
23
 74
0
 42
0.0000001
 43
0.0000001
 44
0.0000000001
 40
0.0
 40
0.0
 40
0.0
 40
0.0
 40
0.0793793912
 40
0.1479445245
 40
0.2058137329
 40
0.2534706532
 40
0.2738215744
 40
0.2921393746
 40
0.3087757845
 40
0.3242099381
 40
0.3390471135
 40
0.3539744145
 40
0.3865783146
 40
0.4054314911
 40
0.4264299525
 40
0.4757189511
 40
0.5356340489
 40
0.6065942156
 40
0.6887281902
 40
0.7819371882
 40
0.8858479237
 40
1.0
 40
1.0
 40
1.0
 40
1.0
 10
8.4384330511
 20
12.0488573798
 30
0.0
 10
8.4385517586
 20
12.0485154167
 30
0.0
 10
8.4387565499
 20
12.0478721023
 30
0.0
 10
8.4389770907
 20
12.0469586901
 30
0.0
 10
8.4390892373
 20
12.0461714674
 30
0.0
 10
8.4390936544
 20
12.0455942433
 30
0.0
 10
8.4390335272
 20
12.0452043371
 30
0.0
 10
8.4389630628
 20
12.0449612896
 30
0.0
 10
8.4388645578
 20
12.0447524164
 30
0.0
 10
8.4387374225
 20
12.0445785307
 30
0.0
 10
8.4385814584
 20
12.0444411464
 30
0.0
 10
8.4383294304
 20
12.0443045275
 30
0.0
 10
8.4380229724
 20
12.0442525422
 30
0.0
 10
8.4376927882
 20
12.0442692805
 30
0.0
 10
8.4372912619
 20
12.0443390067
 30
0.0
 10
8.4367259113
 20
12.0445295863
 30
0.0
 10
8.4359853338
 20
12.0448880225
 30
0.0
 10
8.4351508133
 20
12.0453870311
 30
0.0
 10
8.4342256987
 20
12.046024944
 30
0.0
 10
8.4332140451
 20
12.0467990463
 30
0.0
 10
8.4321205653
 20
12.0477045141
 30
0.0
 10
8.4313746484
 20
12.0483623439
 30
0.0
 10
8.4309885223
 20
12.0487114546
 30
0.0
  0
SPLINE
  5
48A
100
AcDbEntity
  8
0
100
AcDbSpline
 62
9
  6
CONTINUOUS
 70
0
 71
3
 72
12
 73
8
 74
0
 42
0.0000001
 43
0.0000001
 44
0.0000000001
 40
0.0
 40
0.0
 40
0.0
 40
0.0
 40
0.1038548967
 40
0.2157819706
 40
0.4601935038
 40
0.7248614568
 40
1.0
 40
1.0
 40
1.0
 40
1.0
 10
8.4307772683
 20
12.0489033227
 30
0.0
 10
8.4302996505
 20
12.0493390455
 30
0.0
 10
8.4293204961
 20
12.0502588848
 30
0.0
 10
8.4272781961
 20
12.052268081
 30
0.0
 10
8.4246035868
 20
12.0550605448
 30
0.0
 10
8.421331031
 20
12.0586837357
 30
0.0
 10
8.4191407074
 20
12.0612326793
 30
0.0
 10
8.4180397429
 20
12.0625447208
 30
0.0
  0
SPLINE
  5
48B
100
AcDbEntity
  8
0
100
AcDbSpline
 62
9
  6
CONTINUOUS
 70
0
 71
3
 72
11
 73
7
 74
0
 42
0.0000001
 43
0.0000001
 44
0.0000000001
 40
0.0
 40
0.0
 40
0.0
 40
0.0
 40
0.2751245655
 40
0.539798729
 40
0.7842317564
 40
1.0
 40
1.0
 40
1.0
 40
1.0
 10
8.4180397429
 20
12.0625447208
 30
0.0
 10
8.41693927
 20
12.063856275
 30
0.0
 10
8.4148102728
 20
12.0664550328
 30
0.0
 10
8.4118110764
 20
12.070305634
 30
0.0
 10
8.4091446073
 20
12.0739448059
 30
0.0
 10
8.4075399595
 20
12.0763183466
 30
0.0
 10
8.4068209378
 20
12.0774523114
 30
0.0
  0
SPLINE
  5
48C
100
AcDbEntity
  8
0
100
AcDbSpline
 62
9
  6
CONTINUOUS
 70
0
 71
3
 72
26
 73
22
 74
0
 42
0.0000001
 43
0.0000001
 44
0.0000000001
 40
0.0
 40
0.0
 40
0.0
 40
0.0
 40
0.1143446881
 40
0.2184283334
 40
0.3117671145
 40
0.3941002947
 40
0.465259025
 40
0.5252993413
 40
0.5747103553
 40
0.5957691619
 40
0.6146691682
 40
0.6472997281
 40
0.6622045014
 40
0.6769975764
 40
0.7087855364
 40
0.7270152318
 40
0.7472687348
 40
0.7947294644
 40
0.852435259
 40
0.9208262308
 40
1.0
 40
1.0
 40
1.0
 40
1.0
 10
8.4067042102
 20
12.0776370845
 30
0.0
 10
8.4064249513
 20
12.0780807963
 30
0.0
 10
8.4059017529
 20
12.0789349513
 30
0.0
 10
8.4051931219
 20
12.0801767228
 30
0.0
 10
8.4046006757
 20
12.0813148597
 30
0.0
 10
8.4041274608
 20
12.0823435007
 30
0.0
 10
8.4037757189
 20
12.0832582476
 30
0.0
 10
8.4035475089
 20
12.0840555336
 30
0.0
 10
8.4034551967
 20
12.0846496198
 30
0.0
 10
8.4034540455
 20
12.0850604189
 30
0.0
 10
8.4034930954
 20
12.0853911308
 30
0.0
 10
8.4035959164
 20
12.0856865063
 30
0.0
 10
8.4037735005
 20
12.0859133345
 30
0.0
 10
8.403994315
 20
12.0860923167
 30
0.0
 10
8.4042823507
 20
12.0861950234
 30
0.0
 10
8.4046029029
 20
12.0862303439
 30
0.0
 10
8.4049979991
 20
12.086223029
 30
0.0
 10
8.4055667654
 20
12.0861188641
 30
0.0
 10
8.4063243978
 20
12.0858710855
 30
0.0
 10
8.407188044
 20
12.0854942606
 30
0.0
 10
8.4077878182
 20
12.0851800869
 30
0.0
 10
8.4081048646
 20
12.0850032759
 30
0.0
  0
SPLINE
  5
48D
100
AcDbEntity
  8
0
100
AcDbSpline
 62
9
  6
CONTINUOUS
 70
0
 71
3
 72
27
 73
23
 74
0
 42
0.0000001
 43
0.0000001
 44
0.0000000001
 40
0.0
 40
0.0
 40
0.0
 40
0.0
 40
0.0793793912
 40
0.1479445245
 40
0.2058137329
 40
0.2534706532
 40
0.2738215744
 40
0.2921393746
 40
0.3087757845
 40
0.3242099381
 40
0.3390471135
 40
0.3539744145
 40
0.3865783146
 40
0.4054314911
 40
0.4264299525
 40
0.4757189511
 40
0.5356340489
 40
0.6065942156
 40
0.6887281902
 40
0.7819371882
 40
0.8858479237
 40
1.0
 40
1.0
 40
1.0
 40
1.0
 10
8.2520246443
 20
12.2710102684
 30
0.0
 10
8.2521433518
 20
12.2706683052
 30
0.0
 10
8.2523481431
 20
12.2700249908
 30
0.0
 10
8.2525686839
 20
12.2691115786
 30
0.0
 10
8.2526808305
 20
12.2683243559
 30
0.0
 10
8.2526852476
 20
12.2677471318
 30
0.0
 10
8.2526251204
 20
12.2673572256
 30
0.0
 10
8.252554656
 20
12.2671141781
 30
0.0
 10
8.252456151
 20
12.2669053049
 30
0.0
 10
8.2523290157
 20
12.2667314192
 30
0.0
 10
8.2521730516
 20
12.2665940349
 30
0.0
 10
8.2519210236
 20
12.266457416
 30
0.0
 10
8.2516145656
 20
12.2664054307
 30
0.0
 10
8.2512843814
 20
12.266422169
 30
0.0
 10
8.2508828551
 20
12.2664918952
 30
0.0
 10
8.2503175045
 20
12.2666824748
 30
0.0
 10
8.249576927
 20
12.267040911
 30
0.0
 10
8.2487424065
 20
12.2675399196
 30
0.0
 10
8.2478172919
 20
12.2681778325
 30
0.0
 10
8.2468056383
 20
12.2689519348
 30
0.0
 10
8.2457121585
 20
12.2698574026
 30
0.0
 10
8.2449662416
 20
12.2705152325
 30
0.0
 10
8.2445801155
 20
12.2708643431
 30
0.0
  0
SPLINE
  5
48E
100
AcDbEntity
  8
0
100
AcDbSpline
 62
9
  6
CONTINUOUS
 70
0
 71
3
 72
12
 73
8
 74
0
 42
0.0000001
 43
0.0000001
 44
0.0000000001
 40
0.0
 40
0.0
 40
0.0
 40
0.0
 40
0.1038548967
 40
0.2157819706
 40
0.4601935038
 40
0.7248614568
 40
1.0
 40
1.0
 40
1.0
 40
1.0
 10
8.2443688615
 20
12.2710562112
 30
0.0
 10
8.2438912437
 20
12.271491934
 30
0.0
 10
8.2429120893
 20
12.2724117733
 30
0.0
 10
8.2408697893
 20
12.2744209695
 30
0.0
 10
8.23819518
 20
12.2772134333
 30
0.0
 10
8.2349226242
 20
12.2808366242
 30
0.0
 10
8.2327323006
 20
12.2833855678
 30
0.0
 10
8.2316313361
 20
12.2846976093
 30
0.0
  0
SPLINE
  5
48F
100
AcDbEntity
  8
0
100
AcDbSpline
 62
9
  6
CONTINUOUS
 70
0
 71
3
 72
11
 73
7
 74
0
 42
0.0000001
 43
0.0000001
 44
0.0000000001
 40
0.0
 40
0.0
 40
0.0
 40
0.0
 40
0.2751245655
 40
0.539798729
 40
0.7842317564
 40
1.0
 40
1.0
 40
1.0
 40
1.0
 10
8.2316313361
 20
12.2846976093
 30
0.0
 10
8.2305308632
 20
12.2860091635
 30
0.0
 10
8.228401866
 20
12.2886079213
 30
0.0
 10
8.2254026696
 20
12.2924585225
 30
0.0
 10
8.2227362005
 20
12.2960976944
 30
0.0
 10
8.2211315527
 20
12.2984712351
 30
0.0
 10
8.220412531
 20
12.2996051999
 30
0.0
  0
SPLINE
  5
490
100
AcDbEntity
  8
0
100
AcDbSpline
 62
9
  6
CONTINUOUS
 70
0
 71
3
 72
26
 73
22
 74
0
 42
0.0000001
 43
0.0000001
 44
0.0000000001
 40
0.0
 40
0.0
 40
0.0
 40
0.0
 40
0.1143446881
 40
0.2184283334
 40
0.3117671145
 40
0.3941002947
 40
0.465259025
 40
0.5252993413
 40
0.5747103553
 40
0.5957691619
 40
0.6146691682
 40
0.6472997281
 40
0.6622045014
 40
0.6769975764
 40
0.7087855364
 40
0.7270152318
 40
0.7472687348
 40
0.7947294644
 40
0.852435259
 40
0.9208262308
 40
1.0
 40
1.0
 40
1.0
 40
1.0
 10
8.2202958034
 20
12.299789973
 30
0.0
 10
8.2200165445
 20
12.3002336849
 30
0.0
 10
8.2194933461
 20
12.3010878398
 30
0.0
 10
8.2187847151
 20
12.3023296113
 30
0.0
 10
8.2181922688
 20
12.3034677482
 30
0.0
 10
8.217719054
 20
12.3044963892
 30
0.0
 10
8.2173673121
 20
12.3054111361
 30
0.0
 10
8.2171391021
 20
12.3062084221
 30
0.0
 10
8.2170467899
 20
12.3068025083
 30
0.0
 10
8.2170456386
 20
12.3072133074
 30
0.0
 10
8.2170846886
 20
12.3075440193
 30
0.0
 10
8.2171875096
 20
12.3078393948
 30
0.0
 10
8.2173650937
 20
12.308066223
 30
0.0
 10
8.2175859082
 20
12.3082452052
 30
0.0
 10
8.2178739439
 20
12.3083479119
 30
0.0
 10
8.2181944961
 20
12.3083832324
 30
0.0
 10
8.2185895923
 20
12.3083759175
 30
0.0
 10
8.2191583586
 20
12.3082717526
 30
0.0
 10
8.219915991
 20
12.308023974
 30
0.0
 10
8.2207796372
 20
12.3076471491
 30
0.0
 10
8.2213794114
 20
12.3073329754
 30
0.0
 10
8.2216964578
 20
12.3071561644
 30
0.0
  0
SPLINE
  5
491
100
AcDbEntity
  8
0
100
AcDbSpline
 62
9
  6
CONTINUOUS
 70
0
 71
3
 72
19
 73
15
 74
0
 42
0.0000001
 43
0.0000001
 44
0.0000000001
 40
0.0
 40
0.0
 40
0.0
 40
0.0
 40
0.0463215016
 40
0.0921786738
 40
0.138476678
 40
0.1860191469
 40
0.287216449
 40
0.342028355
 40
0.4000569828
 40
0.4615564616
 40
0.5267262322
 40
0.6685510197
 40
0.8263843709
 40
1.0
 40
1.0
 40
1.0
 40
1.0
 10
8.5958772112
 20
11.8838422875
 30
0.0
 10
8.5961732828
 20
11.8843944827
 30
0.0
 10
8.5968485084
 20
11.8854499114
 30
0.0
 10
8.5980994222
 20
11.8868539114
 30
0.0
 10
8.5995644828
 20
11.888058975
 30
0.0
 10
8.6018303962
 20
11.8894251448
 30
0.0
 10
8.6044598865
 20
11.8903464959
 30
0.0
 10
8.6073129416
 20
11.8908535686
 30
0.0
 10
8.6096684035
 20
11.8910334307
 30
0.0
 10
8.6121695127
 20
11.8909953214
 30
0.0
 10
8.6157868289
 20
11.8906331266
 30
0.0
 10
8.6206215543
 20
11.8895436489
 30
0.0
 10
8.6266155054
 20
11.887239974
 30
0.0
 10
8.6305467099
 20
11.8850465998
 30
0.0
 10
8.6325135023
 20
11.8837633866
 30
0.0
  0
SPLINE
  5
492
100
AcDbEntity
  8
0
100
AcDbSpline
 62
7
  6
CONTINUOUS
 70
0
 71
3
 72
23
 73
19
 74
0
 42
0.0000001
 43
0.0000001
 44
0.0000000001
 40
0.0
 40
0.0
 40
0.0
 40
0.0
 40
0.0084906217
 40
0.0178769539
 40
0.0285813346
 40
0.0408473195
 40
0.0548041666
 40
0.0705234047
 40
0.1073441825
 40
0.1513531547
 40
0.2024075237
 40
0.260320254
 40
0.3248186383
 40
0.395477849
 40
0.4715914991
 40
0.6369935843
 40
0.8151129113
 40
1.0
 40
1.0
 40
1.0
 40
1.0
 10
10.0871302139
 20
10.0797887708
 30
0.0
 10
10.0870952537
 20
10.0797485496
 30
0.0
 10
10.0870343987
 20
10.0796522377
 30
0.0
 10
10.0869798166
 20
10.0794798978
 30
0.0
 10
10.0869563048
 20
10.0792772564
 30
0.0
 10
10.0869623858
 20
10.0790450044
 30
0.0
 10
10.0869970908
 20
10.0787836758
 30
0.0
 10
10.0870858511
 20
10.0783754941
 30
0.0
 10
10.0872731848
 20
10.0777978177
 30
0.0
 10
10.0875927155
 20
10.077033647
 30
0.0
 10
10.0880159435
 20
10.0761712718
 30
0.0
 10
10.0885402907
 20
10.0752167728
 30
0.0
 10
10.0891625622
 20
10.0741766771
 30
0.0
 10
10.0898776607
 20
10.0730597795
 30
0.0
 10
10.0909745873
 20
10.071436066
 30
0.0
 10
10.0925163604
 20
10.0692998542
 30
0.0
 10
10.0945402397
 20
10.0666719196
 30
0.0
 10
10.0959804217
 20
10.0649059498
 30
0.0
 10
10.0967263395
 20
10.0640169996
 30
0.0
  0
SPLINE
  5
493
100
AcDbEntity
  8
0
100
AcDbSpline
 62
7
  6
CONTINUOUS
 70
0
 71
3
 72
14
 73
10
 74
0
 42
0.0000001
 43
0.0000001
 44
0.0000000001
 40
0.0
 40
0.0
 40
0.0
 40
0.0
 40
0.2540179749
 40
0.5063270226
 40
0.6313536729
 40
0.7553838795
 40
0.8169866309
 40
0.878304678
 40
1.0
 40
1.0
 40
1.0
 40
1.0
 10
9.0156864784
 20
11.4283255343
 30
0.0
 10
9.0148588322
 20
11.429312027
 30
0.0
 10
9.0131653831
 20
11.4312420366
 30
0.0
 10
9.010966333
 20
11.43356805
 30
0.0
 10
9.0091907146
 20
11.435386524
 30
0.0
 10
9.0080855746
 20
11.4365084611
 30
0.0
 10
9.0072124862
 20
11.43740567
 30
0.0
 10
9.0063543402
 20
11.4383006907
 30
0.0
 10
9.0057276908
 20
11.4389857295
 30
0.0
 10
9.0053303143
 20
11.4394576116
 30
0.0
  0
SPLINE
  5
494
100
AcDbEntity
  8
0
100
AcDbSpline
 62
7
  6
CONTINUOUS
 70
0
 71
3
 72
14
 73
10
 74
0
 42
0.0000001
 43
0.0000001
 44
0.0000000001
 40
0.0
 40
0.0
 40
0.0
 40
0.0
 40
0.1216962085
 40
0.1830142629
 40
0.2446166767
 40
0.3686461875
 40
0.4936727043
 40
0.7459821161
 40
1.0
 40
1.0
 40
1.0
 40
1.0
 10
9.0248511178
 20
11.4161936243
 30
0.0
 10
9.0244553495
 20
11.4166668635
 30
0.0
 10
9.0238892746
 20
11.4174027558
 30
0.0
 10
9.0231568698
 20
11.4184032951
 30
0.0
 10
9.022425151
 20
11.4194190945
 30
0.0
 10
9.0215125517
 20
11.4207025396
 30
0.0
 10
9.0200300626
 20
11.4227669828
 30
0.0
 10
9.0181204839
 20
11.4253359707
 30
0.0
 10
9.0165141268
 20
11.4273390406
 30
0.0
 10
9.0156864792
 20
11.428325535
 30
0.0
  0
SPLINE
  5
495
100
AcDbEntity
  8
0
100
AcDbSpline
 62
9
  6
CONTINUOUS
 70
0
 71
3
 72
14
 73
10
 74
0
 42
0.0000001
 43
0.0000001
 44
0.0000000001
 40
0.0
 40
0.0
 40
0.0
 40
0.0
 40
0.1061290075
 40
0.2199289722
 40
0.3403504492
 40
0.4662702305
 40
0.5964793299
 40
0.7297103637
 40
1.0
 40
1.0
 40
1.0
 40
1.0
 10
14.524355135
 20
5.378683729
 30
0.0
 10
14.5250071784
 20
5.3798553445
 30
0.0
 10
14.526299826
 20
5.3823161167
 30
0.0
 10
14.528146856
 20
5.3862002214
 30
0.0
 10
14.5299554755
 20
5.3903763004
 30
0.0
 10
14.531706521
 20
5.3948004428
 30
0.0
 10
14.5333815082
 20
5.3994264484
 30
0.0
 10
14.5354995947
 20
5.4058289142
 30
0.0
 10
14.5369052991
 20
5.4107327131
 30
0.0
 10
14.5377592292
 20
5.414039068
 30
0.0
  0
SPLINE
  5
496
100
AcDbEntity
  8
0
100
AcDbSpline
 62
9
  6
CONTINUOUS
 70
0
 71
3
 72
34
 73
30
 74
0
 42
0.0000001
 43
0.0000001
 44
0.0000000001
 40
0.0
 40
0.0
 40
0.0
 40
0.0
 40
0.0725157979
 40
0.1061118495
 40
0.1379633232
 40
0.1967358888
 40
0.2239467727
 40
0.2498589612
 40
0.2983254164
 40
0.321328479
 40
0.3437865332
 40
0.3659725373
 40
0.3881966934
 40
0.4108001907
 40
0.4341412936
 40
0.4585792401
 40
0.4844554569
 40
0.5120694704
 40
0.5416671121
 40
0.5734159228
 40
0.6073795442
 40
0.6435141056
 40
0.6816332083
 40
0.7623193369
 40
0.8454053284
 40
0.8863084015
 40
0.9259939356
 40
0.9639926705
 40
1.0
 40
1.0
 40
1.0
 40
1.0
 10
9.9533312393
 20
10.3050174435
 30
0.0
 10
9.9541249846
 20
10.3028856637
 30
0.0
 10
9.9550141291
 20
10.2996528099
 30
0.0
 10
9.9555809526
 20
10.2953578465
 30
0.0
 10
9.9557464115
 20
10.2914609147
 30
0.0
 10
9.9554183401
 20
10.287754332
 30
0.0
 10
9.9546016197
 20
10.2843351593
 30
0.0
 10
9.9535545142
 20
10.281321615
 30
0.0
 10
9.9521009632
 20
10.2785990936
 30
0.0
 10
9.9502538144
 20
10.2762949626
 30
0.0
 10
9.9487196251
 20
10.2748196155
 30
0.0
 10
9.9470184557
 20
10.2735809812
 30
0.0
 10
9.9451553428
 20
10.2725920438
 30
0.0
 10
9.9431358545
 20
10.2718670836
 30
0.0
 10
9.9409663883
 20
10.2714203659
 30
0.0
 10
9.9386542517
 20
10.2712659331
 30
0.0
 10
9.9362081729
 20
10.271417614
 30
0.0
 10
9.9336386873
 20
10.2718870257
 30
0.0
 10
9.9309595218
 20
10.2726855927
 30
0.0
 10
9.9281888786
 20
10.2738209147
 30
0.0
 10
9.9253498856
 20
10.2752947779
 30
0.0
 10
9.922473382
 20
10.2771042938
 30
0.0
 10
9.9185653238
 20
10.2800005196
 30
0.0
 10
9.9138975833
 20
10.2843116372
 30
0.0
 10
9.9097671243
 20
10.2892518192
 30
0.0
 10
9.9068755543
 20
10.2934983531
 30
0.0
 10
9.9049919762
 20
10.2967099151
 30
0.0
 10
9.9034133374
 20
10.2999112688
 30
0.0
 10
9.9025461371
 20
10.3020678605
 30
0.0
 10
9.9021700448
 20
10.3031329265
 30
0.0
  0
SPLINE
  5
497
100
AcDbEntity
  8
0
100
AcDbSpline
 62
9
  6
CONTINUOUS
 70
0
 71
3
 72
11
 73
7
 74
0
 42
0.0000001
 43
0.0000001
 44
0.0000000001
 40
0.0
 40
0.0
 40
0.0
 40
0.0
 40
0.2441851412
 40
0.4999992673
 40
0.7558138011
 40
1.0
 40
1.0
 40
1.0
 40
1.0
 10
9.9363480155
 20
10.3252570607
 30
0.0
 10
9.9382364689
 20
10.3241481157
 30
0.0
 10
9.9419170915
 20
10.3215436148
 30
0.0
 10
9.9467300757
 20
10.3167235614
 30
0.0
 10
9.9506411776
 20
10.3111467326
 30
0.0
 10
9.9525670804
 20
10.307069788
 30
0.0
 10
9.9533312393
 20
10.3050174435
 30
0.0
  0
SPLINE
  5
498
100
AcDbEntity
  8
0
100
AcDbSpline
 62
9
  6
CONTINUOUS
 70
0
 71
3
 72
34
 73
30
 74
0
 42
0.0000001
 43
0.0000001
 44
0.0000000001
 40
0.0
 40
0.0
 40
0.0
 40
0.0
 40
0.072515321
 40
0.1061111188
 40
0.1379623545
 40
0.1967345114
 40
0.2239452258
 40
0.2498572692
 40
0.2983235138
 40
0.3213265159
 40
0.3437845428
 40
0.3659705554
 40
0.3881947573
 40
0.4107983379
 40
0.4341395594
 40
0.4585776561
 40
0.4844540493
 40
0.512068258
 40
0.5416661061
 40
0.5734151255
 40
0.6073789483
 40
0.6435136958
 40
0.6816329592
 40
0.7623193127
 40
0.84540539
 40
0.8863084646
 40
0.9259939832
 40
0.9639926945
 40
1.0
 40
1.0
 40
1.0
 40
1.0
 10
9.7669230369
 20
10.5271697475
 30
0.0
 10
9.7677167729
 20
10.5250379939
 30
0.0
 10
9.768605828
 20
10.5218051555
 30
0.0
 10
9.7691725899
 20
10.517510241
 30
0.0
 10
9.7693379889
 20
10.5136133564
 30
0.0
 10
9.7690098715
 20
10.5099068251
 30
0.0
 10
9.7681931125
 20
10.5064877053
 30
0.0
 10
9.7671459749
 20
10.5034742087
 30
0.0
 10
9.7656923969
 20
10.500751736
 30
0.0
 10
9.7638452279
 20
10.4984476546
 30
0.0
 10
9.7623110252
 20
10.4969723424
 30
0.0
 10
9.7606098445
 20
10.4957337423
 30
0.0
 10
9.7587467225
 20
10.4947448384
 30
0.0
 10
9.7567272271
 20
10.4940199107
 30
0.0
 10
9.7545577561
 20
10.4935732245
 30
0.0
 10
9.7522456166
 20
10.4934188217
 30
0.0
 10
9.7497995372
 20
10.4935705311
 30
0.0
 10
9.7472300531
 20
10.4940399694
 30
0.0
 10
9.7445508915
 20
10.4948385608
 30
0.0
 10
9.7417802546
 20
10.4959739046
 30
0.0
 10
9.7389412705
 20
10.4974477863
 30
0.0
 10
9.7360647789
 20
10.4992573173
 30
0.0
 10
9.7321567422
 20
10.5021535562
 30
0.0
 10
9.7274890343
 20
10.5064646775
 30
0.0
 10
9.7233586082
 20
10.5114048521
 30
0.0
 10
9.7204670652
 20
10.5156513721
 30
0.0
 10
9.7185835071
 20
10.5188629201
 30
0.0
 10
9.7170048861
 20
10.5220642579
 30
0.0
 10
9.7161376962
 20
10.524220838
 30
0.0
 10
9.7157616086
 20
10.5252858981
 30
0.0
  0
SPLINE
  5
499
100
AcDbEntity
  8
0
100
AcDbSpline
 62
9
  6
CONTINUOUS
 70
0
 71
3
 72
11
 73
7
 74
0
 42
0.0000001
 43
0.0000001
 44
0.0000000001
 40
0.0
 40
0.0
 40
0.0
 40
0.0
 40
0.244185806
 40
0.5000005067
 40
0.7558149633
 40
1.0
 40
1.0
 40
1.0
 40
1.0
 10
9.7499396086
 20
10.5474099492
 30
0.0
 10
9.7518281077
 20
10.5463009712
 30
0.0
 10
9.7555088279
 20
10.5436964065
 30
0.0
 10
9.760321885
 20
10.538876193
 30
0.0
 10
9.7642330537
 20
10.5332992148
 30
0.0
 10
9.7661588461
 20
10.5292221226
 30
0.0
 10
9.7669230369
 20
10.5271697475
 30
0.0
  0
SPLINE
  5
49A
100
AcDbEntity
  8
0
100
AcDbSpline
 62
9
  6
CONTINUOUS
 70
0
 71
3
 72
33
 73
29
 74
0
 42
0.0000001
 43
0.0000001
 44
0.0000000001
 40
0.0
 40
0.0
 40
0.0
 40
0.0
 40
0.0725185393
 40
0.13790341
 40
0.1966781482
 40
0.2238901236
 40
0.2498034219
 40
0.2982722072
 40
0.321276536
 40
0.3437359535
 40
0.3659234439
 40
0.388149233
 40
0.4107545298
 40
0.4340976122
 40
0.4585377237
 40
0.4844162897
 40
0.5120328273
 40
0.5416331546
 40
0.5733847875
 40
0.6073513403
 40
0.6434889102
 40
0.6816110571
 40
0.7623032327
 40
0.8453950038
 40
0.8863008209
 40
0.9259889905
 40
0.9639902517
 40
1.0
 40
1.0
 40
1.0
 40
1.0
 10
9.5805152768
 20
10.7493207871
 30
0.0
 10
9.5813089812
 20
10.7471891219
 30
0.0
 10
9.5824631533
 20
10.7429908907
 30
0.0
 10
9.5830226427
 20
10.7368176796
 30
0.0
 10
9.5826013069
 20
10.7320587045
 30
0.0
 10
9.5817843951
 20
10.7286395204
 30
0.0
 10
9.5807371722
 20
10.7256262292
 30
0.0
 10
9.5792835151
 20
10.7229038912
 30
0.0
 10
9.5774362936
 20
10.7205999675
 30
0.0
 10
9.5759020574
 20
10.719124762
 30
0.0
 10
9.5742008509
 20
10.7178862656
 30
0.0
 10
9.5723377105
 20
10.7168974611
 30
0.0
 10
9.5703182039
 20
10.7161726281
 30
0.0
 10
9.568148729
 20
10.715726031
 30
0.0
 10
9.5658365926
 20
10.7155717111
 30
0.0
 10
9.5633905233
 20
10.7157234961
 30
0.0
 10
9.5608210562
 20
10.7161930016
 30
0.0
 10
9.5581419188
 20
10.7169916515
 30
0.0
 10
9.5553713134
 20
10.718127043
 30
0.0
 10
9.5525323681
 20
10.719600961
 30
0.0
 10
9.5496559223
 20
10.7214105155
 30
0.0
 10
9.5457479611
 20
10.7243067639
 30
0.0
 10
9.5410803553
 20
10.7286178604
 30
0.0
 10
9.5369500233
 20
10.7335579789
 30
0.0
 10
9.5340585498
 20
10.7378044349
 30
0.0
 10
9.5321750371
 20
10.7410159289
 30
0.0
 10
9.530596452
 20
10.744217211
 30
0.0
 10
9.5297292799
 20
10.7463737527
 30
0.0
 10
9.5293531992
 20
10.747438794
 30
0.0
  0
SPLINE
  5
49B
100
AcDbEntity
  8
0
100
AcDbSpline
 62
9
  6
CONTINUOUS
 70
0
 71
3
 72
34
 73
30
 74
0
 42
0.0000001
 43
0.0000001
 44
0.0000000001
 40
0.0
 40
0.0
 40
0.0
 40
0.0
 40
0.0725144035
 40
0.1061097175
 40
0.1379605001
 40
0.1967318848
 40
0.223942281
 40
0.249854054
 40
0.298319911
 40
0.3213228041
 40
0.3437807847
 40
0.3659668174
 40
0.3881911081
 40
0.4107948452
 40
0.4341362869
 40
0.4585746592
 40
0.4844513725
 40
0.5120659325
 40
0.541664149
 40
0.5734135369
 40
0.6073777127
 40
0.6435127835
 40
0.6816323252
 40
0.7623190724
 40
0.8454053259
 40
0.8863084314
 40
0.9259939615
 40
0.9639926801
 40
1.0
 40
1.0
 40
1.0
 40
1.0
 10
9.3941066195
 20
10.9714743916
 30
0.0
 10
9.3949003368
 20
10.9693426906
 30
0.0
 10
9.395789218
 20
10.9661098847
 30
0.0
 10
9.3963558607
 20
10.9618150684
 30
0.0
 10
9.3965211449
 20
10.9579182783
 30
0.0
 10
9.3961929398
 20
10.9542118489
 30
0.0
 10
9.3953761084
 20
10.9507928331
 30
0.0
 10
9.3943289113
 20
10.9477794298
 30
0.0
 10
9.3928752842
 20
10.9450570521
 30
0.0
 10
9.3910280796
 20
10.942753066
 30
0.0
 10
9.3894938539
 20
10.9412778204
 30
0.0
 10
9.3877926547
 20
10.940039285
 30
0.0
 10
9.3859295185
 20
10.9390504438
 30
0.0
 10
9.3839100132
 20
10.9383255765
 30
0.0
 10
9.3817405366
 20
10.9378789477
 30
0.0
 10
9.3794283957
 20
10.9377245991
 30
0.0
 10
9.3769823191
 20
10.9378763589
 30
0.0
 10
9.3744128421
 20
10.938345843
 30
0.0
 10
9.3717336919
 20
10.9391444755
 30
0.0
 10
9.3689630712
 20
10.9402798543
 30
0.0
 10
9.366124108
 20
10.9417537645
 30
0.0
 10
9.3632476421
 20
10.9435633166
 30
0.0
 10
9.3593396497
 20
10.9464595701
 30
0.0
 10
9.3546720046
 20
10.9507706865
 30
0.0
 10
9.3505416389
 20
10.9557108359
 30
0.0
 10
9.347650143
 20
10.9599573222
 30
0.0
 10
9.3457666175
 20
10.9631688397
 30
0.0
 10
9.3441880242
 20
10.9663701448
 30
0.0
 10
9.3433208494
 20
10.9685267019
 30
0.0
 10
9.3429447683
 20
10.9695917506
 30
0.0
  0
SPLINE
  5
49C
100
AcDbEntity
  8
0
100
AcDbSpline
 62
9
  6
CONTINUOUS
 70
0
 71
3
 72
34
 73
30
 74
0
 42
0.0000001
 43
0.0000001
 44
0.0000000001
 40
0.0
 40
0.0
 40
0.0
 40
0.0
 40
0.0725144035
 40
0.1061097175
 40
0.1379605001
 40
0.1967318848
 40
0.223942281
 40
0.249854054
 40
0.298319911
 40
0.3213228041
 40
0.3437807847
 40
0.3659668174
 40
0.3881911081
 40
0.4107948452
 40
0.4341362869
 40
0.4585746592
 40
0.4844513725
 40
0.5120659325
 40
0.541664149
 40
0.5734135369
 40
0.6073777127
 40
0.6435127835
 40
0.6816323252
 40
0.7623190724
 40
0.8454053259
 40
0.8863084314
 40
0.9259939615
 40
0.9639926801
 40
1.0
 40
1.0
 40
1.0
 40
1.0
 10
9.2076982127
 20
11.1936272801
 30
0.0
 10
9.20849193
 20
11.1914955791
 30
0.0
 10
9.2093808112
 20
11.1882627732
 30
0.0
 10
9.2099474539
 20
11.1839679569
 30
0.0
 10
9.2101127381
 20
11.1800711668
 30
0.0
 10
9.209784533
 20
11.1763647374
 30
0.0
 10
9.2089677016
 20
11.1729457216
 30
0.0
 10
9.2079205045
 20
11.1699323183
 30
0.0
 10
9.2064668773
 20
11.1672099406
 30
0.0
 10
9.2046196728
 20
11.1649059545
 30
0.0
 10
9.2030854471
 20
11.1634307089
 30
0.0
 10
9.2013842479
 20
11.1621921735
 30
0.0
 10
9.1995211117
 20
11.1612033323
 30
0.0
 10
9.1975016064
 20
11.160478465
 30
0.0
 10
9.1953321298
 20
11.1600318362
 30
0.0
 10
9.1930199889
 20
11.1598774876
 30
0.0
 10
9.1905739123
 20
11.1600292474
 30
0.0
 10
9.1880044352
 20
11.1604987315
 30
0.0
 10
9.1853252851
 20
11.161297364
 30
0.0
 10
9.1825546644
 20
11.1624327428
 30
0.0
 10
9.1797157012
 20
11.163906653
 30
0.0
 10
9.1768392353
 20
11.1657162051
 30
0.0
 10
9.1729312429
 20
11.1686124586
 30
0.0
 10
9.1682635978
 20
11.172923575
 30
0.0
 10
9.1641332321
 20
11.1778637244
 30
0.0
 10
9.1612417362
 20
11.1821102107
 30
0.0
 10
9.1593582107
 20
11.1853217282
 30
0.0
 10
9.1577796174
 20
11.1885230333
 30
0.0
 10
9.1569124426
 20
11.1906795904
 30
0.0
 10
9.1565363615
 20
11.1917446391
 30
0.0
  0
SPLINE
  5
49D
100
AcDbEntity
  8
0
100
AcDbSpline
 62
9
  6
CONTINUOUS
 70
0
 71
3
 72
34
 73
30
 74
0
 42
0.0000001
 43
0.0000001
 44
0.0000000001
 40
0.0
 40
0.0
 40
0.0
 40
0.0
 40
0.0725144035
 40
0.1061097175
 40
0.1379605001
 40
0.1967318848
 40
0.223942281
 40
0.249854054
 40
0.298319911
 40
0.3213228041
 40
0.3437807847
 40
0.3659668174
 40
0.3881911081
 40
0.4107948452
 40
0.4341362869
 40
0.4585746592
 40
0.4844513725
 40
0.5120659325
 40
0.541664149
 40
0.5734135369
 40
0.6073777127
 40
0.6435127835
 40
0.6816323252
 40
0.7623190724
 40
0.8454053259
 40
0.8863084314
 40
0.9259939615
 40
0.9639926801
 40
1.0
 40
1.0
 40
1.0
 40
1.0
 10
9.0212898059
 20
11.4157801686
 30
0.0
 10
9.0220835232
 20
11.4136484676
 30
0.0
 10
9.0229724044
 20
11.4104156617
 30
0.0
 10
9.0235390471
 20
11.4061208454
 30
0.0
 10
9.0237043312
 20
11.4022240553
 30
0.0
 10
9.0233761261
 20
11.3985176259
 30
0.0
 10
9.0225592948
 20
11.3950986101
 30
0.0
 10
9.0215120977
 20
11.3920852068
 30
0.0
 10
9.0200584705
 20
11.3893628291
 30
0.0
 10
9.018211266
 20
11.387058843
 30
0.0
 10
9.0166770403
 20
11.3855835974
 30
0.0
 10
9.0149758411
 20
11.384345062
 30
0.0
 10
9.0131127049
 20
11.3833562208
 30
0.0
 10
9.0110931996
 20
11.3826313535
 30
0.0
 10
9.008923723
 20
11.3821847247
 30
0.0
 10
9.0066115821
 20
11.3820303761
 30
0.0
 10
9.0041655055
 20
11.3821821359
 30
0.0
 10
9.0015960284
 20
11.38265162
 30
0.0
 10
8.9989168783
 20
11.3834502525
 30
0.0
 10
8.9961462576
 20
11.3845856313
 30
0.0
 10
8.9933072944
 20
11.3860595415
 30
0.0
 10
8.9904308285
 20
11.3878690936
 30
0.0
 10
8.9865228361
 20
11.3907653471
 30
0.0
 10
8.981855191
 20
11.3950764635
 30
0.0
 10
8.9777248252
 20
11.4000166129
 30
0.0
 10
8.9748333294
 20
11.4042630992
 30
0.0
 10
8.9729498039
 20
11.4074746167
 30
0.0
 10
8.9713712106
 20
11.4106759218
 30
0.0
 10
8.9705040358
 20
11.4128324789
 30
0.0
 10
8.9701279547
 20
11.4138975276
 30
0.0
  0
SPLINE
  5
49E
100
AcDbEntity
  8
0
100
AcDbSpline
 62
9
  6
CONTINUOUS
 70
0
 71
3
 72
34
 73
30
 74
0
 42
0.0000001
 43
0.0000001
 44
0.0000000001
 40
0.0
 40
0.0
 40
0.0
 40
0.0
 40
0.072515321
 40
0.1061111188
 40
0.1379623545
 40
0.1967345114
 40
0.2239452258
 40
0.2498572692
 40
0.2983235138
 40
0.3213265159
 40
0.3437845428
 40
0.3659705554
 40
0.3881947573
 40
0.4107983379
 40
0.4341395594
 40
0.4585776561
 40
0.4844540493
 40
0.512068258
 40
0.5416661061
 40
0.5734151255
 40
0.6073789483
 40
0.6435136958
 40
0.6816329592
 40
0.7623193127
 40
0.84540539
 40
0.8863084646
 40
0.9259939832
 40
0.9639926945
 40
1.0
 40
1.0
 40
1.0
 40
1.0
 10
8.8348810029
 20
11.6379341901
 30
0.0
 10
8.8356747388
 20
11.6358024364
 30
0.0
 10
8.8365637939
 20
11.632569598
 30
0.0
 10
8.8371305558
 20
11.6282746835
 30
0.0
 10
8.8372959549
 20
11.6243777989
 30
0.0
 10
8.8369678374
 20
11.6206712677
 30
0.0
 10
8.8361510784
 20
11.6172521478
 30
0.0
 10
8.8351039408
 20
11.6142386512
 30
0.0
 10
8.8336503629
 20
11.6115161786
 30
0.0
 10
8.8318031938
 20
11.6092120971
 30
0.0
 10
8.8302689911
 20
11.607736785
 30
0.0
 10
8.8285678104
 20
11.6064981848
 30
0.0
 10
8.8267046884
 20
11.6055092809
 30
0.0
 10
8.824685193
 20
11.6047843533
 30
0.0
 10
8.822515722
 20
11.604337667
 30
0.0
 10
8.8202035826
 20
11.6041832642
 30
0.0
 10
8.8177575032
 20
11.6043349737
 30
0.0
 10
8.8151880191
 20
11.6048044119
 30
0.0
 10
8.8125088574
 20
11.6056030033
 30
0.0
 10
8.8097382206
 20
11.6067383471
 30
0.0
 10
8.8068992365
 20
11.6082122288
 30
0.0
 10
8.8040227448
 20
11.6100217598
 30
0.0
 10
8.8001147082
 20
11.6129179987
 30
0.0
 10
8.7954470003
 20
11.61722912
 30
0.0
 10
8.7913165741
 20
11.6221692947
 30
0.0
 10
8.7884250312
 20
11.6264158147
 30
0.0
 10
8.786541473
 20
11.6296273626
 30
0.0
 10
8.784962852
 20
11.6328287004
 30
0.0
 10
8.7840956621
 20
11.6349852805
 30
0.0
 10
8.7837195746
 20
11.6360503407
 30
0.0
  0
SPLINE
  5
49F
100
AcDbEntity
  8
0
100
AcDbSpline
 62
9
  6
CONTINUOUS
 70
0
 71
3
 72
11
 73
7
 74
0
 42
0.0000001
 43
0.0000001
 44
0.0000000001
 40
0.0
 40
0.0
 40
0.0
 40
0.0
 40
0.244185806
 40
0.5000005067
 40
0.7558149633
 40
1.0
 40
1.0
 40
1.0
 40
1.0
 10
8.8178975746
 20
11.6581743918
 30
0.0
 10
8.8197860737
 20
11.6570654137
 30
0.0
 10
8.8234667938
 20
11.6544608491
 30
0.0
 10
8.8282798509
 20
11.6496406355
 30
0.0
 10
8.8321910196
 20
11.6440636574
 30
0.0
 10
8.834116812
 20
11.6399865651
 30
0.0
 10
8.8348810029
 20
11.6379341901
 30
0.0
  0
SPLINE
  5
4A0
100
AcDbEntity
  8
0
100
AcDbSpline
 62
9
  6
CONTINUOUS
 70
0
 71
3
 72
34
 73
30
 74
0
 42
0.0000001
 43
0.0000001
 44
0.0000000001
 40
0.0
 40
0.0
 40
0.0
 40
0.0
 40
0.0725148027
 40
0.1061103247
 40
0.1379613017
 40
0.1967330145
 40
0.2239435446
 40
0.2498554304
 40
0.2983214463
 40
0.3213243826
 40
0.3437823799
 40
0.3659684018
 40
0.3881926536
 40
0.4107963245
 40
0.434137675
 40
0.4585759349
 40
0.4844525195
 40
0.5120669402
 40
0.5416650126
 40
0.5734142585
 40
0.6073782999
 40
0.6435132495
 40
0.6816326873
 40
0.7623192849
 40
0.8454054554
 40
0.8863085321
 40
0.9259940341
 40
0.9639927201
 40
1.0
 40
1.0
 40
1.0
 40
1.0
 10
8.6484728183
 20
11.8600864432
 30
0.0
 10
8.6492665441
 20
11.8579547181
 30
0.0
 10
8.650155502
 20
11.8547218964
 30
0.0
 10
8.6507221968
 20
11.850427035
 30
0.0
 10
8.6508875309
 20
11.8465302019
 30
0.0
 10
8.6505593634
 20
11.8428237265
 30
0.0
 10
8.6497425625
 20
11.8394046641
 30
0.0
 10
8.6486953901
 20
11.8363912193
 30
0.0
 10
8.6472417827
 20
11.8336687997
 30
0.0
 10
8.6453945917
 20
11.8313647722
 30
0.0
 10
8.6438603745
 20
11.8298894979
 30
0.0
 10
8.6421591816
 20
11.8286509349
 30
0.0
 10
8.6402960497
 20
11.8276620674
 30
0.0
 10
8.6382765467
 20
11.8269371751
 30
0.0
 10
8.6361070704
 20
11.8264905229
 30
0.0
 10
8.6337949279
 20
11.8263361529
 30
0.0
 10
8.6313488478
 20
11.8264878933
 30
0.0
 10
8.6287793654
 20
11.8269573603
 30
0.0
 10
8.626100208
 20
11.8277559783
 30
0.0
 10
8.6233295781
 20
11.8288913456
 30
0.0
 10
8.6204906038
 20
11.8303652474
 30
0.0
 10
8.617614125
 20
11.8321747947
 30
0.0
 10
8.6137061119
 20
11.8350710477
 30
0.0
 10
8.6090384393
 20
11.839382173
 30
0.0
 10
8.6049080489
 20
11.8443223396
 30
0.0
 10
8.6020165354
 20
11.8485688445
 30
0.0
 10
8.6001329988
 20
11.8517803771
 30
0.0
 10
8.5985543971
 20
11.8549816975
 30
0.0
 10
8.5976872185
 20
11.8571382651
 30
0.0
 10
8.5973111361
 20
11.8582033188
 30
0.0
  0
SPLINE
  5
4A1
100
AcDbEntity
  8
0
100
AcDbSpline
 62
9
  6
CONTINUOUS
 70
0
 71
3
 72
34
 73
30
 74
0
 42
0.0000001
 43
0.0000001
 44
0.0000000001
 40
0.0
 40
0.0
 40
0.0
 40
0.0
 40
0.0725157979
 40
0.1061118495
 40
0.1379633232
 40
0.1967358888
 40
0.2239467727
 40
0.2498589612
 40
0.2983254164
 40
0.321328479
 40
0.3437865332
 40
0.3659725373
 40
0.3881966934
 40
0.4108001907
 40
0.4341412936
 40
0.4585792401
 40
0.4844554569
 40
0.5120694704
 40
0.5416671121
 40
0.5734159228
 40
0.6073795442
 40
0.6435141056
 40
0.6816332083
 40
0.7623193369
 40
0.8454053284
 40
0.8863084015
 40
0.9259939356
 40
0.9639926705
 40
1.0
 40
1.0
 40
1.0
 40
1.0
 10
8.4620639848
 20
12.0822405516
 30
0.0
 10
8.4628577301
 20
12.0801087717
 30
0.0
 10
8.4637468746
 20
12.0768759179
 30
0.0
 10
8.4643136982
 20
12.0725809546
 30
0.0
 10
8.464479157
 20
12.0686840227
 30
0.0
 10
8.4641510857
 20
12.0649774401
 30
0.0
 10
8.4633343652
 20
12.0615582673
 30
0.0
 10
8.4622872597
 20
12.0585447231
 30
0.0
 10
8.4608337087
 20
12.0558222016
 30
0.0
 10
8.4589865599
 20
12.0535180706
 30
0.0
 10
8.4574523707
 20
12.0520427236
 30
0.0
 10
8.4557512012
 20
12.0508040893
 30
0.0
 10
8.4538880884
 20
12.0498151519
 30
0.0
 10
8.4518686
 20
12.0490901917
 30
0.0
 10
8.4496991339
 20
12.048643474
 30
0.0
 10
8.4473869972
 20
12.0484890411
 30
0.0
 10
8.4449409185
 20
12.048640722
 30
0.0
 10
8.4423714329
 20
12.0491101337
 30
0.0
 10
8.4396922673
 20
12.0499087007
 30
0.0
 10
8.4369216241
 20
12.0510440227
 30
0.0
 10
8.4340826311
 20
12.0525178859
 30
0.0
 10
8.4312061275
 20
12.0543274019
 30
0.0
 10
8.4272980693
 20
12.0572236277
 30
0.0
 10
8.4226303288
 20
12.0615347452
 30
0.0
 10
8.4184998699
 20
12.0664749272
 30
0.0
 10
8.4156082998
 20
12.0707214611
 30
0.0
 10
8.4137247218
 20
12.0739330232
 30
0.0
 10
8.412146083
 20
12.0771343768
 30
0.0
 10
8.4112788826
 20
12.0792909685
 30
0.0
 10
8.4109027903
 20
12.0803560346
 30
0.0
  0
SPLINE
  5
4A2
100
AcDbEntity
  8
0
100
AcDbSpline
 62
9
  6
CONTINUOUS
 70
0
 71
3
 72
11
 73
7
 74
0
 42
0.0000001
 43
0.0000001
 44
0.0000000001
 40
0.0
 40
0.0
 40
0.0
 40
0.0
 40
0.2441851412
 40
0.4999992673
 40
0.7558138011
 40
1.0
 40
1.0
 40
1.0
 40
1.0
 10
8.445080761
 20
12.1024801688
 30
0.0
 10
8.4469692144
 20
12.1013712237
 30
0.0
 10
8.450649837
 20
12.0987667229
 30
0.0
 10
8.4554628212
 20
12.0939466694
 30
0.0
 10
8.4593739231
 20
12.0883698407
 30
0.0
 10
8.4612998259
 20
12.0842928961
 30
0.0
 10
8.4620639848
 20
12.0822405516
 30
0.0
  0
SPLINE
  5
4A3
100
AcDbEntity
  8
0
100
AcDbSpline
 62
9
  6
CONTINUOUS
 70
0
 71
3
 72
34
 73
30
 74
0
 42
0.0000001
 43
0.0000001
 44
0.0000000001
 40
0.0
 40
0.0
 40
0.0
 40
0.0
 40
0.0725155893
 40
0.1061115298
 40
0.1379628994
 40
0.1967352862
 40
0.223946096
 40
0.249858221
 40
0.298324584
 40
0.3213276201
 40
0.3437856624
 40
0.3659716702
 40
0.3881958464
 40
0.4107993801
 40
0.4341405349
 40
0.4585785471
 40
0.4844548411
 40
0.51206894
 40
0.541666672
 40
0.573415574
 40
0.6073792835
 40
0.6435139263
 40
0.6816330993
 40
0.7623193263
 40
0.8454053553
 40
0.8863084291
 40
0.9259939564
 40
0.963992681
 40
1.0
 40
1.0
 40
1.0
 40
1.0
 10
8.2756556674
 20
12.3043931844
 30
0.0
 10
8.2764494087
 20
12.302261416
 30
0.0
 10
8.2773385141
 20
12.2990285689
 30
0.0
 10
8.2779053106
 20
12.2947336269
 30
0.0
 10
8.2780707433
 20
12.2908367157
 30
0.0
 10
8.2777426518
 20
12.2871301556
 30
0.0
 10
8.2769259145
 20
12.283711006
 30
0.0
 10
8.2758787949
 20
12.2806974826
 30
0.0
 10
8.2744252322
 20
12.2779749825
 30
0.0
 10
8.2725780745
 20
12.2756708732
 30
0.0
 10
8.2710438793
 20
12.2741955414
 30
0.0
 10
8.269342705
 20
12.272956922
 30
0.0
 10
8.2674795881
 20
12.2719679993
 30
0.0
 10
8.2654600967
 20
12.2712430533
 30
0.0
 10
8.2632906284
 20
12.2707963494
 30
0.0
 10
8.2609784906
 20
12.2706419297
 30
0.0
 10
8.2585324115
 20
12.2707936231
 30
0.0
 10
8.2559629266
 20
12.2712630464
 30
0.0
 10
8.2532837627
 20
12.2720616241
 30
0.0
 10
8.2505131223
 20
12.2731969556
 30
0.0
 10
8.2476741332
 20
12.2746708269
 30
0.0
 10
8.2447976348
 20
12.2764803494
 30
0.0
 10
8.2408895861
 20
12.2793765809
 30
0.0
 10
8.2362218598
 20
12.2836877001
 30
0.0
 10
8.2320914152
 20
12.2886278789
 30
0.0
 10
8.229199857
 20
12.2928744067
 30
0.0
 10
8.2273162877
 20
12.2960859626
 30
0.0
 10
8.2257376567
 20
12.2992873093
 30
0.0
 10
8.2248704609
 20
12.301443896
 30
0.0
 10
8.2244943706
 20
12.3025089594
 30
0.0
  0
SPLINE
  5
4A4
100
AcDbEntity
  8
0
100
AcDbSpline
 62
9
  6
CONTINUOUS
 70
0
 71
3
 72
11
 73
7
 74
0
 42
0.0000001
 43
0.0000001
 44
0.0000000001
 40
0.0
 40
0.0
 40
0.0
 40
0.0
 40
0.2441854296
 40
0.4999998288
 40
0.7558142784
 40
1.0
 40
1.0
 40
1.0
 40
1.0
 10
8.2586723542
 20
12.3246330573
 30
0.0
 10
8.260560833
 20
12.323524107
 30
0.0
 10
8.2642415053
 20
12.3209195816
 30
0.0
 10
8.2690544882
 20
12.3160994294
 30
0.0
 10
8.272965659
 20
12.3105225623
 30
0.0
 10
8.2748914879
 20
12.3064455401
 30
0.0
 10
8.2756556674
 20
12.3043931844
 30
0.0
  0
SPLINE
  5
4A5
100
AcDbEntity
  8
0
100
AcDbSpline
 62
9
  6
CONTINUOUS
 70
0
 71
3
 72
18
 73
14
 74
0
 42
0.0000001
 43
0.0000001
 44
0.0000000001
 40
0.0
 40
0.0
 40
0.0
 40
0.0
 40
0.204823817
 40
0.3840832235
 40
0.5378505264
 40
0.6667501133
 40
0.77229226
 40
0.8173213144
 40
0.8579928807
 40
0.8952486496
 40
0.930329296
 40
0.9647204861
 40
1.0
 40
1.0
 40
1.0
 40
1.0
 10
9.1912936588
 20
11.1576532446
 30
0.0
 10
9.1914020333
 20
11.1573661336
 30
0.0
 10
9.1915942061
 20
11.1568234121
 30
0.0
 10
9.1918208061
 20
11.1560495747
 30
0.0
 10
9.1919665557
 20
11.1553720664
 30
0.0
 10
9.1920316973
 20
11.1547930354
 30
0.0
 10
9.192018421
 20
11.1543717602
 30
0.0
 10
9.1919595676
 20
11.1540905765
 30
0.0
 10
9.191896726
 20
11.1539166195
 30
0.0
 10
9.1918124747
 20
11.15376863
 30
0.0
 10
9.1917064137
 20
11.1536473414
 30
0.0
 10
9.1915788356
 20
11.1535538162
 30
0.0
 10
9.191482449
 20
11.1535114782
 30
0.0
 10
9.1914322395
 20
11.1534949539
 30
0.0
  0
SPLINE
  5
4A6
100
AcDbEntity
  8
0
100
AcDbSpline
 62
9
  6
CONTINUOUS
 70
0
 71
3
 72
19
 73
15
 74
0
 42
0.0000001
 43
0.0000001
 44
0.0000000001
 40
0.0
 40
0.0
 40
0.0
 40
0.0
 40
0.1736155891
 40
0.33144884
 40
0.4732735398
 40
0.5384433215
 40
0.5999427106
 40
0.6579712604
 40
0.7127831973
 40
0.8139806051
 40
0.8615232409
 40
0.9078216659
 40
0.9536790622
 40
1.0
 40
1.0
 40
1.0
 40
1.0
 10
9.2112595102
 20
11.1940407529
 30
0.0
 10
9.2121816949
 20
11.1918810117
 30
0.0
 10
9.213659112
 20
11.1876286606
 30
0.0
 10
9.2148869276
 20
11.1813257416
 30
0.0
 10
9.2151203334
 20
11.1763752825
 30
0.0
 10
9.2148488593
 20
11.1727500312
 30
0.0
 10
9.214452098
 20
11.1702803011
 30
0.0
 10
9.2138659555
 20
11.1679918554
 30
0.0
 10
9.2128711512
 20
11.1652701984
 30
0.0
 10
9.2115071897
 20
11.1628406433
 30
0.0
 10
9.2097682933
 20
11.1608463825
 30
0.0
 10
9.2083271181
 20
11.159612836
 30
0.0
 10
9.2067272291
 20
11.1586247275
 30
0.0
 10
9.2055705899
 20
11.1581430288
 30
0.0
 10
9.2049753788
 20
11.1579473445
 30
0.0
  0
SPLINE
  5
4A7
100
AcDbEntity
  8
0
100
AcDbSpline
 62
7
  6
CONTINUOUS
 70
0
 71
3
 72
23
 73
19
 74
0
 42
0.0000001
 43
0.0000001
 44
0.0000000001
 40
0.0
 40
0.0
 40
0.0
 40
0.0
 40
0.0084906217
 40
0.0178769539
 40
0.0285813346
 40
0.0408473195
 40
0.0548041666
 40
0.0705234047
 40
0.1073441825
 40
0.1513531547
 40
0.2024075237
 40
0.260320254
 40
0.3248186383
 40
0.395477849
 40
0.4715914991
 40
0.6369935843
 40
0.8151129113
 40
1.0
 40
1.0
 40
1.0
 40
1.0
 10
9.9007218071
 20
10.3019416593
 30
0.0
 10
9.9006868469
 20
10.3019014381
 30
0.0
 10
9.9006259919
 20
10.3018051262
 30
0.0
 10
9.9005714098
 20
10.3016327863
 30
0.0
 10
9.900547898
 20
10.3014301449
 30
0.0
 10
9.900553979
 20
10.3011978929
 30
0.0
 10
9.9005886839
 20
10.3009365643
 30
0.0
 10
9.9006774443
 20
10.3005283826
 30
0.0
 10
9.900864778
 20
10.2999507062
 30
0.0
 10
9.9011843087
 20
10.2991865355
 30
0.0
 10
9.9016075367
 20
10.2983241603
 30
0.0
 10
9.9021318839
 20
10.2973696613
 30
0.0
 10
9.9027541554
 20
10.2963295656
 30
0.0
 10
9.9034692539
 20
10.295212668
 30
0.0
 10
9.9045661805
 20
10.2935889545
 30
0.0
 10
9.9061079536
 20
10.2914527427
 30
0.0
 10
9.9081318329
 20
10.2888248081
 30
0.0
 10
9.9095720149
 20
10.2870588383
 30
0.0
 10
9.9103179327
 20
10.2861698881
 30
0.0
  0
SPLINE
  5
4A8
100
AcDbEntity
  8
0
100
AcDbSpline
 62
9
  6
CONTINUOUS
 70
0
 71
3
 72
18
 73
14
 74
0
 42
0.0000001
 43
0.0000001
 44
0.0000000001
 40
0.0
 40
0.0
 40
0.0
 40
0.0
 40
0.0352826001
 40
0.0696732369
 40
0.1047549384
 40
0.1420171708
 40
0.1826999344
 40
0.2277399198
 40
0.3332926836
 40
0.4621876099
 40
0.6159460772
 40
0.7951932286
 40
1.0
 40
1.0
 40
1.0
 40
1.0
 10
8.9619576484
 20
11.4269724829
 30
0.0
 10
8.9619826349
 20
11.4270190245
 30
0.0
 10
8.9620410423
 20
11.4271065232
 30
0.0
 10
8.9621552409
 20
11.4272158258
 30
0.0
 10
8.9622930241
 20
11.4272991373
 30
0.0
 10
8.9624533018
 20
11.4273563793
 30
0.0
 10
8.962635426
 20
11.4273880976
 30
0.0
 10
8.9629223929
 20
11.4273973482
 30
0.0
 10
8.9633393232
 20
11.427337458
 30
0.0
 10
8.9638978331
 20
11.4271728571
 30
0.0
 10
8.964539234
 20
11.4269118899
 30
0.0
 10
8.9652614731
 20
11.4265548201
 30
0.0
 10
8.9657622431
 20
11.4262716703
 30
0.0
 10
8.9660259853
 20
11.4261152582
 30
0.0
  0
SPLINE
  5
4A9
100
AcDbEntity
  8
0
100
AcDbSpline
 62
9
  6
CONTINUOUS
 70
0
 71
3
 72
19
 73
15
 74
0
 42
0.0000001
 43
0.0000001
 44
0.0000000001
 40
0.0
 40
0.0
 40
0.0
 40
0.0
 40
0.0463215015
 40
0.0921786737
 40
0.1384766779
 40
0.1860191467
 40
0.2872164488
 40
0.3420283548
 40
0.4000569826
 40
0.4615564614
 40
0.526726232
 40
0.6685510195
 40
0.8263843709
 40
1.0
 40
1.0
 40
1.0
 40
1.0
 10
8.4094688044
 20
12.105995176
 30
0.0
 10
8.409764876
 20
12.1065473712
 30
0.0
 10
8.4104401016
 20
12.1076027999
 30
0.0
 10
8.4116910154
 20
12.1090067999
 30
0.0
 10
8.413156076
 20
12.1102118635
 30
0.0
 10
8.4154219894
 20
12.1115780333
 30
0.0
 10
8.4180514797
 20
12.1124993844
 30
0.0
 10
8.4209045349
 20
12.1130064571
 30
0.0
 10
8.4232599967
 20
12.1131863192
 30
0.0
 10
8.425761106
 20
12.1131482099
 30
0.0
 10
8.4293784222
 20
12.1127860151
 30
0.0
 10
8.4342131475
 20
12.1116965373
 30
0.0
 10
8.4402070986
 20
12.1093928624
 30
0.0
 10
8.4441383031
 20
12.1071994882
 30
0.0
 10
8.4461050956
 20
12.105916275
 30
0.0
  0
SPLINE
  5
4AA
100
AcDbEntity
  8
0
100
AcDbSpline
 62
7
  6
CONTINUOUS
 70
0
 71
3
 72
14
 73
10
 74
0
 42
0.0000001
 43
0.0000001
 44
0.0000000001
 40
0.0
 40
0.0
 40
0.0
 40
0.0
 40
0.2540179749
 40
0.5063270226
 40
0.6313536729
 40
0.7553838795
 40
0.8169866309
 40
0.878304678
 40
1.0
 40
1.0
 40
1.0
 40
1.0
 10
9.2020948852
 20
11.2061726458
 30
0.0
 10
9.201267239
 20
11.2071591385
 30
0.0
 10
9.1995737899
 20
11.2090891481
 30
0.0
 10
9.1973747398
 20
11.2114151615
 30
0.0
 10
9.1955991214
 20
11.2132336355
 30
0.0
 10
9.1944939814
 20
11.2143555726
 30
0.0
 10
9.193620893
 20
11.2152527815
 30
0.0
 10
9.192762747
 20
11.2161478022
 30
0.0
 10
9.1921360976
 20
11.216832841
 30
0.0
 10
9.1917387211
 20
11.2173047231
 30
0.0
  0
SPLINE
  5
4AB
100
AcDbEntity
  8
0
100
AcDbSpline
 62
7
  6
CONTINUOUS
 70
0
 71
3
 72
14
 73
10
 74
0
 42
0.0000001
 43
0.0000001
 44
0.0000000001
 40
0.0
 40
0.0
 40
0.0
 40
0.0
 40
0.1216962085
 40
0.1830142629
 40
0.2446166767
 40
0.3686461875
 40
0.4936727043
 40
0.7459821161
 40
1.0
 40
1.0
 40
1.0
 40
1.0
 10
9.2112595246
 20
11.1940407358
 30
0.0
 10
9.2108637563
 20
11.194513975
 30
0.0
 10
9.2102976814
 20
11.1952498673
 30
0.0
 10
9.2095652766
 20
11.1962504066
 30
0.0
 10
9.2088335578
 20
11.197266206
 30
0.0
 10
9.2079209585
 20
11.1985496511
 30
0.0
 10
9.2064384694
 20
11.2006140943
 30
0.0
 10
9.2045288907
 20
11.2031830822
 30
0.0
 10
9.2029225336
 20
11.2051861521
 30
0.0
 10
9.202094886
 20
11.2061726465
 30
0.0
  0
SPLINE
  5
4AC
100
AcDbEntity
  8
0
100
AcDbSpline
 62
7
  6
CONTINUOUS
 70
0
 71
3
 72
23
 73
19
 74
0
 42
0.0000001
 43
0.0000001
 44
0.0000000001
 40
0.0
 40
0.0
 40
0.0
 40
0.0
 40
0.0084906217
 40
0.0178769539
 40
0.0285813346
 40
0.0408473195
 40
0.0548041666
 40
0.0705234047
 40
0.1073441825
 40
0.1513531547
 40
0.2024075237
 40
0.260320254
 40
0.3248186383
 40
0.395477849
 40
0.4715914991
 40
0.6369935843
 40
0.8151129113
 40
1.0
 40
1.0
 40
1.0
 40
1.0
 10
9.7143134003
 20
10.5240945478
 30
0.0
 10
9.7142784401
 20
10.5240543266
 30
0.0
 10
9.7142175851
 20
10.5239580147
 30
0.0
 10
9.714163003
 20
10.5237856748
 30
0.0
 10
9.7141394912
 20
10.5235830334
 30
0.0
 10
9.7141455722
 20
10.5233507814
 30
0.0
 10
9.7141802771
 20
10.5230894528
 30
0.0
 10
9.7142690375
 20
10.5226812711
 30
0.0
 10
9.7144563712
 20
10.5221035947
 30
0.0
 10
9.7147759019
 20
10.521339424
 30
0.0
 10
9.7151991299
 20
10.5204770488
 30
0.0
 10
9.7157234771
 20
10.5195225498
 30
0.0
 10
9.7163457486
 20
10.5184824541
 30
0.0
 10
9.7170608471
 20
10.5173655565
 30
0.0
 10
9.7181577737
 20
10.515741843
 30
0.0
 10
9.7196995468
 20
10.5136056312
 30
0.0
 10
9.7217234261
 20
10.5109776966
 30
0.0
 10
9.7231636081
 20
10.5092117268
 30
0.0
 10
9.7239095259
 20
10.5083227766
 30
0.0
  0
SPLINE
  5
4AD
100
AcDbEntity
  8
0
100
AcDbSpline
 62
9
  6
CONTINUOUS
 70
0
 71
3
 72
19
 73
15
 74
0
 42
0.0000001
 43
0.0000001
 44
0.0000000001
 40
0.0
 40
0.0
 40
0.0
 40
0.0
 40
0.0463214964
 40
0.0921786636
 40
0.1384766632
 40
0.1860191283
 40
0.2872164253
 40
0.3420283302
 40
0.4000569578
 40
0.4615564373
 40
0.5267262094
 40
0.6685510025
 40
0.8263843618
 40
1.0
 40
1.0
 40
1.0
 40
1.0
 10
8.2230603976
 20
12.3281480645
 30
0.0
 10
8.2233564693
 20
12.3287002599
 30
0.0
 10
8.224031695
 20
12.3297556888
 30
0.0
 10
8.2252826092
 20
12.331159689
 30
0.0
 10
8.2267476703
 20
12.3323647528
 30
0.0
 10
8.2290135846
 20
12.3337309227
 30
0.0
 10
8.2316430758
 20
12.3346522737
 30
0.0
 10
8.2344961319
 20
12.3351593461
 30
0.0
 10
8.2368515947
 20
12.3353392079
 30
0.0
 10
8.2393527048
 20
12.3353010981
 30
0.0
 10
8.2429700223
 20
12.3349389025
 30
0.0
 10
8.2478047493
 20
12.3338494233
 30
0.0
 10
8.2537987025
 20
12.3315457464
 30
0.0
 10
8.2577299075
 20
12.3293523695
 30
0.0
 10
8.2596967009
 20
12.3280691559
 30
0.0
  0
SPLINE
  5
4AE
100
AcDbEntity
  8
0
100
AcDbSpline
 62
9
  6
CONTINUOUS
 70
0
 71
3
 72
18
 73
14
 74
0
 42
0.0000001
 43
0.0000001
 44
0.0000000001
 40
0.0
 40
0.0
 40
0.0
 40
0.0
 40
0.204823817
 40
0.3840832235
 40
0.5378505264
 40
0.6667501133
 40
0.77229226
 40
0.8173213144
 40
0.8579928807
 40
0.8952486496
 40
0.930329296
 40
0.9647204861
 40
1.0
 40
1.0
 40
1.0
 40
1.0
 10
9.3777020656
 20
10.9355003561
 30
0.0
 10
9.3778104401
 20
10.9352132451
 30
0.0
 10
9.3780026129
 20
10.9346705236
 30
0.0
 10
9.3782292129
 20
10.9338966862
 30
0.0
 10
9.3783749626
 20
10.9332191779
 30
0.0
 10
9.3784401041
 20
10.9326401469
 30
0.0
 10
9.3784268278
 20
10.9322188717
 30
0.0
 10
9.3783679744
 20
10.931937688
 30
0.0
 10
9.3783051329
 20
10.9317637309
 30
0.0
 10
9.3782208815
 20
10.9316157415
 30
0.0
 10
9.3781148205
 20
10.9314944529
 30
0.0
 10
9.3779872424
 20
10.9314009277
 30
0.0
 10
9.3778908558
 20
10.9313585897
 30
0.0
 10
9.3778406463
 20
10.9313420654
 30
0.0
  0
SPLINE
  5
4AF
100
AcDbEntity
  8
0
100
AcDbSpline
 62
9
  6
CONTINUOUS
 70
0
 71
3
 72
19
 73
15
 74
0
 42
0.0000001
 43
0.0000001
 44
0.0000000001
 40
0.0
 40
0.0
 40
0.0
 40
0.0
 40
0.1736155891
 40
0.33144884
 40
0.4732735398
 40
0.5384433215
 40
0.5999427106
 40
0.6579712604
 40
0.7127831973
 40
0.8139806051
 40
0.8615232409
 40
0.9078216659
 40
0.9536790622
 40
1.0
 40
1.0
 40
1.0
 40
1.0
 10
9.397667917
 20
10.9718878644
 30
0.0
 10
9.3985901017
 20
10.9697281232
 30
0.0
 10
9.4000675188
 20
10.965475772
 30
0.0
 10
9.4012953344
 20
10.9591728531
 30
0.0
 10
9.4015287402
 20
10.954222394
 30
0.0
 10
9.4012572661
 20
10.9505971427
 30
0.0
 10
9.4008605048
 20
10.9481274126
 30
0.0
 10
9.4002743624
 20
10.9458389669
 30
0.0
 10
9.3992795581
 20
10.9431173099
 30
0.0
 10
9.3979155965
 20
10.9406877548
 30
0.0
 10
9.3961767002
 20
10.938693494
 30
0.0
 10
9.3947355249
 20
10.9374599475
 30
0.0
 10
9.3931356359
 20
10.936471839
 30
0.0
 10
9.3919789967
 20
10.9359901402
 30
0.0
 10
9.3913837857
 20
10.9357944559
 30
0.0
  0
SPLINE
  5
4B0
100
AcDbEntity
  8
0
100
AcDbSpline
 62
7
  6
CONTINUOUS
 70
0
 71
3
 72
23
 73
19
 74
0
 42
0.0000001
 43
0.0000001
 44
0.0000000001
 40
0.0
 40
0.0
 40
0.0
 40
0.0
 40
0.0084906217
 40
0.0178769539
 40
0.0285813346
 40
0.0408473195
 40
0.0548041666
 40
0.0705234047
 40
0.1073441825
 40
0.1513531547
 40
0.2024075237
 40
0.260320254
 40
0.3248186383
 40
0.395477849
 40
0.4715914991
 40
0.6369935843
 40
0.8151129113
 40
1.0
 40
1.0
 40
1.0
 40
1.0
 10
9.5279049935
 20
10.7462474363
 30
0.0
 10
9.5278700333
 20
10.7462072151
 30
0.0
 10
9.5278091783
 20
10.7461109032
 30
0.0
 10
9.5277545962
 20
10.7459385633
 30
0.0
 10
9.5277310844
 20
10.7457359219
 30
0.0
 10
9.5277371654
 20
10.7455036699
 30
0.0
 10
9.5277718703
 20
10.7452423413
 30
0.0
 10
9.5278606307
 20
10.7448341596
 30
0.0
 10
9.5280479644
 20
10.7442564832
 30
0.0
 10
9.5283674951
 20
10.7434923125
 30
0.0
 10
9.5287907231
 20
10.7426299373
 30
0.0
 10
9.5293150702
 20
10.7416754383
 30
0.0
 10
9.5299373418
 20
10.7406353426
 30
0.0
 10
9.5306524403
 20
10.739518445
 30
0.0
 10
9.5317493668
 20
10.7378947315
 30
0.0
 10
9.53329114
 20
10.7357585197
 30
0.0
 10
9.5353150193
 20
10.7331305851
 30
0.0
 10
9.5367552013
 20
10.7313646153
 30
0.0
 10
9.537501119
 20
10.7304756651
 30
0.0
  0
SPLINE
  5
4B1
100
AcDbEntity
  8
0
100
AcDbSpline
 62
7
  6
CONTINUOUS
 70
0
 71
3
 72
14
 73
10
 74
0
 42
0.0000001
 43
0.0000001
 44
0.0000000001
 40
0.0
 40
0.0
 40
0.0
 40
0.0
 40
0.2540179749
 40
0.5063270226
 40
0.6313536729
 40
0.7553838795
 40
0.8169866309
 40
0.878304678
 40
1.0
 40
1.0
 40
1.0
 40
1.0
 10
9.388503292
 20
10.9840197573
 30
0.0
 10
9.3876756458
 20
10.98500625
 30
0.0
 10
9.3859821967
 20
10.9869362596
 30
0.0
 10
9.3837831466
 20
10.989262273
 30
0.0
 10
9.3820075282
 20
10.991080747
 30
0.0
 10
9.3809023883
 20
10.9922026841
 30
0.0
 10
9.3800292998
 20
10.993099893
 30
0.0
 10
9.3791711538
 20
10.9939949137
 30
0.0
 10
9.3785445045
 20
10.9946799525
 30
0.0
 10
9.3781471279
 20
10.9951518346
 30
0.0
  0
SPLINE
  5
4B2
100
AcDbEntity
  8
0
100
AcDbSpline
 62
7
  6
CONTINUOUS
 70
0
 71
3
 72
14
 73
10
 74
0
 42
0.0000001
 43
0.0000001
 44
0.0000000001
 40
0.0
 40
0.0
 40
0.0
 40
0.0
 40
0.1216962085
 40
0.1830142629
 40
0.2446166767
 40
0.3686461875
 40
0.4936727043
 40
0.7459821161
 40
1.0
 40
1.0
 40
1.0
 40
1.0
 10
9.3976679314
 20
10.9718878472
 30
0.0
 10
9.3972721631
 20
10.9723610865
 30
0.0
 10
9.3967060883
 20
10.9730969788
 30
0.0
 10
9.3959736834
 20
10.9740975181
 30
0.0
 10
9.3952419646
 20
10.9751133175
 30
0.0
 10
9.3943293654
 20
10.9763967626
 30
0.0
 10
9.3928468762
 20
10.9784612058
 30
0.0
 10
9.3909372975
 20
10.9810301937
 30
0.0
 10
9.3893309404
 20
10.9830332636
 30
0.0
 10
9.3885032928
 20
10.984019758
 30
0.0
  0
SPLINE
  5
4B3
100
AcDbEntity
  8
0
100
AcDbSpline
 62
9
  6
CONTINUOUS
 70
0
 71
3
 72
18
 73
14
 74
0
 42
0.0000001
 43
0.0000001
 44
0.0000000001
 40
0.0
 40
0.0
 40
0.0
 40
0.0
 40
0.204823817
 40
0.3840832235
 40
0.5378505264
 40
0.6667501133
 40
0.77229226
 40
0.8173213144
 40
0.8579928807
 40
0.8952486496
 40
0.930329296
 40
0.9647204861
 40
1.0
 40
1.0
 40
1.0
 40
1.0
 10
9.5641104724
 20
10.7133474676
 30
0.0
 10
9.564218847
 20
10.7130603566
 30
0.0
 10
9.5644110197
 20
10.7125176351
 30
0.0
 10
9.5646376197
 20
10.7117437977
 30
0.0
 10
9.5647833694
 20
10.7110662894
 30
0.0
 10
9.5648485109
 20
10.7104872584
 30
0.0
 10
9.5648352346
 20
10.7100659832
 30
0.0
 10
9.5647763812
 20
10.7097847995
 30
0.0
 10
9.5647135397
 20
10.7096108424
 30
0.0
 10
9.5646292883
 20
10.709462853
 30
0.0
 10
9.5645232273
 20
10.7093415644
 30
0.0
 10
9.5643956492
 20
10.7092480392
 30
0.0
 10
9.5642992626
 20
10.7092057012
 30
0.0
 10
9.5642490532
 20
10.7091891769
 30
0.0
  0
SPLINE
  5
4B4
100
AcDbEntity
  8
0
100
AcDbSpline
 62
9
  6
CONTINUOUS
 70
0
 71
3
 72
19
 73
15
 74
0
 42
0.0000001
 43
0.0000001
 44
0.0000000001
 40
0.0
 40
0.0
 40
0.0
 40
0.0
 40
0.1736155891
 40
0.33144884
 40
0.4732735398
 40
0.5384433215
 40
0.5999427106
 40
0.6579712604
 40
0.7127831973
 40
0.8139806052
 40
0.8615232409
 40
0.9078216659
 40
0.9536790622
 40
1.0
 40
1.0
 40
1.0
 40
1.0
 10
9.5840763238
 20
10.7497349759
 30
0.0
 10
9.5849985085
 20
10.7475752347
 30
0.0
 10
9.5864759256
 20
10.7433228835
 30
0.0
 10
9.5877037412
 20
10.7370199646
 30
0.0
 10
9.587937147
 20
10.7320695055
 30
0.0
 10
9.5876656729
 20
10.7284442542
 30
0.0
 10
9.5872689116
 20
10.7259745241
 30
0.0
 10
9.5866827692
 20
10.7236860784
 30
0.0
 10
9.5856879649
 20
10.7209644214
 30
0.0
 10
9.5843240033
 20
10.7185348663
 30
0.0
 10
9.582585107
 20
10.7165406055
 30
0.0
 10
9.5811439317
 20
10.715307059
 30
0.0
 10
9.5795440427
 20
10.7143189505
 30
0.0
 10
9.5783874035
 20
10.7138372517
 30
0.0
 10
9.5777921925
 20
10.7136415674
 30
0.0
  0
SPLINE
  5
4B5
100
AcDbEntity
  8
0
100
AcDbSpline
 62
7
  6
CONTINUOUS
 70
0
 71
3
 72
23
 73
19
 74
0
 42
0.0000001
 43
0.0000001
 44
0.0000000001
 40
0.0
 40
0.0
 40
0.0
 40
0.0
 40
0.0084906217
 40
0.0178769539
 40
0.0285813346
 40
0.0408473195
 40
0.0548041666
 40
0.0705234047
 40
0.1073441825
 40
0.1513531547
 40
0.2024075237
 40
0.260320254
 40
0.3248186383
 40
0.395477849
 40
0.4715914991
 40
0.6369935843
 40
0.8151129113
 40
1.0
 40
1.0
 40
1.0
 40
1.0
 10
9.3414965867
 20
10.9684003248
 30
0.0
 10
9.3414616265
 20
10.9683601036
 30
0.0
 10
9.3414007714
 20
10.9682637917
 30
0.0
 10
9.3413461894
 20
10.9680914518
 30
0.0
 10
9.3413226776
 20
10.9678888105
 30
0.0
 10
9.3413287586
 20
10.9676565584
 30
0.0
 10
9.3413634635
 20
10.9673952298
 30
0.0
 10
9.3414522239
 20
10.9669870481
 30
0.0
 10
9.3416395576
 20
10.9664093717
 30
0.0
 10
9.3419590883
 20
10.965645201
 30
0.0
 10
9.3423823163
 20
10.9647828258
 30
0.0
 10
9.3429066634
 20
10.9638283268
 30
0.0
 10
9.343528935
 20
10.9627882311
 30
0.0
 10
9.3442440335
 20
10.9616713335
 30
0.0
 10
9.34534096
 20
10.96004762
 30
0.0
 10
9.3468827332
 20
10.9579114082
 30
0.0
 10
9.3489066124
 20
10.9552834736
 30
0.0
 10
9.3503467945
 20
10.9535175039
 30
0.0
 10
9.3510927122
 20
10.9526285537
 30
0.0
  0
SPLINE
  5
4B6
100
AcDbEntity
  8
0
100
AcDbSpline
 62
9
  6
CONTINUOUS
 70
0
 71
3
 72
28
 73
24
 74
0
 42
0.0000001
 43
0.0000001
 44
0.0000000001
 40
0.0
 40
0.0
 40
0.0
 40
0.0
 40
0.1253767977
 40
0.2505333771
 40
0.3754594921
 40
0.4378428725
 40
0.5001728346
 40
0.5624541655
 40
0.6246991762
 40
0.6869195339
 40
0.7180368963
 40
0.7491600571
 40
0.7802985309
 40
0.8114651928
 40
0.8426695028
 40
0.8739315191
 40
0.9052738667
 40
0.9209934025
 40
0.9367418132
 40
0.952521068
 40
0.9683288572
 40
0.9841608007
 40
1.0
 40
1.0
 40
1.0
 40
1.0
 10
14.2576118432
 20
5.378683729
 30
0.0
 10
14.2538459674
 20
5.3781598537
 30
0.0
 10
14.2463331807
 20
5.3770204096
 30
0.0
 10
14.2351304599
 20
5.3749747048
 30
0.0
 10
14.2258774765
 20
5.3729158953
 30
0.0
 10
14.2185542664
 20
5.3709934485
 30
0.0
 10
14.2131134136
 20
5.3693915628
 30
0.0
 10
14.207737165
 20
5.3675966704
 30
0.0
 10
14.2024437524
 20
5.3655780629
 30
0.0
 10
14.19813136
 20
5.3636555484
 30
0.0
 10
14.1947666313
 20
5.3619437208
 30
0.0
 10
14.1922970855
 20
5.3605559358
 30
0.0
 10
14.1898970091
 20
5.3590478686
 30
0.0
 10
14.1875828521
 20
5.3574058048
 30
0.0
 10
14.1853870533
 20
5.3556006829
 30
0.0
 10
14.1833547308
 20
5.3536040517
 30
0.0
 10
14.1818498709
 20
5.351757092
 30
0.0
 10
14.1808120716
 20
5.3501577389
 30
0.0
 10
14.1801351651
 20
5.3488927057
 30
0.0
 10
14.1795782771
 20
5.3475672317
 30
0.0
 10
14.1791574022
 20
5.3461892556
 30
0.0
 10
14.1788949427
 20
5.344770284
 30
0.0
 10
14.1788361728
 20
5.3438087245
 30
0.0
 10
14.1788367239
 20
5.3433283899
 30
0.0
  0
SPLINE
  5
4B7
100
AcDbEntity
  8
0
100
AcDbSpline
 62
7
  6
CONTINUOUS
 70
0
 71
3
 72
14
 73
10
 74
0
 42
0.0000001
 43
0.0000001
 44
0.0000000001
 40
0.0
 40
0.0
 40
0.0
 40
0.0
 40
0.254017949
 40
0.5063270763
 40
0.6313537287
 40
0.7553838567
 40
0.8169865478
 40
0.8783045689
 40
1.0
 40
1.0
 40
1.0
 40
1.0
 10
9.5749117248
 20
10.7618668907
 30
0.0
 10
9.5740840492
 20
10.7628533587
 30
0.0
 10
9.5723905294
 20
10.7647833039
 30
0.0
 10
9.5701916003
 20
10.7671094313
 30
0.0
 10
9.5684159849
 20
10.7689279095
 30
0.0
 10
9.5673107959
 20
10.7700497975
 30
0.0
 10
9.566437674
 20
10.7709469729
 30
0.0
 10
9.565579527
 20
10.7718419935
 30
0.0
 10
9.5649529068
 20
10.7725270594
 30
0.0
 10
9.5645555347
 20
10.7729989461
 30
0.0
  0
SPLINE
  5
4B8
100
AcDbEntity
  8
0
100
AcDbSpline
 62
7
  6
CONTINUOUS
 70
0
 71
3
 72
14
 73
10
 74
0
 42
0.0000001
 43
0.0000001
 44
0.0000000001
 40
0.0
 40
0.0
 40
0.0
 40
0.0
 40
0.1216960232
 40
0.1830141176
 40
0.2446166285
 40
0.3686462774
 40
0.4936728129
 40
0.7459821034
 40
1.0
 40
1.0
 40
1.0
 40
1.0
 10
9.5840763382
 20
10.7497349588
 30
0.0
 10
9.5836805785
 20
10.7502082039
 30
0.0
 10
9.5831145577
 20
10.7509441372
 30
0.0
 10
9.5823821553
 20
10.751944677
 30
0.0
 10
9.5816503747
 20
10.7529604334
 30
0.0
 10
9.5807376796
 20
10.7542438116
 30
0.0
 10
9.5792551837
 20
10.7563082488
 30
0.0
 10
9.5773457957
 20
10.7588773776
 30
0.0
 10
9.5757394026
 20
10.7608804217
 30
0.0
 10
9.5749117256
 20
10.7618668913
 30
0.0
  0
SPLINE
  5
4B9
100
AcDbEntity
  8
0
100
AcDbSpline
 62
7
  6
CONTINUOUS
 70
0
 71
3
 72
23
 73
19
 74
0
 42
0.0000001
 43
0.0000001
 44
0.0000000001
 40
0.0
 40
0.0
 40
0.0
 40
0.0
 40
0.0084906217
 40
0.0178769539
 40
0.0285813346
 40
0.0408473195
 40
0.0548041666
 40
0.0705234047
 40
0.1073441825
 40
0.1513531547
 40
0.2024075237
 40
0.260320254
 40
0.3248186383
 40
0.395477849
 40
0.4715914991
 40
0.6369935843
 40
0.8151129113
 40
1.0
 40
1.0
 40
1.0
 40
1.0
 10
9.1550881799
 20
11.1905532133
 30
0.0
 10
9.1550532197
 20
11.1905129921
 30
0.0
 10
9.1549923646
 20
11.1904166802
 30
0.0
 10
9.1549377826
 20
11.1902443403
 30
0.0
 10
9.1549142707
 20
11.190041699
 30
0.0
 10
9.1549203518
 20
11.1898094469
 30
0.0
 10
9.1549550567
 20
11.1895481183
 30
0.0
 10
9.1550438171
 20
11.1891399366
 30
0.0
 10
9.1552311508
 20
11.1885622602
 30
0.0
 10
9.1555506815
 20
11.1877980895
 30
0.0
 10
9.1559739095
 20
11.1869357143
 30
0.0
 10
9.1564982566
 20
11.1859812153
 30
0.0
 10
9.1571205282
 20
11.1849411196
 30
0.0
 10
9.1578356267
 20
11.183824222
 30
0.0
 10
9.1589325532
 20
11.1822005085
 30
0.0
 10
9.1604743264
 20
11.1800642967
 30
0.0
 10
9.1624982056
 20
11.1774363621
 30
0.0
 10
9.1639383876
 20
11.1756703924
 30
0.0
 10
9.1646843054
 20
11.1747814422
 30
0.0
  0
SPLINE
  5
4BA
100
AcDbEntity
  8
0
100
AcDbSpline
 62
9
  6
CONTINUOUS
 70
0
 71
3
 72
18
 73
14
 74
0
 42
0.0000001
 43
0.0000001
 44
0.0000000001
 40
0.0
 40
0.0
 40
0.0
 40
0.0
 40
0.204823817
 40
0.3840832235
 40
0.5378505264
 40
0.6667501133
 40
0.77229226
 40
0.8173213144
 40
0.8579928807
 40
0.8952486496
 40
0.930329296
 40
0.9647204861
 40
1.0
 40
1.0
 40
1.0
 40
1.0
 10
9.7505188792
 20
10.491194579
 30
0.0
 10
9.7506272538
 20
10.4909074681
 30
0.0
 10
9.7508194265
 20
10.4903647466
 30
0.0
 10
9.7510460265
 20
10.4895909092
 30
0.0
 10
9.7511917762
 20
10.4889134009
 30
0.0
 10
9.7512569177
 20
10.4883343699
 30
0.0
 10
9.7512436414
 20
10.4879130947
 30
0.0
 10
9.751184788
 20
10.487631911
 30
0.0
 10
9.7511219465
 20
10.4874579539
 30
0.0
 10
9.7510376951
 20
10.4873099645
 30
0.0
 10
9.7509316341
 20
10.4871886759
 30
0.0
 10
9.750804056
 20
10.4870951507
 30
0.0
 10
9.7507076694
 20
10.4870528127
 30
0.0
 10
9.75065746
 20
10.4870362884
 30
0.0
  0
SPLINE
  5
4BB
100
AcDbEntity
  8
0
100
AcDbSpline
 62
9
  6
CONTINUOUS
 70
0
 71
3
 72
19
 73
15
 74
0
 42
0.0000001
 43
0.0000001
 44
0.0000000001
 40
0.0
 40
0.0
 40
0.0
 40
0.0
 40
0.1736155903
 40
0.3314488423
 40
0.4732735429
 40
0.5384433248
 40
0.599942714
 40
0.6579712637
 40
0.7127832004
 40
0.8139806076
 40
0.8615232429
 40
0.9078216672
 40
0.9536790629
 40
1.0
 40
1.0
 40
1.0
 40
1.0
 10
9.7704847299
 20
10.5275820892
 30
0.0
 10
9.7714069146
 20
10.5254223478
 30
0.0
 10
9.7728843321
 20
10.5211699966
 30
0.0
 10
9.7741121478
 20
10.5148670773
 30
0.0
 10
9.7743455538
 20
10.5099166179
 30
0.0
 10
9.7740740798
 20
10.5062913665
 30
0.0
 10
9.7736773186
 20
10.5038216362
 30
0.0
 10
9.7730911761
 20
10.5015331904
 30
0.0
 10
9.7720963718
 20
10.4988115333
 30
0.0
 10
9.7707324103
 20
10.496381978
 30
0.0
 10
9.7689935139
 20
10.4943877171
 30
0.0
 10
9.7675523386
 20
10.4931541706
 30
0.0
 10
9.7659524496
 20
10.492166062
 30
0.0
 10
9.7647958103
 20
10.4916843632
 30
0.0
 10
9.7642005993
 20
10.4914886789
 30
0.0
  0
SPLINE
  5
4BC
100
AcDbEntity
  8
0
100
AcDbSpline
 62
9
  6
CONTINUOUS
 70
0
 71
3
 72
18
 73
14
 74
0
 42
0.0000001
 43
0.0000001
 44
0.0000000001
 40
0.0
 40
0.0
 40
0.0
 40
0.0
 40
0.0352826001
 40
0.0696732369
 40
0.1047549384
 40
0.1420171708
 40
0.1826999344
 40
0.2277399198
 40
0.3332926836
 40
0.4621876099
 40
0.6159460772
 40
0.7951932286
 40
1.0
 40
1.0
 40
1.0
 40
1.0
 10
8.7755492415
 20
11.6491253714
 30
0.0
 10
8.7755742281
 20
11.649171913
 30
0.0
 10
8.7756326355
 20
11.6492594118
 30
0.0
 10
8.7757468341
 20
11.6493687143
 30
0.0
 10
8.7758846173
 20
11.6494520258
 30
0.0
 10
8.776044895
 20
11.6495092678
 30
0.0
 10
8.7762270192
 20
11.6495409861
 30
0.0
 10
8.776513986
 20
11.6495502367
 30
0.0
 10
8.7769309164
 20
11.6494903465
 30
0.0
 10
8.7774894263
 20
11.6493257456
 30
0.0
 10
8.7781308272
 20
11.6490647784
 30
0.0
 10
8.7788530663
 20
11.6487077086
 30
0.0
 10
8.7793538363
 20
11.6484245588
 30
0.0
 10
8.7796175785
 20
11.6482681467
 30
0.0
  0
SPLINE
  5
4BD
100
AcDbEntity
  8
0
100
AcDbSpline
 62
9
  6
CONTINUOUS
 70
0
 71
3
 72
24
 73
20
 74
0
 42
0.0000001
 43
0.0000001
 44
0.0000000001
 40
0.0
 40
0.0
 40
0.0
 40
0.0
 40
0.1249456558
 40
0.2491267593
 40
0.3726671397
 40
0.4958475262
 40
0.5574922091
 40
0.6192826453
 40
0.6813450387
 40
0.7125374515
 40
0.7438564104
 40
0.7753200267
 40
0.8069445672
 40
0.8387453754
 40
0.8707210005
 40
0.9028645187
 40
0.9351521731
 40
0.967549311
 40
1.0
 40
1.0
 40
1.0
 40
1.0
 10
14.2442076577
 20
5.4140390679
 30
0.0
 10
14.2393654441
 20
5.4128152106
 30
0.0
 10
14.2297692106
 20
5.4101325407
 30
0.0
 10
14.2156855947
 20
5.4052424982
 30
0.0
 10
14.2020817847
 20
5.399304678
 30
0.0
 10
14.1913016731
 20
5.3932645178
 30
0.0
 10
14.1832113714
 20
5.3876182153
 30
0.0
 10
14.1774646456
 20
5.3829200162
 30
0.0
 10
14.1730228151
 20
5.3785824029
 30
0.0
 10
14.1697446839
 20
5.3748310487
 30
0.0
 10
14.1674341215
 20
5.3718665291
 30
0.0
 10
14.1652946762
 20
5.3687548109
 30
0.0
 10
14.1633575074
 20
5.3654901838
 30
0.0
 10
14.1616493267
 20
5.3620769386
 30
0.0
 10
14.1601909732
 20
5.358526713
 30
0.0
 10
14.1590200363
 20
5.3548504712
 30
0.0
 10
14.1581637088
 20
5.3510707876
 30
0.0
 10
14.1576374222
 20
5.3472191858
 30
0.0
 10
14.1575138337
 20
5.3446255481
 30
0.0
 10
14.157515441
 20
5.3433283898
 30
0.0
  0
SPLINE
  5
4BE
100
AcDbEntity
  8
0
100
AcDbSpline
 62
7
  6
CONTINUOUS
 70
0
 71
3
 72
15
 73
11
 74
0
 42
0.0000001
 43
0.0000001
 44
0.0000000001
 40
0.0
 40
0.0
 40
0.0
 40
0.0
 40
0.2540157364
 40
0.3804895253
 40
0.5063288881
 40
0.6313523037
 40
0.7553801058
 40
0.8169824512
 40
0.8783011395
 40
1.0
 40
1.0
 40
1.0
 40
1.0
 10
9.7613184095
 20
10.5397125571
 30
0.0
 10
9.7604906951
 20
10.5406989818
 30
0.0
 10
9.7592193503
 20
10.5421504328
 30
0.0
 10
9.7574739912
 20
10.5440325248
 30
0.0
 10
9.7561515479
 20
10.5454146901
 30
0.0
 10
9.7548227025
 20
10.5467733361
 30
0.0
 10
9.7537171271
 20
10.5478948023
 30
0.0
 10
9.752844195
 20
10.5487921554
 30
0.0
 10
9.7519864935
 20
10.5496876297
 30
0.0
 10
9.7513605653
 20
10.5503733925
 30
0.0
 10
9.7509640042
 20
10.5508459853
 30
0.0
  0
SPLINE
  5
4BF
100
AcDbEntity
  8
0
100
AcDbSpline
 62
7
  6
CONTINUOUS
 70
0
 71
3
 72
15
 73
11
 74
0
 42
0.0000001
 43
0.0000001
 44
0.0000000001
 40
0.0
 40
0.0
 40
0.0
 40
0.0
 40
0.1216988159
 40
0.1830174812
 40
0.2446198087
 40
0.368647596
 40
0.4936710063
 40
0.6195103724
 40
0.7459841895
 40
1.0
 40
1.0
 40
1.0
 40
1.0
 10
9.7704847401
 20
10.5275820771
 30
0.0
 10
9.7700881895
 20
10.5280546842
 30
0.0
 10
9.7695215292
 20
10.5287901865
 30
0.0
 10
9.7687885888
 20
10.529790359
 30
0.0
 10
9.7680564464
 20
10.5308058598
 30
0.0
 10
9.7671439938
 20
10.5320893891
 30
0.0
 10
9.7660367327
 20
10.5336339836
 30
0.0
 10
9.7649051965
 20
10.5351763567
 30
0.0
 10
9.7633547661
 20
10.537222037
 30
0.0
 10
9.7621461307
 20
10.5387261259
 30
0.0
 10
9.7613184103
 20
10.5397125578
 30
0.0
  0
SPLINE
  5
4C0
100
AcDbEntity
  8
0
100
AcDbSpline
 62
7
  6
CONTINUOUS
 70
0
 71
3
 72
23
 73
19
 74
0
 42
0.0000001
 43
0.0000001
 44
0.0000000001
 40
0.0
 40
0.0
 40
0.0
 40
0.0
 40
0.0084906217
 40
0.0178769539
 40
0.0285813346
 40
0.0408473195
 40
0.0548041666
 40
0.0705234047
 40
0.1073441825
 40
0.1513531547
 40
0.2024075237
 40
0.260320254
 40
0.3248186383
 40
0.395477849
 40
0.4715914991
 40
0.6369935843
 40
0.8151129113
 40
1.0
 40
1.0
 40
1.0
 40
1.0
 10
8.9686797731
 20
11.4127061018
 30
0.0
 10
8.9686448129
 20
11.4126658806
 30
0.0
 10
8.9685839578
 20
11.4125695687
 30
0.0
 10
8.9685293758
 20
11.4123972288
 30
0.0
 10
8.9685058639
 20
11.4121945875
 30
0.0
 10
8.9685119449
 20
11.4119623354
 30
0.0
 10
8.9685466499
 20
11.4117010068
 30
0.0
 10
8.9686354103
 20
11.4112928251
 30
0.0
 10
8.968822744
 20
11.4107151487
 30
0.0
 10
8.9691422746
 20
11.409950978
 30
0.0
 10
8.9695655027
 20
11.4090886028
 30
0.0
 10
8.9700898498
 20
11.4081341038
 30
0.0
 10
8.9707121214
 20
11.4070940081
 30
0.0
 10
8.9714272198
 20
11.4059771105
 30
0.0
 10
8.9725241464
 20
11.404353397
 30
0.0
 10
8.9740659196
 20
11.4022171852
 30
0.0
 10
8.9760897988
 20
11.3995892506
 30
0.0
 10
8.9775299808
 20
11.3978232809
 30
0.0
 10
8.9782758986
 20
11.3969343307
 30
0.0
  0
SPLINE
  5
4C1
100
AcDbEntity
  8
0
100
AcDbSpline
 62
9
  6
CONTINUOUS
 70
0
 71
3
 72
14
 73
10
 74
0
 42
0.0000001
 43
0.0000001
 44
0.0000000001
 40
0.0
 40
0.0
 40
0.0
 40
0.0
 40
0.1061285933
 40
0.2199282214
 40
0.3403494634
 40
0.466269133
 40
0.5964782635
 40
0.7297094858
 40
1.0
 40
1.0
 40
1.0
 40
1.0
 10
14.2576118432
 20
5.3786837689
 30
0.0
 10
14.2569597968
 20
5.379855377
 30
0.0
 10
14.2556671426
 20
5.3823161356
 30
0.0
 10
14.2538201018
 20
5.3862002223
 30
0.0
 10
14.2520114696
 20
5.3903762874
 30
0.0
 10
14.2502604094
 20
5.3948004207
 30
0.0
 10
14.2485854056
 20
5.3994264228
 30
0.0
 10
14.2464672932
 20
5.405828896
 30
0.0
 10
14.2450615694
 20
5.4107327044
 30
0.0
 10
14.2442076261
 20
5.414039068
 30
0.0
  0
SPLINE
  5
4C2
100
AcDbEntity
  8
0
100
AcDbSpline
 62
9
  6
CONTINUOUS
 70
0
 71
3
 72
18
 73
14
 74
0
 42
0.0000001
 43
0.0000001
 44
0.0000000001
 40
0.0
 40
0.0
 40
0.0
 40
0.0
 40
0.204823817
 40
0.3840832235
 40
0.5378505264
 40
0.6667501133
 40
0.77229226
 40
0.8173213144
 40
0.8579928807
 40
0.8952486496
 40
0.930329296
 40
0.9647204861
 40
1.0
 40
1.0
 40
1.0
 40
1.0
 10
9.936927286
 20
10.2690416905
 30
0.0
 10
9.9370356606
 20
10.2687545796
 30
0.0
 10
9.9372278333
 20
10.2682118581
 30
0.0
 10
9.9374544333
 20
10.2674380207
 30
0.0
 10
9.937600183
 20
10.2667605124
 30
0.0
 10
9.9376653245
 20
10.2661814814
 30
0.0
 10
9.9376520482
 20
10.2657602062
 30
0.0
 10
9.9375931948
 20
10.2654790225
 30
0.0
 10
9.9375303533
 20
10.2653050654
 30
0.0
 10
9.9374461019
 20
10.265157076
 30
0.0
 10
9.9373400409
 20
10.2650357874
 30
0.0
 10
9.9372124628
 20
10.2649422622
 30
0.0
 10
9.9371160762
 20
10.2648999242
 30
0.0
 10
9.9370658668
 20
10.2648833999
 30
0.0
  0
SPLINE
  5
4C3
100
AcDbEntity
  8
0
100
AcDbSpline
 62
9
  6
CONTINUOUS
 70
0
 71
3
 72
19
 73
15
 74
0
 42
0.0000001
 43
0.0000001
 44
0.0000000001
 40
0.0
 40
0.0
 40
0.0
 40
0.0
 40
0.173615588
 40
0.3314488379
 40
0.473273537
 40
0.5384433185
 40
0.5999427075
 40
0.6579712574
 40
0.7127831943
 40
0.8139806028
 40
0.8615232391
 40
0.9078216646
 40
0.9536790615
 40
1.0
 40
1.0
 40
1.0
 40
1.0
 10
9.9568931381
 20
10.3054291973
 30
0.0
 10
9.9578153228
 20
10.3032694561
 30
0.0
 10
9.9592927395
 20
10.2990171051
 30
0.0
 10
9.9605205549
 20
10.2927141865
 30
0.0
 10
9.9607539606
 20
10.2877637276
 30
0.0
 10
9.9604824865
 20
10.2841384765
 30
0.0
 10
9.9600857251
 20
10.2816687465
 30
0.0
 10
9.9594995826
 20
10.279380301
 30
0.0
 10
9.9585047783
 20
10.276658644
 30
0.0
 10
9.9571408168
 20
10.2742290891
 30
0.0
 10
9.9554019205
 20
10.2722348283
 30
0.0
 10
9.9539607452
 20
10.2710012819
 30
0.0
 10
9.9523608563
 20
10.2700131735
 30
0.0
 10
9.9512042171
 20
10.2695314747
 30
0.0
 10
9.9506090061
 20
10.2693357904
 30
0.0
  0
SPLINE
  5
4C4
100
AcDbEntity
  8
0
100
AcDbSpline
 62
7
  6
CONTINUOUS
 70
0
 71
3
 72
23
 73
19
 74
0
 42
0.0000001
 43
0.0000001
 44
0.0000000001
 40
0.0
 40
0.0
 40
0.0
 40
0.0
 40
0.0084906217
 40
0.0178769539
 40
0.0285813346
 40
0.0408473195
 40
0.0548041666
 40
0.0705234047
 40
0.1073441825
 40
0.1513531547
 40
0.2024075237
 40
0.260320254
 40
0.3248186383
 40
0.395477849
 40
0.4715914991
 40
0.6369935843
 40
0.8151129113
 40
1.0
 40
1.0
 40
1.0
 40
1.0
 10
8.7822713663
 20
11.6348589903
 30
0.0
 10
8.7822364061
 20
11.6348187691
 30
0.0
 10
8.782175551
 20
11.6347224572
 30
0.0
 10
8.782120969
 20
11.6345501173
 30
0.0
 10
8.7820974571
 20
11.634347476
 30
0.0
 10
8.7821035381
 20
11.6341152239
 30
0.0
 10
8.7821382431
 20
11.6338538953
 30
0.0
 10
8.7822270035
 20
11.6334457136
 30
0.0
 10
8.7824143372
 20
11.6328680372
 30
0.0
 10
8.7827338678
 20
11.6321038665
 30
0.0
 10
8.7831570959
 20
11.6312414913
 30
0.0
 10
8.783681443
 20
11.6302869923
 30
0.0
 10
8.7843037146
 20
11.6292468966
 30
0.0
 10
8.785018813
 20
11.628129999
 30
0.0
 10
8.7861157396
 20
11.6265062855
 30
0.0
 10
8.7876575128
 20
11.6243700737
 30
0.0
 10
8.789681392
 20
11.6217421391
 30
0.0
 10
8.791121574
 20
11.6199761694
 30
0.0
 10
8.7918674918
 20
11.6190872192
 30
0.0
  0
SPLINE
  5
4C5
100
AcDbEntity
  8
0
100
AcDbSpline
 62
9
  6
CONTINUOUS
 70
0
 71
3
 72
18
 73
14
 74
0
 42
0.0000001
 43
0.0000001
 44
0.0000000001
 40
0.0
 40
0.0
 40
0.0
 40
0.0
 40
0.0352826001
 40
0.0696732369
 40
0.1047549384
 40
0.1420171708
 40
0.1826999344
 40
0.2277399198
 40
0.3332926836
 40
0.4621876099
 40
0.6159460772
 40
0.7951932286
 40
1.0
 40
1.0
 40
1.0
 40
1.0
 10
8.5891408347
 20
11.8712782599
 30
0.0
 10
8.5891658213
 20
11.8713248015
 30
0.0
 10
8.5892242287
 20
11.8714123003
 30
0.0
 10
8.5893384272
 20
11.8715216028
 30
0.0
 10
8.5894762105
 20
11.8716049143
 30
0.0
 10
8.5896364882
 20
11.8716621563
 30
0.0
 10
8.5898186124
 20
11.8716938746
 30
0.0
 10
8.5901055792
 20
11.8717031253
 30
0.0
 10
8.5905225096
 20
11.871643235
 30
0.0
 10
8.5910810195
 20
11.8714786341
 30
0.0
 10
8.5917224204
 20
11.8712176669
 30
0.0
 10
8.5924446595
 20
11.8708605971
 30
0.0
 10
8.5929454294
 20
11.8705774473
 30
0.0
 10
8.5932091717
 20
11.8704210352
 30
0.0
  0
SPLINE
  5
4C6
100
AcDbEntity
  8
0
100
AcDbSpline
 62
7
  6
CONTINUOUS
 70
0
 71
3
 72
15
 73
11
 74
0
 42
0.0000001
 43
0.0000001
 44
0.0000000001
 40
0.0
 40
0.0
 40
0.0
 40
0.0
 40
0.2540157935
 40
0.3804896024
 40
0.5063289799
 40
0.631352399
 40
0.7553801954
 40
0.8169825293
 40
0.8783011971
 40
1.0
 40
1.0
 40
1.0
 40
1.0
 10
9.9477268168
 20
10.317559669
 30
0.0
 10
9.9468990931
 20
10.3185460966
 30
0.0
 10
9.9456277454
 20
10.3199975611
 30
0.0
 10
9.9438823757
 20
10.3218796654
 30
0.0
 10
9.9425599246
 20
10.3232618396
 30
0.0
 10
9.9412310731
 20
10.324620496
 30
0.0
 10
9.9401254933
 20
10.3257419714
 30
0.0
 10
9.9392525568
 20
10.3266393307
 30
0.0
 10
9.9383948502
 20
10.3275348099
 30
0.0
 10
9.9377689157
 20
10.328220574
 30
0.0
 10
9.9373723498
 20
10.3286931674
 30
0.0
  0
SPLINE
  5
4C7
100
AcDbEntity
  8
0
100
AcDbSpline
 62
7
  6
CONTINUOUS
 70
0
 71
3
 72
15
 73
11
 74
0
 42
0.0000001
 43
0.0000001
 44
0.0000000001
 40
0.0
 40
0.0
 40
0.0
 40
0.0
 40
0.1216987547
 40
0.1830174132
 40
0.2446197378
 40
0.368647522
 40
0.4936709375
 40
0.6195103109
 40
0.7459841441
 40
1.0
 40
1.0
 40
1.0
 40
1.0
 10
9.9568931928
 20
10.3054291319
 30
0.0
 10
9.9564966344
 20
10.3059017358
 30
0.0
 10
9.9559299836
 20
10.3066372514
 30
0.0
 10
9.9551970473
 20
10.3076374335
 30
0.0
 10
9.9544648965
 20
10.3086529355
 30
0.0
 10
9.9535524281
 20
10.3099364629
 30
0.0
 10
9.9524451623
 20
10.3114810652
 30
0.0
 10
9.9513136217
 20
10.3130234465
 30
0.0
 10
9.9497631853
 20
10.3150691381
 30
0.0
 10
9.9485545462
 20
10.3165732364
 30
0.0
 10
9.9477268176
 20
10.3175596697
 30
0.0
  0
SPLINE
  5
4C8
100
AcDbEntity
  8
0
100
AcDbSpline
 62
7
  6
CONTINUOUS
 70
0
 71
3
 72
23
 73
19
 74
0
 42
0.0000001
 43
0.0000001
 44
0.0000000001
 40
0.0
 40
0.0
 40
0.0
 40
0.0
 40
0.0084906217
 40
0.0178769539
 40
0.0285813346
 40
0.0408473195
 40
0.0548041666
 40
0.0705234047
 40
0.1073441825
 40
0.1513531547
 40
0.2024075237
 40
0.260320254
 40
0.3248186383
 40
0.395477849
 40
0.4715914991
 40
0.6369935843
 40
0.8151129113
 40
1.0
 40
1.0
 40
1.0
 40
1.0
 10
8.5958629595
 20
11.8570118788
 30
0.0
 10
8.5958279993
 20
11.8569716576
 30
0.0
 10
8.5957671442
 20
11.8568753457
 30
0.0
 10
8.5957125621
 20
11.8567030058
 30
0.0
 10
8.5956890503
 20
11.8565003645
 30
0.0
 10
8.5956951313
 20
11.8562681124
 30
0.0
 10
8.5957298363
 20
11.8560067838
 30
0.0
 10
8.5958185967
 20
11.8555986021
 30
0.0
 10
8.5960059304
 20
11.8550209257
 30
0.0
 10
8.596325461
 20
11.854256755
 30
0.0
 10
8.5967486891
 20
11.8533943798
 30
0.0
 10
8.5972730362
 20
11.8524398808
 30
0.0
 10
8.5978953078
 20
11.8513997851
 30
0.0
 10
8.5986104062
 20
11.8502828875
 30
0.0
 10
8.5997073328
 20
11.848659174
 30
0.0
 10
8.601249106
 20
11.8465229623
 30
0.0
 10
8.6032729852
 20
11.8438950276
 30
0.0
 10
8.6047131672
 20
11.8421290579
 30
0.0
 10
8.605459085
 20
11.8412401077
 30
0.0
  0
SPLINE
  5
4C9
100
AcDbEntity
  8
0
100
AcDbSpline
 62
9
  6
CONTINUOUS
 70
0
 71
3
 72
18
 73
14
 74
0
 42
0.0000001
 43
0.0000001
 44
0.0000000001
 40
0.0
 40
0.0
 40
0.0
 40
0.0
 40
0.204823817
 40
0.3840832235
 40
0.5378505264
 40
0.6667501133
 40
0.77229226
 40
0.8173213144
 40
0.8579928807
 40
0.8952486496
 40
0.930329296
 40
0.9647204861
 40
1.0
 40
1.0
 40
1.0
 40
1.0
 10
10.1233356928
 20
10.046888802
 30
0.0
 10
10.1234440674
 20
10.0466016911
 30
0.0
 10
10.1236362401
 20
10.0460589696
 30
0.0
 10
10.1238628402
 20
10.0452851322
 30
0.0
 10
10.1240085898
 20
10.0446076239
 30
0.0
 10
10.1240737313
 20
10.0440285929
 30
0.0
 10
10.124060455
 20
10.0436073177
 30
0.0
 10
10.1240016016
 20
10.043326134
 30
0.0
 10
10.1239387601
 20
10.0431521769
 30
0.0
 10
10.1238545087
 20
10.0430041875
 30
0.0
 10
10.1237484478
 20
10.0428828988
 30
0.0
 10
10.1236208696
 20
10.0427893737
 30
0.0
 10
10.123524483
 20
10.0427470357
 30
0.0
 10
10.1234742736
 20
10.0427305114
 30
0.0
  0
SPLINE
  5
4CA
100
AcDbEntity
  8
0
100
AcDbSpline
 62
9
  6
CONTINUOUS
 70
0
 71
3
 72
19
 73
15
 74
0
 42
0.0000001
 43
0.0000001
 44
0.0000000001
 40
0.0
 40
0.0
 40
0.0
 40
0.0
 40
0.1736155984
 40
0.3314488577
 40
0.4732735633
 40
0.5384433466
 40
0.5999427365
 40
0.657971286
 40
0.7127832217
 40
0.8139806243
 40
0.8615232562
 40
0.9078216764
 40
0.9536790675
 40
1.0
 40
1.0
 40
1.0
 40
1.0
 10
10.1433015386
 20
10.0832763241
 30
0.0
 10
10.1442237235
 20
10.0811165819
 30
0.0
 10
10.1457011433
 20
10.0768642298
 30
0.0
 10
10.1469289605
 20
10.0705613083
 30
0.0
 10
10.1471623675
 20
10.0656108473
 30
0.0
 10
10.1468908941
 20
10.0619855945
 30
0.0
 10
10.1464941331
 20
10.0595158634
 30
0.0
 10
10.1459079908
 20
10.0572274168
 30
0.0
 10
10.1449131867
 20
10.0545057587
 30
0.0
 10
10.143549225
 20
10.0520762026
 30
0.0
 10
10.1418103284
 20
10.050081941
 30
0.0
 10
10.1403691529
 20
10.048848394
 30
0.0
 10
10.1387692636
 20
10.0478602852
 30
0.0
 10
10.137612624
 20
10.0473785863
 30
0.0
 10
10.1370174129
 20
10.0471829019
 30
0.0
  0
SPLINE
  5
4CB
100
AcDbEntity
  8
0
100
AcDbSpline
 62
7
  6
CONTINUOUS
 70
0
 71
3
 72
15
 73
11
 74
0
 42
0.0000001
 43
0.0000001
 44
0.0000000001
 40
0.0
 40
0.0
 40
0.0
 40
0.0
 40
0.2540156263
 40
0.3804893772
 40
0.5063287111
 40
0.6313521311
 40
0.7553799556
 40
0.8169823354
 40
0.878301076
 40
1.0
 40
1.0
 40
1.0
 40
1.0
 10
10.134135232
 20
10.0954067876
 30
0.0
 10
10.1333075355
 20
10.0963932044
 30
0.0
 10
10.1320361898
 20
10.0978446202
 30
0.0
 10
10.1302908527
 20
10.0997266849
 30
0.0
 10
10.1289684267
 20
10.1011088315
 30
0.0
 10
10.1276395949
 20
10.1024674557
 30
0.0
 10
10.1265340475
 20
10.1035889207
 30
0.0
 10
10.1256611316
 20
10.1044862674
 30
0.0
 10
10.124803427
 20
10.1053817166
 30
0.0
 10
10.1241774877
 20
10.1060674554
 30
0.0
 10
10.1237809491
 20
10.106540057
 30
0.0
  0
SPLINE
  5
4CC
100
AcDbEntity
  8
0
100
AcDbSpline
 62
7
  6
CONTINUOUS
 70
0
 71
3
 72
15
 73
11
 74
0
 42
0.0000001
 43
0.0000001
 44
0.0000000001
 40
0.0
 40
0.0
 40
0.0
 40
0.0
 40
0.1216989152
 40
0.183017638
 40
0.2446200026
 40
0.3686478146
 40
0.4936712284
 40
0.6195105674
 40
0.7459843336
 40
1.0
 40
1.0
 40
1.0
 40
1.0
 10
10.1433013936
 20
10.0832764977
 30
0.0
 10
10.1429048348
 20
10.0837490851
 30
0.0
 10
10.1423381967
 20
10.0844845874
 30
0.0
 10
10.1416052813
 20
10.0854847533
 30
0.0
 10
10.1408731481
 20
10.0865002357
 30
0.0
 10
10.1399607007
 20
10.0877837368
 30
0.0
 10
10.1388534608
 20
10.0893283074
 30
0.0
 10
10.1377219429
 20
10.0908706537
 30
0.0
 10
10.1361715378
 20
10.0929162979
 30
0.0
 10
10.1349629323
 20
10.0944203679
 30
0.0
 10
10.1341352328
 20
10.0954067882
 30
0.0
  0
SPLINE
  5
4CD
100
AcDbEntity
  8
0
100
AcDbSpline
 62
7
  6
CONTINUOUS
 70
0
 71
3
 72
23
 73
19
 74
0
 42
0.0000001
 43
0.0000001
 44
0.0000000001
 40
0.0
 40
0.0
 40
0.0
 40
0.0
 40
0.0084906217
 40
0.0178769539
 40
0.0285813346
 40
0.0408473195
 40
0.0548041666
 40
0.0705234047
 40
0.1073441825
 40
0.1513531547
 40
0.2024075237
 40
0.260320254
 40
0.3248186383
 40
0.395477849
 40
0.4715914991
 40
0.6369935843
 40
0.8151129113
 40
1.0
 40
1.0
 40
1.0
 40
1.0
 10
8.4094545527
 20
12.0791647673
 30
0.0
 10
8.4094195924
 20
12.0791245461
 30
0.0
 10
8.4093587374
 20
12.0790282342
 30
0.0
 10
8.4093041553
 20
12.0788558943
 30
0.0
 10
8.4092806435
 20
12.078653253
 30
0.0
 10
8.4092867245
 20
12.078421001
 30
0.0
 10
8.4093214295
 20
12.0781596723
 30
0.0
 10
8.4094101899
 20
12.0777514907
 30
0.0
 10
8.4095975235
 20
12.0771738142
 30
0.0
 10
8.4099170542
 20
12.0764096435
 30
0.0
 10
8.4103402822
 20
12.0755472683
 30
0.0
 10
8.4108646294
 20
12.0745927693
 30
0.0
 10
8.411486901
 20
12.0735526736
 30
0.0
 10
8.4122019994
 20
12.072435776
 30
0.0
 10
8.413298926
 20
12.0708120625
 30
0.0
 10
8.4148406992
 20
12.0686758508
 30
0.0
 10
8.4168645784
 20
12.0660479161
 30
0.0
 10
8.4183047604
 20
12.0642819464
 30
0.0
 10
8.4190506782
 20
12.0633929962
 30
0.0
  0
SPLINE
  5
4CE
100
AcDbEntity
  8
0
100
AcDbSpline
 62
7
  6
CONTINUOUS
 70
0
 71
3
 72
19
 73
15
 74
0
 42
0.0000001
 43
0.0000001
 44
0.0000000001
 40
0.0
 40
0.0
 40
0.0
 40
0.0
 40
0.1541594623
 40
0.3051156599
 40
0.4497200537
 40
0.5186840044
 40
0.5848889376
 40
0.7075444869
 40
0.763827871
 40
0.8167622318
 40
0.8665023666
 40
0.9133124985
 40
0.9576099798
 40
1.0
 40
1.0
 40
1.0
 40
1.0
 10
8.2418474638
 20
12.2932699582
 30
0.0
 10
8.2425546556
 20
12.2924271598
 30
0.0
 10
8.2440237848
 20
12.2908157874
 30
0.0
 10
8.2463825012
 20
12.2886336856
 30
0.0
 10
8.2484508187
 20
12.2870477356
 30
0.0
 10
8.2501314733
 20
12.2859675412
 30
0.0
 10
8.2517376122
 20
12.2850685348
 30
0.0
 10
8.2533514472
 20
12.2843707068
 30
0.0
 10
8.2549461415
 20
12.2839209957
 30
0.0
 10
8.2560646515
 20
12.2837197301
 30
0.0
 10
8.2571313711
 20
12.283646483
 30
0.0
 10
8.2581380152
 20
12.2837039104
 30
0.0
 10
8.2590750259
 20
12.283894655
 30
0.0
 10
8.2596564378
 20
12.2841167509
 30
0.0
 10
8.2599278045
 20
12.2842504756
 30
0.0
  0
SPLINE
  5
4CF
100
AcDbEntity
  8
0
100
AcDbSpline
 62
7
  6
CONTINUOUS
 70
0
 71
3
 72
9
 73
5
 74
0
 42
0.0000001
 43
0.0000001
 44
0.0000000001
 40
0.0
 40
0.0
 40
0.0
 40
0.0
 40
0.5142238131
 40
1.0
 40
1.0
 40
1.0
 40
1.0
 10
8.2541361937
 20
12.303581427
 30
0.0
 10
8.2552872648
 20
12.3022096338
 30
0.0
 10
8.2576803542
 20
12.299667996
 30
0.0
 10
8.2603513541
 20
12.2974183986
 30
0.0
 10
8.2617142745
 20
12.2964162831
 30
0.0
  0
SPLINE
  5
4D0
100
AcDbEntity
  8
0
100
AcDbSpline
 62
7
  6
CONTINUOUS
 70
0
 71
3
 72
23
 73
19
 74
0
 42
0.0000001
 43
0.0000001
 44
0.0000000001
 40
0.0
 40
0.0
 40
0.0
 40
0.0
 40
0.0084906217
 40
0.0178769539
 40
0.0285813346
 40
0.0408473195
 40
0.0548041666
 40
0.0705234047
 40
0.1073441825
 40
0.1513531547
 40
0.2024075237
 40
0.260320254
 40
0.3248186383
 40
0.395477849
 40
0.4715914991
 40
0.6369935843
 40
0.8151129113
 40
1.0
 40
1.0
 40
1.0
 40
1.0
 10
8.2230461458
 20
12.3013176558
 30
0.0
 10
8.2230111856
 20
12.3012774346
 30
0.0
 10
8.2229503306
 20
12.3011811227
 30
0.0
 10
8.2228957485
 20
12.3010087828
 30
0.0
 10
8.2228722367
 20
12.3008061415
 30
0.0
 10
8.2228783177
 20
12.3005738895
 30
0.0
 10
8.2229130227
 20
12.3003125608
 30
0.0
 10
8.223001783
 20
12.2999043792
 30
0.0
 10
8.2231891167
 20
12.2993267027
 30
0.0
 10
8.2235086474
 20
12.298562532
 30
0.0
 10
8.2239318754
 20
12.2977001568
 30
0.0
 10
8.2244562226
 20
12.2967456578
 30
0.0
 10
8.2250784941
 20
12.2957055621
 30
0.0
 10
8.2257935926
 20
12.2945886645
 30
0.0
 10
8.2268905192
 20
12.292964951
 30
0.0
 10
8.2284322924
 20
12.2908287393
 30
0.0
 10
8.2304561716
 20
12.2882008046
 30
0.0
 10
8.2318963536
 20
12.2864348349
 30
0.0
 10
8.2326422714
 20
12.2855458847
 30
0.0
  0
SPLINE
  5
4D1
100
AcDbEntity
  8
0
100
AcDbSpline
 62
7
  6
CONTINUOUS
 70
0
 71
3
 72
9
 73
5
 74
0
 42
0.0000001
 43
0.0000001
 44
0.0000000001
 40
0.0
 40
0.0
 40
0.0
 40
0.0
 40
0.5142238131
 40
1.0
 40
1.0
 40
1.0
 40
1.0
 10
8.2541361937
 20
12.303581427
 30
0.0
 10
8.2529851226
 20
12.3049532201
 30
0.0
 10
8.2508976535
 20
12.3077513039
 30
0.0
 10
8.2491460468
 20
12.3107723637
 30
0.0
 10
8.2483958244
 20
12.3122885939
 30
0.0
  0
SPLINE
  5
4D2
100
AcDbEntity
  8
0
100
AcDbSpline
 62
9
  6
CONTINUOUS
 70
0
 71
3
 72
29
 73
25
 74
0
 42
0.0000001
 43
0.0000001
 44
0.0000000001
 40
0.0
 40
0.0
 40
0.0
 40
0.0
 40
0.2240750066
 40
0.4224824102
 40
0.5117568061
 40
0.5941353749
 40
0.6694388452
 40
0.7374990168
 40
0.7981286067
 40
0.8511225692
 40
0.8962619682
 40
0.9158303088
 40
0.9333827826
 40
0.9489093507
 40
0.9623998455
 40
0.9738439721
 40
0.9832313091
 40
0.9905513106
 40
0.9934327328
 40
0.99579331
 40
0.9976316895
 40
0.9989465108
 40
0.9997364061
 40
1.0
 40
1.0
 40
1.0
 40
1.0
 10
14.0209834891
 20
7.2240390679
 30
0.0
 10
14.0206032695
 20
7.2240390683
 30
0.0
 10
14.019886049
 20
7.2240102928
 30
0.0
 10
14.0190227103
 20
7.2239110088
 30
0.0
 10
14.0184028963
 20
7.223809949
 30
0.0
 10
14.0179911247
 20
7.2237319778
 30
0.0
 10
14.0176164971
 20
7.2236519462
 30
0.0
 10
14.0172796204
 20
7.2235722782
 30
0.0
 10
14.0169810318
 20
7.2234954844
 30
0.0
 10
14.016721285
 20
7.2234239947
 30
0.0
 10
14.0165293934
 20
7.2233686096
 30
0.0
 10
14.0163955458
 20
7.2233290088
 30
0.0
 10
14.0163099996
 20
7.2233032706
 30
0.0
 10
14.016234431
 20
7.2232801645
 30
0.0
 10
14.0161688672
 20
7.2232597988
 30
0.0
 10
14.0161133215
 20
7.2232422685
 30
0.0
 10
14.0160678457
 20
7.2232277128
 30
0.0
 10
14.0160362001
 20
7.223217393
 30
0.0
 10
14.0160160067
 20
7.2232107943
 30
0.0
 10
14.0160044881
 20
7.2232068809
 30
0.0
 10
14.0159959093
 20
7.2232042635
 30
0.0
 10
14.0159888972
 20
7.223201349
 30
0.0
 10
14.0159862676
 20
7.2232014347
 30
0.0
 10
14.0159833559
 20
7.2231994347
 30
0.0
 10
14.0159834338
 20
7.2231998751
 30
0.0
  0
SPLINE
  5
4D3
100
AcDbEntity
  8
0
100
AcDbSpline
 62
7
  6
CONTINUOUS
 70
0
 71
3
 72
19
 73
15
 74
0
 42
0.0000001
 43
0.0000001
 44
0.0000000001
 40
0.0
 40
0.0
 40
0.0
 40
0.0
 40
0.0423900202
 40
0.0866875015
 40
0.1334976334
 40
0.1832377682
 40
0.236172129
 40
0.2924555131
 40
0.4151110624
 40
0.4813159956
 40
0.5502799463
 40
0.6948843401
 40
0.8458405377
 40
1.0
 40
1.0
 40
1.0
 40
1.0
 10
10.1001886937
 20
10.0911129496
 30
0.0
 10
10.1000098782
 20
10.0908689267
 30
0.0
 10
10.0996901953
 20
10.0903349142
 30
0.0
 10
10.0993396384
 20
10.0894452613
 30
0.0
 10
10.0991082816
 20
10.0884638825
 30
0.0
 10
10.0989951819
 20
10.0874006496
 30
0.0
 10
10.0989991626
 20
10.0862641828
 30
0.0
 10
10.0991651259
 20
10.084615624
 30
0.0
 10
10.0995721128
 20
10.0829051303
 30
0.0
 10
10.1001785582
 20
10.0811672814
 30
0.0
 10
10.1009504994
 20
10.0793245859
 30
0.0
 10
10.1021531956
 20
10.0770122935
 30
0.0
 10
10.1038925596
 20
10.0743104933
 30
0.0
 10
10.10522434
 20
10.0725838716
 30
0.0
 10
10.1059315319
 20
10.0717410732
 30
0.0
  0
SPLINE
  5
4D4
100
AcDbEntity
  8
0
100
AcDbSpline
 62
9
  6
CONTINUOUS
 70
0
 71
3
 72
18
 73
14
 74
0
 42
0.0000001
 43
0.0000001
 44
0.0000000001
 40
0.0
 40
0.0
 40
0.0
 40
0.0
 40
0.0352826001
 40
0.0696732369
 40
0.1047549384
 40
0.1420171708
 40
0.1826999344
 40
0.2277399198
 40
0.3332926836
 40
0.4621876099
 40
0.6159460772
 40
0.7951932286
 40
1.0
 40
1.0
 40
1.0
 40
1.0
 10
8.4027324279
 20
12.0934311484
 30
0.0
 10
8.4027574145
 20
12.09347769
 30
0.0
 10
8.4028158219
 20
12.0935651888
 30
0.0
 10
8.4029300204
 20
12.0936744913
 30
0.0
 10
8.4030678037
 20
12.0937578028
 30
0.0
 10
8.4032280814
 20
12.0938150448
 30
0.0
 10
8.4034102056
 20
12.0938467631
 30
0.0
 10
8.4036971724
 20
12.0938560138
 30
0.0
 10
8.4041141028
 20
12.0937961235
 30
0.0
 10
8.4046726126
 20
12.0936315226
 30
0.0
 10
8.4053140136
 20
12.0933705554
 30
0.0
 10
8.4060362527
 20
12.0930134856
 30
0.0
 10
8.4065370226
 20
12.0927303358
 30
0.0
 10
8.4068007649
 20
12.0925739237
 30
0.0
  0
SPLINE
  5
4D5
100
AcDbEntity
  8
0
100
AcDbSpline
 62
7
  6
CONTINUOUS
 70
0
 71
3
 72
19
 73
15
 74
0
 42
0.0000001
 43
0.0000001
 44
0.0000000001
 40
0.0
 40
0.0
 40
0.0
 40
0.0
 40
0.1541594623
 40
0.3051156599
 40
0.4497200537
 40
0.5186840044
 40
0.5848889376
 40
0.7075444869
 40
0.763827871
 40
0.8167622318
 40
0.8665023666
 40
0.9133124985
 40
0.9576099798
 40
1.0
 40
1.0
 40
1.0
 40
1.0
 10
8.4282558706
 20
12.0711170697
 30
0.0
 10
8.4289630624
 20
12.0702742713
 30
0.0
 10
8.4304321916
 20
12.0686628989
 30
0.0
 10
8.432790908
 20
12.0664807971
 30
0.0
 10
8.4348592255
 20
12.0648948471
 30
0.0
 10
8.4365398801
 20
12.0638146527
 30
0.0
 10
8.438146019
 20
12.0629156463
 30
0.0
 10
8.439759854
 20
12.0622178183
 30
0.0
 10
8.4413545483
 20
12.0617681072
 30
0.0
 10
8.4424730583
 20
12.0615668416
 30
0.0
 10
8.4435397779
 20
12.0614935945
 30
0.0
 10
8.444546422
 20
12.0615510219
 30
0.0
 10
8.4454834327
 20
12.0617417665
 30
0.0
 10
8.4460648446
 20
12.0619638624
 30
0.0
 10
8.4463362113
 20
12.0620975871
 30
0.0
  0
SPLINE
  5
4D6
100
AcDbEntity
  8
0
100
AcDbSpline
 62
7
  6
CONTINUOUS
 70
0
 71
3
 72
9
 73
5
 74
0
 42
0.0000001
 43
0.0000001
 44
0.0000000001
 40
0.0
 40
0.0
 40
0.0
 40
0.0
 40
0.5142238131
 40
1.0
 40
1.0
 40
1.0
 40
1.0
 10
8.4405446005
 20
12.0814285385
 30
0.0
 10
8.4416956716
 20
12.0800567453
 30
0.0
 10
8.4440887611
 20
12.0775151075
 30
0.0
 10
8.4467597609
 20
12.0752655101
 30
0.0
 10
8.4481226813
 20
12.0742633946
 30
0.0
  0
SPLINE
  5
4D7
100
AcDbEntity
  8
0
100
AcDbSpline
 62
7
  6
CONTINUOUS
 70
0
 71
3
 72
19
 73
15
 74
0
 42
0.0000001
 43
0.0000001
 44
0.0000000001
 40
0.0
 40
0.0
 40
0.0
 40
0.0
 40
0.0423900202
 40
0.0866875015
 40
0.1334976334
 40
0.1832377682
 40
0.236172129
 40
0.2924555131
 40
0.4151110624
 40
0.4813159956
 40
0.5502799463
 40
0.6948843401
 40
0.8458405377
 40
1.0
 40
1.0
 40
1.0
 40
1.0
 10
9.9137802869
 20
10.3132658381
 30
0.0
 10
9.9136014714
 20
10.3130218152
 30
0.0
 10
9.9132817885
 20
10.3124878027
 30
0.0
 10
9.9129312315
 20
10.3115981498
 30
0.0
 10
9.9126998748
 20
10.310616771
 30
0.0
 10
9.9125867751
 20
10.3095535381
 30
0.0
 10
9.9125907558
 20
10.3084170713
 30
0.0
 10
9.912756719
 20
10.3067685125
 30
0.0
 10
9.9131637059
 20
10.3050580188
 30
0.0
 10
9.9137701514
 20
10.3033201699
 30
0.0
 10
9.9145420926
 20
10.3014774744
 30
0.0
 10
9.9157447888
 20
10.299165182
 30
0.0
 10
9.9174841528
 20
10.2964633818
 30
0.0
 10
9.9188159332
 20
10.2947367601
 30
0.0
 10
9.919523125
 20
10.2938939617
 30
0.0
  0
SPLINE
  5
4D8
100
AcDbEntity
  8
0
100
AcDbSpline
 62
7
  6
CONTINUOUS
 70
0
 71
3
 72
9
 73
5
 74
0
 42
0.0000001
 43
0.0000001
 44
0.0000000001
 40
0.0
 40
0.0
 40
0.0
 40
0.0
 40
0.5142238131
 40
1.0
 40
1.0
 40
1.0
 40
1.0
 10
8.4405446005
 20
12.0814285385
 30
0.0
 10
8.4393935294
 20
12.0828003316
 30
0.0
 10
8.4373060603
 20
12.0855984154
 30
0.0
 10
8.4355544536
 20
12.0886194752
 30
0.0
 10
8.4348042312
 20
12.0901357054
 30
0.0
  0
SPLINE
  5
4D9
100
AcDbEntity
  8
0
100
AcDbSpline
 62
7
  6
CONTINUOUS
 70
0
 71
3
 72
19
 73
15
 74
0
 42
0.0000001
 43
0.0000001
 44
0.0000000001
 40
0.0
 40
0.0
 40
0.0
 40
0.0
 40
0.0423900202
 40
0.0866875015
 40
0.1334976334
 40
0.1832377682
 40
0.236172129
 40
0.2924555131
 40
0.4151110624
 40
0.4813159956
 40
0.5502799463
 40
0.6948843401
 40
0.8458405377
 40
1.0
 40
1.0
 40
1.0
 40
1.0
 10
9.7273718801
 20
10.5354187266
 30
0.0
 10
9.7271930646
 20
10.5351747037
 30
0.0
 10
9.7268733817
 20
10.5346406912
 30
0.0
 10
9.7265228247
 20
10.5337510383
 30
0.0
 10
9.7262914679
 20
10.5327696595
 30
0.0
 10
9.7261783683
 20
10.5317064266
 30
0.0
 10
9.726182349
 20
10.5305699598
 30
0.0
 10
9.7263483122
 20
10.528921401
 30
0.0
 10
9.7267552991
 20
10.5272109073
 30
0.0
 10
9.7273617445
 20
10.5254730584
 30
0.0
 10
9.7281336858
 20
10.5236303629
 30
0.0
 10
9.729336382
 20
10.5213180705
 30
0.0
 10
9.731075746
 20
10.5186162703
 30
0.0
 10
9.7324075264
 20
10.5168896486
 30
0.0
 10
9.7331147182
 20
10.5160468502
 30
0.0
  0
SPLINE
  5
4DA
100
AcDbEntity
  8
0
100
AcDbSpline
 62
7
  6
CONTINUOUS
 70
0
 71
3
 72
19
 73
15
 74
0
 42
0.0000001
 43
0.0000001
 44
0.0000000001
 40
0.0
 40
0.0
 40
0.0
 40
0.0
 40
0.1541594623
 40
0.3051156599
 40
0.4497200537
 40
0.5186840044
 40
0.5848889376
 40
0.7075444869
 40
0.763827871
 40
0.8167622318
 40
0.8665023666
 40
0.9133124985
 40
0.9576099798
 40
1.0
 40
1.0
 40
1.0
 40
1.0
 10
8.6146642774
 20
11.8489641812
 30
0.0
 10
8.6153714692
 20
11.8481213828
 30
0.0
 10
8.6168405984
 20
11.8465100104
 30
0.0
 10
8.6191993149
 20
11.8443279086
 30
0.0
 10
8.6212676323
 20
11.8427419586
 30
0.0
 10
8.6229482869
 20
11.8416617642
 30
0.0
 10
8.6245544258
 20
11.8407627578
 30
0.0
 10
8.6261682608
 20
11.8400649298
 30
0.0
 10
8.6277629551
 20
11.8396152187
 30
0.0
 10
8.6288814652
 20
11.8394139531
 30
0.0
 10
8.6299481847
 20
11.839340706
 30
0.0
 10
8.6309548288
 20
11.8393981334
 30
0.0
 10
8.6318918395
 20
11.839588878
 30
0.0
 10
8.6324732514
 20
11.8398109739
 30
0.0
 10
8.6327446181
 20
11.8399446986
 30
0.0
  0
SPLINE
  5
4DB
100
AcDbEntity
  8
0
100
AcDbSpline
 62
7
  6
CONTINUOUS
 70
0
 71
3
 72
9
 73
5
 74
0
 42
0.0000001
 43
0.0000001
 44
0.0000000001
 40
0.0
 40
0.0
 40
0.0
 40
0.0
 40
0.5142238131
 40
1.0
 40
1.0
 40
1.0
 40
1.0
 10
8.6269530073
 20
11.85927565
 30
0.0
 10
8.6281040785
 20
11.8579038568
 30
0.0
 10
8.6304971679
 20
11.855362219
 30
0.0
 10
8.6331681677
 20
11.8531126216
 30
0.0
 10
8.6345310881
 20
11.8521105061
 30
0.0
  0
SPLINE
  5
4DC
100
AcDbEntity
  8
0
100
AcDbSpline
 62
7
  6
CONTINUOUS
 70
0
 71
3
 72
19
 73
15
 74
0
 42
0.0000001
 43
0.0000001
 44
0.0000000001
 40
0.0
 40
0.0
 40
0.0
 40
0.0
 40
0.0423900202
 40
0.0866875015
 40
0.1334976334
 40
0.1832377682
 40
0.236172129
 40
0.2924555131
 40
0.4151110624
 40
0.4813159956
 40
0.5502799463
 40
0.6948843401
 40
0.8458405377
 40
1.0
 40
1.0
 40
1.0
 40
1.0
 10
9.5409634733
 20
10.7575716151
 30
0.0
 10
9.5407846578
 20
10.7573275922
 30
0.0
 10
9.5404649749
 20
10.7567935797
 30
0.0
 10
9.5401144179
 20
10.7559039268
 30
0.0
 10
9.5398830611
 20
10.754922548
 30
0.0
 10
9.5397699615
 20
10.7538593151
 30
0.0
 10
9.5397739422
 20
10.7527228484
 30
0.0
 10
9.5399399054
 20
10.7510742895
 30
0.0
 10
9.5403468923
 20
10.7493637958
 30
0.0
 10
9.5409533377
 20
10.7476259469
 30
0.0
 10
9.5417252789
 20
10.7457832514
 30
0.0
 10
9.5429279752
 20
10.743470959
 30
0.0
 10
9.5446673392
 20
10.7407691588
 30
0.0
 10
9.5459991196
 20
10.7390425371
 30
0.0
 10
9.5467063114
 20
10.7381997387
 30
0.0
  0
SPLINE
  5
4DD
100
AcDbEntity
  8
0
100
AcDbSpline
 62
7
  6
CONTINUOUS
 70
0
 71
3
 72
9
 73
5
 74
0
 42
0.0000001
 43
0.0000001
 44
0.0000000001
 40
0.0
 40
0.0
 40
0.0
 40
0.0
 40
0.5142238131
 40
1.0
 40
1.0
 40
1.0
 40
1.0
 10
8.6269530073
 20
11.85927565
 30
0.0
 10
8.6258019362
 20
11.8606474431
 30
0.0
 10
8.6237144671
 20
11.8634455269
 30
0.0
 10
8.6219628604
 20
11.8664665867
 30
0.0
 10
8.621212638
 20
11.8679828169
 30
0.0
  0
SPLINE
  5
4DE
100
AcDbEntity
  8
0
100
AcDbSpline
 62
9
  6
CONTINUOUS
 70
0
 71
3
 72
18
 73
14
 74
0
 42
0.0000001
 43
0.0000001
 44
0.0000000001
 40
0.0
 40
0.0
 40
0.0
 40
0.0
 40
0.0352826001
 40
0.0696732369
 40
0.1047549384
 40
0.1420171708
 40
0.1826999344
 40
0.2277399198
 40
0.3332926836
 40
0.4621876099
 40
0.6159460772
 40
0.7951932286
 40
1.0
 40
1.0
 40
1.0
 40
1.0
 10
8.2163240211
 20
12.3155840369
 30
0.0
 10
8.2163490076
 20
12.3156305785
 30
0.0
 10
8.2164074151
 20
12.3157180773
 30
0.0
 10
8.2165216136
 20
12.3158273798
 30
0.0
 10
8.2166593969
 20
12.3159106913
 30
0.0
 10
8.2168196745
 20
12.3159679333
 30
0.0
 10
8.2170017988
 20
12.3159996516
 30
0.0
 10
8.2172887656
 20
12.3160089023
 30
0.0
 10
8.217705696
 20
12.315949012
 30
0.0
 10
8.2182642058
 20
12.3157844111
 30
0.0
 10
8.2189056068
 20
12.3155234439
 30
0.0
 10
8.2196278459
 20
12.3151663741
 30
0.0
 10
8.2201286158
 20
12.3148832243
 30
0.0
 10
8.2203923581
 20
12.3147268122
 30
0.0
  0
SPLINE
  5
4DF
100
AcDbEntity
  8
0
100
AcDbSpline
 62
7
  6
CONTINUOUS
 70
0
 71
3
 72
19
 73
15
 74
0
 42
0.0000001
 43
0.0000001
 44
0.0000000001
 40
0.0
 40
0.0
 40
0.0
 40
0.0
 40
0.0423900202
 40
0.0866875015
 40
0.1334976334
 40
0.1832377682
 40
0.236172129
 40
0.2924555131
 40
0.4151110624
 40
0.4813159956
 40
0.5502799463
 40
0.6948843401
 40
0.8458405377
 40
1.0
 40
1.0
 40
1.0
 40
1.0
 10
9.3545550664
 20
10.9797245037
 30
0.0
 10
9.354376251
 20
10.9794804807
 30
0.0
 10
9.3540565681
 20
10.9789464683
 30
0.0
 10
9.3537060111
 20
10.9780568153
 30
0.0
 10
9.3534746543
 20
10.9770754365
 30
0.0
 10
9.3533615547
 20
10.9760122036
 30
0.0
 10
9.3533655354
 20
10.9748757369
 30
0.0
 10
9.3535314986
 20
10.973227178
 30
0.0
 10
9.3539384855
 20
10.9715166843
 30
0.0
 10
9.3545449309
 20
10.9697788354
 30
0.0
 10
9.3553168721
 20
10.9679361399
 30
0.0
 10
9.3565195684
 20
10.9656238475
 30
0.0
 10
9.3582589324
 20
10.9629220473
 30
0.0
 10
9.3595907128
 20
10.9611954256
 30
0.0
 10
9.3602979046
 20
10.9603526272
 30
0.0
  0
SPLINE
  5
4E0
100
AcDbEntity
  8
0
100
AcDbSpline
 62
7
  6
CONTINUOUS
 70
0
 71
3
 72
19
 73
15
 74
0
 42
0.0000001
 43
0.0000001
 44
0.0000000001
 40
0.0
 40
0.0
 40
0.0
 40
0.0
 40
0.0423900202
 40
0.0866875015
 40
0.1334976334
 40
0.1832377682
 40
0.236172129
 40
0.2924555131
 40
0.4151110624
 40
0.4813159956
 40
0.5502799463
 40
0.6948843401
 40
0.8458405377
 40
1.0
 40
1.0
 40
1.0
 40
1.0
 10
9.1681466596
 20
11.2018773922
 30
0.0
 10
9.1679678442
 20
11.2016333692
 30
0.0
 10
9.1676481613
 20
11.2010993568
 30
0.0
 10
9.1672976043
 20
11.2002097038
 30
0.0
 10
9.1670662475
 20
11.1992283251
 30
0.0
 10
9.1669531478
 20
11.1981650921
 30
0.0
 10
9.1669571286
 20
11.1970286254
 30
0.0
 10
9.1671230918
 20
11.1953800665
 30
0.0
 10
9.1675300787
 20
11.1936695728
 30
0.0
 10
9.1681365241
 20
11.1919317239
 30
0.0
 10
9.1689084653
 20
11.1900890284
 30
0.0
 10
9.1701111616
 20
11.187776736
 30
0.0
 10
9.1718505256
 20
11.1850749358
 30
0.0
 10
9.173182306
 20
11.1833483141
 30
0.0
 10
9.1738894978
 20
11.1825055157
 30
0.0
  0
SPLINE
  5
4E1
100
AcDbEntity
  8
0
100
AcDbSpline
 62
7
  6
CONTINUOUS
 70
0
 71
3
 72
19
 73
15
 74
0
 42
0.0000001
 43
0.0000001
 44
0.0000000001
 40
0.0
 40
0.0
 40
0.0
 40
0.0
 40
0.1541594623
 40
0.3051156599
 40
0.4497200537
 40
0.5186840044
 40
0.5848889376
 40
0.7075444869
 40
0.763827871
 40
0.8167622318
 40
0.8665023666
 40
0.9133124985
 40
0.9576099798
 40
1.0
 40
1.0
 40
1.0
 40
1.0
 10
8.8010726842
 20
11.6268112927
 30
0.0
 10
8.801779876
 20
11.6259684943
 30
0.0
 10
8.8032490052
 20
11.6243571219
 30
0.0
 10
8.8056077217
 20
11.6221750201
 30
0.0
 10
8.8076760391
 20
11.6205890701
 30
0.0
 10
8.8093566937
 20
11.6195088757
 30
0.0
 10
8.8109628326
 20
11.6186098693
 30
0.0
 10
8.8125766676
 20
11.6179120413
 30
0.0
 10
8.8141713619
 20
11.6174623302
 30
0.0
 10
8.815289872
 20
11.6172610646
 30
0.0
 10
8.8163565915
 20
11.6171878175
 30
0.0
 10
8.8173632356
 20
11.6172452449
 30
0.0
 10
8.8183002463
 20
11.6174359895
 30
0.0
 10
8.8188816583
 20
11.6176580854
 30
0.0
 10
8.8191530249
 20
11.6177918101
 30
0.0
  0
SPLINE
  5
4E2
100
AcDbEntity
  8
0
100
AcDbSpline
 62
9
  6
CONTINUOUS
 70
0
 71
3
 72
23
 73
19
 74
0
 42
0.0000001
 43
0.0000001
 44
0.0000000001
 40
0.0
 40
0.0
 40
0.0
 40
0.0
 40
0.0756902974
 40
0.1445602234
 40
0.2071650387
 40
0.2645244796
 40
0.3179903052
 40
0.3690698918
 40
0.4192811923
 40
0.4700169249
 40
0.5224651113
 40
0.5775928916
 40
0.6361774626
 40
0.6988573015
 40
0.7661770577
 40
0.8386088904
 40
0.9165076284
 40
1.0
 40
1.0
 40
1.0
 40
1.0
 10
10.0885784387
 20
10.0809800744
 30
0.0
 10
10.0881000124
 20
10.0823349471
 30
0.0
 10
10.0873261251
 20
10.0849759602
 30
0.0
 10
10.0867109227
 20
10.0888722164
 30
0.0
 10
10.0866733273
 20
10.0924713583
 30
0.0
 10
10.08718563
 20
10.0957404766
 30
0.0
 10
10.0882117672
 20
10.0986571768
 30
0.0
 10
10.089714408
 20
10.1012037603
 30
0.0
 10
10.0916518615
 20
10.1033673025
 30
0.0
 10
10.0939833747
 20
10.1051393128
 30
0.0
 10
10.0966723854
 20
10.106513317
 30
0.0
 10
10.0996880341
 20
10.1074801149
 30
0.0
 10
10.1030034273
 20
10.1080237263
 30
0.0
 10
10.1065924391
 20
10.1081187209
 30
0.0
 10
10.1104254803
 20
10.1077289634
 30
0.0
 10
10.1144636762
 20
10.1068069159
 30
0.0
 10
10.1186489798
 20
10.105297295
 30
0.0
 10
10.121389674
 20
10.1039067526
 30
0.0
 10
10.1227564223
 20
10.1031041722
 30
0.0
  0
SPLINE
  5
4E3
100
AcDbEntity
  8
0
100
AcDbSpline
 62
9
  6
CONTINUOUS
 70
0
 71
3
 72
23
 73
19
 74
0
 42
0.0000001
 43
0.0000001
 44
0.0000000001
 40
0.0
 40
0.0
 40
0.0
 40
0.0
 40
0.075690344
 40
0.1445603115
 40
0.20716516
 40
0.2645246236
 40
0.317990461
 40
0.3690700494
 40
0.4192813435
 40
0.4700170637
 40
0.5224652337
 40
0.5775929954
 40
0.6361775469
 40
0.6988573664
 40
0.766177104
 40
0.8386089193
 40
0.9165076417
 40
1.0
 40
1.0
 40
1.0
 40
1.0
 10
9.9021700448
 20
10.3031329265
 30
0.0
 10
9.9016916165
 20
10.3044878005
 30
0.0
 10
9.9009177255
 20
10.3071288162
 30
0.0
 10
9.9003025182
 20
10.3110250767
 30
0.0
 10
9.9002649187
 20
10.3146242228
 30
0.0
 10
9.9007772181
 20
10.3178933452
 30
0.0
 10
9.9018033528
 20
10.3208100493
 30
0.0
 10
9.9033059919
 20
10.3233566362
 30
0.0
 10
9.9052434443
 20
10.3255201816
 30
0.0
 10
9.9075749571
 20
10.3272921946
 30
0.0
 10
9.9102639679
 20
10.3286662012
 30
0.0
 10
9.9132796172
 20
10.329633001
 30
0.0
 10
9.9165950113
 20
10.330176614
 30
0.0
 10
9.9201840245
 20
10.3302716098
 30
0.0
 10
9.9240170672
 20
10.329881853
 30
0.0
 10
9.9280552651
 20
10.3289598058
 30
0.0
 10
9.9322405709
 20
10.3274501845
 30
0.0
 10
9.9349812665
 20
10.3260596415
 30
0.0
 10
9.9363480155
 20
10.3252570607
 30
0.0
  0
SPLINE
  5
4E4
100
AcDbEntity
  8
0
100
AcDbSpline
 62
9
  6
CONTINUOUS
 70
0
 71
3
 72
23
 73
19
 74
0
 42
0.0000001
 43
0.0000001
 44
0.0000000001
 40
0.0
 40
0.0
 40
0.0
 40
0.0
 40
0.0756902375
 40
0.1445601101
 40
0.2071648827
 40
0.2645242945
 40
0.317990105
 40
0.3690696892
 40
0.419280998
 40
0.4700167465
 40
0.522464954
 40
0.5775927581
 40
0.6361773542
 40
0.6988572181
 40
0.7661769983
 40
0.8386088533
 40
0.9165076112
 40
1.0
 40
1.0
 40
1.0
 40
1.0
 10
9.7157616086
 20
10.5252858981
 30
0.0
 10
9.7152831848
 20
10.5266407692
 30
0.0
 10
9.7145093022
 20
10.529281779
 30
0.0
 10
9.7138941061
 20
10.5331780297
 30
0.0
 10
9.713856516
 20
10.5367771661
 30
0.0
 10
9.7143688229
 20
10.5400462792
 30
0.0
 10
9.7153949633
 20
10.5429629745
 30
0.0
 10
9.7168976064
 20
10.5455095534
 30
0.0
 10
9.7188350612
 20
10.5476730915
 30
0.0
 10
9.7211665749
 20
10.5494450983
 30
0.0
 10
9.7238555855
 20
10.5508190995
 30
0.0
 10
9.7268712335
 20
10.5517858949
 30
0.0
 10
9.7301866255
 20
10.5523295043
 30
0.0
 10
9.7337756356
 20
10.5524244974
 30
0.0
 10
9.7376086746
 20
10.552034739
 30
0.0
 10
9.741646868
 20
10.5511126912
 30
0.0
 10
9.7458321689
 20
10.5496030707
 30
0.0
 10
9.7485728613
 20
10.5482125291
 30
0.0
 10
9.7499396086
 20
10.5474099492
 30
0.0
  0
SPLINE
  5
4E5
100
AcDbEntity
  8
0
100
AcDbSpline
 62
9
  6
CONTINUOUS
 70
0
 71
3
 72
23
 73
19
 74
0
 42
0.0000001
 43
0.0000001
 44
0.0000000001
 40
0.0
 40
0.0
 40
0.0
 40
0.0
 40
0.0756902281
 40
0.1445600923
 40
0.2071648583
 40
0.2645242655
 40
0.3179900736
 40
0.3690696575
 40
0.4192809675
 40
0.4700167186
 40
0.5224649294
 40
0.5775927372
 40
0.6361773372
 40
0.698857205
 40
0.766176989
 40
0.8386088475
 40
0.9165076086
 40
1.0
 40
1.0
 40
1.0
 40
1.0
 10
9.5293531992
 20
10.747438794
 30
0.0
 10
9.5288747758
 20
10.7487936648
 30
0.0
 10
9.5281008939
 20
10.751434674
 30
0.0
 10
9.5274856988
 20
10.7553309239
 30
0.0
 10
9.5274481096
 20
10.7589300595
 30
0.0
 10
9.5279604171
 20
10.7621991717
 30
0.0
 10
9.5289865581
 20
10.7651158662
 30
0.0
 10
9.5304892015
 20
10.7676624444
 30
0.0
 10
9.5324266565
 20
10.7698259819
 30
0.0
 10
9.5347581703
 20
10.7715979881
 30
0.0
 10
9.5374471808
 20
10.7729719888
 30
0.0
 10
9.5404628287
 20
10.7739387838
 30
0.0
 10
9.5437782205
 20
10.774482393
 30
0.0
 10
9.5473672304
 20
10.7745773858
 30
0.0
 10
9.5512002691
 20
10.7741876273
 30
0.0
 10
9.5552384621
 20
10.7732655795
 30
0.0
 10
9.5594237625
 20
10.771755959
 30
0.0
 10
9.5621644546
 20
10.7703654175
 30
0.0
 10
9.5635312018
 20
10.7695628377
 30
0.0
  0
SPLINE
  5
4E6
100
AcDbEntity
  8
0
100
AcDbSpline
 62
9
  6
CONTINUOUS
 70
0
 71
3
 72
23
 73
19
 74
0
 42
0.0000001
 43
0.0000001
 44
0.0000000001
 40
0.0
 40
0.0
 40
0.0
 40
0.0
 40
0.0756901409
 40
0.1445599273
 40
0.2071646311
 40
0.2645239959
 40
0.3179897818
 40
0.3690693623
 40
0.4192806843
 40
0.4700164587
 40
0.5224647002
 40
0.5775925428
 40
0.6361771792
 40
0.6988570834
 40
0.7661769024
 40
0.8386087934
 40
0.9165075836
 40
1.0
 40
1.0
 40
1.0
 40
1.0
 10
9.3429447683
 20
10.9695917506
 30
0.0
 10
9.3424663485
 20
10.970946619
 30
0.0
 10
9.3416924736
 20
10.9735876233
 30
0.0
 10
9.3410772876
 20
10.9774838653
 30
0.0
 10
9.3410397061
 20
10.9810829929
 30
0.0
 10
9.3415520199
 20
10.9843520975
 30
0.0
 10
9.3425781655
 20
10.9872687848
 30
0.0
 10
9.3440808121
 20
10.9898153565
 30
0.0
 10
9.346018269
 20
10.991978888
 30
0.0
 10
9.3483497836
 20
10.993750889
 30
0.0
 10
9.351038794
 20
10.9951248854
 30
0.0
 10
9.3540544409
 20
10.9960916767
 30
0.0
 10
9.3573698309
 20
10.9966352829
 30
0.0
 10
9.3609588383
 20
10.9967302736
 30
0.0
 10
9.3647918739
 20
10.9963405137
 30
0.0
 10
9.3688300633
 20
10.9954184654
 30
0.0
 10
9.3730153597
 20
10.9939088456
 30
0.0
 10
9.3757560491
 20
10.9925183053
 30
0.0
 10
9.377122795
 20
10.9917157262
 30
0.0
  0
SPLINE
  5
4E7
100
AcDbEntity
  8
0
100
AcDbSpline
 62
9
  6
CONTINUOUS
 70
0
 71
3
 72
23
 73
19
 74
0
 42
0.0000001
 43
0.0000001
 44
0.0000000001
 40
0.0
 40
0.0
 40
0.0
 40
0.0
 40
0.0756901409
 40
0.1445599273
 40
0.2071646311
 40
0.2645239959
 40
0.3179897818
 40
0.3690693623
 40
0.4192806843
 40
0.4700164587
 40
0.5224647002
 40
0.5775925428
 40
0.6361771792
 40
0.6988570834
 40
0.7661769024
 40
0.8386087934
 40
0.9165075836
 40
1.0
 40
1.0
 40
1.0
 40
1.0
 10
9.1565363615
 20
11.1917446391
 30
0.0
 10
9.1560579417
 20
11.1930995075
 30
0.0
 10
9.1552840667
 20
11.1957405118
 30
0.0
 10
9.1546688808
 20
11.1996367538
 30
0.0
 10
9.1546312993
 20
11.2032358814
 30
0.0
 10
9.1551436131
 20
11.206504986
 30
0.0
 10
9.1561697587
 20
11.2094216734
 30
0.0
 10
9.1576724053
 20
11.211968245
 30
0.0
 10
9.1596098622
 20
11.2141317765
 30
0.0
 10
9.1619413768
 20
11.2159037776
 30
0.0
 10
9.1646303872
 20
11.2172777739
 30
0.0
 10
9.1676460341
 20
11.2182445652
 30
0.0
 10
9.170961424
 20
11.2187881714
 30
0.0
 10
9.1745504315
 20
11.2188831621
 30
0.0
 10
9.1783834671
 20
11.2184934022
 30
0.0
 10
9.1824216565
 20
11.2175713539
 30
0.0
 10
9.1866069529
 20
11.2160617341
 30
0.0
 10
9.1893476423
 20
11.2146711938
 30
0.0
 10
9.1907143882
 20
11.2138686147
 30
0.0
  0
SPLINE
  5
4E8
100
AcDbEntity
  8
0
100
AcDbSpline
 62
9
  6
CONTINUOUS
 70
0
 71
3
 72
23
 73
19
 74
0
 42
0.0000001
 43
0.0000001
 44
0.0000000001
 40
0.0
 40
0.0
 40
0.0
 40
0.0
 40
0.0756901409
 40
0.1445599273
 40
0.2071646311
 40
0.2645239959
 40
0.3179897818
 40
0.3690693623
 40
0.4192806843
 40
0.4700164587
 40
0.5224647002
 40
0.5775925428
 40
0.6361771792
 40
0.6988570834
 40
0.7661769024
 40
0.8386087934
 40
0.9165075836
 40
1.0
 40
1.0
 40
1.0
 40
1.0
 10
8.9701279547
 20
11.4138975276
 30
0.0
 10
8.9696495349
 20
11.415252396
 30
0.0
 10
8.9688756599
 20
11.4178934003
 30
0.0
 10
8.968260474
 20
11.4217896423
 30
0.0
 10
8.9682228925
 20
11.4253887699
 30
0.0
 10
8.9687352063
 20
11.4286578745
 30
0.0
 10
8.9697613518
 20
11.4315745619
 30
0.0
 10
8.9712639985
 20
11.4341211335
 30
0.0
 10
8.9732014554
 20
11.436284665
 30
0.0
 10
8.97553297
 20
11.4380566661
 30
0.0
 10
8.9782219804
 20
11.4394306624
 30
0.0
 10
8.9812376273
 20
11.4403974537
 30
0.0
 10
8.9845530172
 20
11.4409410599
 30
0.0
 10
8.9881420246
 20
11.4410360506
 30
0.0
 10
8.9919750603
 20
11.4406462907
 30
0.0
 10
8.9960132497
 20
11.4397242424
 30
0.0
 10
9.0001985461
 20
11.4382146226
 30
0.0
 10
9.0029392355
 20
11.4368240823
 30
0.0
 10
9.0043059814
 20
11.4360215032
 30
0.0
  0
SPLINE
  5
4E9
100
AcDbEntity
  8
0
100
AcDbSpline
 62
9
  6
CONTINUOUS
 70
0
 71
3
 72
23
 73
19
 74
0
 42
0.0000001
 43
0.0000001
 44
0.0000000001
 40
0.0
 40
0.0
 40
0.0
 40
0.0
 40
0.0756902375
 40
0.1445601101
 40
0.2071648827
 40
0.2645242945
 40
0.317990105
 40
0.3690696892
 40
0.419280998
 40
0.4700167465
 40
0.522464954
 40
0.5775927581
 40
0.6361773542
 40
0.6988572181
 40
0.7661769983
 40
0.8386088533
 40
0.9165076112
 40
1.0
 40
1.0
 40
1.0
 40
1.0
 10
8.7837195746
 20
11.6360503407
 30
0.0
 10
8.7832411507
 20
11.6374052117
 30
0.0
 10
8.7824672681
 20
11.6400462215
 30
0.0
 10
8.781852072
 20
11.6439424723
 30
0.0
 10
8.781814482
 20
11.6475416087
 30
0.0
 10
8.7823267889
 20
11.6508107217
 30
0.0
 10
8.7833529293
 20
11.653727417
 30
0.0
 10
8.7848555724
 20
11.6562739959
 30
0.0
 10
8.7867930271
 20
11.6584375341
 30
0.0
 10
8.7891245409
 20
11.6602095408
 30
0.0
 10
8.7918135514
 20
11.661583542
 30
0.0
 10
8.7948291995
 20
11.6625503374
 30
0.0
 10
8.7981445914
 20
11.6630939468
 30
0.0
 10
8.8017336016
 20
11.6631889399
 30
0.0
 10
8.8055666406
 20
11.6627991815
 30
0.0
 10
8.809604834
 20
11.6618771337
 30
0.0
 10
8.8137901349
 20
11.6603675132
 30
0.0
 10
8.8165308272
 20
11.6589769716
 30
0.0
 10
8.8178975746
 20
11.6581743918
 30
0.0
  0
SPLINE
  5
4EA
100
AcDbEntity
  8
0
100
AcDbSpline
 62
9
  6
CONTINUOUS
 70
0
 71
3
 72
23
 73
19
 74
0
 42
0.0000001
 43
0.0000001
 44
0.0000000001
 40
0.0
 40
0.0
 40
0.0
 40
0.0
 40
0.0756901226
 40
0.1445598927
 40
0.2071645836
 40
0.2645239395
 40
0.3179897208
 40
0.3690693005
 40
0.419280625
 40
0.4700164043
 40
0.5224646522
 40
0.5775925021
 40
0.6361771462
 40
0.698857058
 40
0.7661768843
 40
0.8386087821
 40
0.9165075784
 40
1.0
 40
1.0
 40
1.0
 40
1.0
 10
8.5973111361
 20
11.8582033188
 30
0.0
 10
8.596832717
 20
11.8595581868
 30
0.0
 10
8.5960588435
 20
11.8621991901
 30
0.0
 10
8.5954436594
 20
11.8660954304
 30
0.0
 10
8.5954060796
 20
11.8696945563
 30
0.0
 10
8.5959183946
 20
11.8729636593
 30
0.0
 10
8.5969445412
 20
11.8758803452
 30
0.0
 10
8.5984471885
 20
11.8784269154
 30
0.0
 10
8.6003846459
 20
11.8805904457
 30
0.0
 10
8.6027161606
 20
11.8823624457
 30
0.0
 10
8.6054051709
 20
11.8837364411
 30
0.0
 10
8.6084208176
 20
11.8847032317
 30
0.0
 10
8.6117362072
 20
11.8852468373
 30
0.0
 10
8.6153252141
 20
11.8853418275
 30
0.0
 10
8.6191582491
 20
11.8849520673
 30
0.0
 10
8.6231964377
 20
11.8840300189
 30
0.0
 10
8.6273817333
 20
11.8825203992
 30
0.0
 10
8.6301224222
 20
11.8811298591
 30
0.0
 10
8.6314891678
 20
11.8803272803
 30
0.0
  0
SPLINE
  5
4EB
100
AcDbEntity
  8
0
100
AcDbSpline
 62
9
  6
CONTINUOUS
 70
0
 71
3
 72
23
 73
19
 74
0
 42
0.0000001
 43
0.0000001
 44
0.0000000001
 40
0.0
 40
0.0
 40
0.0
 40
0.0
 40
0.075690344
 40
0.1445603115
 40
0.20716516
 40
0.2645246236
 40
0.317990461
 40
0.3690700494
 40
0.4192813435
 40
0.4700170637
 40
0.5224652337
 40
0.5775929954
 40
0.6361775469
 40
0.6988573664
 40
0.766177104
 40
0.8386089193
 40
0.9165076417
 40
1.0
 40
1.0
 40
1.0
 40
1.0
 10
8.4109027903
 20
12.0803560346
 30
0.0
 10
8.410424362
 20
12.0817109086
 30
0.0
 10
8.4096504711
 20
12.0843519243
 30
0.0
 10
8.4090352637
 20
12.0882481848
 30
0.0
 10
8.4089976642
 20
12.0918473308
 30
0.0
 10
8.4095099636
 20
12.0951164532
 30
0.0
 10
8.4105360983
 20
12.0980331573
 30
0.0
 10
8.4120387374
 20
12.1005797443
 30
0.0
 10
8.4139761898
 20
12.1027432896
 30
0.0
 10
8.4163077026
 20
12.1045153027
 30
0.0
 10
8.4189967134
 20
12.1058893092
 30
0.0
 10
8.4220123627
 20
12.1068561091
 30
0.0
 10
8.4253277569
 20
12.1073997221
 30
0.0
 10
8.42891677
 20
12.1074947178
 30
0.0
 10
8.4327498128
 20
12.107104961
 30
0.0
 10
8.4367880106
 20
12.1061829138
 30
0.0
 10
8.4409733164
 20
12.1046732925
 30
0.0
 10
8.443714012
 20
12.1032827496
 30
0.0
 10
8.445080761
 20
12.1024801688
 30
0.0
  0
SPLINE
  5
4EC
100
AcDbEntity
  8
0
100
AcDbSpline
 62
9
  6
CONTINUOUS
 70
0
 71
3
 72
23
 73
19
 74
0
 42
0.0000001
 43
0.0000001
 44
0.0000000001
 40
0.0
 40
0.0
 40
0.0
 40
0.0
 40
0.0756902974
 40
0.1445602234
 40
0.2071650387
 40
0.2645244796
 40
0.3179903052
 40
0.3690698918
 40
0.4192811923
 40
0.4700169249
 40
0.5224651113
 40
0.5775928916
 40
0.6361774626
 40
0.6988573015
 40
0.7661770577
 40
0.8386088904
 40
0.9165076284
 40
1.0
 40
1.0
 40
1.0
 40
1.0
 10
8.2244943706
 20
12.3025089594
 30
0.0
 10
8.2240159443
 20
12.3038638322
 30
0.0
 10
8.223242057
 20
12.3065048453
 30
0.0
 10
8.2226268546
 20
12.3104011015
 30
0.0
 10
8.2225892592
 20
12.3140002433
 30
0.0
 10
8.2231015619
 20
12.3172693616
 30
0.0
 10
8.2241276991
 20
12.3201860619
 30
0.0
 10
8.2256303399
 20
12.3227326453
 30
0.0
 10
8.2275677934
 20
12.3248961875
 30
0.0
 10
8.2298993066
 20
12.3266681978
 30
0.0
 10
8.2325883173
 20
12.328042202
 30
0.0
 10
8.235603966
 20
12.3290089999
 30
0.0
 10
8.2389193592
 20
12.3295526114
 30
0.0
 10
8.242508371
 20
12.3296476059
 30
0.0
 10
8.2463414122
 20
12.3292578484
 30
0.0
 10
8.2503796081
 20
12.328335801
 30
0.0
 10
8.2545649117
 20
12.32682618
 30
0.0
 10
8.2573056059
 20
12.3254356377
 30
0.0
 10
8.2586723542
 20
12.3246330573
 30
0.0
  0
ENDSEC
  0
SECTION
  2
OBJECTS
  0
DICTIONARY
  5
C
100
AcDbDictionary
280
0
281
1
  3
ACAD_GROUP
350
D
  3
ACAD_MLINESTYLE
350
17
  3
ACAD_LAYOUT
350
1A
  3
ACAD_PLOTSETTINGS
350
19
  3
ACAD_PLOTSTYLENAME
350
E
  0
DICTIONARY
  5
D
102
{ACAD_REACTORS
330
C
102
}
100
AcDbDictionary
280
0
281
1
  0
ACDBDICTIONARYWDFLT
  5
E
102
{ACAD_REACTORS
330
C
102
}
100
AcDbDictionary
281
1
  3
Normal
350
F
100
AcDbDictionaryWithDefault
340
F
  0
DICTIONARY
  5
17
102
{ACAD_REACTORS
330
C
102
}
100
AcDbDictionary
280
0
281
1
  3
Standard
350
18
  0
DICTIONARY
  5
19
102
{ACAD_REACTORS
330
C
102
}
100
AcDbDictionary
281
1
  0
DICTIONARY
  5
1A
102
{ACAD_REACTORS
330
C
102
}
100
AcDbDictionary
281
1
  3
Model
350
4ED
  3
Layout1
350
4EE
  0
ACDBPLACEHOLDER
  5
F
102
{ACAD_REACTORS
330
E
102
}
  0
MLINESTYLE
  5
18
102
{ACAD_REACTORS
330
17
102
}
100
AcDbMlineStyle
  2
STANDARD
 70
0
  3

 62
256
 51
90.0
 52
90.0
 71
2
 49
0.5
 62
256
  6
BYLAYER
 49
-0.5
 62
256
  6
BYLAYER
  0
LAYOUT
  5
4ED
102
{ACAD_REACTORS
330
1A
102
}
100
AcDbPlotSettings
  1

  2
none_device
  4
ANSI_C_(22.00_x_17.00_Inches)
  6

 40
0.0
 41
0.0
 42
0.0
 43
0.0
 44
558.8
 45
431.8
 46
0.0
 47
0.0
 48
0.0
 49
0.0
140
0.0
141
0.0
142
1.0
143
1.0
 70
1024
 72
0
 73
0
 74
0
  7

 75
0
147
1.0
148
0.0
149
0.0
100
AcDbLayout
  1
Model
 70
0
 71
0
 10
0.0
 20
0.0
 11
22.0
 21
17.0
 12
0.0
 22
0.0
 32
0.0
 14
0.0
 24
0.0
 34
0.0
 15
0.0
 25
0.0
 35
0.0
146
0.0
 13
0.0
 23
0.0
 33
0.0
 16
1.0
 26
0.0
 36
0.0
 17
0.0
 27
1.0
 37
0.0
 76
0
330
205
345
0
346
0
  0
LAYOUT
  5
4EE
102
{ACAD_REACTORS
330
1A
102
}
100
AcDbPlotSettings
  1

  2
none_device
  4
ANSI_C_(22.00_x_17.00_Inches)
  6

 40
0.0
 41
0.0
 42
0.0
 43
0.0
 44
558.8
 45
431.8
 46
0.0
 47
0.0
 48
0.0
 49
0.0
140
0.0
141
0.0
142
1.0
143
1.0
 70
0
 72
0
 73
0
 74
0
  7

 75
0
147
1.0
148
0.0
149
0.0
100
AcDbLayout
  1
Layout1
 70
0
 71
1
 10
0.0
 20
0.0
 11
22.0
 21
17.0
 12
0.0
 22
0.0
 32
0.0
 14
0.0
 24
0.0
 34
0.0
 15
0.0
 25
0.0
 35
0.0
146
0.0
 13
0.0
 23
0.0
 33
0.0
 16
1.0
 26
0.0
 36
0.0
 17
0.0
 27
1.0
 37
0.0
 76
0
330
206
345
0
346
0
  0
ENDSEC
  0
EOF
