999
DXF file: E:\BT Custom\CADOUTPUT\_TOP.dxf
999
Pro/ENGINEER 2018400 by Parametric Technology Corporation
  0
SECTION
  2
HEADER
  9
$ACADVER
  1
AC1018
  9
$DWGCODEPAGE
  3
ANSI_1252
  9
$EXTMAX
 10
22.0
 20
17.0
 30
0.0
  9
$EXTMIN
 10
0.0
 20
0.0
 30
0.0
  9
$LIMMIN
 10
0.0
 20
0.0
  9
$LIMMAX
 10
22.0
 20
17.0
  9
$VIEWCTR
 10
11.0
 20
8.5
  9
$VIEWSIZE
 40
17.0
  9
$CLAYER
  8
0
  9
$LTSCALE
 40
1.21
  9
$CELTYPE
  6
BYLAYER
  9
$DIMSCALE
 40
1.0
  9
$DIMASZ
 40
0.1
  9
$DIMEXO
 40
0.0625
  9
$DIMDLI
 40
0.836
  9
$DIMEXE
 40
0.125
  9
$DIMCEN
 40
0.198
  9
$DIMLFAC
 40
1.0
  9
$DIMBLK
  1
_FILLED
  9
$DIMALT
 70
1
  9
$DIMALTD
 70
2
  9
$DIMALTTD
 70
2
  9
$DIMALTF
 40
25.4
  9
$DIMTXT
 40
0.08
  9
$DIMTOL
 70
1
  9
$DIMLIM
 70
0
  9
$DIMTFAC
 40
1.0
  9
$DIMTP
 40
0.001
  9
$DIMTM
 40
0.001
  9
$DIMGAP
 40
0.09
  9
$DIMDSEP
 70
46
  9
$AUNITS
 70
0
  9
$PDMODE
 70
3
  9
$PDSIZE
 40
0.06
  9
$HANDSEED
  5
302
  9
$TILEMODE
 70
1
  9
$MEASUREMENT
 70
0
  9
$INSUNITS
 70
1
  0
ENDSEC
  0
SECTION
  2
CLASSES
  0
CLASS
  1
ACDBDICTIONARYWDFLT
  2
AcDbDictionaryWithDefault
  3
AutoCAD 2000
 90
0
 91
1
280
0
281
0
  0
CLASS
  1
ACDBPLACEHOLDER
  2
AcDbPlaceHolder
  3
AutoCAD 2000
 90
0
 91
1
280
0
281
0
  0
CLASS
  1
LAYOUT
  2
AcDbLayout
  3
AutoCAD 2000
 90
0
 91
0
280
0
281
0
  0
ENDSEC
  0
SECTION
  2
TABLES
  0
TABLE
  2
VPORT
  5
8
100
AcDbSymbolTable
 70
2
  0
VPORT
  5
1F4
100
AcDbSymbolTableRecord
100
AcDbViewportTableRecord
  2
*ACTIVE
 70
0
 10
0.0
 20
0.0
 11
1.0
 21
1.0
 12
11.0
 22
8.5
 13
0.0
 23
0.0
 14
1.0
 24
1.0
 15
0.0
 25
0.0
 16
0.0
 26
0.0
 36
1.0
 17
0.0
 27
0.0
 37
0.0
 40
17.0
 41
1.2941176471
 42
50.0
 43
0.0
 44
0.0
 50
0.0
 51
0.0
 71
0
 72
100
 73
1
 74
1
 75
0
 76
0
 77
0
 78
0
  0
ENDTAB
  0
TABLE
  2
LTYPE
  5
5
100
AcDbSymbolTable
 70
6
  0
LTYPE
  5
14
100
AcDbSymbolTableRecord
100
AcDbLinetypeTableRecord
  2
BYBLOCK
 70
0
  3

 72
65
 73
0
 40
0.0
  0
LTYPE
  5
15
100
AcDbSymbolTableRecord
100
AcDbLinetypeTableRecord
  2
BYLAYER
 70
0
  3

 72
65
 73
0
 40
0.0
  0
LTYPE
  5
16
100
AcDbSymbolTableRecord
100
AcDbLinetypeTableRecord
  2
CONTINUOUS
 70
64
  3
Solid line
 72
65
 73
0
 40
0.0
  0
LTYPE
  5
1F5
100
AcDbSymbolTableRecord
100
AcDbLinetypeTableRecord
  2
CENTER
 70
64
  3
____ _ ____ _ ____ _ ____ _ ____ _ ____ _ ____
 72
65
 73
4
 40
0.6
 49
0.375
 74
0
 49
-0.075
 74
0
 49
0.075
 74
0
 49
-0.075
 74
0
  0
LTYPE
  5
1F6
100
AcDbSymbolTableRecord
100
AcDbLinetypeTableRecord
  2
HIDDEN
 70
64
  3
- - - - - - - - - - - - - - - - - - - -
 72
65
 73
2
 40
0.2
 49
0.1
 74
0
 49
-0.1
 74
0
  0
LTYPE
  5
1F7
100
AcDbSymbolTableRecord
100
AcDbLinetypeTableRecord
  2
PHANTOM
 70
64
  3
_____ _ _ _____ _ _ _____ _ _ _____
 72
65
 73
6
 40
0.8
 49
0.45
 74
0
 49
-0.05
 74
0
 49
0.1
 74
0
 49
-0.05
 74
0
 49
0.1
 74
0
 49
-0.05
 74
0
  0
LTYPE
  5
1F8
100
AcDbSymbolTableRecord
100
AcDbLinetypeTableRecord
  2
DOT
 70
64
  3
. . . . . . . . . . . . . . . . . . . .
 72
65
 73
2
 40
0.2
 49
0.1
 74
0
 49
-0.1
 74
0
  0
LTYPE
  5
1F9
100
AcDbSymbolTableRecord
100
AcDbLinetypeTableRecord
  2
DASHED
 70
64
  3
- - - - - - - - - - - - - - - - - - - -
 72
65
 73
2
 40
0.2
 49
0.1
 74
0
 49
-0.1
 74
0
  0
ENDTAB
  0
TABLE
  2
LAYER
  5
2
100
AcDbSymbolTable
 70
36
  0
LAYER
  5
10
100
AcDbSymbolTableRecord
100
AcDbLayerTableRecord
  2
0
 70
0
 62
7
  6
CONTINUOUS
370
-3
390
F
  0
LAYER
  5
1FA
100
AcDbSymbolTableRecord
100
AcDbLayerTableRecord
  2
DEFAULT_1
 70
0
 62
7
  6
CENTER
370
-3
390
F
  0
LAYER
  5
1FB
100
AcDbSymbolTableRecord
100
AcDbLayerTableRecord
  2
DEFAULT_2
 70
0
 62
8
  6
HIDDEN
370
-3
390
F
  0
LAYER
  5
1FC
100
AcDbSymbolTableRecord
100
AcDbLayerTableRecord
  2
DEFAULT_3
 70
0
 62
7
  6
PHANTOM
370
-3
390
F
  0
LAYER
  5
1FD
100
AcDbSymbolTableRecord
100
AcDbLayerTableRecord
  2
ALL_FEATURES
 70
0
 62
7
  6
CONTINUOUS
370
-3
390
F
  0
LAYER
  5
1FE
100
AcDbSymbolTableRecord
100
AcDbLayerTableRecord
  2
AXES_FEATURES
 70
0
 62
7
  6
CONTINUOUS
370
-3
390
F
  0
LAYER
  5
1FF
100
AcDbSymbolTableRecord
100
AcDbLayerTableRecord
  2
DEFAULT_COORDINATE_SYSTEM
 70
0
 62
7
  6
CONTINUOUS
370
-3
390
F
  0
LAYER
  5
200
100
AcDbSymbolTableRecord
100
AcDbLayerTableRecord
  2
DEFAULT_DATUM_AXES
 70
0
 62
7
  6
CONTINUOUS
370
-3
390
F
  0
LAYER
  5
201
100
AcDbSymbolTableRecord
100
AcDbLayerTableRecord
  2
DEFAULT_DATUM_PLANES
 70
0
 62
7
  6
CONTINUOUS
370
-3
390
F
  0
LAYER
  5
202
100
AcDbSymbolTableRecord
100
AcDbLayerTableRecord
  2
DIMENSIONS
 70
0
 62
7
  6
CONTINUOUS
370
-3
390
F
  0
ENDTAB
  0
TABLE
  2
STYLE
  5
3
100
AcDbSymbolTable
 70
1
  0
STYLE
  5
11
100
AcDbSymbolTableRecord
100
AcDbTextStyleTableRecord
  2
STANDARD
 70
0
 40
0.0
 41
0.8
 50
0.0
 71
0
 42
0.2
  3
txt
  4

  0
STYLE
  5
203
100
AcDbSymbolTableRecord
100
AcDbTextStyleTableRecord
  2
TEXTSTYLE_1
 70
0
 40
0.0
 41
0.8
 50
0.0
 71
0
 42
0.2
  3
gdt
  4

  0
ENDTAB
  0
TABLE
  2
VIEW
  5
6
100
AcDbSymbolTable
 70
0
  0
ENDTAB
  0
TABLE
  2
UCS
  5
7
100
AcDbSymbolTable
 70
0
  0
ENDTAB
  0
TABLE
  2
APPID
  5
9
100
AcDbSymbolTable
 70
1
  0
APPID
  5
204
100
AcDbSymbolTableRecord
100
AcDbRegAppTableRecord
  2
ACAD
 70
0
  0
ENDTAB
  0
TABLE
  2
BLOCK_RECORD
  5
1
100
AcDbSymbolTable
 70
0
  0
BLOCK_RECORD
  5
205
100
AcDbSymbolTableRecord
100
AcDbBlockTableRecord
  2
*Model_Space
  0
BLOCK_RECORD
  5
206
100
AcDbSymbolTableRecord
100
AcDbBlockTableRecord
  2
*Paper_Space
  0
BLOCK_RECORD
  5
207
100
AcDbSymbolTableRecord
100
AcDbBlockTableRecord
  2
_FILLED
  0
ENDTAB
  0
TABLE
  2
DIMSTYLE
  5
A
100
AcDbSymbolTable
 70
1
100
AcDbDimStyleTable
 71
0
  0
DIMSTYLE
105
208
100
AcDbSymbolTableRecord
100
AcDbDimStyleTableRecord
  2
STANDARD
 70
0
  3

  4

 40
1.0
 41
0.1
 42
0.0625
 43
0.38
 44
0.125
 45
0.0
 46
0.0
 47
0.001
 48
0.001
140
0.08
141
0.09
142
0.0
143
25.4
144
1.0
145
0.0
146
1.0
147
0.09
 71
1.0
 72
0.0
 73
1
 74
1
 75
0
 76
0
 77
0
 78
4
 79
1
170
1
171
2
172
0
173
0
174
0
175
0
176
0
177
0
178
0
270
2
179
3
271
3
272
3
273
2
274
2
275
0
280
0
281
0
282
0
283
1
284
4
285
0
286
0
287
3
288
0
340
11
278
46
341
207
342
207
343
207
344
207
  0
ENDTAB
  0
ENDSEC
  0
SECTION
  2
BLOCKS
  0
BLOCK
  5
20
100
AcDbEntity
  8
0
100
AcDbBlockBegin
  2
*Model_Space
 70
0
 10
0.0
 20
0.0
 30
0.0
  3
*Model_Space
  1

  0
ENDBLK
  5
21
100
AcDbEntity
  8
0
100
AcDbBlockEnd
  0
BLOCK
  5
1C
100
AcDbEntity
  8
0
100
AcDbBlockBegin
  2
*Paper_Space
 70
0
 10
0.0
 20
0.0
 30
0.0
  3
*Paper_Space
  1

  0
ENDBLK
  5
1D
100
AcDbEntity
  8
0
100
AcDbBlockEnd
  0
BLOCK
  5
209
100
AcDbEntity
  8
0
100
AcDbBlockBegin
  2
_FILLED
 70
64
 10
0.0
 20
0.0
  3
_FILLED
  1

  0
SOLID
  5
20A
100
AcDbEntity
  8
0
  6
BYBLOCK
 62
0
100
AcDbTrace
 10
0.0
 20
0.0
 11
-1.0
 21
0.2
 12
-1.0
 22
-0.2
 13
-1.0
 23
-0.2
  0
ENDBLK
  5
20B
100
AcDbEntity
  8
0
  6
BYBLOCK
 62
0
100
AcDbBlockEnd
  0
ENDSEC
  0
SECTION
  2
ENTITIES
  0
LINE
  5
20C
100
AcDbEntity
  8
0
100
AcDbLine
 62
7
  6
CONTINUOUS
 10
0.0548183383
 20
11.5333318604
 11
0.0548183383
 21
10.7933318604
  0
LINE
  5
20D
100
AcDbEntity
  8
0
100
AcDbLine
 62
9
  6
CONTINUOUS
 10
0.0848183383
 20
10.7633318604
 11
0.0848183383
 21
11.5633318604
  0
LINE
  5
20E
100
AcDbEntity
  8
0
100
AcDbLine
 62
7
  6
CONTINUOUS
 10
2.0048183383
 20
12.1483318604
 11
2.0048183383
 21
11.5633318604
  0
LINE
  5
20F
100
AcDbEntity
  8
0
100
AcDbLine
 62
7
  6
CONTINUOUS
 10
2.0048183383
 20
10.7633318604
 11
2.0048183383
 21
10.1783318604
  0
LINE
  5
210
100
AcDbEntity
  8
0
100
AcDbLine
 62
9
  6
CONTINUOUS
 10
2.0348183383
 20
10.7633318604
 11
2.0348183383
 21
10.1483318604
  0
LINE
  5
211
100
AcDbEntity
  8
0
100
AcDbLine
 62
9
  6
CONTINUOUS
 10
2.0348183383
 20
11.5633318604
 11
2.0348183378
 21
12.1783318604
  0
LINE
  5
212
100
AcDbEntity
  8
0
100
AcDbLine
 62
7
  6
CONTINUOUS
 10
2.3848183383
 20
11.7133318604
 11
2.3848183383
 21
11.5633318604
  0
LINE
  5
213
100
AcDbEntity
  8
0
100
AcDbLine
 62
7
  6
CONTINUOUS
 10
2.3848183383
 20
10.7633318604
 11
2.3848183383
 21
10.6133318604
  0
LINE
  5
214
100
AcDbEntity
  8
0
100
AcDbLine
 62
9
  6
CONTINUOUS
 10
2.4148183383
 20
11.7433318604
 11
2.4148183383
 21
11.5633318604
  0
LINE
  5
215
100
AcDbEntity
  8
0
100
AcDbLine
 62
9
  6
CONTINUOUS
 10
2.4148183383
 20
10.7633318604
 11
2.4148183383
 21
10.5833318604
  0
LINE
  5
216
100
AcDbEntity
  8
0
100
AcDbLine
 62
9
  6
CONTINUOUS
 10
3.6748183383
 20
10.7633318604
 11
3.6748183383
 21
11.5633318604
  0
LINE
  5
217
100
AcDbEntity
  8
0
100
AcDbLine
 62
9
  6
CONTINUOUS
 10
3.6948183383
 20
10.5833318604
 11
3.6948183383
 21
10.7710085096
  0
LINE
  5
218
100
AcDbEntity
  8
0
100
AcDbLine
 62
9
  6
CONTINUOUS
 10
3.6948183383
 20
11.5556501697
 11
3.6948183383
 21
11.7433318604
  0
LINE
  5
219
100
AcDbEntity
  8
0
100
AcDbLine
 62
7
  6
CONTINUOUS
 10
3.7048183383
 20
10.7933318604
 11
3.7048183383
 21
11.5333318604
  0
LINE
  5
21A
100
AcDbEntity
  8
0
100
AcDbLine
 62
7
  6
CONTINUOUS
 10
3.7248183383
 20
10.6133318604
 11
3.7248183383
 21
11.7133318604
  0
LINE
  5
21B
100
AcDbEntity
  8
0
100
AcDbLine
 62
9
  6
CONTINUOUS
 10
4.0748183388
 20
10.1483318604
 11
4.0748183383
 21
12.1783318604
  0
LINE
  5
21C
100
AcDbEntity
  8
0
100
AcDbLine
 62
7
  6
CONTINUOUS
 10
4.1048183383
 20
10.1783318604
 11
4.1048183383
 21
12.1483318604
  0
LINE
  5
21D
100
AcDbEntity
  8
0
100
AcDbLine
 62
7
  6
CONTINUOUS
 10
5.4798183383
 20
12.3633318604
 11
5.4798183383
 21
9.9633318604
  0
LINE
  5
21E
100
AcDbEntity
  8
0
100
AcDbLine
 62
9
  6
CONTINUOUS
 10
5.5198183383
 20
9.9233318604
 11
5.5198183383
 21
12.4033318604
  0
LINE
  5
21F
100
AcDbEntity
  8
0
100
AcDbLine
 62
7
  6
CONTINUOUS
 10
5.6748183383
 20
2.5623318604
 11
5.6748183383
 21
12.4423318604
  0
LINE
  5
220
100
AcDbEntity
  8
0
100
AcDbLine
 62
9
  6
CONTINUOUS
 10
5.7148183383
 20
2.5623318604
 11
5.7148183383
 21
12.4823318604
  0
LINE
  5
221
100
AcDbEntity
  8
0
100
AcDbLine
 62
9
  6
CONTINUOUS
 10
5.7548183383
 20
2.4823318604
 11
5.7548183383
 21
2.5223318604
  0
LINE
  5
222
100
AcDbEntity
  8
0
100
AcDbLine
 62
7
  6
CONTINUOUS
 10
8.3548183383
 20
2.4823318604
 11
5.7548183383
 21
2.4823318604
  0
LINE
  5
223
100
AcDbEntity
  8
0
100
AcDbLine
 62
9
  6
CONTINUOUS
 10
8.3548183383
 20
2.5223318604
 11
5.7548183383
 21
2.5223318604
  0
LINE
  5
224
100
AcDbEntity
  8
0
100
AcDbLine
 62
9
  6
CONTINUOUS
 10
8.4348183383
 20
2.5623318604
 11
8.3948183383
 21
2.5623318604
  0
LINE
  5
225
100
AcDbEntity
  8
0
100
AcDbLine
 62
9
  6
CONTINUOUS
 10
5.6748183383
 20
2.5623318604
 11
5.7148183383
 21
2.5623318604
  0
LINE
  5
226
100
AcDbEntity
  8
0
100
AcDbLine
 62
9
  6
CONTINUOUS
 10
8.3548183383
 20
2.4823318604
 11
8.3548183383
 21
2.5223318604
  0
LINE
  5
227
100
AcDbEntity
  8
0
100
AcDbLine
 62
9
  6
CONTINUOUS
 10
8.3948183383
 20
2.5623318604
 11
8.3948183383
 21
12.4823318604
  0
LINE
  5
228
100
AcDbEntity
  8
0
100
AcDbLine
 62
7
  6
CONTINUOUS
 10
8.4348183383
 20
12.4423318604
 11
8.4348183383
 21
2.5623318604
  0
LINE
  5
229
100
AcDbEntity
  8
0
100
AcDbLine
 62
9
  6
CONTINUOUS
 10
8.5898183383
 20
9.9233318604
 11
8.5898183383
 21
12.4033318604
  0
LINE
  5
22A
100
AcDbEntity
  8
0
100
AcDbLine
 62
7
  6
CONTINUOUS
 10
8.6298183383
 20
9.9633318604
 11
8.6298183383
 21
12.3633318604
  0
LINE
  5
22B
100
AcDbEntity
  8
0
100
AcDbLine
 62
7
  6
CONTINUOUS
 10
20.6198183383
 20
4.7153419223
 11
21.4898183383
 21
4.7153419223
  0
LINE
  5
22C
100
AcDbEntity
  8
0
100
AcDbLine
 62
9
  6
CONTINUOUS
 10
20.6198183383
 20
4.7189140462
 11
21.4898183383
 21
4.7189140462
  0
LINE
  5
22D
100
AcDbEntity
  8
0
100
AcDbLine
 62
7
  6
CONTINUOUS
 10
20.6713183383
 20
4.7368746684
 11
21.4383183383
 21
4.7368746684
  0
LINE
  5
22E
100
AcDbEntity
  8
0
100
AcDbLine
 62
9
  6
CONTINUOUS
 10
20.6713183383
 20
4.7404467923
 11
21.4383183383
 21
4.7404467923
  0
LINE
  5
22F
100
AcDbEntity
  8
0
100
AcDbLine
 62
9
  6
CONTINUOUS
 10
21.4383183383
 20
5.4352491022
 11
20.6713183383
 21
5.4352491022
  0
LINE
  5
230
100
AcDbEntity
  8
0
100
AcDbLine
 62
7
  6
CONTINUOUS
 10
20.6713183383
 20
5.4493374228
 11
21.4383183383
 21
5.4493374228
  0
LINE
  5
231
100
AcDbEntity
  8
0
100
AcDbLine
 62
9
  6
CONTINUOUS
 10
21.4898183383
 20
5.4696376005
 11
20.6198183383
 21
5.4696376005
  0
LINE
  5
232
100
AcDbEntity
  8
0
100
AcDbLine
 62
9
  6
CONTINUOUS
 10
21.4898183383
 20
5.483725921
 11
20.6198183383
 21
5.483725921
  0
LINE
  5
233
100
AcDbEntity
  8
0
100
AcDbLine
 62
7
  6
CONTINUOUS
 10
10.0048183383
 20
12.1483318604
 11
10.0048183383
 21
10.1783318604
  0
LINE
  5
234
100
AcDbEntity
  8
0
100
AcDbLine
 62
9
  6
CONTINUOUS
 10
10.0348183383
 20
10.1483318604
 11
10.0348183378
 21
12.1783318604
  0
LINE
  5
235
100
AcDbEntity
  8
0
100
AcDbLine
 62
7
  6
CONTINUOUS
 10
10.3848183383
 20
11.7133318604
 11
10.3848183383
 21
10.6133318604
  0
LINE
  5
236
100
AcDbEntity
  8
0
100
AcDbLine
 62
7
  6
CONTINUOUS
 10
10.4048183383
 20
11.5333318604
 11
10.4048183383
 21
10.7933318604
  0
LINE
  5
237
100
AcDbEntity
  8
0
100
AcDbLine
 62
9
  6
CONTINUOUS
 10
10.4148183383
 20
11.7433318604
 11
10.4148183383
 21
11.5555787967
  0
LINE
  5
238
100
AcDbEntity
  8
0
100
AcDbLine
 62
9
  6
CONTINUOUS
 10
10.4148183383
 20
10.7710824833
 11
10.4148183383
 21
10.5833318604
  0
LINE
  5
239
100
AcDbEntity
  8
0
100
AcDbLine
 62
9
  6
CONTINUOUS
 10
10.4348183383
 20
10.7633318604
 11
10.4348183383
 21
11.5633318604
  0
LINE
  5
23A
100
AcDbEntity
  8
0
100
AcDbLine
 62
9
  6
CONTINUOUS
 10
11.6948183383
 20
10.5833318604
 11
11.6948183383
 21
10.7633318604
  0
LINE
  5
23B
100
AcDbEntity
  8
0
100
AcDbLine
 62
9
  6
CONTINUOUS
 10
11.6948183383
 20
11.5633318604
 11
11.6948183383
 21
11.7433318604
  0
LINE
  5
23C
100
AcDbEntity
  8
0
100
AcDbLine
 62
7
  6
CONTINUOUS
 10
11.7248183383
 20
10.6133318604
 11
11.7248183383
 21
10.7633318604
  0
LINE
  5
23D
100
AcDbEntity
  8
0
100
AcDbLine
 62
7
  6
CONTINUOUS
 10
11.7248183383
 20
11.5633318604
 11
11.7248183383
 21
11.7133318604
  0
LINE
  5
23E
100
AcDbEntity
  8
0
100
AcDbLine
 62
9
  6
CONTINUOUS
 10
12.0748183383
 20
11.5633318604
 11
12.0748183383
 21
12.1783318604
  0
LINE
  5
23F
100
AcDbEntity
  8
0
100
AcDbLine
 62
9
  6
CONTINUOUS
 10
12.0748183383
 20
10.7633318604
 11
12.0748183388
 21
10.1483318604
  0
LINE
  5
240
100
AcDbEntity
  8
0
100
AcDbLine
 62
7
  6
CONTINUOUS
 10
12.1048183383
 20
10.1783318604
 11
12.1048183383
 21
10.7633318604
  0
LINE
  5
241
100
AcDbEntity
  8
0
100
AcDbLine
 62
7
  6
CONTINUOUS
 10
12.1048183383
 20
11.5633318604
 11
12.1048183383
 21
12.1483318604
  0
LINE
  5
242
100
AcDbEntity
  8
0
100
AcDbLine
 62
7
  6
CONTINUOUS
 10
20.1098183382
 20
9.9133318604
 11
20.5548183383
 21
9.9133318604
  0
LINE
  5
243
100
AcDbEntity
  8
0
100
AcDbLine
 62
7
  6
CONTINUOUS
 10
21.5548183383
 20
9.9133318604
 11
21.9998183382
 21
9.9133318604
  0
LINE
  5
244
100
AcDbEntity
  8
0
100
AcDbLine
 62
7
  6
CONTINUOUS
 10
5.5198183383
 20
9.9233318604
 11
5.6748183383
 21
9.9233318604
  0
LINE
  5
245
100
AcDbEntity
  8
0
100
AcDbLine
 62
7
  6
CONTINUOUS
 10
8.4348183383
 20
9.9233318604
 11
8.5898183383
 21
9.9233318604
  0
LINE
  5
246
100
AcDbEntity
  8
0
100
AcDbLine
 62
9
  6
CONTINUOUS
 10
20.0698183383
 20
9.9533318604
 11
20.5548183383
 21
9.9533318604
  0
LINE
  5
247
100
AcDbEntity
  8
0
100
AcDbLine
 62
9
  6
CONTINUOUS
 10
21.5548183383
 20
9.9533318604
 11
22.0398183383
 21
9.9533318604
  0
LINE
  5
248
100
AcDbEntity
  8
0
100
AcDbLine
 62
9
  6
CONTINUOUS
 10
5.4798183383
 20
9.9633318604
 11
5.6748183383
 21
9.9633318604
  0
LINE
  5
249
100
AcDbEntity
  8
0
100
AcDbLine
 62
9
  6
CONTINUOUS
 10
8.4348183383
 20
9.9633318604
 11
8.6298183383
 21
9.9633318604
  0
LINE
  5
24A
100
AcDbEntity
  8
0
100
AcDbLine
 62
9
  6
CONTINUOUS
 10
14.0248183383
 20
10.7633318604
 11
14.0248183383
 21
11.5633318604
  0
LINE
  5
24B
100
AcDbEntity
  8
0
100
AcDbLine
 62
7
  6
CONTINUOUS
 10
14.0548183383
 20
10.7933318604
 11
14.0548183383
 21
11.5333318604
  0
LINE
  5
24C
100
AcDbEntity
  8
0
100
AcDbLine
 62
7
  6
CONTINUOUS
 10
2.0348183383
 20
10.1483318604
 11
4.0748183383
 21
10.1483318604
  0
LINE
  5
24D
100
AcDbEntity
  8
0
100
AcDbLine
 62
7
  6
CONTINUOUS
 10
10.0348183383
 20
10.1483318604
 11
12.0748183383
 21
10.1483318604
  0
LINE
  5
24E
100
AcDbEntity
  8
0
100
AcDbLine
 62
7
  6
CONTINUOUS
 10
15.0348183368
 20
10.1633318604
 11
17.0748183368
 21
10.1633318604
  0
LINE
  5
24F
100
AcDbEntity
  8
0
100
AcDbLine
 62
9
  6
CONTINUOUS
 10
10.0048183383
 20
10.1783318599
 11
12.1048183383
 21
10.1783318604
  0
LINE
  5
250
100
AcDbEntity
  8
0
100
AcDbLine
 62
9
  6
CONTINUOUS
 10
4.1048183383
 20
10.1783318604
 11
2.0048183383
 21
10.1783318599
  0
LINE
  5
251
100
AcDbEntity
  8
0
100
AcDbLine
 62
9
  6
CONTINUOUS
 10
15.0048183368
 20
10.1933318599
 11
17.1048183368
 21
10.1933318604
  0
LINE
  5
252
100
AcDbEntity
  8
0
100
AcDbLine
 62
7
  6
CONTINUOUS
 10
2.4148183383
 20
10.5833318604
 11
3.6948183383
 21
10.5833318604
  0
LINE
  5
253
100
AcDbEntity
  8
0
100
AcDbLine
 62
7
  6
CONTINUOUS
 10
10.4148183383
 20
10.5833318604
 11
11.6948183383
 21
10.5833318604
  0
LINE
  5
254
100
AcDbEntity
  8
0
100
AcDbLine
 62
7
  6
CONTINUOUS
 10
15.4148183368
 20
10.5833318604
 11
16.6948183368
 21
10.5833318604
  0
LINE
  5
255
100
AcDbEntity
  8
0
100
AcDbLine
 62
9
  6
CONTINUOUS
 10
2.3848183383
 20
10.6133318604
 11
3.7248183383
 21
10.6133318604
  0
LINE
  5
256
100
AcDbEntity
  8
0
100
AcDbLine
 62
9
  6
CONTINUOUS
 10
10.3848183383
 20
10.6133318604
 11
11.7248183383
 21
10.6133318604
  0
LINE
  5
257
100
AcDbEntity
  8
0
100
AcDbLine
 62
9
  6
CONTINUOUS
 10
15.3848183368
 20
10.6133318604
 11
16.7248183368
 21
10.6133318604
  0
LINE
  5
258
100
AcDbEntity
  8
0
100
AcDbLine
 62
7
  6
CONTINUOUS
 10
0.0848183383
 20
10.7633318604
 11
3.6748183383
 21
10.7633318604
  0
LINE
  5
259
100
AcDbEntity
  8
0
100
AcDbLine
 62
7
  6
CONTINUOUS
 10
10.4348183383
 20
10.7633318604
 11
14.0248183383
 21
10.7633318604
  0
LINE
  5
25A
100
AcDbEntity
  8
0
100
AcDbLine
 62
7
  6
CONTINUOUS
 10
15.4348183368
 20
10.7633318604
 11
19.0248183368
 21
10.7633318604
  0
LINE
  5
25B
100
AcDbEntity
  8
0
100
AcDbLine
 62
9
  6
CONTINUOUS
 10
0.0548183383
 20
10.7933318604
 11
3.7048183383
 21
10.7933318604
  0
LINE
  5
25C
100
AcDbEntity
  8
0
100
AcDbLine
 62
9
  6
CONTINUOUS
 10
10.4048183383
 20
10.7933318604
 11
14.0548183383
 21
10.7933318604
  0
LINE
  5
25D
100
AcDbEntity
  8
0
100
AcDbLine
 62
9
  6
CONTINUOUS
 10
15.4048183368
 20
10.7933318604
 11
19.0548183368
 21
10.7933318604
  0
LINE
  5
25E
100
AcDbEntity
  8
0
100
AcDbLine
 62
7
  6
CONTINUOUS
 10
15.0048183368
 20
12.1333318604
 11
15.0048183368
 21
10.1933318604
  0
LINE
  5
25F
100
AcDbEntity
  8
0
100
AcDbLine
 62
9
  6
CONTINUOUS
 10
15.0348183368
 20
10.1633318604
 11
15.0348183363
 21
12.1633318604
  0
LINE
  5
260
100
AcDbEntity
  8
0
100
AcDbLine
 62
9
  6
CONTINUOUS
 10
20.6198183383
 20
10.9345648512
 11
21.4898183383
 21
10.9345648512
  0
LINE
  5
261
100
AcDbEntity
  8
0
100
AcDbLine
 62
7
  6
CONTINUOUS
 10
20.6198183383
 20
10.9369044067
 11
21.4898183383
 21
10.9369044067
  0
LINE
  5
262
100
AcDbEntity
  8
0
100
AcDbLine
 62
9
  6
CONTINUOUS
 10
0.0548183383
 20
11.5333318604
 11
3.7048183383
 21
11.5333318604
  0
LINE
  5
263
100
AcDbEntity
  8
0
100
AcDbLine
 62
9
  6
CONTINUOUS
 10
10.4048183383
 20
11.5333318604
 11
14.0548183383
 21
11.5333318604
  0
LINE
  5
264
100
AcDbEntity
  8
0
100
AcDbLine
 62
9
  6
CONTINUOUS
 10
15.4048183368
 20
11.5333318604
 11
19.0548183368
 21
11.5333318604
  0
LINE
  5
265
100
AcDbEntity
  8
0
100
AcDbLine
 62
7
  6
CONTINUOUS
 10
19.0248183368
 20
11.5633318604
 11
15.4348183368
 21
11.5633318604
  0
LINE
  5
266
100
AcDbEntity
  8
0
100
AcDbLine
 62
7
  6
CONTINUOUS
 10
14.0248183383
 20
11.5633318604
 11
10.4348183383
 21
11.5633318604
  0
LINE
  5
267
100
AcDbEntity
  8
0
100
AcDbLine
 62
7
  6
CONTINUOUS
 10
3.6748183383
 20
11.5633318604
 11
0.0848183383
 21
11.5633318604
  0
LINE
  5
268
100
AcDbEntity
  8
0
100
AcDbLine
 62
7
  6
CONTINUOUS
 10
15.3848183368
 20
11.7133318604
 11
15.3848183368
 21
10.6133318604
  0
LINE
  5
269
100
AcDbEntity
  8
0
100
AcDbLine
 62
7
  6
CONTINUOUS
 10
15.4048183368
 20
11.5333318604
 11
15.4048183368
 21
10.7933318604
  0
LINE
  5
26A
100
AcDbEntity
  8
0
100
AcDbLine
 62
9
  6
CONTINUOUS
 10
15.4148183368
 20
11.7433318604
 11
15.4148183368
 21
11.555607837
  0
LINE
  5
26B
100
AcDbEntity
  8
0
100
AcDbLine
 62
9
  6
CONTINUOUS
 10
15.4148183368
 20
10.7710547061
 11
15.4148183368
 21
10.5833318604
  0
LINE
  5
26C
100
AcDbEntity
  8
0
100
AcDbLine
 62
9
  6
CONTINUOUS
 10
15.4348183368
 20
10.7633318604
 11
15.4348183368
 21
11.5633318604
  0
LINE
  5
26D
100
AcDbEntity
  8
0
100
AcDbLine
 62
9
  6
CONTINUOUS
 10
16.7248183368
 20
11.7133318604
 11
15.3848183368
 21
11.7133318604
  0
LINE
  5
26E
100
AcDbEntity
  8
0
100
AcDbLine
 62
9
  6
CONTINUOUS
 10
11.7248183383
 20
11.7133318604
 11
10.3848183383
 21
11.7133318604
  0
LINE
  5
26F
100
AcDbEntity
  8
0
100
AcDbLine
 62
9
  6
CONTINUOUS
 10
3.7248183383
 20
11.7133318604
 11
2.3848183383
 21
11.7133318604
  0
LINE
  5
270
100
AcDbEntity
  8
0
100
AcDbLine
 62
7
  6
CONTINUOUS
 10
16.6948183368
 20
11.7433318604
 11
15.4148183368
 21
11.7433318604
  0
LINE
  5
271
100
AcDbEntity
  8
0
100
AcDbLine
 62
7
  6
CONTINUOUS
 10
11.6948183383
 20
11.7433318604
 11
10.4148183383
 21
11.7433318604
  0
LINE
  5
272
100
AcDbEntity
  8
0
100
AcDbLine
 62
7
  6
CONTINUOUS
 10
3.6948183383
 20
11.7433318604
 11
2.4148183383
 21
11.7433318604
  0
LINE
  5
273
100
AcDbEntity
  8
0
100
AcDbLine
 62
9
  6
CONTINUOUS
 10
15.0048183368
 20
12.1333318604
 11
17.1048183368
 21
12.1333318609
  0
LINE
  5
274
100
AcDbEntity
  8
0
100
AcDbLine
 62
9
  6
CONTINUOUS
 10
2.0048183383
 20
12.1483318604
 11
4.1048183383
 21
12.1483318609
  0
LINE
  5
275
100
AcDbEntity
  8
0
100
AcDbLine
 62
9
  6
CONTINUOUS
 10
10.0048183383
 20
12.1483318604
 11
12.1048183383
 21
12.1483318609
  0
LINE
  5
276
100
AcDbEntity
  8
0
100
AcDbLine
 62
7
  6
CONTINUOUS
 10
17.0748183368
 20
12.1633318604
 11
15.0348183368
 21
12.1633318604
  0
LINE
  5
277
100
AcDbEntity
  8
0
100
AcDbLine
 62
7
  6
CONTINUOUS
 10
12.0748183383
 20
12.1783318604
 11
10.0348183383
 21
12.1783318604
  0
LINE
  5
278
100
AcDbEntity
  8
0
100
AcDbLine
 62
7
  6
CONTINUOUS
 10
4.0748183383
 20
12.1783318604
 11
2.0348183383
 21
12.1783318604
  0
LINE
  5
279
100
AcDbEntity
  8
0
100
AcDbLine
 62
9
  6
CONTINUOUS
 10
5.6748183383
 20
12.3633318604
 11
5.4798183383
 21
12.3633318604
  0
LINE
  5
27A
100
AcDbEntity
  8
0
100
AcDbLine
 62
9
  6
CONTINUOUS
 10
8.4348183383
 20
12.3633318604
 11
8.6298183383
 21
12.3633318604
  0
LINE
  5
27B
100
AcDbEntity
  8
0
100
AcDbLine
 62
9
  6
CONTINUOUS
 10
22.0398183383
 20
12.3733318604
 11
20.0698183383
 21
12.3733318604
  0
LINE
  5
27C
100
AcDbEntity
  8
0
100
AcDbLine
 62
7
  6
CONTINUOUS
 10
8.5898183383
 20
12.4033318604
 11
8.4348183383
 21
12.4033318604
  0
LINE
  5
27D
100
AcDbEntity
  8
0
100
AcDbLine
 62
7
  6
CONTINUOUS
 10
5.6748183383
 20
12.4033318604
 11
5.5198183383
 21
12.4033318604
  0
LINE
  5
27E
100
AcDbEntity
  8
0
100
AcDbLine
 62
7
  6
CONTINUOUS
 10
21.9998183382
 20
12.4133318604
 11
20.1098183382
 21
12.4133318604
  0
LINE
  5
27F
100
AcDbEntity
  8
0
100
AcDbLine
 62
9
  6
CONTINUOUS
 10
16.6948183368
 20
10.5833318604
 11
16.6948183368
 21
10.7633318604
  0
LINE
  5
280
100
AcDbEntity
  8
0
100
AcDbLine
 62
9
  6
CONTINUOUS
 10
16.6948183368
 20
11.5633318604
 11
16.6948183368
 21
11.7433318604
  0
LINE
  5
281
100
AcDbEntity
  8
0
100
AcDbLine
 62
7
  6
CONTINUOUS
 10
16.7248183368
 20
10.6133318604
 11
16.7248183368
 21
10.7633318604
  0
LINE
  5
282
100
AcDbEntity
  8
0
100
AcDbLine
 62
7
  6
CONTINUOUS
 10
16.7248183368
 20
11.5633318604
 11
16.7248183368
 21
11.7133318604
  0
LINE
  5
283
100
AcDbEntity
  8
0
100
AcDbLine
 62
9
  6
CONTINUOUS
 10
5.6748183383
 20
12.4423318604
 11
8.4348183383
 21
12.4423318604
  0
LINE
  5
284
100
AcDbEntity
  8
0
100
AcDbLine
 62
7
  6
CONTINUOUS
 10
8.3948183383
 20
12.4823318604
 11
5.7148183383
 21
12.4823318604
  0
LINE
  5
285
100
AcDbEntity
  8
0
100
AcDbLine
 62
9
  6
CONTINUOUS
 10
17.0748183374
 20
10.1633318604
 11
17.0748183368
 21
10.7633318604
  0
LINE
  5
286
100
AcDbEntity
  8
0
100
AcDbLine
 62
9
  6
CONTINUOUS
 10
17.0748183368
 20
11.5633318604
 11
17.0748183368
 21
12.1633318604
  0
LINE
  5
287
100
AcDbEntity
  8
0
100
AcDbLine
 62
7
  6
CONTINUOUS
 10
17.1048183368
 20
10.1933318604
 11
17.1048183368
 21
10.7633318604
  0
LINE
  5
288
100
AcDbEntity
  8
0
100
AcDbLine
 62
7
  6
CONTINUOUS
 10
17.1048183368
 20
11.5633318604
 11
17.1048183368
 21
12.1333318604
  0
LINE
  5
289
100
AcDbEntity
  8
0
100
AcDbLine
 62
9
  6
CONTINUOUS
 10
19.0248183368
 20
10.7633318604
 11
19.0248183368
 21
11.5633318604
  0
LINE
  5
28A
100
AcDbEntity
  8
0
100
AcDbLine
 62
7
  6
CONTINUOUS
 10
19.0548183368
 20
10.7933318604
 11
19.0548183368
 21
11.5333318604
  0
LINE
  5
28B
100
AcDbEntity
  8
0
100
AcDbLine
 62
7
  6
CONTINUOUS
 10
21.55259527
 20
10.9353526017
 11
21.5538120852
 21
10.9380277486
  0
LINE
  5
28C
100
AcDbEntity
  8
0
100
AcDbLine
 62
7
  6
CONTINUOUS
 10
21.5512121766
 20
10.9323568236
 11
21.55259527
 21
10.9353526017
  0
LINE
  5
28D
100
AcDbEntity
  8
0
100
AcDbLine
 62
7
  6
CONTINUOUS
 10
21.5505636506
 20
10.9309691732
 11
21.5512121766
 21
10.9323568236
  0
LWPOLYLINE
  5
28E
100
AcDbEntity
  8
0
100
AcDbPolyline
 62
7
  6
CONTINUOUS
 90
9
 70
0
 10
21.5730671423
 20
10.986769061
 10
21.5743379122
 20
10.9905433994
 10
21.57560301
 20
10.9943943057
 10
21.5768586584
 20
10.9983156985
 10
21.5781016161
 20
11.0023012499
 10
21.5793293884
 20
11.0063460782
 10
21.5805391047
 20
11.0104456381
 10
21.5817278622
 20
11.0145944464
 10
21.5822775683
 20
11.0165560453
  0
LWPOLYLINE
  5
28F
100
AcDbEntity
  8
0
100
AcDbPolyline
 62
7
  6
CONTINUOUS
 90
12
 70
0
 10
21.5598135698
 20
10.9518216033
 10
21.5608868598
 20
10.9544021136
 10
21.5619993274
 20
10.957118359
 10
21.5631441433
 20
10.959957505
 10
21.5643215182
 20
10.9629244086
 10
21.5655269216
 20
10.9660159107
 10
21.5667539972
 20
10.9692226085
 10
21.5679973327
 20
10.9725346874
 10
21.5692548319
 20
10.9759509589
 10
21.5705221698
 20
10.9794671681
 10
21.5717943497
 20
10.983075783
 10
21.5730671423
 20
10.986769061
  0
LINE
  5
290
100
AcDbEntity
  8
0
100
AcDbLine
 62
7
  6
CONTINUOUS
 10
21.5587874636
 20
10.9493893318
 11
21.5598135698
 21
10.9518216033
  0
LINE
  5
291
100
AcDbEntity
  8
0
100
AcDbLine
 62
7
  6
CONTINUOUS
 10
21.5568948861
 20
10.9449833283
 11
21.5587874636
 21
10.9493893318
  0
LINE
  5
292
100
AcDbEntity
  8
0
100
AcDbLine
 62
7
  6
CONTINUOUS
 10
21.5552355933
 20
10.941208251
 11
21.5568948861
 21
10.9449833283
  0
LINE
  5
293
100
AcDbEntity
  8
0
100
AcDbLine
 62
7
  6
CONTINUOUS
 10
21.5538120852
 20
10.9380277486
 11
21.5552355933
 21
10.941208251
  0
LINE
  5
294
100
AcDbEntity
  8
0
100
AcDbLine
 62
7
  6
CONTINUOUS
 10
20.0698183382
 20
12.3733318604
 11
20.0698183382
 21
9.9533318604
  0
LINE
  5
295
100
AcDbEntity
  8
0
100
AcDbLine
 62
9
  6
CONTINUOUS
 10
20.1098183383
 20
12.4133318604
 11
20.1098183383
 21
9.9133318604
  0
LINE
  5
296
100
AcDbEntity
  8
0
100
AcDbLine
 62
7
  6
CONTINUOUS
 10
20.5548183383
 20
4.7674743667
 11
20.5548183383
 21
10.8847719624
  0
LINE
  5
297
100
AcDbEntity
  8
0
100
AcDbLine
 62
9
  6
CONTINUOUS
 10
20.5648183383
 20
5.4275051561
 11
20.5648183383
 21
4.7610464906
  0
LINE
  5
298
100
AcDbEntity
  8
0
100
AcDbLine
 62
7
  6
CONTINUOUS
 10
20.5673183383
 20
11.1633318604
 11
20.5673183383
 21
10.9155723483
  0
LINE
  5
299
100
AcDbEntity
  8
0
100
AcDbLine
 62
7
  6
CONTINUOUS
 10
20.5913183383
 20
4.8004977794
 11
20.5913183383
 21
5.3880538673
  0
LINE
  5
29A
100
AcDbEntity
  8
0
100
AcDbLine
 62
9
  6
CONTINUOUS
 10
20.6013183383
 20
5.3816259912
 11
20.6013183383
 21
4.7940699033
  0
LINE
  5
29B
100
AcDbEntity
  8
0
100
AcDbLine
 62
9
  6
CONTINUOUS
 10
20.6198183383
 20
4.7189140462
 11
20.6198183383
 21
4.7153419223
  0
LINE
  5
29C
100
AcDbEntity
  8
0
100
AcDbLine
 62
9
  6
CONTINUOUS
 10
20.6198183383
 20
5.4696376005
 11
20.6198183383
 21
10.9369044067
  0
LINE
  5
29D
100
AcDbEntity
  8
0
100
AcDbLine
 62
9
  6
CONTINUOUS
 10
20.6713183383
 20
4.7404467923
 11
20.6713183383
 21
4.7368746684
  0
LINE
  5
29E
100
AcDbEntity
  8
0
100
AcDbLine
 62
9
  6
CONTINUOUS
 10
20.6713183383
 20
5.4352491022
 11
20.6713183383
 21
5.4493374228
  0
LINE
  5
29F
100
AcDbEntity
  8
0
100
AcDbLine
 62
9
  6
CONTINUOUS
 10
21.4383183383
 20
4.7404467923
 11
21.4383183383
 21
4.7368746684
  0
LINE
  5
2A0
100
AcDbEntity
  8
0
100
AcDbLine
 62
9
  6
CONTINUOUS
 10
21.4383183383
 20
5.4352491022
 11
21.4383183383
 21
5.4493374228
  0
LINE
  5
2A1
100
AcDbEntity
  8
0
100
AcDbLine
 62
9
  6
CONTINUOUS
 10
21.4898183383
 20
4.7189140462
 11
21.4898183383
 21
4.7153419223
  0
LINE
  5
2A2
100
AcDbEntity
  8
0
100
AcDbLine
 62
9
  6
CONTINUOUS
 10
21.4898183383
 20
10.9369044067
 11
21.4898183383
 21
5.4696376005
  0
LINE
  5
2A3
100
AcDbEntity
  8
0
100
AcDbLine
 62
9
  6
CONTINUOUS
 10
21.5083183383
 20
4.7940699033
 11
21.5083183383
 21
5.3816259912
  0
LINE
  5
2A4
100
AcDbEntity
  8
0
100
AcDbLine
 62
7
  6
CONTINUOUS
 10
21.5183183383
 20
5.3880538673
 11
21.5183183383
 21
4.8004977794
  0
LINE
  5
2A5
100
AcDbEntity
  8
0
100
AcDbLine
 62
7
  6
CONTINUOUS
 10
21.5423183383
 20
11.1633318604
 11
21.5423183383
 21
10.9155715054
  0
LINE
  5
2A6
100
AcDbEntity
  8
0
100
AcDbLine
 62
9
  6
CONTINUOUS
 10
21.5448183383
 20
4.7610464906
 11
21.5448183383
 21
5.4275051561
  0
LINE
  5
2A7
100
AcDbEntity
  8
0
100
AcDbLine
 62
7
  6
CONTINUOUS
 10
21.5548183383
 20
4.7674743667
 11
21.5548183383
 21
10.8847719624
  0
LINE
  5
2A8
100
AcDbEntity
  8
0
100
AcDbLine
 62
9
  6
CONTINUOUS
 10
21.9998183383
 20
9.9133318604
 11
21.9998183383
 21
12.4133318604
  0
LINE
  5
2A9
100
AcDbEntity
  8
0
100
AcDbLine
 62
7
  6
CONTINUOUS
 10
22.0398183382
 20
9.9533318604
 11
22.0398183382
 21
12.3733318604
  0
ARC
  5
2AA
100
AcDbEntity
  8
0
100
AcDbCircle
 62
7
  6
CONTINUOUS
 10
8.3548183383
 20
2.5623318604
 40
0.08
100
AcDbArc
 50
270.0
 51
360.0
  0
ARC
  5
2AB
100
AcDbEntity
  8
0
100
AcDbCircle
 62
7
  6
CONTINUOUS
 10
5.7548183383
 20
2.5623318604
 40
0.08
100
AcDbArc
 50
180.0
 51
270.0
  0
ARC
  5
2AC
100
AcDbEntity
  8
0
100
AcDbCircle
 62
9
  6
CONTINUOUS
 10
8.3548183383
 20
2.5623318604
 40
0.04
100
AcDbArc
 50
270.0
 51
360.0
  0
ARC
  5
2AD
100
AcDbEntity
  8
0
100
AcDbCircle
 62
9
  6
CONTINUOUS
 10
5.7548183383
 20
2.5623318604
 40
0.04
100
AcDbArc
 50
180.0
 51
270.0
  0
ARC
  5
2AE
100
AcDbEntity
  8
0
100
AcDbCircle
 62
7
  6
CONTINUOUS
 10
8.5898183383
 20
9.9633318604
 40
0.04
100
AcDbArc
 50
270.0
 51
360.0
  0
ARC
  5
2AF
100
AcDbEntity
  8
0
100
AcDbCircle
 62
7
  6
CONTINUOUS
 10
5.5198183383
 20
9.9633318604
 40
0.04
100
AcDbArc
 50
180.0
 51
270.0
  0
ARC
  5
2B0
100
AcDbEntity
  8
0
100
AcDbCircle
 62
7
  6
CONTINUOUS
 10
5.5198183383
 20
12.3633318604
 40
0.04
100
AcDbArc
 50
90.0
 51
180.0
  0
ARC
  5
2B1
100
AcDbEntity
  8
0
100
AcDbCircle
 62
7
  6
CONTINUOUS
 10
8.5898183383
 20
12.3633318604
 40
0.04
100
AcDbArc
 50
0.0
 51
90.0
  0
ARC
  5
2B2
100
AcDbEntity
  8
0
100
AcDbCircle
 62
7
  6
CONTINUOUS
 10
5.7148183383
 20
12.4423318604
 40
0.04
100
AcDbArc
 50
90.0
 51
180.0
  0
ARC
  5
2B3
100
AcDbEntity
  8
0
100
AcDbCircle
 62
7
  6
CONTINUOUS
 10
8.3948183383
 20
12.4423318604
 40
0.04
100
AcDbArc
 50
0.0
 51
90.0
  0
ARC
  5
2B4
100
AcDbEntity
  8
0
100
AcDbCircle
 62
7
  6
CONTINUOUS
 10
3.6748183383
 20
10.7933318604
 40
0.03
100
AcDbArc
 50
270.0
 51
360.0
  0
ARC
  5
2B5
100
AcDbEntity
  8
0
100
AcDbCircle
 62
7
  6
CONTINUOUS
 10
0.0848183383
 20
10.7933318604
 40
0.03
100
AcDbArc
 50
180.0
 51
270.0
  0
ARC
  5
2B6
100
AcDbEntity
  8
0
100
AcDbCircle
 62
7
  6
CONTINUOUS
 10
3.6748183383
 20
11.5333318604
 40
0.03
100
AcDbArc
 50
0.0
 51
90.0
  0
ARC
  5
2B7
100
AcDbEntity
  8
0
100
AcDbCircle
 62
7
  6
CONTINUOUS
 10
0.0848183383
 20
11.5333318604
 40
0.03
100
AcDbArc
 50
90.0
 51
180.0
  0
ARC
  5
2B8
100
AcDbEntity
  8
0
100
AcDbCircle
 62
7
  6
CONTINUOUS
 10
2.4148183383
 20
10.6133318604
 40
0.03
100
AcDbArc
 50
180.0
 51
270.0
  0
ARC
  5
2B9
100
AcDbEntity
  8
0
100
AcDbCircle
 62
7
  6
CONTINUOUS
 10
2.4148183383
 20
11.7133318604
 40
0.03
100
AcDbArc
 50
90.0
 51
180.0
  0
ARC
  5
2BA
100
AcDbEntity
  8
0
100
AcDbCircle
 62
7
  6
CONTINUOUS
 10
3.6948183383
 20
11.7133318604
 40
0.03
100
AcDbArc
 50
0.0
 51
90.0
  0
ARC
  5
2BB
100
AcDbEntity
  8
0
100
AcDbCircle
 62
7
  6
CONTINUOUS
 10
3.6948183383
 20
10.6133318604
 40
0.03
100
AcDbArc
 50
270.0
 51
360.0
  0
ARC
  5
2BC
100
AcDbEntity
  8
0
100
AcDbCircle
 62
7
  6
CONTINUOUS
 10
4.0748183383
 20
10.1783318604
 40
0.03
100
AcDbArc
 50
270.0
 51
360.0
  0
ARC
  5
2BD
100
AcDbEntity
  8
0
100
AcDbCircle
 62
7
  6
CONTINUOUS
 10
2.0348183383
 20
10.1783318604
 40
0.03
100
AcDbArc
 50
180.0
 51
270.0
  0
ARC
  5
2BE
100
AcDbEntity
  8
0
100
AcDbCircle
 62
7
  6
CONTINUOUS
 10
4.0748183383
 20
12.1483318604
 40
0.03
100
AcDbArc
 50
0.0
 51
90.0
  0
ARC
  5
2BF
100
AcDbEntity
  8
0
100
AcDbCircle
 62
7
  6
CONTINUOUS
 10
2.0348183383
 20
12.1483318604
 40
0.03
100
AcDbArc
 50
90.0
 51
180.0
  0
ARC
  5
2C0
100
AcDbEntity
  8
0
100
AcDbCircle
 62
7
  6
CONTINUOUS
 10
10.4348183383
 20
11.5333318604
 40
0.03
100
AcDbArc
 50
90.0
 51
180.0
  0
ARC
  5
2C1
100
AcDbEntity
  8
0
100
AcDbCircle
 62
7
  6
CONTINUOUS
 10
10.4348183383
 20
10.7933318604
 40
0.03
100
AcDbArc
 50
180.0
 51
270.0
  0
ARC
  5
2C2
100
AcDbEntity
  8
0
100
AcDbCircle
 62
7
  6
CONTINUOUS
 10
10.4148183383
 20
10.6133318604
 40
0.03
100
AcDbArc
 50
180.0
 51
270.0
  0
ARC
  5
2C3
100
AcDbEntity
  8
0
100
AcDbCircle
 62
7
  6
CONTINUOUS
 10
10.4148183383
 20
11.7133318604
 40
0.03
100
AcDbArc
 50
90.0
 51
180.0
  0
ARC
  5
2C4
100
AcDbEntity
  8
0
100
AcDbCircle
 62
7
  6
CONTINUOUS
 10
10.0348183383
 20
12.1483318604
 40
0.03
100
AcDbArc
 50
90.0
 51
180.0
  0
ARC
  5
2C5
100
AcDbEntity
  8
0
100
AcDbCircle
 62
7
  6
CONTINUOUS
 10
10.0348183383
 20
10.1783318604
 40
0.03
100
AcDbArc
 50
180.0
 51
270.0
  0
ARC
  5
2C6
100
AcDbEntity
  8
0
100
AcDbCircle
 62
7
  6
CONTINUOUS
 10
15.4348183368
 20
10.7933318604
 40
0.03
100
AcDbArc
 50
180.0
 51
270.0
  0
ARC
  5
2C7
100
AcDbEntity
  8
0
100
AcDbCircle
 62
7
  6
CONTINUOUS
 10
16.6948183368
 20
10.6133318604
 40
0.03
100
AcDbArc
 50
270.0
 51
360.0
  0
ARC
  5
2C8
100
AcDbEntity
  8
0
100
AcDbCircle
 62
7
  6
CONTINUOUS
 10
15.4148183368
 20
10.6133318604
 40
0.03
100
AcDbArc
 50
180.0
 51
270.0
  0
ARC
  5
2C9
100
AcDbEntity
  8
0
100
AcDbCircle
 62
7
  6
CONTINUOUS
 10
15.0348183368
 20
10.1933318604
 40
0.03
100
AcDbArc
 50
180.0
 51
270.0
  0
ARC
  5
2CA
100
AcDbEntity
  8
0
100
AcDbCircle
 62
7
  6
CONTINUOUS
 10
14.0248183383
 20
10.7933318604
 40
0.03
100
AcDbArc
 50
270.0
 51
360.0
  0
ARC
  5
2CB
100
AcDbEntity
  8
0
100
AcDbCircle
 62
7
  6
CONTINUOUS
 10
11.6948183383
 20
10.6133318604
 40
0.03
100
AcDbArc
 50
270.0
 51
360.0
  0
ARC
  5
2CC
100
AcDbEntity
  8
0
100
AcDbCircle
 62
7
  6
CONTINUOUS
 10
12.0748183383
 20
10.1783318604
 40
0.03
100
AcDbArc
 50
270.0
 51
360.0
  0
ARC
  5
2CD
100
AcDbEntity
  8
0
100
AcDbCircle
 62
7
  6
CONTINUOUS
 10
15.4348183368
 20
11.5333318604
 40
0.03
100
AcDbArc
 50
90.0
 51
180.0
  0
ARC
  5
2CE
100
AcDbEntity
  8
0
100
AcDbCircle
 62
7
  6
CONTINUOUS
 10
16.6948183368
 20
11.7133318604
 40
0.03
100
AcDbArc
 50
0.0
 51
90.0
  0
ARC
  5
2CF
100
AcDbEntity
  8
0
100
AcDbCircle
 62
7
  6
CONTINUOUS
 10
15.4148183368
 20
11.7133318604
 40
0.03
100
AcDbArc
 50
90.0
 51
180.0
  0
ARC
  5
2D0
100
AcDbEntity
  8
0
100
AcDbCircle
 62
7
  6
CONTINUOUS
 10
15.0348183368
 20
12.1333318604
 40
0.03
100
AcDbArc
 50
90.0
 51
180.0
  0
ARC
  5
2D1
100
AcDbEntity
  8
0
100
AcDbCircle
 62
7
  6
CONTINUOUS
 10
14.0248183383
 20
11.5333318604
 40
0.03
100
AcDbArc
 50
0.0
 51
90.0
  0
ARC
  5
2D2
100
AcDbEntity
  8
0
100
AcDbCircle
 62
7
  6
CONTINUOUS
 10
11.6948183383
 20
11.7133318604
 40
0.03
100
AcDbArc
 50
0.0
 51
90.0
  0
ARC
  5
2D3
100
AcDbEntity
  8
0
100
AcDbCircle
 62
7
  6
CONTINUOUS
 10
12.0748183383
 20
12.1483318604
 40
0.03
100
AcDbArc
 50
0.0
 51
90.0
  0
ARC
  5
2D4
100
AcDbEntity
  8
0
100
AcDbCircle
 62
7
  6
CONTINUOUS
 10
20.1098183383
 20
9.9533318604
 40
0.04
100
AcDbArc
 50
180.0
 51
270.0
  0
ARC
  5
2D5
100
AcDbEntity
  8
0
100
AcDbCircle
 62
7
  6
CONTINUOUS
 10
21.9998183383
 20
9.9533318604
 40
0.04
100
AcDbArc
 50
270.0
 51
360.0
  0
ARC
  5
2D6
100
AcDbEntity
  8
0
100
AcDbCircle
 62
7
  6
CONTINUOUS
 10
19.0248183368
 20
10.7933318604
 40
0.03
100
AcDbArc
 50
270.0
 51
360.0
  0
ARC
  5
2D7
100
AcDbEntity
  8
0
100
AcDbCircle
 62
7
  6
CONTINUOUS
 10
17.0748183368
 20
10.1933318604
 40
0.03
100
AcDbArc
 50
270.0
 51
360.0
  0
ARC
  5
2D8
100
AcDbEntity
  8
0
100
AcDbCircle
 62
7
  6
CONTINUOUS
 10
21.0548183383
 20
11.1633318604
 40
0.5475
100
AcDbArc
 50
333.0425544095
 51
206.9573553021
  0
ARC
  5
2D9
100
AcDbEntity
  8
0
100
AcDbCircle
 62
9
  6
CONTINUOUS
 10
21.0548183383
 20
11.1633318604
 40
0.5175
100
AcDbArc
 50
340.4301071549
 51
199.5698928451
  0
ARC
  5
2DA
100
AcDbEntity
  8
0
100
AcDbCircle
 62
7
  6
CONTINUOUS
 10
21.0548183383
 20
11.1633318604
 40
0.4875
100
AcDbArc
 50
0.0
 51
180.0
  0
ARC
  5
2DB
100
AcDbEntity
  8
0
100
AcDbCircle
 62
7
  6
CONTINUOUS
 10
20.1098183383
 20
12.3733318604
 40
0.04
100
AcDbArc
 50
90.0
 51
180.0
  0
ARC
  5
2DC
100
AcDbEntity
  8
0
100
AcDbCircle
 62
7
  6
CONTINUOUS
 10
21.9998183383
 20
12.3733318604
 40
0.04
100
AcDbArc
 50
0.0
 51
90.0
  0
ARC
  5
2DD
100
AcDbEntity
  8
0
100
AcDbCircle
 62
7
  6
CONTINUOUS
 10
19.0248183368
 20
11.5333318604
 40
0.03
100
AcDbArc
 50
0.0
 51
90.0
  0
ARC
  5
2DE
100
AcDbEntity
  8
0
100
AcDbCircle
 62
7
  6
CONTINUOUS
 10
17.0748183368
 20
12.1333318604
 40
0.03
100
AcDbArc
 50
0.0
 51
90.0
  0
SPLINE
  5
2DF
100
AcDbEntity
  8
0
100
AcDbSpline
 62
7
  6
CONTINUOUS
 70
0
 71
3
 72
23
 73
19
 74
0
 42
0.0000001
 43
0.0000001
 44
0.0000000001
 40
0.0
 40
0.0
 40
0.0
 40
0.0
 40
0.0567252977
 40
0.085167768
 40
0.1136897317
 40
0.1710455435
 40
0.2290153614
 40
0.2582987512
 40
0.2877999498
 40
0.3475026491
 40
0.4082625348
 40
0.470153673
 40
0.5332047242
 40
0.5973971587
 40
0.6626662708
 40
0.7289043435
 40
0.8635681598
 40
1.0
 40
1.0
 40
1.0
 40
1.0
 10
20.5913183383
 20
4.8004977794
 30
0.0
 10
20.5913183383
 20
4.7983580179
 30
0.0
 10
20.5915211845
 20
4.7951406495
 30
0.0
 10
20.5921910997
 20
4.790902787
 30
0.0
 10
20.5931271909
 20
4.786690673
 30
0.0
 10
20.5947923542
 20
4.7815113976
 30
0.0
 10
20.5970752569
 20
4.7765426737
 30
0.0
 10
20.5992522977
 20
4.7727119059
 30
0.0
 10
20.6016770216
 20
4.7689548008
 30
0.0
 10
20.6051355921
 20
4.7644632156
 30
0.0
 10
20.6098896178
 20
4.7594755606
 30
0.0
 10
20.6152137878
 20
4.7549060939
 30
0.0
 10
20.6210537921
 20
4.7507900886
 30
0.0
 10
20.6273531174
 20
4.7471581089
 30
0.0
 10
20.6340531208
 20
4.7440369929
 30
0.0
 10
20.6434865549
 20
4.7405700897
 30
0.0
 10
20.6559296554
 20
4.7376529495
 30
0.0
 10
20.6661719289
 20
4.7368746684
 30
0.0
 10
20.6713183383
 20
4.7368746684
 30
0.0
  0
SPLINE
  5
2E0
100
AcDbEntity
  8
0
100
AcDbSpline
 62
7
  6
CONTINUOUS
 70
0
 71
3
 72
23
 73
19
 74
0
 42
0.0000001
 43
0.0000001
 44
0.0000000001
 40
0.0
 40
0.0
 40
0.0
 40
0.0
 40
0.1364322742
 40
0.2710962527
 40
0.337334335
 40
0.4026034104
 40
0.4667957638
 40
0.5298467014
 40
0.5917376989
 40
0.6524974371
 40
0.7121999943
 40
0.7417011282
 40
0.7709844652
 40
0.8289542125
 40
0.8863100157
 40
0.9148319962
 40
0.9432745226
 40
1.0
 40
1.0
 40
1.0
 40
1.0
 10
21.4383183383
 20
4.7368746684
 30
0.0
 10
21.443464764
 20
4.7368746684
 30
0.0
 10
21.4537070603
 20
4.7376529534
 30
0.0
 10
21.4661501813
 20
4.740570107
 30
0.0
 10
21.4755836176
 20
4.7440370189
 30
0.0
 10
21.482283615
 20
4.747158138
 30
0.0
 10
21.4885829302
 20
4.7507901179
 30
0.0
 10
21.4944229216
 20
4.7549061195
 30
0.0
 10
21.4997470777
 20
4.7594755789
 30
0.0
 10
21.5045010908
 20
4.7644632234
 30
0.0
 10
21.5079596524
 20
4.7689547984
 30
0.0
 10
21.5103843724
 20
4.7727118943
 30
0.0
 10
21.5125614097
 20
4.7765426559
 30
0.0
 10
21.5148443129
 20
4.7815113741
 30
0.0
 10
21.5165094777
 20
4.7866906464
 30
0.0
 10
21.5174455726
 20
4.7909027621
 30
0.0
 10
21.5181154905
 20
4.7951406339
 30
0.0
 10
21.5183183383
 20
4.7983580111
 30
0.0
 10
21.5183183383
 20
4.8004977794
 30
0.0
  0
SPLINE
  5
2E1
100
AcDbEntity
  8
0
100
AcDbSpline
 62
7
  6
CONTINUOUS
 70
0
 71
3
 72
20
 73
16
 74
0
 42
0.0000001
 43
0.0000001
 44
0.0000000001
 40
0.0
 40
0.0
 40
0.0
 40
0.0
 40
0.1356159928
 40
0.2695549494
 40
0.3354944967
 40
0.4005237686
 40
0.5273785141
 40
0.5892734867
 40
0.6501350927
 40
0.7100398598
 40
0.7691009798
 40
0.8274595884
 40
0.8852781815
 40
0.9427310597
 40
1.0
 40
1.0
 40
1.0
 40
1.0
 10
21.4898183383
 20
10.9369044067
 30
0.0
 10
21.4939890741
 20
10.9369044067
 30
0.0
 10
21.5022922719
 20
10.9362705772
 30
0.0
 10
21.5123792905
 20
10.9338950615
 30
0.0
 10
21.5200304012
 20
10.9310701642
 30
0.0
 10
21.5272182238
 20
10.9277068895
 30
0.0
 10
21.533843388
 20
10.9234837437
 30
0.0
 10
21.5396638139
 20
10.9184630668
 30
0.0
 10
21.5435364426
 20
10.9143795106
 30
0.0
 10
21.5469059996
 20
10.9099807823
 30
0.0
 10
21.5497322173
 20
10.9053033067
 30
0.0
 10
21.5519770776
 20
10.9003903222
 30
0.0
 10
21.5536074286
 20
10.8952916262
 30
0.0
 10
21.5545970064
 20
10.8900653086
 30
0.0
 10
21.5548183383
 20
10.886533212
 30
0.0
 10
21.5548183383
 20
10.8847719624
 30
0.0
  0
SPLINE
  5
2E2
100
AcDbEntity
  8
0
100
AcDbSpline
 62
7
  6
CONTINUOUS
 70
0
 71
3
 72
20
 73
16
 74
0
 42
0.0000001
 43
0.0000001
 44
0.0000000001
 40
0.0
 40
0.0
 40
0.0
 40
0.0
 40
0.0572687018
 40
0.1147214952
 40
0.1725400965
 40
0.2308987982
 40
0.2899600714
 40
0.3498650216
 40
0.4107268164
 40
0.4726219692
 40
0.5994769604
 40
0.6645062769
 40
0.7304458102
 40
0.8643845588
 40
1.0
 40
1.0
 40
1.0
 40
1.0
 10
20.5548183383
 20
10.8847719624
 30
0.0
 10
20.5548183383
 20
10.8865332047
 30
0.0
 10
20.5550396687
 20
10.8900652912
 30
0.0
 10
20.556029241
 20
10.8952916
 30
0.0
 10
20.5576595889
 20
10.9003902975
 30
0.0
 10
20.5599044499
 20
10.9053032904
 30
0.0
 10
20.5627306734
 20
10.9099807781
 30
0.0
 10
20.5661002407
 20
10.9143795189
 30
0.0
 10
20.5699728827
 20
10.9184630861
 30
0.0
 10
20.575793326
 20
10.9234837718
 30
0.0
 10
20.5824185063
 20
10.9277069198
 30
0.0
 10
20.5896063397
 20
10.9310701914
 30
0.0
 10
20.597257448
 20
10.9338950795
 30
0.0
 10
20.6073444452
 20
10.9362705813
 30
0.0
 10
20.6156476194
 20
10.9369044067
 30
0.0
 10
20.6198183383
 20
10.9369044067
 30
0.0
  0
SPLINE
  5
2E3
100
AcDbEntity
  8
0
100
AcDbSpline
 62
7
  6
CONTINUOUS
 70
0
 71
3
 72
20
 73
16
 74
0
 42
0.0000001
 43
0.0000001
 44
0.0000000001
 40
0.0
 40
0.0
 40
0.0
 40
0.0
 40
0.1356159928
 40
0.2695549494
 40
0.3354944967
 40
0.4005237686
 40
0.5273785141
 40
0.5892734867
 40
0.6501350927
 40
0.7100398598
 40
0.7691009798
 40
0.8274595884
 40
0.8852781815
 40
0.9427310597
 40
1.0
 40
1.0
 40
1.0
 40
1.0
 10
20.6198183383
 20
4.7153419223
 30
0.0
 10
20.6156476025
 20
4.7153419223
 30
0.0
 10
20.6073444046
 20
4.7159757519
 30
0.0
 10
20.5972573861
 20
4.7183512675
 30
0.0
 10
20.5896062754
 20
4.7211761648
 30
0.0
 10
20.5824184527
 20
4.7245394395
 30
0.0
 10
20.5757932885
 20
4.7287625854
 30
0.0
 10
20.5699728627
 20
4.7337832623
 30
0.0
 10
20.566100234
 20
4.7378668185
 30
0.0
 10
20.562730677
 20
4.7422655468
 30
0.0
 10
20.5599044592
 20
4.7469430224
 30
0.0
 10
20.557659599
 20
4.7518560069
 30
0.0
 10
20.5560292479
 20
4.7569547029
 30
0.0
 10
20.5550396702
 20
4.7621810205
 30
0.0
 10
20.5548183383
 20
4.7657131171
 30
0.0
 10
20.5548183383
 20
4.7674743667
 30
0.0
  0
SPLINE
  5
2E4
100
AcDbEntity
  8
0
100
AcDbSpline
 62
7
  6
CONTINUOUS
 70
0
 71
3
 72
20
 73
16
 74
0
 42
0.0000001
 43
0.0000001
 44
0.0000000001
 40
0.0
 40
0.0
 40
0.0
 40
0.0
 40
0.0572687018
 40
0.1147214952
 40
0.1725400965
 40
0.2308987982
 40
0.2899600714
 40
0.3498650216
 40
0.4107268164
 40
0.4726219692
 40
0.5994769604
 40
0.6645062769
 40
0.7304458102
 40
0.8643845588
 40
1.0
 40
1.0
 40
1.0
 40
1.0
 10
21.5548183383
 20
4.7674743667
 30
0.0
 10
21.5548183383
 20
4.7657131244
 30
0.0
 10
21.5545970078
 20
4.7621810378
 30
0.0
 10
21.5536074355
 20
4.7569547291
 30
0.0
 10
21.5519770876
 20
4.7518560315
 30
0.0
 10
21.5497322267
 20
4.7469430387
 30
0.0
 10
21.5469060031
 20
4.742265551
 30
0.0
 10
21.5435364359
 20
4.7378668101
 30
0.0
 10
21.5396637939
 20
4.733783243
 30
0.0
 10
21.5338433505
 20
4.7287625573
 30
0.0
 10
21.5272181703
 20
4.7245394093
 30
0.0
 10
21.5200303368
 20
4.7211761377
 30
0.0
 10
21.5123792285
 20
4.7183512495
 30
0.0
 10
21.5022922314
 20
4.7159757478
 30
0.0
 10
21.4939890571
 20
4.7153419223
 30
0.0
 10
21.4898183383
 20
4.7153419223
 30
0.0
  0
SPLINE
  5
2E5
100
AcDbEntity
  8
0
100
AcDbSpline
 62
7
  6
CONTINUOUS
 70
0
 71
3
 72
51
 73
47
 74
0
 42
0.0000001
 43
0.0000001
 44
0.0000000001
 40
0.0
 40
0.0
 40
0.0
 40
0.0
 40
0.0136809524
 40
0.0274240112
 40
0.041243607
 40
0.0551534846
 40
0.0691664764
 40
0.0832944221
 40
0.097548051
 40
0.1119368922
 40
0.1264692162
 40
0.1411519794
 40
0.1559907881
 40
0.1709898601
 40
0.2014710385
 40
0.2326100853
 40
0.2643920895
 40
0.2967824046
 40
0.3297285093
 40
0.3631622282
 40
0.3970021463
 40
0.4311561307
 40
0.465523999
 40
0.5000001584
 40
0.5344763155
 40
0.5688441772
 40
0.60299815
 40
0.6368380526
 40
0.6702717526
 40
0.7032178345
 40
0.7356081241
 40
0.7673901014
 40
0.7985291195
 40
0.8290102687
 40
0.8440093265
 40
0.8588481212
 40
0.8735308706
 40
0.8880631813
 40
0.9024520099
 40
0.916705627
 40
0.9308335617
 40
0.9448465435
 40
0.9587564123
 40
0.9725760004
 40
0.9863190526
 40
1.0
 40
1.0
 40
1.0
 40
1.0
 10
21.5403975056
 20
10.9175322508
 30
0.0
 10
21.5394045183
 20
10.9232361104
 30
0.0
 10
21.5370833224
 20
10.9346148952
 30
0.0
 10
21.5326217893
 20
10.9514981621
 30
0.0
 10
21.5271847372
 20
10.9681953436
 30
0.0
 10
21.5207857087
 20
10.9846702208
 30
0.0
 10
21.513440338
 20
11.0008886479
 30
0.0
 10
21.5051661884
 20
11.0168173052
 30
0.0
 10
21.4959824716
 20
11.0324240012
 30
0.0
 10
21.4859102373
 20
11.0476777399
 30
0.0
 10
21.4749720543
 20
11.0625487068
 30
0.0
 10
21.4631919422
 20
11.0770080252
 30
0.0
 10
21.4505950081
 20
11.0910283658
 30
0.0
 10
21.4326525306
 20
11.1091961554
 30
0.0
 10
21.4082853849
 20
11.1306607138
 30
0.0
 10
21.3764079603
 20
11.1541113975
 30
0.0
 10
21.3419888587
 20
11.1752282637
 30
0.0
 10
21.3053049191
 20
11.1938551741
 30
0.0
 10
21.2666466095
 20
11.209856141
 30
0.0
 10
21.2263192593
 20
11.2231131167
 30
0.0
 10
21.1846406424
 20
11.2335279784
 30
0.0
 10
21.1419390633
 20
11.2410233187
 30
0.0
 10
21.0985508865
 20
11.245543083
 30
0.0
 10
21.0548180176
 20
11.2470534034
 30
0.0
 10
21.0110851533
 20
11.2455430356
 30
0.0
 10
20.9676969891
 20
11.2410232347
 30
0.0
 10
20.924995432
 20
11.2335278503
 30
0.0
 10
20.8833168455
 20
11.2231129483
 30
0.0
 10
20.8429895299
 20
11.2098559447
 30
0.0
 10
20.8043312638
 20
11.1938549465
 30
0.0
 10
20.7676473726
 20
11.1752280115
 30
0.0
 10
20.7332283191
 20
11.1541111326
 30
0.0
 10
20.7013509484
 20
11.1306604362
 30
0.0
 10
20.6769838474
 20
11.1091958734
 30
0.0
 10
20.6590414039
 20
11.0910280845
 30
0.0
 10
20.6464444938
 20
11.0770077463
 30
0.0
 10
20.6346644084
 20
11.0625484284
 30
0.0
 10
20.6237262483
 20
11.0476774657
 30
0.0
 10
20.6136540357
 20
11.0324237317
 30
0.0
 10
20.6044703421
 20
11.0168170394
 30
0.0
 10
20.5961962123
 20
11.0008883876
 30
0.0
 10
20.5888508601
 20
10.9846699659
 30
0.0
 10
20.5824518506
 20
10.9681950933
 30
0.0
 10
20.5770148151
 20
10.9514979169
 30
0.0
 10
20.5725532975
 20
10.9346146542
 30
0.0
 10
20.5702321122
 20
10.9232358722
 30
0.0
 10
20.5692391298
 20
10.917532014
 30
0.0
  0
SPLINE
  5
2E6
100
AcDbEntity
  8
0
100
AcDbSpline
 62
9
  6
CONTINUOUS
 70
0
 71
3
 72
51
 73
47
 74
0
 42
0.0000001
 43
0.0000001
 44
0.0000000001
 40
0.0
 40
0.0
 40
0.0
 40
0.0
 40
0.0134439202
 40
0.0269617202
 40
0.0405698348
 40
0.0542838204
 40
0.068117957
 40
0.0820852122
 40
0.0961971545
 40
0.1104638367
 40
0.1248937724
 40
0.1394939153
 40
0.1542696184
 40
0.1692246664
 40
0.1996726319
 40
0.2308460419
 40
0.2627224695
 40
0.2952591217
 40
0.3283951915
 40
0.3620544028
 40
0.3961475693
 40
0.4305751883
 40
0.4652300538
 40
0.4999998252
 40
0.5347695992
 40
0.5694244721
 40
0.6038521035
 40
0.6379452869
 40
0.6716045194
 40
0.7047406138
 40
0.7372772938
 40
0.7691537515
 40
0.8003271929
 40
0.8307751904
 40
0.8457302542
 40
0.8605059729
 40
0.875106131
 40
0.8895360813
 40
0.9038027776
 40
0.917914733
 40
0.9318820004
 40
0.9457161481
 40
0.9594301436
 40
0.9730382668
 40
0.986556074
 40
1.0
 40
1.0
 40
1.0
 40
1.0
 10
20.5693995621
 20
10.9177168294
 30
0.0
 10
20.5704002593
 20
10.9232832852
 30
0.0
 10
20.5727308556
 20
10.9343912852
 30
0.0
 10
20.5771871845
 20
10.9508755108
 30
0.0
 10
20.5826033614
 20
10.9671899372
 30
0.0
 10
20.5889682584
 20
10.9833009223
 30
0.0
 10
20.5962688653
 20
10.9991762982
 30
0.0
 10
20.6044902796
 20
11.0147841327
 30
0.0
 10
20.6136159054
 20
11.0300930634
 30
0.0
 10
20.6236271667
 20
11.0450724248
 30
0.0
 10
20.6345037908
 20
11.0596922648
 30
0.0
 10
20.646223807
 20
11.0739231795
 30
0.0
 10
20.658763837
 20
11.0877370207
 30
0.0
 10
20.6766474983
 20
11.1056671229
 30
0.0
 10
20.7009561012
 20
11.126879048
 30
0.0
 10
20.732775085
 20
11.1500806337
 30
0.0
 10
20.7671671649
 20
11.1710048403
 30
0.0
 10
20.8038552054
 20
11.1894851807
 30
0.0
 10
20.8425463272
 20
11.2053766019
 30
0.0
 10
20.8829314348
 20
11.2185535329
 30
0.0
 10
20.9246882016
 20
11.2289119131
 30
0.0
 10
20.9674833622
 20
11.2363699336
 30
0.0
 10
21.0109754407
 20
11.2408685081
 30
0.0
 10
21.0548173757
 20
11.2423720159
 30
0.0
 10
21.0986593184
 20
11.2408686399
 30
0.0
 10
21.1421514198
 20
11.2363701961
 30
0.0
 10
21.1849466186
 20
11.2289123043
 30
0.0
 10
21.2267034383
 20
11.2185540496
 30
0.0
 10
21.2670886132
 20
11.2053772401
 30
0.0
 10
21.3057798162
 20
11.1894859353
 30
0.0
 10
21.3424679511
 20
11.1710057054
 30
0.0
 10
21.3768601379
 20
11.1500816025
 30
0.0
 10
21.4086792402
 20
11.1268801128
 30
0.0
 10
21.4329879514
 20
11.1056682613
 30
0.0
 10
21.4508717045
 20
11.0877382131
 30
0.0
 10
21.4634118053
 20
11.0739244098
 30
0.0
 10
21.4751318945
 20
11.0596935304
 30
0.0
 10
21.4860085935
 20
11.0450737233
 30
0.0
 10
21.4960199317
 20
11.0300943921
 30
0.0
 10
21.505145636
 20
11.0147854889
 30
0.0
 10
21.5133671304
 20
10.9991776793
 30
0.0
 10
21.5206678187
 20
10.9833023254
 30
0.0
 10
21.5270327983
 20
10.9671913596
 30
0.0
 10
21.532449059
 20
10.9508769496
 30
0.0
 10
21.5369054725
 20
10.9343927375
 30
0.0
 10
21.5392361259
 20
10.9232847439
 30
0.0
 10
21.5402368518
 20
10.9177182908
 30
0.0
  0
SPLINE
  5
2E7
100
AcDbEntity
  8
0
100
AcDbSpline
 62
7
  6
CONTINUOUS
 70
0
 71
3
 72
22
 73
18
 74
0
 42
0.0000001
 43
0.0000001
 44
0.0000000001
 40
0.0
 40
0.0
 40
0.0
 40
0.0
 40
0.1405182112
 40
0.2101364038
 40
0.2789478304
 40
0.4131261447
 40
0.4782379889
 40
0.5418164905
 40
0.6037925555
 40
0.6641556647
 40
0.7229589742
 40
0.7518218682
 40
0.7803452855
 40
0.8364549355
 40
0.8915590048
 40
0.9459610953
 40
1.0
 40
1.0
 40
1.0
 40
1.0
 10
20.6713183383
 20
5.4493374228
 30
0.0
 10
20.6661011299
 20
5.4493374228
 30
0.0
 10
20.6582819194
 20
5.4487524766
 30
0.0
 10
20.6481021767
 20
5.4468026451
 30
0.0
 10
20.6383316948
 20
5.4441306665
 30
0.0
 10
20.6290579533
 20
5.4403663421
 30
0.0
 10
20.6205582757
 20
5.4355484297
 30
0.0
 10
20.614730018
 20
5.4315118762
 30
0.0
 10
20.6094440969
 20
5.4270556682
 30
0.0
 10
20.6047513641
 20
5.4222219146
 30
0.0
 10
20.6013513738
 20
5.4178887698
 30
0.0
 10
20.5989800986
 20
5.4142825593
 30
0.0
 10
20.5968673433
 20
5.4106343457
 30
0.0
 10
20.5946603394
 20
5.4059244836
 30
0.0
 10
20.5927388353
 20
5.4000670548
 30
0.0
 10
20.5915776094
 20
5.3940911703
 30
0.0
 10
20.5913183383
 20
5.3900602423
 30
0.0
 10
20.5913183383
 20
5.3880538673
 30
0.0
  0
SPLINE
  5
2E8
100
AcDbEntity
  8
0
100
AcDbSpline
 62
7
  6
CONTINUOUS
 70
0
 71
3
 72
22
 73
18
 74
0
 42
0.0000001
 43
0.0000001
 44
0.0000000001
 40
0.0
 40
0.0
 40
0.0
 40
0.0
 40
0.0540389047
 40
0.1084409952
 40
0.1635450645
 40
0.2196547145
 40
0.2481781318
 40
0.2770410258
 40
0.3358443353
 40
0.3962074445
 40
0.4581835095
 40
0.5217620111
 40
0.5868738553
 40
0.7210521696
 40
0.7898635962
 40
0.8594817888
 40
1.0
 40
1.0
 40
1.0
 40
1.0
 10
21.5183183383
 20
5.3880538673
 30
0.0
 10
21.5183183383
 20
5.3900602423
 30
0.0
 10
21.5180590672
 20
5.3940911703
 30
0.0
 10
21.5168978412
 20
5.4000670548
 30
0.0
 10
21.5149763372
 20
5.4059244836
 30
0.0
 10
21.5127693332
 20
5.4106343457
 30
0.0
 10
21.5106565779
 20
5.4142825593
 30
0.0
 10
21.5082853028
 20
5.4178887698
 30
0.0
 10
21.5048853124
 20
5.4222219146
 30
0.0
 10
21.5001925796
 20
5.4270556682
 30
0.0
 10
21.4949066586
 20
5.4315118762
 30
0.0
 10
21.4890784009
 20
5.4355484297
 30
0.0
 10
21.4805787233
 20
5.4403663421
 30
0.0
 10
21.4713049818
 20
5.4441306665
 30
0.0
 10
21.4615344998
 20
5.4468026451
 30
0.0
 10
21.4513547572
 20
5.4487524766
 30
0.0
 10
21.4435355466
 20
5.4493374228
 30
0.0
 10
21.4383183383
 20
5.4493374228
 30
0.0
  0
SPLINE
  5
2E9
100
AcDbEntity
  8
0
100
AcDbSpline
 62
7
  6
CONTINUOUS
 70
0
 71
3
 72
51
 73
47
 74
0
 42
0.0000001
 43
0.0000001
 44
0.0000000001
 40
0.0
 40
0.0
 40
0.0
 40
0.0
 40
0.0134433752
 40
0.0269586783
 40
0.0405625898
 40
0.0542709542
 40
0.0680983593
 40
0.082058069
 40
0.0961619293
 40
0.110420262
 40
0.1248418406
 40
0.1394338528
 40
0.1542018538
 40
0.169149822
 40
0.1995860307
 40
0.230751808
 40
0.2626253407
 40
0.2951640776
 40
0.3283071226
 40
0.3619778305
 40
0.39608639
 40
0.430532503
 40
0.4652080014
 40
0.499999508
 40
0.5347910218
 40
0.5694665416
 40
0.6039126897
 40
0.638021297
 40
0.6716920646
 40
0.7048351795
 40
0.737373995
 40
0.7692476125
 40
0.8004134788
 40
0.8308497777
 40
0.8457977906
 40
0.8605658355
 40
0.8751578904
 40
0.8895795102
 40
0.903837882
 40
0.9179417792
 40
0.9319015229
 40
0.945728959
 40
0.959437351
 40
0.9730412863
 40
0.9865566092
 40
1.0
 40
1.0
 40
1.0
 40
1.0
 10
21.5381756014
 20
10.9279463164
 30
0.0
 10
21.5372220903
 20
10.9335133455
 30
0.0
 10
21.5349844078
 20
10.9446241438
 30
0.0
 10
21.5306621565
 20
10.9611180104
 30
0.0
 10
21.5253750366
 20
10.9774458721
 30
0.0
 10
21.5191340583
 20
10.993573744
 30
0.0
 10
21.5119521266
 20
11.0094691481
 30
0.0
 10
21.5038439884
 20
11.0250998023
 30
0.0
 10
21.4948261782
 20
11.0404340177
 30
0.0
 10
21.4849172524
 20
11.0554408194
 30
0.0
 10
21.4741374202
 20
11.0700899065
 30
0.0
 10
21.4625086654
 20
11.0843515556
 30
0.0
 10
21.4500544221
 20
11.0981973292
 30
0.0
 10
21.4322780094
 20
11.1161719054
 30
0.0
 10
21.4080893324
 20
11.137441028
 30
0.0
 10
21.37639386
 20
11.1607096903
 30
0.0
 10
21.3421061989
 20
11.1816985831
 30
0.0
 10
21.3055051046
 20
11.2002392078
 30
0.0
 10
21.2668853782
 20
11.2161847841
 30
0.0
 10
21.2265582933
 20
11.2294082215
 30
0.0
 10
21.1848485622
 20
11.2398041611
 30
0.0
 10
21.1420920355
 20
11.2472897857
 30
0.0
 10
21.0986329023
 20
11.2518052724
 30
0.0
 10
21.0548210386
 20
11.2533145465
 30
0.0
 10
21.0110091532
 20
11.2518056437
 30
0.0
 10
20.9675499549
 20
11.2472905253
 30
0.0
 10
20.9247933204
 20
11.2398052632
 30
0.0
 10
20.8830834395
 20
11.2294096772
 30
0.0
 10
20.8427561642
 20
11.2161865819
 30
0.0
 10
20.8041362082
 20
11.2002413333
 30
0.0
 10
20.7675348469
 20
11.1817010194
 30
0.0
 10
20.7332468834
 20
11.1607124181
 30
0.0
 10
20.7015510759
 20
11.1374440255
 30
0.0
 10
20.6773620927
 20
11.1161751094
 30
0.0
 10
20.6595854203
 20
11.0982006845
 30
0.0
 10
20.6471309769
 20
11.0843550168
 30
0.0
 10
20.6355020159
 20
11.0700934667
 30
0.0
 10
20.6247219719
 20
11.0554444713
 30
0.0
 10
20.6148128291
 20
11.040437754
 30
0.0
 10
20.6057947971
 20
11.0251036155
 30
0.0
 10
20.5976864329
 20
11.0094730303
 30
0.0
 10
20.5905042713
 20
10.9935776875
 30
0.0
 10
20.5842630596
 20
10.9774498688
 30
0.0
 10
20.5789757034
 20
10.9611220523
 30
0.0
 10
20.5746532134
 20
10.9446282225
 30
0.0
 10
20.5724153698
 20
10.9335174416
 30
0.0
 10
20.571461778
 20
10.9279504197
 30
0.0
  0
SPLINE
  5
2EA
100
AcDbEntity
  8
0
100
AcDbSpline
 62
9
  6
CONTINUOUS
 70
0
 71
3
 72
49
 73
45
 74
0
 42
0.0000001
 43
0.0000001
 44
0.0000000001
 40
0.0
 40
0.0
 40
0.0
 40
0.0
 40
0.0135006962
 40
0.0270249862
 40
0.0405939641
 40
0.0542303172
 40
0.0679546955
 40
0.0817867305
 40
0.0957446176
 40
0.1098448255
 40
0.1241019954
 40
0.1385287978
 40
0.1679210104
 40
0.1980928868
 40
0.2290709819
 40
0.2608500383
 40
0.2933955278
 40
0.3266468205
 40
0.3605207565
 40
0.3949153308
 40
0.4297135118
 40
0.4647869946
 40
0.5
 40
0.5352130054
 40
0.5702864882
 40
0.6050846692
 40
0.6394792435
 40
0.6733531795
 40
0.7066044722
 40
0.7391499617
 40
0.7709290181
 40
0.8019071132
 40
0.8320789896
 40
0.8614712022
 40
0.8758980046
 40
0.8901551745
 40
0.9042553824
 40
0.9182132695
 40
0.9320453045
 40
0.9457696828
 40
0.9594060359
 40
0.9729750138
 40
0.9864993038
 40
1.0
 40
1.0
 40
1.0
 40
1.0
 10
21.5423183383
 20
11.0112607484
 30
0.0
 10
21.5423183383
 20
11.0173717976
 30
0.0
 10
21.5419258548
 20
11.0296081849
 30
0.0
 10
21.5401620906
 20
11.0479100157
 30
0.0
 10
21.5372270439
 20
11.0661237245
 30
0.0
 10
21.5331283571
 20
11.0842038192
 30
0.0
 10
21.5278758955
 20
11.1021069832
 30
0.0
 10
21.5214827302
 20
11.1197897347
 30
0.0
 10
21.5139645715
 20
11.1372094201
 30
0.0
 10
21.505339892
 20
11.1543238614
 30
0.0
 10
21.4956293576
 20
11.1710922996
 30
0.0
 10
21.481179739
 20
11.1930669735
 30
0.0
 10
21.4604608649
 20
11.2194724476
 30
0.0
 10
21.4318647408
 20
11.2489279509
 30
0.0
 10
21.3996530112
 20
11.2760833073
 30
0.0
 10
21.3641394879
 20
11.3006799143
 30
0.0
 10
21.3256655911
 20
11.3224873266
 30
0.0
 10
21.2846006904
 20
11.3413001009
 30
0.0
 10
21.2413380201
 20
11.3569408805
 30
0.0
 10
21.1962915976
 20
11.3692621312
 30
0.0
 10
21.1498922307
 20
11.3781472127
 30
0.0
 10
21.1025836805
 20
11.3835122318
 30
0.0
 10
21.0548183383
 20
11.3853061629
 30
0.0
 10
21.0070529961
 20
11.3835122318
 30
0.0
 10
20.9597444459
 20
11.3781472127
 30
0.0
 10
20.913345079
 20
11.3692621312
 30
0.0
 10
20.8682986564
 20
11.3569408805
 30
0.0
 10
20.8250359861
 20
11.3413001009
 30
0.0
 10
20.7839710855
 20
11.3224873266
 30
0.0
 10
20.7454971887
 20
11.3006799143
 30
0.0
 10
20.7099836653
 20
11.2760833073
 30
0.0
 10
20.6777719358
 20
11.2489279509
 30
0.0
 10
20.6491758116
 20
11.2194724476
 30
0.0
 10
20.6284569375
 20
11.1930669735
 30
0.0
 10
20.614007319
 20
11.1710922996
 30
0.0
 10
20.6042967846
 20
11.1543238614
 30
0.0
 10
20.5956721051
 20
11.1372094201
 30
0.0
 10
20.5881539463
 20
11.1197897347
 30
0.0
 10
20.581760781
 20
11.1021069832
 30
0.0
 10
20.5765083194
 20
11.0842038192
 30
0.0
 10
20.5724096327
 20
11.0661237245
 30
0.0
 10
20.5694745859
 20
11.0479100157
 30
0.0
 10
20.5677108218
 20
11.0296081849
 30
0.0
 10
20.5673183383
 20
11.0173717976
 30
0.0
 10
20.5673183383
 20
11.0112607484
 30
0.0
  0
SPLINE
  5
2EB
100
AcDbEntity
  8
0
100
AcDbSpline
 62
9
  6
CONTINUOUS
 70
0
 71
3
 72
21
 73
17
 74
0
 42
0.0000001
 43
0.0000001
 44
0.0000000001
 40
0.0
 40
0.0
 40
0.0
 40
0.0
 40
0.0540397884
 40
0.1084429154
 40
0.1635483845
 40
0.2196594592
 40
0.2770240591
 40
0.3358287791
 40
0.3961933696
 40
0.4581709852
 40
0.5217510804
 40
0.5868645302
 40
0.7210461236
 40
0.7898593116
 40
0.859479292
 40
1.0
 40
1.0
 40
1.0
 40
1.0
 10
21.5083183383
 20
5.3816259912
 30
0.0
 10
21.5083183383
 20
5.3833815575
 30
0.0
 10
21.5080914734
 20
5.3869086136
 30
0.0
 10
21.5070754425
 20
5.3921374392
 30
0.0
 10
21.5053939965
 20
5.3972629135
 30
0.0
 10
21.5030648381
 20
5.4022337535
 30
0.0
 10
21.5001117786
 20
5.4070022636
 30
0.0
 10
21.4965645782
 20
5.4115228134
 30
0.0
 10
21.4924582725
 20
5.4157526172
 30
0.0
 10
21.4878331281
 20
5.4196517334
 30
0.0
 10
21.4827333808
 20
5.4231837438
 30
0.0
 10
21.4752961549
 20
5.4273994153
 30
0.0
 10
21.4671816141
 20
5.4306932039
 30
0.0
 10
21.4586324252
 20
5.4330311858
 30
0.0
 10
21.4497251614
 20
5.4347372777
 30
0.0
 10
21.4428833712
 20
5.4352491022
 30
0.0
 10
21.4383183383
 20
5.4352491022
 30
0.0
  0
SPLINE
  5
2EC
100
AcDbEntity
  8
0
100
AcDbSpline
 62
9
  6
CONTINUOUS
 70
0
 71
3
 72
21
 73
17
 74
0
 42
0.0000001
 43
0.0000001
 44
0.0000000001
 40
0.0
 40
0.0
 40
0.0
 40
0.0
 40
0.1405207079
 40
0.2101406883
 40
0.2789538763
 40
0.4131354698
 40
0.4782489196
 40
0.5418290147
 40
0.6038066303
 40
0.6641712209
 40
0.7229759408
 40
0.7803405407
 40
0.8364516155
 40
0.8915570845
 40
0.9459602116
 40
1.0
 40
1.0
 40
1.0
 40
1.0
 10
21.4383183383
 20
4.7404467923
 30
0.0
 10
21.4428833712
 20
4.7404467923
 30
0.0
 10
21.4497251614
 20
4.7409586168
 30
0.0
 10
21.4586324252
 20
4.7426647087
 30
0.0
 10
21.4671816141
 20
4.7450026906
 30
0.0
 10
21.4752961549
 20
4.7482964793
 30
0.0
 10
21.4827333808
 20
4.7525121507
 30
0.0
 10
21.4878331281
 20
4.7560441612
 30
0.0
 10
21.4924582725
 20
4.7599432773
 30
0.0
 10
21.4965645782
 20
4.7641730811
 30
0.0
 10
21.5001117786
 20
4.7686936309
 30
0.0
 10
21.5030648381
 20
4.7734621411
 30
0.0
 10
21.5053939965
 20
4.7784329811
 30
0.0
 10
21.5070754425
 20
4.7835584553
 30
0.0
 10
21.5080914734
 20
4.788787281
 30
0.0
 10
21.5083183383
 20
4.7923143371
 30
0.0
 10
21.5083183383
 20
4.7940699033
 30
0.0
  0
SPLINE
  5
2ED
100
AcDbEntity
  8
0
100
AcDbSpline
 62
9
  6
CONTINUOUS
 70
0
 71
3
 72
21
 73
17
 74
0
 42
0.0000001
 43
0.0000001
 44
0.0000000001
 40
0.0
 40
0.0
 40
0.0
 40
0.0
 40
0.0540397884
 40
0.1084429154
 40
0.1635483845
 40
0.2196594592
 40
0.2770240591
 40
0.3358287791
 40
0.3961933696
 40
0.4581709852
 40
0.5217510804
 40
0.5868645302
 40
0.7210461236
 40
0.7898593116
 40
0.859479292
 40
1.0
 40
1.0
 40
1.0
 40
1.0
 10
20.6013183383
 20
4.7940699033
 30
0.0
 10
20.6013183383
 20
4.7923143371
 30
0.0
 10
20.6015452031
 20
4.788787281
 30
0.0
 10
20.6025612341
 20
4.7835584553
 30
0.0
 10
20.6042426801
 20
4.7784329811
 30
0.0
 10
20.6065718385
 20
4.7734621411
 30
0.0
 10
20.609524898
 20
4.7686936309
 30
0.0
 10
20.6130720984
 20
4.7641730811
 30
0.0
 10
20.6171784041
 20
4.7599432774
 30
0.0
 10
20.6218035484
 20
4.7560441612
 30
0.0
 10
20.6269032957
 20
4.7525121507
 30
0.0
 10
20.6343405216
 20
4.7482964793
 30
0.0
 10
20.6424550625
 20
4.7450026906
 30
0.0
 10
20.6510042514
 20
4.7426647087
 30
0.0
 10
20.6599115152
 20
4.7409586168
 30
0.0
 10
20.6667533054
 20
4.7404467923
 30
0.0
 10
20.6713183383
 20
4.7404467923
 30
0.0
  0
SPLINE
  5
2EE
100
AcDbEntity
  8
0
100
AcDbSpline
 62
9
  6
CONTINUOUS
 70
0
 71
3
 72
21
 73
17
 74
0
 42
0.0000001
 43
0.0000001
 44
0.0000000001
 40
0.0
 40
0.0
 40
0.0
 40
0.0
 40
0.1405207079
 40
0.2101406883
 40
0.2789538763
 40
0.4131354698
 40
0.4782489196
 40
0.5418290147
 40
0.6038066303
 40
0.6641712209
 40
0.7229759408
 40
0.7803405407
 40
0.8364516155
 40
0.8915570845
 40
0.9459602116
 40
1.0
 40
1.0
 40
1.0
 40
1.0
 10
20.6713183383
 20
5.4352491022
 30
0.0
 10
20.6667533054
 20
5.4352491022
 30
0.0
 10
20.6599115152
 20
5.4347372777
 30
0.0
 10
20.6510042514
 20
5.4330311858
 30
0.0
 10
20.6424550625
 20
5.4306932039
 30
0.0
 10
20.6343405216
 20
5.4273994153
 30
0.0
 10
20.6269032958
 20
5.4231837438
 30
0.0
 10
20.6218035484
 20
5.4196517334
 30
0.0
 10
20.6171784041
 20
5.4157526172
 30
0.0
 10
20.6130720984
 20
5.4115228134
 30
0.0
 10
20.609524898
 20
5.4070022636
 30
0.0
 10
20.6065718385
 20
5.4022337535
 30
0.0
 10
20.6042426801
 20
5.3972629135
 30
0.0
 10
20.6025612341
 20
5.3921374392
 30
0.0
 10
20.6015452031
 20
5.3869086136
 30
0.0
 10
20.6013183383
 20
5.3833815575
 30
0.0
 10
20.6013183383
 20
5.3816259912
 30
0.0
  0
SPLINE
  5
2EF
100
AcDbEntity
  8
0
100
AcDbSpline
 62
9
  6
CONTINUOUS
 70
0
 71
3
 72
16
 73
12
 74
0
 42
0.0000001
 43
0.0000001
 44
0.0000000001
 40
0.0
 40
0.0
 40
0.0
 40
0.0
 40
0.1499359263
 40
0.2965208159
 40
0.4367331396
 40
0.5681394376
 40
0.6892990468
 40
0.8001542149
 40
0.9024174938
 40
0.95155123
 40
1.0
 40
1.0
 40
1.0
 40
1.0
 10
21.5083183383
 20
4.7940699033
 30
0.0
 10
21.5089699602
 20
4.7940699033
 30
0.0
 10
21.5102601728
 20
4.7941506115
 30
0.0
 10
21.5121290473
 20
4.7945108042
 30
0.0
 10
21.5138562516
 20
4.7950965423
 30
0.0
 10
21.5153775887
 20
4.7958872377
 30
0.0
 10
21.5166369662
 20
4.7968566109
 30
0.0
 10
21.5175858317
 20
4.7979730538
 30
0.0
 10
21.5180887503
 20
4.7990136169
 30
0.0
 10
21.5182855295
 20
4.7998624091
 30
0.0
 10
21.5183183383
 20
4.8002872209
 30
0.0
 10
21.5183183383
 20
4.8004977794
 30
0.0
  0
SPLINE
  5
2F0
100
AcDbEntity
  8
0
100
AcDbSpline
 62
9
  6
CONTINUOUS
 70
0
 71
3
 72
16
 73
12
 74
0
 42
0.0000001
 43
0.0000001
 44
0.0000000001
 40
0.0
 40
0.0
 40
0.0
 40
0.0
 40
0.1499359263
 40
0.2965208159
 40
0.4367331396
 40
0.5681394376
 40
0.6892990468
 40
0.8001542149
 40
0.9024174938
 40
0.95155123
 40
1.0
 40
1.0
 40
1.0
 40
1.0
 10
20.6013183383
 20
4.7940699033
 30
0.0
 10
20.6006667163
 20
4.7940699033
 30
0.0
 10
20.5993765038
 20
4.7941506115
 30
0.0
 10
20.5975076293
 20
4.7945108042
 30
0.0
 10
20.5957804249
 20
4.7950965423
 30
0.0
 10
20.5942590879
 20
4.7958872377
 30
0.0
 10
20.5929997104
 20
4.7968566109
 30
0.0
 10
20.5920508449
 20
4.7979730538
 30
0.0
 10
20.5915479263
 20
4.7990136169
 30
0.0
 10
20.5913511471
 20
4.7998624091
 30
0.0
 10
20.5913183383
 20
4.8002872209
 30
0.0
 10
20.5913183383
 20
4.8004977794
 30
0.0
  0
SPLINE
  5
2F1
100
AcDbEntity
  8
0
100
AcDbSpline
 62
9
  6
CONTINUOUS
 70
0
 71
3
 72
16
 73
12
 74
0
 42
0.0000001
 43
0.0000001
 44
0.0000000001
 40
0.0
 40
0.0
 40
0.0
 40
0.0
 40
0.1499359263
 40
0.2965208159
 40
0.4367331396
 40
0.5681394376
 40
0.6892990468
 40
0.8001542149
 40
0.9024174938
 40
0.95155123
 40
1.0
 40
1.0
 40
1.0
 40
1.0
 10
20.6013183383
 20
5.3816259912
 30
0.0
 10
20.6006667163
 20
5.3816259912
 30
0.0
 10
20.5993765038
 20
5.3817066993
 30
0.0
 10
20.5975076293
 20
5.3820668921
 30
0.0
 10
20.5957804249
 20
5.3826526302
 30
0.0
 10
20.5942590879
 20
5.3834433255
 30
0.0
 10
20.5929997104
 20
5.3844126988
 30
0.0
 10
20.5920508449
 20
5.3855291417
 30
0.0
 10
20.5915479263
 20
5.3865697048
 30
0.0
 10
20.5913511471
 20
5.387418497
 30
0.0
 10
20.5913183383
 20
5.3878433088
 30
0.0
 10
20.5913183383
 20
5.3880538673
 30
0.0
  0
SPLINE
  5
2F2
100
AcDbEntity
  8
0
100
AcDbSpline
 62
9
  6
CONTINUOUS
 70
0
 71
3
 72
16
 73
12
 74
0
 42
0.0000001
 43
0.0000001
 44
0.0000000001
 40
0.0
 40
0.0
 40
0.0
 40
0.0
 40
0.1499359263
 40
0.2965208159
 40
0.4367331396
 40
0.5681394376
 40
0.6892990468
 40
0.8001542149
 40
0.9024174938
 40
0.95155123
 40
1.0
 40
1.0
 40
1.0
 40
1.0
 10
21.5083183383
 20
5.3816259912
 30
0.0
 10
21.5089699602
 20
5.3816259912
 30
0.0
 10
21.5102601728
 20
5.3817066993
 30
0.0
 10
21.5121290473
 20
5.3820668921
 30
0.0
 10
21.5138562516
 20
5.3826526302
 30
0.0
 10
21.5153775887
 20
5.3834433255
 30
0.0
 10
21.5166369662
 20
5.3844126988
 30
0.0
 10
21.5175858317
 20
5.3855291417
 30
0.0
 10
21.5180887503
 20
5.3865697048
 30
0.0
 10
21.5182855295
 20
5.387418497
 30
0.0
 10
21.5183183383
 20
5.3878433088
 30
0.0
 10
21.5183183383
 20
5.3880538673
 30
0.0
  0
SPLINE
  5
2F3
100
AcDbEntity
  8
0
100
AcDbSpline
 62
9
  6
CONTINUOUS
 70
0
 71
3
 72
13
 73
9
 74
0
 42
0.0000001
 43
0.0000001
 44
0.0000000001
 40
0.0
 40
0.0
 40
0.0
 40
0.0
 40
0.2488820588
 40
0.3743060104
 40
0.5
 40
0.6256939896
 40
0.7511179412
 40
1.0
 40
1.0
 40
1.0
 40
1.0
 10
20.9152517962
 20
10.9370677155
 30
0.0
 10
20.9380108385
 20
10.942248188
 30
0.0
 10
20.9727273766
 20
10.9480757078
 30
0.0
 10
21.019473559
 20
10.9519646767
 30
0.0
 10
21.0548183383
 20
10.9529418785
 30
0.0
 10
21.0901631176
 20
10.9519646767
 30
0.0
 10
21.1369093
 20
10.9480757078
 30
0.0
 10
21.1716258381
 20
10.9422481879
 30
0.0
 10
21.1943848804
 20
10.9370677155
 30
0.0
  0
SPLINE
  5
2F4
100
AcDbEntity
  8
0
100
AcDbSpline
 62
9
  6
CONTINUOUS
 70
0
 71
3
 72
21
 73
17
 74
0
 42
0.0000001
 43
0.0000001
 44
0.0000000001
 40
0.0
 40
0.0
 40
0.0
 40
0.0
 40
0.1405214597
 40
0.2101412617
 40
0.278954279
 40
0.4131356953
 40
0.4782490447
 40
0.5418290161
 40
0.6038065139
 40
0.6641710185
 40
0.7229756874
 40
0.7803402075
 40
0.8364511547
 40
0.8915564979
 40
0.9459598461
 40
1.0
 40
1.0
 40
1.0
 40
1.0
 10
21.4898183383
 20
10.9345648512
 30
0.0
 10
21.4940573201
 20
10.9345648511
 30
0.0
 10
21.5004104286
 20
10.9340895825
 30
0.0
 10
21.5086814696
 20
10.9325053442
 30
0.0
 10
21.5166199859
 20
10.9303343621
 30
0.0
 10
21.5241549026
 20
10.9272758457
 30
0.0
 10
21.5310608867
 20
10.9233612983
 30
0.0
 10
21.5357963575
 20
10.9200815798
 30
0.0
 10
21.5400911271
 20
10.9164609787
 30
0.0
 10
21.5439041208
 20
10.9125333103
 30
0.0
 10
21.5471979471
 20
10.9083356632
 30
0.0
 10
21.5499400729
 20
10.9039077695
 30
0.0
 10
21.5521028607
 20
10.8992919999
 30
0.0
 10
21.5536642112
 20
10.8945326346
 30
0.0
 10
21.554607673
 20
10.8896772831
 30
0.0
 10
21.5548183383
 20
10.886402142
 30
0.0
 10
21.5548183383
 20
10.8847719624
 30
0.0
  0
SPLINE
  5
2F5
100
AcDbEntity
  8
0
100
AcDbSpline
 62
9
  6
CONTINUOUS
 70
0
 71
3
 72
21
 73
17
 74
0
 42
0.0000001
 43
0.0000001
 44
0.0000000001
 40
0.0
 40
0.0
 40
0.0
 40
0.0
 40
0.0540401539
 40
0.1084435021
 40
0.1635488453
 40
0.2196597925
 40
0.2770243126
 40
0.3358289815
 40
0.3961934861
 40
0.4581709839
 40
0.5217509553
 40
0.5868643047
 40
0.721045721
 40
0.7898587383
 40
0.8594785403
 40
1.0
 40
1.0
 40
1.0
 40
1.0
 10
21.5548183383
 20
5.4339330322
 30
0.0
 10
21.5548183383
 20
5.4355632119
 30
0.0
 10
21.554607673
 20
5.4388383529
 30
0.0
 10
21.5536642112
 20
5.4436937044
 30
0.0
 10
21.5521028607
 20
5.4484530698
 30
0.0
 10
21.5499400729
 20
5.4530688394
 30
0.0
 10
21.5471979471
 20
5.4574967331
 30
0.0
 10
21.5439041208
 20
5.4616943801
 30
0.0
 10
21.5400911271
 20
5.4656220486
 30
0.0
 10
21.5357963575
 20
5.4692426497
 30
0.0
 10
21.5310608867
 20
5.4725223682
 30
0.0
 10
21.5241549026
 20
5.4764369155
 30
0.0
 10
21.5166199859
 20
5.4794954319
 30
0.0
 10
21.5086814696
 20
5.4816664141
 30
0.0
 10
21.5004104286
 20
5.4832506523
 30
0.0
 10
21.4940573201
 20
5.483725921
 30
0.0
 10
21.4898183383
 20
5.483725921
 30
0.0
  0
SPLINE
  5
2F6
100
AcDbEntity
  8
0
100
AcDbSpline
 62
9
  6
CONTINUOUS
 70
0
 71
3
 72
21
 73
17
 74
0
 42
0.0000001
 43
0.0000001
 44
0.0000000001
 40
0.0
 40
0.0
 40
0.0
 40
0.0
 40
0.0540401539
 40
0.1084435021
 40
0.1635488453
 40
0.2196597925
 40
0.2770243126
 40
0.3358289815
 40
0.3961934861
 40
0.4581709839
 40
0.5217509553
 40
0.5868643047
 40
0.721045721
 40
0.7898587383
 40
0.8594785403
 40
1.0
 40
1.0
 40
1.0
 40
1.0
 10
20.5548183383
 20
10.8847719624
 30
0.0
 10
20.5548183383
 20
10.886402142
 30
0.0
 10
20.5550290036
 20
10.8896772831
 30
0.0
 10
20.5559724653
 20
10.8945326346
 30
0.0
 10
20.5575338159
 20
10.8992919999
 30
0.0
 10
20.5596966037
 20
10.9039077695
 30
0.0
 10
20.5624387295
 20
10.9083356632
 30
0.0
 10
20.5657325558
 20
10.9125333103
 30
0.0
 10
20.5695455495
 20
10.9164609787
 30
0.0
 10
20.5738403191
 20
10.9200815798
 30
0.0
 10
20.5785757899
 20
10.9233612983
 30
0.0
 10
20.585481774
 20
10.9272758457
 30
0.0
 10
20.5930166907
 20
10.9303343621
 30
0.0
 10
20.600955207
 20
10.9325053442
 30
0.0
 10
20.609226248
 20
10.9340895825
 30
0.0
 10
20.6155793565
 20
10.9345648511
 30
0.0
 10
20.6198183383
 20
10.9345648512
 30
0.0
  0
SPLINE
  5
2F7
100
AcDbEntity
  8
0
100
AcDbSpline
 62
9
  6
CONTINUOUS
 70
0
 71
3
 72
21
 73
17
 74
0
 42
0.0000001
 43
0.0000001
 44
0.0000000001
 40
0.0
 40
0.0
 40
0.0
 40
0.0
 40
0.1405214597
 40
0.2101412617
 40
0.278954279
 40
0.4131356953
 40
0.4782490447
 40
0.5418290161
 40
0.6038065139
 40
0.6641710185
 40
0.7229756874
 40
0.7803402075
 40
0.8364511547
 40
0.8915564979
 40
0.9459598461
 40
1.0
 40
1.0
 40
1.0
 40
1.0
 10
20.6198183383
 20
5.483725921
 30
0.0
 10
20.6155793565
 20
5.483725921
 30
0.0
 10
20.609226248
 20
5.4832506523
 30
0.0
 10
20.600955207
 20
5.4816664141
 30
0.0
 10
20.5930166907
 20
5.4794954319
 30
0.0
 10
20.585481774
 20
5.4764369155
 30
0.0
 10
20.5785757899
 20
5.4725223682
 30
0.0
 10
20.5738403191
 20
5.4692426497
 30
0.0
 10
20.5695455495
 20
5.4656220486
 30
0.0
 10
20.5657325558
 20
5.4616943801
 30
0.0
 10
20.5624387295
 20
5.4574967331
 30
0.0
 10
20.5596966037
 20
5.4530688394
 30
0.0
 10
20.5575338159
 20
5.4484530698
 30
0.0
 10
20.5559724653
 20
5.4436937044
 30
0.0
 10
20.5550290036
 20
5.4388383529
 30
0.0
 10
20.5548183383
 20
5.4355632119
 30
0.0
 10
20.5548183383
 20
5.4339330322
 30
0.0
  0
SPLINE
  5
2F8
100
AcDbEntity
  8
0
100
AcDbSpline
 62
9
  6
CONTINUOUS
 70
0
 71
3
 72
21
 73
17
 74
0
 42
0.0000001
 43
0.0000001
 44
0.0000000001
 40
0.0
 40
0.0
 40
0.0
 40
0.0
 40
0.0540383147
 40
0.1084418043
 40
0.1635466401
 40
0.2196580828
 40
0.277023079
 40
0.3358282945
 40
0.3961931782
 40
0.4581709115
 40
0.5217511611
 40
0.5868650073
 40
0.721047799
 40
0.7898615253
 40
0.8594806966
 40
1.0
 40
1.0
 40
1.0
 40
1.0
 10
21.5448183383
 20
5.4275051561
 30
0.0
 10
21.5448183383
 20
5.4288844919
 30
0.0
 10
21.544640079
 20
5.4316557198
 30
0.0
 10
21.5438418135
 20
5.4357640466
 30
0.0
 10
21.5425206568
 20
5.4397912007
 30
0.0
 10
21.5406906313
 20
5.443696876
 30
0.0
 10
21.5383703578
 20
5.4474435933
 30
0.0
 10
21.5355832691
 20
5.4509954894
 30
0.0
 10
21.5323568782
 20
5.4543189316
 30
0.0
 10
21.5287228288
 20
5.4573825366
 30
0.0
 10
21.5247158671
 20
5.4601576928
 30
0.0
 10
21.5188722854
 20
5.4634700126
 30
0.0
 10
21.5124965196
 20
5.4660580001
 30
0.0
 10
21.50577927
 20
5.4678949642
 30
0.0
 10
21.4987807511
 20
5.4692354712
 30
0.0
 10
21.4934051138
 20
5.4696376005
 30
0.0
 10
21.4898183383
 20
5.4696376005
 30
0.0
  0
SPLINE
  5
2F9
100
AcDbEntity
  8
0
100
AcDbSpline
 62
9
  6
CONTINUOUS
 70
0
 71
3
 72
16
 73
12
 74
0
 42
0.0000001
 43
0.0000001
 44
0.0000000001
 40
0.0
 40
0.0
 40
0.0
 40
0.0
 40
0.1499359137
 40
0.2965207911
 40
0.4367331031
 40
0.5681393902
 40
0.6892989886
 40
0.8001541501
 40
0.9024174118
 40
0.9515511933
 40
1.0
 40
1.0
 40
1.0
 40
1.0
 10
21.5448183383
 20
5.4275051561
 30
0.0
 10
21.5454699602
 20
5.4275051561
 30
0.0
 10
21.5467601728
 20
5.4275858642
 30
0.0
 10
21.5486290473
 20
5.427946057
 30
0.0
 10
21.5503562516
 20
5.4285317951
 30
0.0
 10
21.5518775887
 20
5.4293224905
 30
0.0
 10
21.5531369663
 20
5.4302918637
 30
0.0
 10
21.5540858316
 20
5.4314083066
 30
0.0
 10
21.5545887505
 20
5.4324488698
 30
0.0
 10
21.5547855295
 20
5.4332976625
 30
0.0
 10
21.5548183383
 20
5.4337224747
 30
0.0
 10
21.5548183383
 20
5.4339330333
 30
0.0
  0
SPLINE
  5
2FA
100
AcDbEntity
  8
0
100
AcDbSpline
 62
9
  6
CONTINUOUS
 70
0
 71
3
 72
16
 73
12
 74
0
 42
0.0000001
 43
0.0000001
 44
0.0000000001
 40
0.0
 40
0.0
 40
0.0
 40
0.0
 40
0.1499359263
 40
0.2965208159
 40
0.4367331396
 40
0.5681394376
 40
0.6892990468
 40
0.8001542149
 40
0.9024174938
 40
0.95155123
 40
1.0
 40
1.0
 40
1.0
 40
1.0
 10
21.5448183383
 20
4.7610464906
 30
0.0
 10
21.5454699602
 20
4.7610464906
 30
0.0
 10
21.5467601728
 20
4.7611271987
 30
0.0
 10
21.5486290473
 20
4.7614873915
 30
0.0
 10
21.5503562516
 20
4.7620731296
 30
0.0
 10
21.5518775887
 20
4.7628638249
 30
0.0
 10
21.5531369662
 20
4.7638331982
 30
0.0
 10
21.5540858317
 20
4.7649496411
 30
0.0
 10
21.5545887503
 20
4.7659902042
 30
0.0
 10
21.5547855295
 20
4.7668389964
 30
0.0
 10
21.5548183383
 20
4.7672638082
 30
0.0
 10
21.5548183383
 20
4.7674743667
 30
0.0
  0
SPLINE
  5
2FB
100
AcDbEntity
  8
0
100
AcDbSpline
 62
9
  6
CONTINUOUS
 70
0
 71
3
 72
21
 73
17
 74
0
 42
0.0000001
 43
0.0000001
 44
0.0000000001
 40
0.0
 40
0.0
 40
0.0
 40
0.0
 40
0.1405193033
 40
0.2101384747
 40
0.2789522009
 40
0.4131349926
 40
0.4782488388
 40
0.5418290885
 40
0.6038068218
 40
0.6641717054
 40
0.7229769209
 40
0.7803419171
 40
0.8364533598
 40
0.8915581957
 40
0.9459616852
 40
1.0
 40
1.0
 40
1.0
 40
1.0
 10
21.4898183383
 20
4.7189140462
 30
0.0
 10
21.4934051138
 20
4.7189140462
 30
0.0
 10
21.4987807511
 20
4.7193161755
 30
0.0
 10
21.50577927
 20
4.7206566826
 30
0.0
 10
21.5124965195
 20
4.7224936467
 30
0.0
 10
21.5188722854
 20
4.7250816342
 30
0.0
 10
21.5247158671
 20
4.7283939539
 30
0.0
 10
21.5287228288
 20
4.7311691102
 30
0.0
 10
21.5323568782
 20
4.7342327151
 30
0.0
 10
21.5355832691
 20
4.7375561573
 30
0.0
 10
21.5383703578
 20
4.7411080535
 30
0.0
 10
21.5406906313
 20
4.7448547708
 30
0.0
 10
21.5425206568
 20
4.748760446
 30
0.0
 10
21.5438418135
 20
4.7527876002
 30
0.0
 10
21.544640079
 20
4.756895927
 30
0.0
 10
21.5448183383
 20
4.7596671548
 30
0.0
 10
21.5448183383
 20
4.7610464906
 30
0.0
  0
SPLINE
  5
2FC
100
AcDbEntity
  8
0
100
AcDbSpline
 62
9
  6
CONTINUOUS
 70
0
 71
3
 72
21
 73
17
 74
0
 42
0.0000001
 43
0.0000001
 44
0.0000000001
 40
0.0
 40
0.0
 40
0.0
 40
0.0
 40
0.0540383147
 40
0.1084418043
 40
0.1635466401
 40
0.2196580828
 40
0.277023079
 40
0.3358282945
 40
0.3961931782
 40
0.4581709115
 40
0.5217511611
 40
0.5868650073
 40
0.721047799
 40
0.7898615253
 40
0.8594806966
 40
1.0
 40
1.0
 40
1.0
 40
1.0
 10
20.5648183383
 20
4.7610464906
 30
0.0
 10
20.5648183383
 20
4.7596671548
 30
0.0
 10
20.5649965976
 20
4.756895927
 30
0.0
 10
20.565794863
 20
4.7527876002
 30
0.0
 10
20.5671160198
 20
4.748760446
 30
0.0
 10
20.5689460452
 20
4.7448547708
 30
0.0
 10
20.5712663188
 20
4.7411080535
 30
0.0
 10
20.5740534075
 20
4.7375561573
 30
0.0
 10
20.5772797984
 20
4.7342327151
 30
0.0
 10
20.5809138477
 20
4.7311691102
 30
0.0
 10
20.5849208094
 20
4.7283939539
 30
0.0
 10
20.5907643912
 20
4.7250816342
 30
0.0
 10
20.597140157
 20
4.7224936467
 30
0.0
 10
20.6038574066
 20
4.7206566826
 30
0.0
 10
20.6108559255
 20
4.7193161755
 30
0.0
 10
20.6162315628
 20
4.7189140462
 30
0.0
 10
20.6198183383
 20
4.7189140462
 30
0.0
  0
SPLINE
  5
2FD
100
AcDbEntity
  8
0
100
AcDbSpline
 62
9
  6
CONTINUOUS
 70
0
 71
3
 72
16
 73
12
 74
0
 42
0.0000001
 43
0.0000001
 44
0.0000000001
 40
0.0
 40
0.0
 40
0.0
 40
0.0
 40
0.1499359388
 40
0.2965208407
 40
0.4367331762
 40
0.5681394851
 40
0.6892991051
 40
0.8001542796
 40
0.9024175757
 40
0.9515512667
 40
1.0
 40
1.0
 40
1.0
 40
1.0
 10
20.5648183383
 20
4.7610464906
 30
0.0
 10
20.5641667163
 20
4.7610464906
 30
0.0
 10
20.5628765038
 20
4.7611271987
 30
0.0
 10
20.5610076293
 20
4.7614873915
 30
0.0
 10
20.5592804249
 20
4.7620731296
 30
0.0
 10
20.5577590879
 20
4.7628638249
 30
0.0
 10
20.5564997104
 20
4.7638331982
 30
0.0
 10
20.5555508448
 20
4.764949641
 30
0.0
 10
20.5550479265
 20
4.7659902041
 30
0.0
 10
20.554851147
 20
4.7668389959
 30
0.0
 10
20.5548183383
 20
4.7672638073
 30
0.0
 10
20.5548183383
 20
4.7674743656
 30
0.0
  0
SPLINE
  5
2FE
100
AcDbEntity
  8
0
100
AcDbSpline
 62
9
  6
CONTINUOUS
 70
0
 71
3
 72
16
 73
12
 74
0
 42
0.0000001
 43
0.0000001
 44
0.0000000001
 40
0.0
 40
0.0
 40
0.0
 40
0.0
 40
0.1499359263
 40
0.2965208159
 40
0.4367331396
 40
0.5681394376
 40
0.6892990468
 40
0.8001542149
 40
0.9024174938
 40
0.95155123
 40
1.0
 40
1.0
 40
1.0
 40
1.0
 10
20.5648183383
 20
5.4275051561
 30
0.0
 10
20.5641667163
 20
5.4275051561
 30
0.0
 10
20.5628765038
 20
5.4275858642
 30
0.0
 10
20.5610076293
 20
5.427946057
 30
0.0
 10
20.5592804249
 20
5.4285317951
 30
0.0
 10
20.5577590879
 20
5.4293224905
 30
0.0
 10
20.5564997104
 20
5.4302918637
 30
0.0
 10
20.5555508449
 20
5.4314083066
 30
0.0
 10
20.5550479263
 20
5.4324488697
 30
0.0
 10
20.5548511471
 20
5.4332976619
 30
0.0
 10
20.5548183383
 20
5.4337224737
 30
0.0
 10
20.5548183383
 20
5.4339330322
 30
0.0
  0
SPLINE
  5
2FF
100
AcDbEntity
  8
0
100
AcDbSpline
 62
9
  6
CONTINUOUS
 70
0
 71
3
 72
21
 73
17
 74
0
 42
0.0000001
 43
0.0000001
 44
0.0000000001
 40
0.0
 40
0.0
 40
0.0
 40
0.0
 40
0.1405193033
 40
0.2101384747
 40
0.2789522009
 40
0.4131349926
 40
0.4782488388
 40
0.5418290885
 40
0.6038068218
 40
0.6641717054
 40
0.7229769209
 40
0.7803419171
 40
0.8364533598
 40
0.8915581957
 40
0.9459616852
 40
1.0
 40
1.0
 40
1.0
 40
1.0
 10
20.6198183383
 20
5.4696376005
 30
0.0
 10
20.6162315628
 20
5.4696376005
 30
0.0
 10
20.6108559255
 20
5.4692354712
 30
0.0
 10
20.6038574066
 20
5.4678949642
 30
0.0
 10
20.597140157
 20
5.4660580001
 30
0.0
 10
20.5907643912
 20
5.4634700126
 30
0.0
 10
20.5849208094
 20
5.4601576928
 30
0.0
 10
20.5809138477
 20
5.4573825366
 30
0.0
 10
20.5772797984
 20
5.4543189316
 30
0.0
 10
20.5740534075
 20
5.4509954894
 30
0.0
 10
20.5712663188
 20
5.4474435933
 30
0.0
 10
20.5689460452
 20
5.443696876
 30
0.0
 10
20.5671160198
 20
5.4397912007
 30
0.0
 10
20.565794863
 20
5.4357640466
 30
0.0
 10
20.5649965976
 20
5.4316557198
 30
0.0
 10
20.5648183383
 20
5.4288844919
 30
0.0
 10
20.5648183383
 20
5.4275051561
 30
0.0
  0
ENDSEC
  0
SECTION
  2
OBJECTS
  0
DICTIONARY
  5
C
100
AcDbDictionary
280
0
281
1
  3
ACAD_GROUP
350
D
  3
ACAD_MLINESTYLE
350
17
  3
ACAD_LAYOUT
350
1A
  3
ACAD_PLOTSETTINGS
350
19
  3
ACAD_PLOTSTYLENAME
350
E
  0
DICTIONARY
  5
D
102
{ACAD_REACTORS
330
C
102
}
100
AcDbDictionary
280
0
281
1
  0
ACDBDICTIONARYWDFLT
  5
E
102
{ACAD_REACTORS
330
C
102
}
100
AcDbDictionary
281
1
  3
Normal
350
F
100
AcDbDictionaryWithDefault
340
F
  0
DICTIONARY
  5
17
102
{ACAD_REACTORS
330
C
102
}
100
AcDbDictionary
280
0
281
1
  3
Standard
350
18
  0
DICTIONARY
  5
19
102
{ACAD_REACTORS
330
C
102
}
100
AcDbDictionary
281
1
  0
DICTIONARY
  5
1A
102
{ACAD_REACTORS
330
C
102
}
100
AcDbDictionary
281
1
  3
Model
350
300
  3
Layout1
350
301
  0
ACDBPLACEHOLDER
  5
F
102
{ACAD_REACTORS
330
E
102
}
  0
MLINESTYLE
  5
18
102
{ACAD_REACTORS
330
17
102
}
100
AcDbMlineStyle
  2
STANDARD
 70
0
  3

 62
256
 51
90.0
 52
90.0
 71
2
 49
0.5
 62
256
  6
BYLAYER
 49
-0.5
 62
256
  6
BYLAYER
  0
LAYOUT
  5
300
102
{ACAD_REACTORS
330
1A
102
}
100
AcDbPlotSettings
  1

  2
none_device
  4
ANSI_C_(22.00_x_17.00_Inches)
  6

 40
0.0
 41
0.0
 42
0.0
 43
0.0
 44
558.8
 45
431.8
 46
0.0
 47
0.0
 48
0.0
 49
0.0
140
0.0
141
0.0
142
1.0
143
1.0
 70
1024
 72
0
 73
0
 74
0
  7

 75
0
147
1.0
148
0.0
149
0.0
100
AcDbLayout
  1
Model
 70
0
 71
0
 10
0.0
 20
0.0
 11
22.0
 21
17.0
 12
0.0
 22
0.0
 32
0.0
 14
0.0
 24
0.0
 34
0.0
 15
0.0
 25
0.0
 35
0.0
146
0.0
 13
0.0
 23
0.0
 33
0.0
 16
1.0
 26
0.0
 36
0.0
 17
0.0
 27
1.0
 37
0.0
 76
0
330
205
345
0
346
0
  0
LAYOUT
  5
301
102
{ACAD_REACTORS
330
1A
102
}
100
AcDbPlotSettings
  1

  2
none_device
  4
ANSI_C_(22.00_x_17.00_Inches)
  6

 40
0.0
 41
0.0
 42
0.0
 43
0.0
 44
558.8
 45
431.8
 46
0.0
 47
0.0
 48
0.0
 49
0.0
140
0.0
141
0.0
142
1.0
143
1.0
 70
0
 72
0
 73
0
 74
0
  7

 75
0
147
1.0
148
0.0
149
0.0
100
AcDbLayout
  1
Layout1
 70
0
 71
1
 10
0.0
 20
0.0
 11
22.0
 21
17.0
 12
0.0
 22
0.0
 32
0.0
 14
0.0
 24
0.0
 34
0.0
 15
0.0
 25
0.0
 35
0.0
146
0.0
 13
0.0
 23
0.0
 33
0.0
 16
1.0
 26
0.0
 36
0.0
 17
0.0
 27
1.0
 37
0.0
 76
0
330
206
345
0
346
0
  0
ENDSEC
  0
EOF
