999
DXF file: 3-2573ts_RIGHT.dxf
999
Pro/ENGINEER 2013150 by Parametric Technology Corporation
  0
SECTION
  2
HEADER
  9
$ACADVER
  1
AC1021
  9
$DWGCODEPAGE
  3
ANSI_1252
  9
$EXTMAX
 10
11.0
 20
8.5
 30
0.0
  9
$EXTMIN
 10
0.0
 20
0.0
 30
0.0
  9
$LIMMIN
 10
0.0
 20
0.0
  9
$LIMMAX
 10
11.0
 20
8.5
  9
$VIEWCTR
 10
5.5
 20
4.25
  9
$VIEWSIZE
 40
8.5
  9
$CLAYER
  8
0
  9
$LTSCALE
 40
0.605
  9
$CELTYPE
  6
BYLAYER
  9
$DIMSCALE
 40
1.0
  9
$DIMASZ
 40
0.1
  9
$DIMEXO
 40
0.0625
  9
$DIMDLI
 40
0.418
  9
$DIMEXE
 40
0.125
  9
$DIMCEN
 40
0.099
  9
$DIMLFAC
 40
1.0
  9
$DIMBLK
  1
_FILLED
  9
$DIMTXT
 40
0.08
  9
$DIMTOL
 70
1
  9
$DIMLIM
 70
0
  9
$DIMTFAC
 40
1.0
  9
$DIMTP
 40
0.001
  9
$DIMTM
 40
0.001
  9
$DIMGAP
 40
0.09
  9
$DIMDSEP
 70
46
  9
$PDMODE
 70
3
  9
$PDSIZE
 40
0.06
  9
$HANDSEED
  5
39C
  9
$TILEMODE
 70
1
  9
$MEASUREMENT
 70
0
  9
$INSUNITS
 70
1
  0
ENDSEC
  0
SECTION
  2
CLASSES
  0
CLASS
  1
ACDBDICTIONARYWDFLT
  2
AcDbDictionaryWithDefault
  3
AutoCAD 2000
 90
0
 91
1
280
0
281
0
  0
CLASS
  1
ACDBPLACEHOLDER
  2
AcDbPlaceHolder
  3
AutoCAD 2000
 90
0
 91
1
280
0
281
0
  0
CLASS
  1
LAYOUT
  2
AcDbLayout
  3
AutoCAD 2000
 90
0
 91
0
280
0
281
0
  0
ENDSEC
  0
SECTION
  2
TABLES
  0
TABLE
  2
VPORT
  5
8
100
AcDbSymbolTable
 70
2
  0
VPORT
  5
1F4
100
AcDbSymbolTableRecord
100
AcDbViewportTableRecord
  2
*ACTIVE
 70
0
 10
0.0
 20
0.0
 11
1.0
 21
1.0
 12
5.5
 22
4.25
 13
0.0
 23
0.0
 14
1.0
 24
1.0
 15
0.0
 25
0.0
 16
0.0
 26
0.0
 36
1.0
 17
0.0
 27
0.0
 37
0.0
 40
8.5
 41
1.2941176471
 42
50.0
 43
0.0
 44
0.0
 50
0.0
 51
0.0
 71
0
 72
100
 73
1
 74
1
 75
0
 76
0
 77
0
 78
0
  0
ENDTAB
  0
TABLE
  2
LTYPE
  5
5
100
AcDbSymbolTable
 70
6
  0
LTYPE
  5
14
100
AcDbSymbolTableRecord
100
AcDbLinetypeTableRecord
  2
BYBLOCK
 70
0
  3

 72
65
 73
0
 40
0.0
  0
LTYPE
  5
15
100
AcDbSymbolTableRecord
100
AcDbLinetypeTableRecord
  2
BYLAYER
 70
0
  3

 72
65
 73
0
 40
0.0
  0
LTYPE
  5
16
100
AcDbSymbolTableRecord
100
AcDbLinetypeTableRecord
  2
CONTINUOUS
 70
64
  3
Solid line
 72
65
 73
0
 40
0.0
  0
LTYPE
  5
1F5
100
AcDbSymbolTableRecord
100
AcDbLinetypeTableRecord
  2
CENTER
 70
64
  3
____ _ ____ _ ____ _ ____ _ ____ _ ____ _ ____
 72
65
 73
4
 40
0.6
 49
0.375
 74
0
 49
-0.075
 74
0
 49
0.075
 74
0
 49
-0.075
 74
0
  0
LTYPE
  5
1F6
100
AcDbSymbolTableRecord
100
AcDbLinetypeTableRecord
  2
HIDDEN
 70
64
  3
- - - - - - - - - - - - - - - - - - - -
 72
65
 73
2
 40
0.2
 49
0.1
 74
0
 49
-0.1
 74
0
  0
LTYPE
  5
1F7
100
AcDbSymbolTableRecord
100
AcDbLinetypeTableRecord
  2
PHANTOM
 70
64
  3
_____ _ _ _____ _ _ _____ _ _ _____
 72
65
 73
6
 40
0.8
 49
0.45
 74
0
 49
-0.05
 74
0
 49
0.1
 74
0
 49
-0.05
 74
0
 49
0.1
 74
0
 49
-0.05
 74
0
  0
LTYPE
  5
1F8
100
AcDbSymbolTableRecord
100
AcDbLinetypeTableRecord
  2
DOT
 70
64
  3
. . . . . . . . . . . . . . . . . . . .
 72
65
 73
2
 40
0.2
 49
0.1
 74
0
 49
-0.1
 74
0
  0
LTYPE
  5
1F9
100
AcDbSymbolTableRecord
100
AcDbLinetypeTableRecord
  2
DASHED
 70
64
  3
- - - - - - - - - - - - - - - - - - - -
 72
65
 73
2
 40
0.2
 49
0.1
 74
0
 49
-0.1
 74
0
  0
ENDTAB
  0
TABLE
  2
LAYER
  5
2
100
AcDbSymbolTable
 70
36
  0
LAYER
  5
10
100
AcDbSymbolTableRecord
100
AcDbLayerTableRecord
  2
0
 70
0
 62
7
  6
CONTINUOUS
370
-3
390
F
  0
LAYER
  5
1FA
100
AcDbSymbolTableRecord
100
AcDbLayerTableRecord
  2
DEFAULT_1
 70
0
 62
7
  6
CENTER
370
-3
390
F
  0
LAYER
  5
1FB
100
AcDbSymbolTableRecord
100
AcDbLayerTableRecord
  2
DEFAULT_2
 70
0
 62
8
  6
HIDDEN
370
-3
390
F
  0
LAYER
  5
1FC
100
AcDbSymbolTableRecord
100
AcDbLayerTableRecord
  2
DEFAULT_3
 70
0
 62
7
  6
PHANTOM
370
-3
390
F
  0
LAYER
  5
1FD
100
AcDbSymbolTableRecord
100
AcDbLayerTableRecord
  2
01___PRT_ALL_DTM_PLN
 70
0
 62
7
  6
CONTINUOUS
370
-3
390
F
  0
LAYER
  5
1FE
100
AcDbSymbolTableRecord
100
AcDbLayerTableRecord
  2
01___PRT_DEF_DTM_PLN
 70
0
 62
7
  6
CONTINUOUS
370
-3
390
F
  0
LAYER
  5
1FF
100
AcDbSymbolTableRecord
100
AcDbLayerTableRecord
  2
02___PRT_ALL_AXES
 70
0
 62
7
  6
CONTINUOUS
370
-3
390
F
  0
LAYER
  5
200
100
AcDbSymbolTableRecord
100
AcDbLayerTableRecord
  2
03___PRT_ALL_CURVES
 70
0
 62
7
  6
CONTINUOUS
370
-3
390
F
  0
LAYER
  5
201
100
AcDbSymbolTableRecord
100
AcDbLayerTableRecord
  2
04___PRT_ALL_DTM_PNT
 70
0
 62
7
  6
CONTINUOUS
370
-3
390
F
  0
LAYER
  5
202
100
AcDbSymbolTableRecord
100
AcDbLayerTableRecord
  2
05___PRT_ALL_DTM_CSYS
 70
0
 62
7
  6
CONTINUOUS
370
-3
390
F
  0
LAYER
  5
203
100
AcDbSymbolTableRecord
100
AcDbLayerTableRecord
  2
05___PRT_DEF_DTM_CSYS
 70
0
 62
7
  6
CONTINUOUS
370
-3
390
F
  0
LAYER
  5
204
100
AcDbSymbolTableRecord
100
AcDbLayerTableRecord
  2
06___PRT_ALL_SURFS
 70
0
 62
7
  6
CONTINUOUS
370
-3
390
F
  0
LAYER
  5
205
100
AcDbSymbolTableRecord
100
AcDbLayerTableRecord
  2
ALL_FEATURES
 70
0
 62
7
  6
CONTINUOUS
370
-3
390
F
  0
LAYER
  5
206
100
AcDbSymbolTableRecord
100
AcDbLayerTableRecord
  2
AXES_FEATURES
 70
0
 62
7
  6
CONTINUOUS
370
-3
390
F
  0
LAYER
  5
207
100
AcDbSymbolTableRecord
100
AcDbLayerTableRecord
  2
CHAMFER_FEATURES
 70
0
 62
7
  6
CONTINUOUS
370
-3
390
F
  0
LAYER
  5
208
100
AcDbSymbolTableRecord
100
AcDbLayerTableRecord
  2
CUT_FEATURES
 70
0
 62
7
  6
CONTINUOUS
370
-3
390
F
  0
LAYER
  5
209
100
AcDbSymbolTableRecord
100
AcDbLayerTableRecord
  2
DATUM_CURVES
 70
0
 62
7
  6
CONTINUOUS
370
-3
390
F
  0
LAYER
  5
20A
100
AcDbSymbolTableRecord
100
AcDbLayerTableRecord
  2
DATUM_PLANES
 70
0
 62
7
  6
CONTINUOUS
370
-3
390
F
  0
LAYER
  5
20B
100
AcDbSymbolTableRecord
100
AcDbLayerTableRecord
  2
DATUM_POINTS
 70
0
 62
7
  6
CONTINUOUS
370
-3
390
F
  0
LAYER
  5
20C
100
AcDbSymbolTableRecord
100
AcDbLayerTableRecord
  2
DEFAULT_COORDINATE_SYSTEM
 70
0
 62
7
  6
CONTINUOUS
370
-3
390
F
  0
LAYER
  5
20D
100
AcDbSymbolTableRecord
100
AcDbLayerTableRecord
  2
DEFAULT_DATUM_AXES
 70
0
 62
7
  6
CONTINUOUS
370
-3
390
F
  0
LAYER
  5
20E
100
AcDbSymbolTableRecord
100
AcDbLayerTableRecord
  2
DEFAULT_DATUM_CURVES
 70
0
 62
7
  6
CONTINUOUS
370
-3
390
F
  0
LAYER
  5
20F
100
AcDbSymbolTableRecord
100
AcDbLayerTableRecord
  2
DEFAULT_DATUM_PLANES
 70
0
 62
7
  6
CONTINUOUS
370
-3
390
F
  0
LAYER
  5
210
100
AcDbSymbolTableRecord
100
AcDbLayerTableRecord
  2
DEFAULT_SURFACES
 70
0
 62
7
  6
CONTINUOUS
370
-3
390
F
  0
LAYER
  5
211
100
AcDbSymbolTableRecord
100
AcDbLayerTableRecord
  2
DIMENSIONS
 70
0
 62
7
  6
CONTINUOUS
370
-3
390
F
  0
LAYER
  5
212
100
AcDbSymbolTableRecord
100
AcDbLayerTableRecord
  2
HOLE_FEATURES
 70
0
 62
7
  6
CONTINUOUS
370
-3
390
F
  0
LAYER
  5
213
100
AcDbSymbolTableRecord
100
AcDbLayerTableRecord
  2
INTFCLR_1
 70
0
 62
7
  6
CONTINUOUS
370
-3
390
F
  0
LAYER
  5
214
100
AcDbSymbolTableRecord
100
AcDbLayerTableRecord
  2
NOTES
 70
0
 62
7
  6
CONTINUOUS
370
-3
390
F
  0
LAYER
  5
215
100
AcDbSymbolTableRecord
100
AcDbLayerTableRecord
  2
PART_REFERENCE_DIMENSIONS
 70
0
 62
7
  6
CONTINUOUS
370
-3
390
F
  0
LAYER
  5
216
100
AcDbSymbolTableRecord
100
AcDbLayerTableRecord
  2
PLATED_SURFACE_AREA
 70
0
 62
7
  6
CONTINUOUS
370
-3
390
F
  0
LAYER
  5
217
100
AcDbSymbolTableRecord
100
AcDbLayerTableRecord
  2
POINTS
 70
0
 62
7
  6
CONTINUOUS
370
-3
390
F
  0
LAYER
  5
218
100
AcDbSymbolTableRecord
100
AcDbLayerTableRecord
  2
PROTRUSION
 70
0
 62
7
  6
CONTINUOUS
370
-3
390
F
  0
LAYER
  5
219
100
AcDbSymbolTableRecord
100
AcDbLayerTableRecord
  2
PROTRUSION_FEATURES
 70
0
 62
7
  6
CONTINUOUS
370
-3
390
F
  0
LAYER
  5
21A
100
AcDbSymbolTableRecord
100
AcDbLayerTableRecord
  2
QUILTS
 70
0
 62
7
  6
CONTINUOUS
370
-3
390
F
  0
LAYER
  5
21B
100
AcDbSymbolTableRecord
100
AcDbLayerTableRecord
  2
REFERENCE_DIMENSIONS
 70
0
 62
7
  6
CONTINUOUS
370
-3
390
F
  0
LAYER
  5
21C
100
AcDbSymbolTableRecord
100
AcDbLayerTableRecord
  2
ROUND_FEATURES
 70
0
 62
7
  6
CONTINUOUS
370
-3
390
F
  0
LAYER
  5
21D
100
AcDbSymbolTableRecord
100
AcDbLayerTableRecord
  2
SIZE_REF
 70
0
 62
7
  6
CONTINUOUS
370
-3
390
F
  0
ENDTAB
  0
TABLE
  2
STYLE
  5
3
100
AcDbSymbolTable
 70
1
  0
STYLE
  5
11
100
AcDbSymbolTableRecord
100
AcDbTextStyleTableRecord
  2
STANDARD
 70
0
 40
0.0
 41
0.8
 50
0.0
 71
0
 42
0.2
  3
txt
  4

  0
STYLE
  5
21E
100
AcDbSymbolTableRecord
100
AcDbTextStyleTableRecord
  2
TEXTSTYLE_1
 70
0
 40
0.0
 41
0.8
 50
0.0
 71
0
 42
0.2
  3
gdt
  4

  0
ENDTAB
  0
TABLE
  2
VIEW
  5
6
100
AcDbSymbolTable
 70
0
  0
ENDTAB
  0
TABLE
  2
UCS
  5
7
100
AcDbSymbolTable
 70
0
  0
ENDTAB
  0
TABLE
  2
APPID
  5
9
100
AcDbSymbolTable
 70
1
  0
APPID
  5
21F
100
AcDbSymbolTableRecord
100
AcDbRegAppTableRecord
  2
ACAD
 70
0
  0
ENDTAB
  0
TABLE
  2
BLOCK_RECORD
  5
1
100
AcDbSymbolTable
 70
0
  0
BLOCK_RECORD
  5
220
100
AcDbSymbolTableRecord
100
AcDbBlockTableRecord
  2
*Model_Space
  0
BLOCK_RECORD
  5
221
100
AcDbSymbolTableRecord
100
AcDbBlockTableRecord
  2
*Paper_Space
  0
ENDTAB
  0
TABLE
  2
DIMSTYLE
  5
A
100
AcDbSymbolTable
 70
1
100
AcDbDimStyleTable
 71
0
  0
DIMSTYLE
105
222
100
AcDbSymbolTableRecord
100
AcDbDimStyleTableRecord
  2
STANDARD
 70
0
  3

  4

 40
1.0
 41
0.1
 42
0.0625
 43
0.38
 44
0.125
 45
0.0
 46
0.0
 47
0.001
 48
0.001
140
0.08
141
0.09
142
0.0
143
25.4
144
1.0
145
0.0
146
1.0
147
0.09
 71
1.0
 72
0.0
 73
1
 74
1
 75
0
 76
0
 77
0
 78
4
170
0
171
2
172
0
173
0
174
0
175
0
176
0
177
0
178
0
270
2
271
3
272
3
273
2
274
2
275
0
280
0
281
0
282
0
283
1
284
4
285
0
286
0
287
3
288
0
340
11
278
46
  0
ENDTAB
  0
ENDSEC
  0
SECTION
  2
BLOCKS
  0
BLOCK
  5
20
100
AcDbEntity
  8
0
100
AcDbBlockBegin
  2
*Model_Space
 70
0
 10
0.0
 20
0.0
 30
0.0
  3
*Model_Space
  1

  0
ENDBLK
  5
21
100
AcDbEntity
  8
0
100
AcDbBlockEnd
  0
BLOCK
  5
1C
100
AcDbEntity
  8
0
100
AcDbBlockBegin
  2
*Paper_Space
 70
0
 10
0.0
 20
0.0
 30
0.0
  3
*Paper_Space
  1

  0
ENDBLK
  5
1D
100
AcDbEntity
  8
0
100
AcDbBlockEnd
  0
ENDSEC
  0
SECTION
  2
ENTITIES
  0
LINE
  5
223
100
AcDbEntity
  8
0
100
AcDbLine
 62
7
  6
CONTINUOUS
 10
0.0
 20
0.0
 11
0.0
 21
8.5
  0
LINE
  5
224
100
AcDbEntity
  8
0
100
AcDbLine
 62
7
  6
CONTINUOUS
 10
0.0
 20
0.0
 11
11.0
 21
0.0
  0
LINE
  5
225
100
AcDbEntity
  8
0
100
AcDbLine
 62
7
  6
CONTINUOUS
 10
0.0
 20
8.5
 11
11.0
 21
8.5
  0
LINE
  5
226
100
AcDbEntity
  8
0
100
AcDbLine
 62
7
  6
CONTINUOUS
 10
11.0
 20
0.0
 11
11.0
 21
8.5
  0
LINE
  5
227
100
AcDbEntity
  8
0
100
AcDbLine
 62
7
  6
CONTINUOUS
 10
5.4019711233
 20
2.3947735732
 11
5.6059711233
 21
2.3947735732
  0
LINE
  5
228
100
AcDbEntity
  8
0
100
AcDbLine
 62
9
  6
CONTINUOUS
 10
5.3869711233
 20
2.4097735732
 11
5.6059711233
 21
2.4097735732
  0
LWPOLYLINE
  5
229
100
AcDbEntity
  8
0
100
AcDbPolyline
 62
7
  6
CONTINUOUS
 90
15
 70
0
 10
3.9277418722
 20
5.8886138353
 10
3.9267716164
 20
5.8881253833
 10
3.9258440902
 20
5.8875229153
 10
3.9249835152
 20
5.8868168826
 10
3.9242017196
 20
5.8860138108
 10
3.9235106524
 20
5.8851224276
 10
3.9229217338
 20
5.8841539705
 10
3.922444365
 20
5.8831204605
 10
3.922086114
 20
5.8820340012
 10
3.9218534429
 20
5.8809079624
 10
3.9217513873
 20
5.8797567297
 10
3.9217833418
 20
5.878595597
 10
3.9219508912
 20
5.8774403219
 10
3.9222537493
 20
5.8763069497
 10
3.9224046935
 20
5.875883332
  0
LINE
  5
22A
100
AcDbEntity
  8
0
100
AcDbLine
 62
7
  6
CONTINUOUS
 10
3.9277929493
 20
5.8886361592
 11
4.0061019764
 21
5.9228622211
  0
LINE
  5
22B
100
AcDbEntity
  8
0
100
AcDbLine
 62
9
  6
CONTINUOUS
 10
3.9318214979
 20
5.8889753843
 11
4.0101305384
 21
5.923201452
  0
LINE
  5
22C
100
AcDbEntity
  8
0
100
AcDbLine
 62
7
  6
CONTINUOUS
 10
4.2633789534
 20
5.8752862659
 11
4.2634158765
 21
5.8753056579
  0
LINE
  5
22D
100
AcDbEntity
  8
0
100
AcDbLine
 62
7
  6
CONTINUOUS
 10
3.88787724
 20
3.3616883245
 11
3.8324336742
 21
3.3948031538
  0
LINE
  5
22E
100
AcDbEntity
  8
0
100
AcDbLine
 62
9
  6
CONTINUOUS
 10
3.8930049593
 20
3.3618508592
 11
3.8375613935
 21
3.3949656885
  0
LINE
  5
22F
100
AcDbEntity
  8
0
100
AcDbLine
 62
7
  6
CONTINUOUS
 10
5.2719553753
 20
3.2563877464
 11
4.5199553753
 21
3.2563877464
  0
LINE
  5
230
100
AcDbEntity
  8
ALL_FEATURES
100
AcDbLine
 62
7
  6
CONTINUOUS
 10
4.5199553753
 20
3.2563877464
 11
5.2719553753
 21
3.2563877464
  0
LINE
  5
231
100
AcDbEntity
  8
0
100
AcDbLine
 62
7
  6
CONTINUOUS
 10
5.3016404147
 20
3.2563877464
 11
5.3869711233
 21
3.2563877464
  0
LINE
  5
232
100
AcDbEntity
  8
ALL_FEATURES
100
AcDbLine
 62
7
  6
CONTINUOUS
 10
4.5199553753
 20
3.3422735732
 11
4.3949553753
 21
3.3422735732
  0
LINE
  5
233
100
AcDbEntity
  8
0
100
AcDbLine
 62
7
  6
CONTINUOUS
 10
4.0172076379
 20
3.3602735732
 11
3.8930049593
 21
3.3602735732
  0
LINE
  5
234
100
AcDbEntity
  8
0
100
AcDbLine
 62
9
  6
CONTINUOUS
 10
3.8930049593
 20
3.3618508592
 11
4.0172076379
 21
3.3618508592
  0
LWPOLYLINE
  5
235
100
AcDbEntity
  8
0
100
AcDbPolyline
 62
7
  6
CONTINUOUS
 90
13
 70
0
 10
3.7374046922
 20
4.3008833307
 10
3.7447798869
 20
4.2808597435
 10
3.7522577243
 20
4.2589023961
 10
3.7591739787
 20
4.2367582667
 10
3.7655278431
 20
4.2144419954
 10
3.7713178268
 20
4.1919704143
 10
3.7765420442
 20
4.1693626409
 10
3.7811997407
 20
4.1466337213
 10
3.7852899429
 20
4.123799621
 10
3.7888110852
 20
4.1008808267
 10
3.7917625183
 20
4.0778943406
 10
3.7941440899
 20
4.0548535897
 10
3.7959553753
 20
4.0317735732
  0
LWPOLYLINE
  5
236
100
AcDbEntity
  8
06___PRT_ALL_SURFS
100
AcDbPolyline
 62
7
  6
CONTINUOUS
 90
3
 70
0
 10
3.7554605466
 20
4.2486477544
 10
3.7591739787
 20
4.2367582667
 10
3.7655278431
 20
4.2144419954
  0
LWPOLYLINE
  5
237
100
AcDbEntity
  8
06___PRT_ALL_SURFS
100
AcDbPolyline
 62
7
  6
CONTINUOUS
 90
4
 70
0
 10
3.7655278431
 20
4.2144419954
 10
3.7713178268
 20
4.1919704143
 10
3.7765420442
 20
4.1693626409
 10
3.7811997407
 20
4.1466337214
  0
LWPOLYLINE
  5
238
100
AcDbEntity
  8
06___PRT_ALL_SURFS
100
AcDbPolyline
 62
7
  6
CONTINUOUS
 90
3
 70
0
 10
3.7811997407
 20
4.1466337214
 10
3.7852899429
 20
4.123799621
 10
3.7888110851
 20
4.1008808268
  0
LWPOLYLINE
  5
239
100
AcDbEntity
  8
06___PRT_ALL_SURFS
100
AcDbPolyline
 62
7
  6
CONTINUOUS
 90
4
 70
0
 10
3.7888110851
 20
4.1008808268
 10
3.7917625183
 20
4.0778943406
 10
3.7941440899
 20
4.0548535898
 10
3.7959553753
 20
4.0317735732
  0
LINE
  5
23A
100
AcDbEntity
  8
0
100
AcDbLine
 62
7
  6
CONTINUOUS
 10
3.8274683405
 20
3.4053116647
 11
3.8275708182
 21
3.4029543466
  0
LINE
  5
23B
100
AcDbEntity
  8
0
100
AcDbLine
 62
9
  6
CONTINUOUS
 10
3.8374588935
 20
3.3973235168
 11
3.8375613935
 21
3.3949656885
  0
LINE
  5
23C
100
AcDbEntity
  8
0
100
AcDbLine
 62
9
  6
CONTINUOUS
 10
3.837458893
 20
3.4057462308
 11
3.837458893
 21
3.3973235168
  0
LINE
  5
23D
100
AcDbEntity
  8
0
100
AcDbLine
 62
9
  6
CONTINUOUS
 10
3.8930049593
 20
3.3602735732
 11
3.8930049593
 21
3.3618508592
  0
LINE
  5
23E
100
AcDbEntity
  8
0
100
AcDbLine
 62
9
  6
CONTINUOUS
 10
3.8374588918
 20
3.4057462306
 11
3.8274683398
 21
3.4053116646
  0
LINE
  5
23F
100
AcDbEntity
  8
0
100
AcDbLine
 62
9
  6
CONTINUOUS
 10
4.0656020515
 20
3.3973236758
 11
3.8374588935
 21
3.3973235168
  0
LINE
  5
240
100
AcDbEntity
  8
0
100
AcDbLine
 62
9
  6
CONTINUOUS
 10
4.065602052
 20
3.4057465539
 11
3.837458893
 21
3.4057462308
  0
LINE
  5
241
100
AcDbEntity
  8
ALL_FEATURES
100
AcDbLine
 62
7
  6
CONTINUOUS
 10
4.2724241253
 20
3.5286024113
 11
4.2919553753
 21
3.5229642251
  0
LINE
  5
242
100
AcDbEntity
  8
ALL_FEATURES
100
AcDbLine
 62
7
  6
CONTINUOUS
 10
4.3114866253
 20
3.5398787837
 11
4.2919553753
 21
3.54551697
  0
LINE
  5
243
100
AcDbEntity
  8
0
100
AcDbLine
 62
7
  6
CONTINUOUS
 10
4.0124683405
 20
4.9803116647
 11
4.0125708182
 21
4.9779543466
  0
LINE
  5
244
100
AcDbEntity
  8
0
100
AcDbLine
 62
9
  6
CONTINUOUS
 10
4.0224588935
 20
4.9723235168
 11
4.0225613935
 21
4.9699656885
  0
LINE
  5
245
100
AcDbEntity
  8
0
100
AcDbLine
 62
9
  6
CONTINUOUS
 10
4.0172076379
 20
3.3602735732
 11
4.0172076379
 21
3.3618508592
  0
LINE
  5
246
100
AcDbEntity
  8
0
100
AcDbLine
 62
9
  6
CONTINUOUS
 10
4.022458893
 20
4.9807462308
 11
4.022458893
 21
4.9723235168
  0
LINE
  5
247
100
AcDbEntity
  8
0
100
AcDbLine
 62
9
  6
CONTINUOUS
 10
4.0656020562
 20
3.4057465539
 11
4.0656020515
 21
3.3973236758
  0
LINE
  5
248
100
AcDbEntity
  8
0
100
AcDbLine
 62
7
  6
CONTINUOUS
 10
4.3949553753
 20
3.5772735732
 11
4.3699553753
 21
3.5772735732
  0
LINE
  5
249
100
AcDbEntity
  8
0
100
AcDbLine
 62
9
  6
CONTINUOUS
 10
4.0780049593
 20
4.9352735732
 11
4.0780049593
 21
4.9368508592
  0
LINE
  5
24A
100
AcDbEntity
  8
0
100
AcDbLine
 62
9
  6
CONTINUOUS
 10
4.2022076379
 20
4.9352735732
 11
4.2022076379
 21
4.9368508592
  0
LINE
  5
24B
100
AcDbEntity
  8
0
100
AcDbLine
 62
9
  6
CONTINUOUS
 10
4.2139553753
 20
3.7135235874
 11
4.2139553753
 21
3.6260234143
  0
LINE
  5
24C
100
AcDbEntity
  8
0
100
AcDbLine
 62
9
  6
CONTINUOUS
 10
4.2022076379
 20
4.9368508592
 11
4.2569527628
 21
4.9616337091
  0
LINE
  5
24D
100
AcDbEntity
  8
0
100
AcDbLine
 62
7
  6
CONTINUOUS
 10
4.2610768171
 20
4.9609464189
 11
4.2063316922
 21
4.936163569
  0
LINE
  5
24E
100
AcDbEntity
  8
ALL_FEATURES
100
AcDbLine
 62
7
  6
CONTINUOUS
 10
4.4769553753
 20
5.12051697
 11
4.4588658086
 21
5.1152949619
  0
LINE
  5
24F
100
AcDbEntity
  8
ALL_FEATURES
100
AcDbLine
 62
7
  6
CONTINUOUS
 10
4.4769553753
 20
5.0979642251
 11
4.4964866253
 21
5.1036024113
  0
LINE
  5
250
100
AcDbEntity
  8
0
100
AcDbLine
 62
7
  6
CONTINUOUS
 10
4.3949553753
 20
3.7622735732
 11
4.3699553753
 21
3.7622735732
  0
LWPOLYLINE
  5
251
100
AcDbEntity
  8
06___PRT_ALL_SURFS
100
AcDbPolyline
 62
7
  6
CONTINUOUS
 90
3
 70
0
 10
3.9661997407
 20
5.7216337214
 10
3.9702899429
 20
5.698799621
 10
3.9738110851
 20
5.6758808268
  0
LWPOLYLINE
  5
252
100
AcDbEntity
  8
06___PRT_ALL_SURFS
100
AcDbPolyline
 62
7
  6
CONTINUOUS
 90
4
 70
0
 10
3.9738110851
 20
5.6758808268
 10
3.9767625183
 20
5.6528943406
 10
3.9791440899
 20
5.6298535898
 10
3.9809553753
 20
5.6067735732
  0
LINE
  5
253
100
AcDbEntity
  8
0
100
AcDbLine
 62
9
  6
CONTINUOUS
 10
4.2506020562
 20
4.9807465539
 11
4.2506020515
 21
4.9723236758
  0
LINE
  5
254
100
AcDbEntity
  8
ALL_FEATURES
100
AcDbLine
 62
7
  6
CONTINUOUS
 10
4.2724241253
 20
3.538873794
 11
4.2724241253
 21
3.5286024113
  0
LINE
  5
255
100
AcDbEntity
  8
ALL_FEATURES
100
AcDbLine
 62
7
  6
CONTINUOUS
 10
4.2919553753
 20
3.5229642251
 11
4.2919553753
 21
3.54551697
  0
LINE
  5
256
100
AcDbEntity
  8
ALL_FEATURES
100
AcDbLine
 62
7
  6
CONTINUOUS
 10
4.3114866253
 20
3.5286024113
 11
4.3114866253
 21
3.5398787837
  0
LINE
  5
257
100
AcDbEntity
  8
0
100
AcDbLine
 62
7
  6
CONTINUOUS
 10
4.3699553753
 20
3.8322735732
 11
4.3699553753
 21
3.5072735732
  0
LINE
  5
258
100
AcDbEntity
  8
ALL_FEATURES
100
AcDbLine
 62
7
  6
CONTINUOUS
 10
4.5199553753
 20
3.9972735732
 11
4.3949553753
 21
3.9972735732
  0
LINE
  5
259
100
AcDbEntity
  8
0
100
AcDbLine
 62
7
  6
CONTINUOUS
 10
3.7374046956
 20
4.300883322
 11
3.7374772204
 21
4.3008500317
  0
LWPOLYLINE
  5
25A
100
AcDbEntity
  8
06___PRT_ALL_SURFS
100
AcDbPolyline
 62
7
  6
CONTINUOUS
 90
4
 70
0
 10
3.9505278431
 20
5.7894419954
 10
3.9563178268
 20
5.7669704143
 10
3.9615420442
 20
5.7443626409
 10
3.9661997407
 20
5.7216337214
  0
LINE
  5
25B
100
AcDbEntity
  8
ALL_FEATURES
100
AcDbLine
 62
7
  6
CONTINUOUS
 10
4.3949553753
 20
3.9972735732
 11
4.3949553753
 21
3.3422735732
  0
LINE
  5
25C
100
AcDbEntity
  8
0
100
AcDbLine
 62
9
  6
CONTINUOUS
 10
4.3989553753
 20
5.2885235874
 11
4.3989553753
 21
5.2010234143
  0
LINE
  5
25D
100
AcDbEntity
  8
ALL_FEATURES
100
AcDbLine
 62
7
  6
CONTINUOUS
 10
4.4574241253
 20
5.113873794
 11
4.4574241253
 21
5.1036024113
  0
LINE
  5
25E
100
AcDbEntity
  8
ALL_FEATURES
100
AcDbLine
 62
7
  6
CONTINUOUS
 10
4.4769553753
 20
5.0979642251
 11
4.4769553753
 21
5.12051697
  0
LINE
  5
25F
100
AcDbEntity
  8
ALL_FEATURES
100
AcDbLine
 62
7
  6
CONTINUOUS
 10
4.4964866253
 20
5.1036024113
 11
4.4964866253
 21
5.1148787837
  0
LINE
  5
260
100
AcDbEntity
  8
ALL_FEATURES
100
AcDbLine
 62
7
  6
CONTINUOUS
 10
4.5199553753
 20
4.0831594
 11
4.5199553753
 21
3.2563877464
  0
LWPOLYLINE
  5
261
100
AcDbEntity
  8
0
100
AcDbPolyline
 62
7
  6
CONTINUOUS
 90
15
 70
0
 10
3.7427418722
 20
4.3136138353
 10
3.7417716164
 20
4.3131253833
 10
3.7408440902
 20
4.3125229153
 10
3.7399835152
 20
4.3118168826
 10
3.7392017196
 20
4.3110138108
 10
3.7385106524
 20
4.3101224276
 10
3.7379217338
 20
4.3091539705
 10
3.737444365
 20
4.3081204605
 10
3.737086114
 20
4.3070340012
 10
3.7368534429
 20
4.3059079624
 10
3.7367513873
 20
4.3047567297
 10
3.7367833418
 20
4.303595597
 10
3.7369508912
 20
4.3024403219
 10
3.7372537493
 20
4.3013069497
 10
3.7374046935
 20
4.300883332
  0
LINE
  5
262
100
AcDbEntity
  8
0
100
AcDbLine
 62
7
  6
CONTINUOUS
 10
3.7427929493
 20
4.3136361592
 11
3.8211019764
 21
4.3478622211
  0
LINE
  5
263
100
AcDbEntity
  8
0
100
AcDbLine
 62
9
  6
CONTINUOUS
 10
3.7468214979
 20
4.3139753843
 11
3.8251305384
 21
4.348201452
  0
LINE
  5
264
100
AcDbEntity
  8
0
100
AcDbLine
 62
9
  6
CONTINUOUS
 10
4.0416863632
 20
4.0317731264
 11
3.8059712044
 21
4.0317735732
  0
LINE
  5
265
100
AcDbEntity
  8
0
100
AcDbLine
 62
7
  6
CONTINUOUS
 10
5.3869711233
 20
4.0828956769
 11
5.3323806845
 21
4.0828956769
  0
LINE
  5
266
100
AcDbEntity
  8
ALL_FEATURES
100
AcDbLine
 62
7
  6
CONTINUOUS
 10
4.6503928753
 20
4.0831594
 11
4.5199553753
 21
4.0831594
  0
LINE
  5
267
100
AcDbEntity
  8
0
100
AcDbLine
 62
7
  6
CONTINUOUS
 10
4.8535178753
 20
4.0831594
 11
5.2719553753
 21
4.0831594
  0
LINE
  5
268
100
AcDbEntity
  8
ALL_FEATURES
100
AcDbLine
 62
7
  6
CONTINUOUS
 10
4.8535178753
 20
4.0831594
 11
5.2719553753
 21
4.0831594
  0
LINE
  5
269
100
AcDbEntity
  8
0
100
AcDbLine
 62
7
  6
CONTINUOUS
 10
5.3016404147
 20
4.0831594
 11
5.3173835657
 21
4.0831594
  0
LINE
  5
26A
100
AcDbEntity
  8
0
100
AcDbLine
 62
9
  6
CONTINUOUS
 10
4.6557053753
 20
4.1481594
 11
4.8482053753
 21
4.1481594
  0
LINE
  5
26B
100
AcDbEntity
  8
0
100
AcDbLine
 62
7
  6
CONTINUOUS
 10
4.6607064447
 20
4.1531594
 11
4.8432043058
 21
4.1531594
  0
LINE
  5
26C
100
AcDbEntity
  8
0
100
AcDbLine
 62
7
  6
CONTINUOUS
 10
4.072491693
 20
4.312277389
 11
3.9845278701
 21
4.3477178418
  0
LWPOLYLINE
  5
26D
100
AcDbEntity
  8
0
100
AcDbPolyline
 62
7
  6
CONTINUOUS
 90
13
 70
0
 10
3.9224046922
 20
5.8758833307
 10
3.9297798869
 20
5.8558597435
 10
3.9372577243
 20
5.8339023961
 10
3.9441739787
 20
5.8117582667
 10
3.9505278431
 20
5.7894419954
 10
3.9563178268
 20
5.7669704143
 10
3.9615420442
 20
5.7443626409
 10
3.9661997407
 20
5.7216337213
 10
3.9702899429
 20
5.698799621
 10
3.9738110852
 20
5.6758808267
 10
3.9767625183
 20
5.6528943406
 10
3.9791440899
 20
5.6298535897
 10
3.9809553753
 20
5.6067735732
  0
LWPOLYLINE
  5
26E
100
AcDbEntity
  8
06___PRT_ALL_SURFS
100
AcDbPolyline
 62
7
  6
CONTINUOUS
 90
3
 70
0
 10
3.9404605466
 20
5.8236477544
 10
3.9441739787
 20
5.8117582667
 10
3.9505278431
 20
5.7894419954
  0
LINE
  5
26F
100
AcDbEntity
  8
0
100
AcDbLine
 62
7
  6
CONTINUOUS
 10
4.5549553753
 20
5.4072735732
 11
4.5549553753
 21
5.0822735732
  0
LINE
  5
270
100
AcDbEntity
  8
ALL_FEATURES
100
AcDbLine
 62
7
  6
CONTINUOUS
 10
4.5799553753
 20
4.9210254629
 11
4.5799553753
 21
5.5685216835
  0
LINE
  5
271
100
AcDbEntity
  8
0
100
AcDbLine
 62
7
  6
CONTINUOUS
 10
4.6557053753
 20
4.0818888745
 11
4.6557053753
 21
4.1481594
  0
LINE
  5
272
100
AcDbEntity
  8
0
100
AcDbLine
 62
7
  6
CONTINUOUS
 10
4.0783789534
 20
4.3002862659
 11
4.0784158765
 21
4.3003056579
  0
LINE
  5
273
100
AcDbEntity
  8
0
100
AcDbLine
 62
7
  6
CONTINUOUS
 10
4.7309711233
 20
4.8313909861
 11
4.7309711233
 21
5.6581561603
  0
LINE
  5
274
100
AcDbEntity
  8
0
100
AcDbLine
 62
9
  6
CONTINUOUS
 10
3.9786710153
 20
4.3481675178
 11
3.826043581
 21
4.3485484494
  0
LINE
  5
275
100
AcDbEntity
  8
0
100
AcDbLine
 62
7
  6
CONTINUOUS
 10
3.9771036499
 20
4.349166842
 11
3.8291615634
 21
4.3495360797
  0
LINE
  5
276
100
AcDbEntity
  8
0
100
AcDbLine
 62
7
  6
CONTINUOUS
 10
4.8482053753
 20
4.0818888975
 11
4.8482053753
 21
4.1481594
  0
LINE
  5
277
100
AcDbEntity
  8
0
100
AcDbLine
 62
7
  6
CONTINUOUS
 10
4.07287724
 20
4.9366883245
 11
4.0174336742
 21
4.9698031538
  0
LINE
  5
278
100
AcDbEntity
  8
0
100
AcDbLine
 62
9
  6
CONTINUOUS
 10
4.0780049593
 20
4.9368508592
 11
4.0225613935
 21
4.9699656885
  0
LINE
  5
279
100
AcDbEntity
  8
0
100
AcDbLine
 62
7
  6
CONTINUOUS
 10
5.2719553753
 20
4.0831594
 11
5.2719553753
 21
3.2563877464
  0
LINE
  5
27A
100
AcDbEntity
  8
0
100
AcDbLine
 62
7
  6
CONTINUOUS
 10
5.291797895
 20
4.0733168803
 11
5.291797895
 21
3.2662302661
  0
LINE
  5
27B
100
AcDbEntity
  8
0
100
AcDbLine
 62
9
  6
CONTINUOUS
 10
5.3016404147
 20
3.2563877567
 11
5.3016404147
 21
4.0831594
  0
LINE
  5
27C
100
AcDbEntity
  8
0
100
AcDbLine
 62
7
  6
CONTINUOUS
 10
5.3869711233
 20
4.8313885732
 11
4.7309711233
 21
4.8313885732
  0
LINE
  5
27D
100
AcDbEntity
  8
ALL_FEATURES
100
AcDbLine
 62
7
  6
CONTINUOUS
 10
4.5799553753
 20
4.9210235732
 11
4.7309711233
 21
4.9210235732
  0
LINE
  5
27E
100
AcDbEntity
  8
0
100
AcDbLine
 62
7
  6
CONTINUOUS
 10
4.2022076379
 20
4.9352735732
 11
4.0780049593
 21
4.9352735732
  0
LINE
  5
27F
100
AcDbEntity
  8
0
100
AcDbLine
 62
9
  6
CONTINUOUS
 10
4.0780049593
 20
4.9368508592
 11
4.2022076379
 21
4.9368508592
  0
LINE
  5
280
100
AcDbEntity
  8
0
100
AcDbLine
 62
7
  6
CONTINUOUS
 10
5.3869711233
 20
2.4097735732
 11
5.3869711233
 21
6.5047735732
  0
LINE
  5
281
100
AcDbEntity
  8
0
100
AcDbLine
 62
9
  6
CONTINUOUS
 10
5.4019711233
 20
2.3947735732
 11
5.4019711233
 21
6.5197735732
  0
LINE
  5
282
100
AcDbEntity
  8
0
100
AcDbLine
 62
9
  6
CONTINUOUS
 10
4.0224588918
 20
4.9807462306
 11
4.0124683398
 21
4.9803116646
  0
LINE
  5
283
100
AcDbEntity
  8
0
100
AcDbLine
 62
9
  6
CONTINUOUS
 10
4.2506020515
 20
4.9723236758
 11
4.0224588935
 21
4.9723235168
  0
LINE
  5
284
100
AcDbEntity
  8
0
100
AcDbLine
 62
9
  6
CONTINUOUS
 10
4.250602052
 20
4.9807465539
 11
4.022458893
 21
4.9807462308
  0
LINE
  5
285
100
AcDbEntity
  8
ALL_FEATURES
100
AcDbLine
 62
7
  6
CONTINUOUS
 10
4.4574241253
 20
5.1036024113
 11
4.4769553753
 21
5.0979642251
  0
LINE
  5
286
100
AcDbEntity
  8
ALL_FEATURES
100
AcDbLine
 62
7
  6
CONTINUOUS
 10
4.4964866253
 20
5.1148787837
 11
4.4769553753
 21
5.12051697
  0
LINE
  5
287
100
AcDbEntity
  8
0
100
AcDbLine
 62
7
  6
CONTINUOUS
 10
5.6059711233
 20
2.3947735732
 11
5.6059711233
 21
6.5197735732
  0
LINE
  5
288
100
AcDbEntity
  8
0
100
AcDbLine
 62
9
  6
CONTINUOUS
 10
4.0172076379
 20
3.3618508592
 11
4.0719527628
 21
3.3866337091
  0
LINE
  5
289
100
AcDbEntity
  8
0
100
AcDbLine
 62
7
  6
CONTINUOUS
 10
4.0760768171
 20
3.3859464189
 11
4.0213316922
 21
3.361163569
  0
LINE
  5
28A
100
AcDbEntity
  8
ALL_FEATURES
100
AcDbLine
 62
7
  6
CONTINUOUS
 10
4.2919553753
 20
3.54551697
 11
4.2738658086
 21
3.5402949619
  0
LINE
  5
28B
100
AcDbEntity
  8
ALL_FEATURES
100
AcDbLine
 62
7
  6
CONTINUOUS
 10
4.2919553753
 20
3.5229642251
 11
4.3114866253
 21
3.5286024113
  0
LINE
  5
28C
100
AcDbEntity
  8
0
100
AcDbLine
 62
7
  6
CONTINUOUS
 10
4.5799553753
 20
5.1522735732
 11
4.5549553753
 21
5.1522735732
  0
LINE
  5
28D
100
AcDbEntity
  8
0
100
AcDbLine
 62
7
  6
CONTINUOUS
 10
4.5799553753
 20
5.3372735732
 11
4.5549553753
 21
5.3372735732
  0
LINE
  5
28E
100
AcDbEntity
  8
0
100
AcDbLine
 62
7
  6
CONTINUOUS
 10
3.9224046956
 20
5.875883322
 11
3.9224772204
 21
5.8758500317
  0
LINE
  5
28F
100
AcDbEntity
  8
ALL_FEATURES
100
AcDbLine
 62
7
  6
CONTINUOUS
 10
4.5799553753
 20
5.5685235732
 11
4.7309711233
 21
5.5685235732
  0
LINE
  5
290
100
AcDbEntity
  8
0
100
AcDbLine
 62
9
  6
CONTINUOUS
 10
4.2266863632
 20
5.6067731264
 11
3.9909712044
 21
5.6067735732
  0
LINE
  5
291
100
AcDbEntity
  8
0
100
AcDbLine
 62
7
  6
CONTINUOUS
 10
5.3869711233
 20
5.6581585732
 11
4.7309711233
 21
5.6581585732
  0
LINE
  5
292
100
AcDbEntity
  8
0
100
AcDbLine
 62
7
  6
CONTINUOUS
 10
4.257491693
 20
5.887277389
 11
4.1695278701
 21
5.9227178418
  0
LINE
  5
293
100
AcDbEntity
  8
0
100
AcDbLine
 62
9
  6
CONTINUOUS
 10
4.1636710153
 20
5.9231675178
 11
4.011043581
 21
5.9235484494
  0
LINE
  5
294
100
AcDbEntity
  8
0
100
AcDbLine
 62
7
  6
CONTINUOUS
 10
4.1621036499
 20
5.924166842
 11
4.0141615634
 21
5.9245360797
  0
LINE
  5
295
100
AcDbEntity
  8
0
100
AcDbLine
 62
9
  6
CONTINUOUS
 10
5.3869711233
 20
6.5047735732
 11
5.6059711233
 21
6.5047735732
  0
LINE
  5
296
100
AcDbEntity
  8
0
100
AcDbLine
 62
7
  6
CONTINUOUS
 10
5.4019711233
 20
6.5197735732
 11
5.6059711233
 21
6.5197735732
  0
ARC
  5
297
100
AcDbEntity
  8
0
100
AcDbCircle
 62
7
  6
CONTINUOUS
 10
-42.130724503
 20
2.9731903635
 40
46.1868247633
100
AcDbArc
 50
2.4906627926
 51
3.268101299
  0
ARC
  5
298
100
AcDbEntity
  8
0
100
AcDbCircle
 62
7
  6
CONTINUOUS
 10
-42.315724503
 20
1.3981903635
 40
46.1868247633
100
AcDbArc
 50
2.4906627926
 51
3.268101299
  0
ARC
  5
299
100
AcDbEntity
  8
0
100
AcDbCircle
 62
9
  6
CONTINUOUS
 10
-42.1183864119
 20
2.9737768392
 40
46.1844728409
100
AcDbArc
 50
2.4906010733
 51
3.268229151
  0
ARC
  5
29A
100
AcDbEntity
  8
0
100
AcDbCircle
 62
9
  6
CONTINUOUS
 10
-42.3033864119
 20
1.3987768392
 40
46.1844728409
100
AcDbArc
 50
2.4906010733
 51
3.268229151
  0
ARC
  5
29B
100
AcDbEntity
  8
0
100
AcDbCircle
 62
7
  6
CONTINUOUS
 10
4.3831866506
 20
3.4279232201
 40
0.1567729143
100
AcDbArc
 50
133.5949457952
 51
134.3858004369
  0
ARC
  5
29C
100
AcDbEntity
  8
0
100
AcDbCircle
 62
7
  6
CONTINUOUS
 10
4.3802367664
 20
3.4309396174
 40
0.1525538544
100
AcDbArc
 50
134.386478477
 51
134.7020847264
  0
ARC
  5
29D
100
AcDbEntity
  8
0
100
AcDbCircle
 62
9
  6
CONTINUOUS
 10
4.2193808045
 20
3.3518528866
 40
0.1514751897
100
AcDbArc
 50
164.5677614587
 51
166.725653281
  0
ARC
  5
29E
100
AcDbEntity
  8
0
100
AcDbCircle
 62
7
  6
CONTINUOUS
 10
4.2193892623
 20
3.3602735732
 40
0.141483887
100
AcDbArc
 50
105.3833633358
 51
166.7256414757
  0
ARC
  5
29F
100
AcDbEntity
  8
0
100
AcDbCircle
 62
7
  6
CONTINUOUS
 10
4.2139553753
 20
3.3800235732
 40
0.121
100
AcDbArc
 50
90.0000036253
 51
105.3833633358
  0
ARC
  5
2A0
100
AcDbEntity
  8
0
100
AcDbCircle
 62
9
  6
CONTINUOUS
 10
3.8374033312
 20
3.4066322901
 40
0.0116676723
100
AcDbArc
 50
255.7838185237
 51
270.7762112104
  0
ARC
  5
2A1
100
AcDbEntity
  8
0
100
AcDbCircle
 62
9
  6
CONTINUOUS
 10
4.0727439936
 20
3.3980687864
 40
0.0114624186
100
AcDbArc
 50
266.0418244853
 51
277.3187895182
  0
ARC
  5
2A2
100
AcDbEntity
  8
0
100
AcDbCircle
 62
7
  6
CONTINUOUS
 10
4.0172076379
 20
3.3702735732
 40
0.01
100
AcDbArc
 50
270.0
 51
294.3560298279
  0
ARC
  5
2A3
100
AcDbEntity
  8
0
100
AcDbCircle
 62
7
  6
CONTINUOUS
 10
3.8930049593
 20
3.3702735732
 40
0.01
100
AcDbArc
 50
239.1513562348
 51
270.0
  0
ARC
  5
2A4
100
AcDbEntity
  8
0
100
AcDbCircle
 62
7
  6
CONTINUOUS
 10
3.8375613935
 20
3.4033884025
 40
0.01
100
AcDbArc
 50
182.487738507
 51
239.1513562288
  0
ARC
  5
2A5
100
AcDbEntity
  8
0
100
AcDbCircle
 62
7
  6
CONTINUOUS
 10
4.0719527628
 20
3.3950564231
 40
0.01
100
AcDbArc
 50
294.3560298352
 51
346.7256414757
  0
ARC
  5
2A6
100
AcDbEntity
  8
0
100
AcDbCircle
 62
9
  6
CONTINUOUS
 10
3.8893253559
 20
3.3693945096
 40
0.00839322
100
AcDbArc
 50
291.3196303944
 51
296.0019588416
  0
ARC
  5
2A7
100
AcDbEntity
  8
0
100
AcDbCircle
 62
7
  6
CONTINUOUS
 10
4.2546189592
 20
3.7158582476
 40
0.2086813795
100
AcDbArc
 50
271.5158417554
 51
273.5004269069
  0
ARC
  5
2A8
100
AcDbEntity
  8
0
100
AcDbCircle
 62
7
  6
CONTINUOUS
 10
4.2547870692
 20
3.7146867599
 40
0.2075018355
100
AcDbArc
 50
273.4738446608
 51
276.8657616637
  0
ARC
  5
2A9
100
AcDbEntity
  8
0
100
AcDbCircle
 62
7
  6
CONTINUOUS
 10
4.2458758352
 20
4.0317735732
 40
0.204189472
100
AcDbArc
 50
180.0
 51
232.1657635611
  0
ARC
  5
2AA
100
AcDbEntity
  8
0
100
AcDbCircle
 62
7
  6
CONTINUOUS
 10
4.2139553753
 20
3.9906726997
 40
0.1521491265
100
AcDbArc
 50
232.1657635611
 51
270.0
  0
ARC
  5
2AB
100
AcDbEntity
  8
0
100
AcDbCircle
 62
7
  6
CONTINUOUS
 10
4.2778915561
 20
3.6243495382
 40
0.1156891149
100
AcDbArc
 50
270.8424734928
 51
274.2421131394
  0
ARC
  5
2AC
100
AcDbEntity
  8
0
100
AcDbCircle
 62
7
  6
CONTINUOUS
 10
4.29625334
 20
3.592579814
 40
0.0842865191
100
AcDbArc
 50
267.0770871692
 51
272.450195949
  0
ARC
  5
2AD
100
AcDbEntity
  8
0
100
AcDbCircle
 62
7
  6
CONTINUOUS
 10
4.2962989163
 20
3.4653920884
 40
0.0821909978
100
AcDbArc
 50
87.0843790139
 51
90.1476731436
  0
ARC
  5
2AE
100
AcDbEntity
  8
0
100
AcDbCircle
 62
7
  6
CONTINUOUS
 10
4.296429968
 20
3.4686240468
 40
0.0789565642
100
AcDbArc
 50
86.8554096013
 51
87.0600604719
  0
ARC
  5
2AF
100
AcDbEntity
  8
0
100
AcDbCircle
 62
7
  6
CONTINUOUS
 10
4.3169876351
 20
3.4854245955
 40
0.0689682532
100
AcDbArc
 50
144.799658253
 51
145.1518282754
  0
ARC
  5
2B0
100
AcDbEntity
  8
0
100
AcDbCircle
 62
7
  6
CONTINUOUS
 10
4.0609768916
 20
4.2530488722
 40
0.0592898865
100
AcDbArc
 50
76.0558725575
 51
82.1407997837
  0
ARC
  5
2B1
100
AcDbEntity
  8
ALL_FEATURES
100
AcDbCircle
 62
7
  6
CONTINUOUS
 10
4.2780293292
 20
3.5457349201
 40
0.0268006574
100
AcDbArc
 50
234.7404527235
 51
238.0383327577
  0
ARC
  5
2B2
100
AcDbEntity
  8
ALL_FEATURES
100
AcDbCircle
 62
7
  6
CONTINUOUS
 10
4.2772190562
 20
3.5445761347
 40
0.0253867021
100
AcDbArc
 50
234.5193770884
 51
234.7239311141
  0
ARC
  5
2B3
100
AcDbEntity
  8
0
100
AcDbCircle
 62
7
  6
CONTINUOUS
 10
4.2718067304
 20
3.5283909148
 40
0.0239652108
100
AcDbArc
 50
222.6993624523
 51
223.3693602658
  0
ARC
  5
2B4
100
AcDbEntity
  8
0
100
AcDbCircle
 62
7
  6
CONTINUOUS
 10
3.9770537335
 20
4.3291669043
 40
0.02
100
AcDbArc
 50
68.0555905136
 51
89.857
  0
ARC
  5
2B5
100
AcDbEntity
  8
0
100
AcDbCircle
 62
7
  6
CONTINUOUS
 10
3.829111647
 20
4.329536142
 40
0.02
100
AcDbArc
 50
89.857
 51
113.6084099791
  0
ARC
  5
2B6
100
AcDbEntity
  8
0
100
AcDbCircle
 62
9
  6
CONTINUOUS
 10
3.7472184381
 20
4.3034071785
 40
0.0105758785
100
AcDbArc
 50
102.8231495005
 51
119.9797099431
  0
ARC
  5
2B7
100
AcDbEntity
  8
0
100
AcDbCircle
 62
9
  6
CONTINUOUS
 10
3.7472044653
 20
4.3035045218
 40
0.0104778648
100
AcDbArc
 50
92.0946236936
 51
102.8667875585
  0
ARC
  5
2B8
100
AcDbEntity
  8
0
100
AcDbCircle
 62
7
  6
CONTINUOUS
 10
4.0687485129
 20
4.3029981477
 40
0.0100049645
100
AcDbArc
 50
344.2730576101
 51
35.8050142575
  0
ARC
  5
2B9
100
AcDbEntity
  8
0
100
AcDbCircle
 62
9
  6
CONTINUOUS
 10
3.8291353842
 20
4.3390383617
 40
0.0100000507
100
AcDbArc
 50
108.0097451244
 51
113.6083483203
  0
ARC
  5
2BA
100
AcDbEntity
  8
0
100
AcDbCircle
 62
7
  6
CONTINUOUS
 10
3.7467977171
 20
4.3044731648
 40
0.0099997859
100
AcDbArc
 50
113.6081589033
 51
201.2424711602
  0
ARC
  5
2BB
100
AcDbEntity
  8
0
100
AcDbCircle
 62
7
  6
CONTINUOUS
 10
4.0687522094
 20
4.3030060222
 40
0.0099973861
100
AcDbArc
 50
35.7808073251
 51
49.3542708581
  0
ARC
  5
2BC
100
AcDbEntity
  8
0
100
AcDbCircle
 62
7
  6
CONTINUOUS
 10
4.0687617247
 20
4.3030199662
 40
0.0099806082
100
AcDbArc
 50
49.3435756462
 51
68.0546903562
  0
ARC
  5
2BD
100
AcDbEntity
  8
0
100
AcDbCircle
 62
7
  6
CONTINUOUS
 10
4.3255373436
 20
3.5296635271
 40
0.0088751272
100
AcDbArc
 50
345.6346769254
 51
353.1507486666
  0
ARC
  5
2BE
100
AcDbEntity
  8
0
100
AcDbCircle
 62
9
  6
CONTINUOUS
 10
3.823529346
 20
4.3410368998
 40
0.007341289
100
AcDbArc
 50
77.4021660708
 51
81.1168894437
  0
ARC
  5
2BF
100
AcDbEntity
  8
0
100
AcDbCircle
 62
7
  6
CONTINUOUS
 10
4.3193612374
 20
3.5338463934
 40
0.0065943521
100
AcDbArc
 50
5.4246411546
 51
7.4894285337
  0
ARC
  5
2C0
100
AcDbEntity
  8
0
100
AcDbCircle
 62
7
  6
CONTINUOUS
 10
4.3194420699
 20
3.5338537754
 40
0.0065131838
100
AcDbArc
 50
0.0244523562
 51
5.4272158004
  0
ARC
  5
2C1
100
AcDbEntity
  8
0
100
AcDbCircle
 62
7
  6
CONTINUOUS
 10
5.4019711233
 20
2.4097735732
 40
0.015
100
AcDbArc
 50
180.0
 51
270.0
  0
ARC
  5
2C2
100
AcDbEntity
  8
0
100
AcDbCircle
 62
7
  6
CONTINUOUS
 10
5.3016404147
 20
3.2662302661
 40
0.0098425197
100
AcDbArc
 50
180.0000000785
 51
270.0
  0
ARC
  5
2C3
100
AcDbEntity
  8
0
100
AcDbCircle
 62
7
  6
CONTINUOUS
 10
5.3323836116
 20
4.5093571168
 40
0.4264614432
100
AcDbArc
 50
267.9855100185
 51
269.9996067105
  0
ARC
  5
2C4
100
AcDbEntity
  8
0
100
AcDbCircle
 62
7
  6
CONTINUOUS
 10
5.3016404147
 20
4.0733168803
 40
0.0098425197
100
AcDbArc
 50
90.0
 51
179.9999999215
  0
ARC
  5
2C5
100
AcDbEntity
  8
0
100
AcDbCircle
 62
7
  6
CONTINUOUS
 10
4.8432053753
 20
4.1481594
 40
0.005
100
AcDbArc
 50
0.0
 51
90.0
  0
ARC
  5
2C6
100
AcDbEntity
  8
0
100
AcDbCircle
 62
7
  6
CONTINUOUS
 10
4.6607053753
 20
4.1481594
 40
0.005
100
AcDbArc
 50
90.0
 51
180.0
  0
ARC
  5
2C7
100
AcDbEntity
  8
0
100
AcDbCircle
 62
9
  6
CONTINUOUS
 10
4.0224033312
 20
4.9816322901
 40
0.0116676723
100
AcDbArc
 50
255.7838185237
 51
270.7762112104
  0
ARC
  5
2C8
100
AcDbEntity
  8
0
100
AcDbCircle
 62
7
  6
CONTINUOUS
 10
4.0780049593
 20
4.9452735732
 40
0.01
100
AcDbArc
 50
239.1513562348
 51
270.0
  0
ARC
  5
2C9
100
AcDbEntity
  8
0
100
AcDbCircle
 62
7
  6
CONTINUOUS
 10
4.0225613935
 20
4.9783884025
 40
0.01
100
AcDbArc
 50
182.487738507
 51
239.1513562288
  0
ARC
  5
2CA
100
AcDbEntity
  8
0
100
AcDbCircle
 62
9
  6
CONTINUOUS
 10
4.0743253559
 20
4.9443945096
 40
0.00839322
100
AcDbArc
 50
291.3196303941
 51
296.0019588419
  0
ARC
  5
2CB
100
AcDbEntity
  8
0
100
AcDbCircle
 62
9
  6
CONTINUOUS
 10
3.6620780896
 20
6.4161423026
 40
2.3881380342
100
AcDbArc
 50
273.2839057831
 51
273.4534997281
  0
ARC
  5
2CC
100
AcDbEntity
  8
0
100
AcDbCircle
 62
7
  6
CONTINUOUS
 10
4.014111647
 20
5.904536142
 40
0.02
100
AcDbArc
 50
89.857
 51
113.6084099791
  0
ARC
  5
2CD
100
AcDbEntity
  8
0
100
AcDbCircle
 62
9
  6
CONTINUOUS
 10
3.9322184381
 20
5.8784071785
 40
0.0105758785
100
AcDbArc
 50
102.8231495004
 51
119.9797099431
  0
ARC
  5
2CE
100
AcDbEntity
  8
0
100
AcDbCircle
 62
9
  6
CONTINUOUS
 10
3.9322044653
 20
5.8785045218
 40
0.0104778648
100
AcDbArc
 50
92.0946236936
 51
102.8667875585
  0
ARC
  5
2CF
100
AcDbEntity
  8
0
100
AcDbCircle
 62
9
  6
CONTINUOUS
 10
4.0141353842
 20
5.9140383617
 40
0.0100000507
100
AcDbArc
 50
108.0097451244
 51
113.6083483205
  0
ARC
  5
2D0
100
AcDbEntity
  8
0
100
AcDbCircle
 62
7
  6
CONTINUOUS
 10
3.9317977171
 20
5.8794731648
 40
0.0099997859
100
AcDbArc
 50
113.608158902
 51
201.2424711615
  0
ARC
  5
2D1
100
AcDbEntity
  8
0
100
AcDbCircle
 62
9
  6
CONTINUOUS
 10
4.008529346
 20
5.9160368998
 40
0.007341289
100
AcDbArc
 50
77.4021660711
 51
81.1168894436
  0
ARC
  5
2D2
100
AcDbEntity
  8
0
100
AcDbCircle
 62
7
  6
CONTINUOUS
 10
4.4396189592
 20
5.2908582476
 40
0.2086813795
100
AcDbArc
 50
271.5158417554
 51
273.5004269069
  0
ARC
  5
2D3
100
AcDbEntity
  8
0
100
AcDbCircle
 62
7
  6
CONTINUOUS
 10
4.4397870692
 20
5.2896867599
 40
0.2075018355
100
AcDbArc
 50
273.4738446608
 51
276.8657616638
  0
ARC
  5
2D4
100
AcDbEntity
  8
0
100
AcDbCircle
 62
7
  6
CONTINUOUS
 10
4.4308758352
 20
5.6067735732
 40
0.204189472
100
AcDbArc
 50
180.0
 51
232.1657635611
  0
ARC
  5
2D5
100
AcDbEntity
  8
0
100
AcDbCircle
 62
7
  6
CONTINUOUS
 10
4.3989553753
 20
5.5656726997
 40
0.1521491265
100
AcDbArc
 50
232.1657635611
 51
270.0
  0
ARC
  5
2D6
100
AcDbEntity
  8
0
100
AcDbCircle
 62
9
  6
CONTINUOUS
 10
4.4043808045
 20
4.9268528866
 40
0.1514751897
100
AcDbArc
 50
164.5677614586
 51
166.7256532811
  0
ARC
  5
2D7
100
AcDbEntity
  8
0
100
AcDbCircle
 62
7
  6
CONTINUOUS
 10
4.4043892623
 20
4.9352735732
 40
0.141483887
100
AcDbArc
 50
105.3833633358
 51
166.7256414757
  0
ARC
  5
2D8
100
AcDbEntity
  8
0
100
AcDbCircle
 62
7
  6
CONTINUOUS
 10
4.3989553753
 20
4.9550235732
 40
0.121
100
AcDbArc
 50
90.0000036253
 51
105.3833633358
  0
ARC
  5
2D9
100
AcDbEntity
  8
0
100
AcDbCircle
 62
7
  6
CONTINUOUS
 10
4.4628915561
 20
5.1993495382
 40
0.1156891149
100
AcDbArc
 50
270.8424734929
 51
274.2421131393
  0
ARC
  5
2DA
100
AcDbEntity
  8
0
100
AcDbCircle
 62
7
  6
CONTINUOUS
 10
4.48125334
 20
5.167579814
 40
0.0842865191
100
AcDbArc
 50
267.0770871692
 51
272.450195949
  0
ARC
  5
2DB
100
AcDbEntity
  8
0
100
AcDbCircle
 62
7
  6
CONTINUOUS
 10
4.4812989163
 20
5.0403920884
 40
0.0821909978
100
AcDbArc
 50
87.0843790139
 51
90.1476731436
  0
ARC
  5
2DC
100
AcDbEntity
  8
0
100
AcDbCircle
 62
7
  6
CONTINUOUS
 10
4.481429968
 20
5.0436240468
 40
0.0789565642
100
AcDbArc
 50
86.8554096013
 51
87.0600604719
  0
ARC
  5
2DD
100
AcDbEntity
  8
0
100
AcDbCircle
 62
7
  6
CONTINUOUS
 10
4.5019876349
 20
5.0604245956
 40
0.068968253
100
AcDbArc
 50
144.7996582525
 51
145.1518282758
  0
ARC
  5
2DE
100
AcDbEntity
  8
ALL_FEATURES
100
AcDbCircle
 62
7
  6
CONTINUOUS
 10
4.4630293292
 20
5.1207349201
 40
0.0268006574
100
AcDbArc
 50
234.7404527234
 51
238.0383327578
  0
ARC
  5
2DF
100
AcDbEntity
  8
ALL_FEATURES
100
AcDbCircle
 62
7
  6
CONTINUOUS
 10
4.4622190563
 20
5.1195761348
 40
0.0253867023
100
AcDbArc
 50
234.5193770887
 51
234.7239311131
  0
ARC
  5
2E0
100
AcDbEntity
  8
0
100
AcDbCircle
 62
7
  6
CONTINUOUS
 10
4.4568067304
 20
5.1033909148
 40
0.0239652108
100
AcDbArc
 50
222.6993624526
 51
223.3693602657
  0
ARC
  5
2E1
100
AcDbEntity
  8
0
100
AcDbCircle
 62
9
  6
CONTINUOUS
 10
4.2577439936
 20
4.9730687864
 40
0.0114624186
100
AcDbArc
 50
266.0418244852
 51
277.3187895183
  0
ARC
  5
2E2
100
AcDbEntity
  8
0
100
AcDbCircle
 62
7
  6
CONTINUOUS
 10
4.2022076379
 20
4.9452735732
 40
0.01
100
AcDbArc
 50
270.0
 51
294.3560298279
  0
ARC
  5
2E3
100
AcDbEntity
  8
0
100
AcDbCircle
 62
7
  6
CONTINUOUS
 10
4.2569527628
 20
4.9700564231
 40
0.01
100
AcDbArc
 50
294.3560298352
 51
346.7256414757
  0
ARC
  5
2E4
100
AcDbEntity
  8
0
100
AcDbCircle
 62
7
  6
CONTINUOUS
 10
4.5105373436
 20
5.1046635271
 40
0.0088751272
100
AcDbArc
 50
345.6346769253
 51
353.1507486667
  0
ARC
  5
2E5
100
AcDbEntity
  8
0
100
AcDbCircle
 62
7
  6
CONTINUOUS
 10
4.5043612374
 20
5.1088463934
 40
0.0065943521
100
AcDbArc
 50
5.4246411542
 51
7.4894285334
  0
ARC
  5
2E6
100
AcDbEntity
  8
0
100
AcDbCircle
 62
7
  6
CONTINUOUS
 10
4.5044420699
 20
5.1088537754
 40
0.0065131838
100
AcDbArc
 50
0.0244523562
 51
5.4272158004
  0
ARC
  5
2E7
100
AcDbEntity
  8
0
100
AcDbCircle
 62
7
  6
CONTINUOUS
 10
4.2459768916
 20
5.8280488722
 40
0.0592898865
100
AcDbArc
 50
76.0558725575
 51
82.1407997837
  0
ARC
  5
2E8
100
AcDbEntity
  8
0
100
AcDbCircle
 62
7
  6
CONTINUOUS
 10
4.1620537335
 20
5.9041669043
 40
0.02
100
AcDbArc
 50
68.0555905136
 51
89.857
  0
ARC
  5
2E9
100
AcDbEntity
  8
0
100
AcDbCircle
 62
7
  6
CONTINUOUS
 10
4.2537485129
 20
5.8779981477
 40
0.0100049645
100
AcDbArc
 50
344.2730576101
 51
35.8050142575
  0
ARC
  5
2EA
100
AcDbEntity
  8
0
100
AcDbCircle
 62
7
  6
CONTINUOUS
 10
4.2537522094
 20
5.8780060222
 40
0.0099973861
100
AcDbArc
 50
35.7808073251
 51
49.3542708581
  0
ARC
  5
2EB
100
AcDbEntity
  8
0
100
AcDbCircle
 62
7
  6
CONTINUOUS
 10
4.2537617247
 20
5.8780199662
 40
0.0099806082
100
AcDbArc
 50
49.3435756461
 51
68.0546903563
  0
ARC
  5
2EC
100
AcDbEntity
  8
0
100
AcDbCircle
 62
9
  6
CONTINUOUS
 10
3.8470780896
 20
7.9911423028
 40
2.3881380344
100
AcDbArc
 50
273.2839057831
 51
273.4534997281
  0
ARC
  5
2ED
100
AcDbEntity
  8
0
100
AcDbCircle
 62
7
  6
CONTINUOUS
 10
4.5681866506
 20
5.0029232201
 40
0.1567729143
100
AcDbArc
 50
133.5949457952
 51
134.3858004369
  0
ARC
  5
2EE
100
AcDbEntity
  8
0
100
AcDbCircle
 62
7
  6
CONTINUOUS
 10
4.5652367664
 20
5.0059396174
 40
0.1525538544
100
AcDbArc
 50
134.386478477
 51
134.7020847264
  0
ARC
  5
2EF
100
AcDbEntity
  8
0
100
AcDbCircle
 62
7
  6
CONTINUOUS
 10
5.4019711233
 20
6.5047735732
 40
0.015
100
AcDbArc
 50
90.0
 51
180.0
  0
SPLINE
  5
2F0
100
AcDbEntity
  8
ALL_FEATURES
100
AcDbSpline
 62
7
  6
CONTINUOUS
 70
0
 71
3
 72
23
 73
19
 74
0
 42
0.0000001
 43
0.0000001
 44
0.0000000001
 40
0.0
 40
0.0
 40
0.0
 40
0.0
 40
0.0682425076
 40
0.1366112983
 40
0.2048712134
 40
0.2728281099
 40
0.3402937999
 40
0.4070733756
 40
0.4729760237
 40
0.5378206455
 40
0.6014333989
 40
0.663649565
 40
0.7243148236
 40
0.7832878422
 40
0.8404417394
 40
0.8956670243
 40
0.9488748659
 40
1.0
 40
1.0
 40
1.0
 40
1.0
 10
4.4739006972
 20
5.0930399342
 30
0.0
 10
4.4745755841
 20
5.0930081213
 30
0.0
 10
4.4759277024
 20
5.0929657037
 30
0.0
 10
4.4779563456
 20
5.0929652354
 30
0.0
 10
4.4799812114
 20
5.0930279988
 30
0.0
 10
4.4819941895
 20
5.0931536433
 30
0.0
 10
4.4839875831
 20
5.0933417372
 30
0.0
 10
4.4859537064
 20
5.0935914714
 30
0.0
 10
4.4878848889
 20
5.0939019714
 30
0.0
 10
4.489773643
 20
5.0942719487
 30
0.0
 10
4.4916126502
 20
5.0947000304
 30
0.0
 10
4.4933947962
 20
5.0951845044
 30
0.0
 10
4.4951131558
 20
5.0957235413
 30
0.0
 10
4.4967610725
 20
5.0963150061
 30
0.0
 10
4.4983321323
 20
5.0969566374
 30
0.0
 10
4.4998202771
 20
5.0976459308
 30
0.0
 10
4.5012196951
 20
5.0983802076
 30
0.0
 10
4.5021080032
 20
5.0989086167
 30
0.0
 10
4.5025351723
 20
5.0991801493
 30
0.0
  0
SPLINE
  5
2F1
100
AcDbEntity
  8
ALL_FEATURES
100
AcDbSpline
 62
7
  6
CONTINUOUS
 70
0
 71
3
 72
13
 73
9
 74
0
 42
0.0000001
 43
0.0000001
 44
0.0000000001
 40
0.0
 40
0.0
 40
0.0
 40
0.0
 40
0.2774476687
 40
0.4090493955
 40
0.5359555018
 40
0.6582973991
 40
0.7762640051
 40
1.0
 40
1.0
 40
1.0
 40
1.0
 10
4.5025351723
 20
5.0991801493
 30
0.0
 10
4.5031690139
 20
5.0995830545
 30
0.0
 10
4.5040785766
 20
5.10021871
 30
0.0
 10
4.5051984621
 20
5.1011419932
 30
0.0
 10
4.5059563059
 20
5.1018418291
 30
0.0
 10
4.5066450895
 20
5.1025596129
 30
0.0
 10
4.5074544638
 20
5.1035209064
 30
0.0
 10
4.5079768866
 20
5.104289739
 30
0.0
 10
4.5082747998
 20
5.1048170629
 30
0.0
  0
SPLINE
  5
2F2
100
AcDbEntity
  8
ALL_FEATURES
100
AcDbSpline
 62
7
  6
CONTINUOUS
 70
0
 71
3
 72
11
 73
7
 74
0
 42
0.0000001
 43
0.0000001
 44
0.0000000001
 40
0.0
 40
0.0
 40
0.0
 40
0.0
 40
0.258828218
 40
0.5110394682
 40
0.7577152721
 40
1.0
 40
1.0
 40
1.0
 40
1.0
 10
4.5082747998
 20
5.1048170629
 30
0.0
 10
4.5084062075
 20
5.1050496622
 30
0.0
 10
4.5086490285
 20
5.1055185934
 30
0.0
 10
4.5089535338
 20
5.1062398531
 30
0.0
 10
4.5091924764
 20
5.1069674924
 30
0.0
 10
4.5093085855
 20
5.1074594139
 30
0.0
 10
4.5093551623
 20
5.1077051151
 30
0.0
  0
SPLINE
  5
2F3
100
AcDbEntity
  8
ALL_FEATURES
100
AcDbSpline
 62
7
  6
CONTINUOUS
 70
0
 71
3
 72
16
 73
12
 74
0
 42
0.0000001
 43
0.0000001
 44
0.0000000001
 40
0.0
 40
0.0
 40
0.0
 40
0.0
 40
0.0541394347
 40
0.1097897744
 40
0.2253161029
 40
0.3460413261
 40
0.4712950794
 40
0.6002735363
 40
0.7320632135
 40
0.8656706618
 40
1.0
 40
1.0
 40
1.0
 40
1.0
 10
4.4488423537
 20
5.097997177
 30
0.0
 10
4.4492596667
 20
5.0977919743
 30
0.0
 10
4.4501141206
 20
5.0973922749
 30
0.0
 10
4.4518961663
 20
5.0966364446
 30
0.0
 10
4.4542547907
 20
5.0957797422
 30
0.0
 10
4.4572368623
 20
5.0949073373
 30
0.0
 10
4.4603781661
 20
5.0941882535
 30
0.0
 10
4.463648619
 20
5.0936318121
 30
0.0
 10
4.4670157425
 20
5.0932457949
 30
0.0
 10
4.4704443841
 20
5.0930366783
 30
0.0
 10
4.4727470664
 20
5.0930182447
 30
0.0
 10
4.4739006972
 20
5.0930399342
 30
0.0
  0
SPLINE
  5
2F4
100
AcDbEntity
  8
ALL_FEATURES
100
AcDbSpline
 62
7
  6
CONTINUOUS
 70
0
 71
3
 72
11
 73
7
 74
0
 42
0.0000001
 43
0.0000001
 44
0.0000000001
 40
0.0
 40
0.0
 40
0.0
 40
0.0
 40
0.2580686575
 40
0.5087384363
 40
0.7549945566
 40
1.0
 40
1.0
 40
1.0
 40
1.0
 10
4.5093551623
 20
5.1077051151
 30
0.0
 10
4.5095152575
 20
5.108053123
 30
0.0
 10
4.5097915226
 20
5.1087582583
 30
0.0
 10
4.5100675637
 20
5.1098474862
 30
0.0
 10
4.5101975885
 20
5.1109441643
 30
0.0
 10
4.5101871657
 20
5.1116757734
 30
0.0
 10
4.5101583494
 20
5.1120383059
 30
0.0
  0
LINE
  5
2F5
100
AcDbEntity
  8
ALL_FEATURES
100
AcDbLine
 62
7
  6
CONTINUOUS
 10
4.4457143098
 20
5.1002963744
 11
4.4474839138
 21
5.098903442
  0
SPLINE
  5
2F6
100
AcDbEntity
  8
ALL_FEATURES
100
AcDbSpline
 62
7
  6
CONTINUOUS
 70
0
 71
3
 72
23
 73
19
 74
0
 42
0.0000001
 43
0.0000001
 44
0.0000000001
 40
0.0
 40
0.0
 40
0.0
 40
0.0
 40
0.0682425076
 40
0.1366112983
 40
0.2048712134
 40
0.2728281099
 40
0.3402937999
 40
0.4070733756
 40
0.4729760237
 40
0.5378206455
 40
0.6014333989
 40
0.663649565
 40
0.7243148236
 40
0.7832878422
 40
0.8404417394
 40
0.8956670243
 40
0.9488748659
 40
1.0
 40
1.0
 40
1.0
 40
1.0
 10
4.2889006972
 20
3.5180399342
 30
0.0
 10
4.2895755841
 20
3.5180081213
 30
0.0
 10
4.2909277024
 20
3.5179657037
 30
0.0
 10
4.2929563456
 20
3.5179652354
 30
0.0
 10
4.2949812114
 20
3.5180279988
 30
0.0
 10
4.2969941895
 20
3.5181536433
 30
0.0
 10
4.2989875831
 20
3.5183417372
 30
0.0
 10
4.3009537064
 20
3.5185914714
 30
0.0
 10
4.3028848889
 20
3.5189019714
 30
0.0
 10
4.304773643
 20
3.5192719487
 30
0.0
 10
4.3066126502
 20
3.5197000304
 30
0.0
 10
4.3083947962
 20
3.5201845044
 30
0.0
 10
4.3101131558
 20
3.5207235413
 30
0.0
 10
4.3117610725
 20
3.5213150061
 30
0.0
 10
4.3133321323
 20
3.5219566374
 30
0.0
 10
4.3148202771
 20
3.5226459308
 30
0.0
 10
4.3162196951
 20
3.5233802076
 30
0.0
 10
4.3171080032
 20
3.5239086167
 30
0.0
 10
4.3175351723
 20
3.5241801493
 30
0.0
  0
SPLINE
  5
2F7
100
AcDbEntity
  8
ALL_FEATURES
100
AcDbSpline
 62
7
  6
CONTINUOUS
 70
0
 71
3
 72
13
 73
9
 74
0
 42
0.0000001
 43
0.0000001
 44
0.0000000001
 40
0.0
 40
0.0
 40
0.0
 40
0.0
 40
0.2774476687
 40
0.4090493955
 40
0.5359555018
 40
0.6582973991
 40
0.7762640051
 40
1.0
 40
1.0
 40
1.0
 40
1.0
 10
4.3175351723
 20
3.5241801493
 30
0.0
 10
4.3181690139
 20
3.5245830545
 30
0.0
 10
4.3190785766
 20
3.52521871
 30
0.0
 10
4.3201984621
 20
3.5261419932
 30
0.0
 10
4.3209563059
 20
3.5268418291
 30
0.0
 10
4.3216450895
 20
3.5275596129
 30
0.0
 10
4.3224544638
 20
3.5285209064
 30
0.0
 10
4.3229768866
 20
3.529289739
 30
0.0
 10
4.3232747998
 20
3.5298170629
 30
0.0
  0
SPLINE
  5
2F8
100
AcDbEntity
  8
ALL_FEATURES
100
AcDbSpline
 62
7
  6
CONTINUOUS
 70
0
 71
3
 72
11
 73
7
 74
0
 42
0.0000001
 43
0.0000001
 44
0.0000000001
 40
0.0
 40
0.0
 40
0.0
 40
0.0
 40
0.258828218
 40
0.5110394682
 40
0.7577152721
 40
1.0
 40
1.0
 40
1.0
 40
1.0
 10
4.3232747998
 20
3.5298170629
 30
0.0
 10
4.3234062075
 20
3.5300496622
 30
0.0
 10
4.3236490285
 20
3.5305185934
 30
0.0
 10
4.3239535338
 20
3.5312398531
 30
0.0
 10
4.3241924764
 20
3.5319674924
 30
0.0
 10
4.3243085855
 20
3.5324594139
 30
0.0
 10
4.3243551623
 20
3.5327051151
 30
0.0
  0
SPLINE
  5
2F9
100
AcDbEntity
  8
ALL_FEATURES
100
AcDbSpline
 62
7
  6
CONTINUOUS
 70
0
 71
3
 72
16
 73
12
 74
0
 42
0.0000001
 43
0.0000001
 44
0.0000000001
 40
0.0
 40
0.0
 40
0.0
 40
0.0
 40
0.0541394347
 40
0.1097897744
 40
0.2253161029
 40
0.3460413261
 40
0.4712950794
 40
0.6002735363
 40
0.7320632135
 40
0.8656706618
 40
1.0
 40
1.0
 40
1.0
 40
1.0
 10
4.2638423537
 20
3.522997177
 30
0.0
 10
4.2642596667
 20
3.5227919743
 30
0.0
 10
4.2651141206
 20
3.5223922749
 30
0.0
 10
4.2668961663
 20
3.5216364446
 30
0.0
 10
4.2692547907
 20
3.5207797422
 30
0.0
 10
4.2722368623
 20
3.5199073373
 30
0.0
 10
4.2753781661
 20
3.5191882535
 30
0.0
 10
4.278648619
 20
3.5186318121
 30
0.0
 10
4.2820157425
 20
3.5182457949
 30
0.0
 10
4.2854443841
 20
3.5180366783
 30
0.0
 10
4.2877470664
 20
3.5180182447
 30
0.0
 10
4.2889006972
 20
3.5180399342
 30
0.0
  0
SPLINE
  5
2FA
100
AcDbEntity
  8
ALL_FEATURES
100
AcDbSpline
 62
7
  6
CONTINUOUS
 70
0
 71
3
 72
11
 73
7
 74
0
 42
0.0000001
 43
0.0000001
 44
0.0000000001
 40
0.0
 40
0.0
 40
0.0
 40
0.0
 40
0.2580686575
 40
0.5087384363
 40
0.7549945566
 40
1.0
 40
1.0
 40
1.0
 40
1.0
 10
4.3243551623
 20
3.5327051151
 30
0.0
 10
4.3245152575
 20
3.533053123
 30
0.0
 10
4.3247915226
 20
3.5337582583
 30
0.0
 10
4.3250675637
 20
3.5348474862
 30
0.0
 10
4.3251975885
 20
3.5359441643
 30
0.0
 10
4.3251871657
 20
3.5366757734
 30
0.0
 10
4.3251583494
 20
3.5370383059
 30
0.0
  0
LINE
  5
2FB
100
AcDbEntity
  8
ALL_FEATURES
100
AcDbLine
 62
7
  6
CONTINUOUS
 10
4.2607143098
 20
3.5252963744
 11
4.2624839138
 21
3.523903442
  0
LINE
  5
2FC
100
AcDbEntity
  8
0
100
AcDbLine
 62
7
  6
CONTINUOUS
 10
5.3173901144
 20
4.0831593358
 11
5.3187648214
 21
4.0831131958
  0
SPLINE
  5
2FD
100
AcDbEntity
  8
0
100
AcDbSpline
 62
7
  6
CONTINUOUS
 70
0
 71
3
 72
12
 73
8
 74
0
 42
0.0000001
 43
0.0000001
 44
0.0000000001
 40
0.0
 40
0.0
 40
0.0
 40
0.0
 40
0.2210292138
 40
0.3383542331
 40
0.4605580876
 40
0.7200804491
 40
1.0
 40
1.0
 40
1.0
 40
1.0
 10
4.2593591047
 20
3.5233309414
 30
0.0
 10
4.2597969833
 20
3.5224949594
 30
0.0
 10
4.2605989321
 20
3.5212808283
 30
0.0
 10
4.2618776744
 20
3.519785613
 30
0.0
 10
4.263383913
 20
3.5182755432
 30
0.0
 10
4.2655891642
 20
3.5164961861
 30
0.0
 10
4.2675452148
 20
3.5152705144
 30
0.0
 10
4.2685878131
 20
3.5146862246
 30
0.0
  0
LINE
  5
2FE
100
AcDbEntity
  8
0
100
AcDbLine
 62
7
  6
CONTINUOUS
 10
4.2685878131
 20
3.5146862246
 11
4.2731030858
 21
3.5125210647
  0
LINE
  5
2FF
100
AcDbEntity
  8
0
100
AcDbLine
 62
7
  6
CONTINUOUS
 10
4.2731030858
 20
3.5125210647
 11
4.2781626878
 21
3.5107638842
  0
SPLINE
  5
300
100
AcDbEntity
  8
0
100
AcDbSpline
 62
7
  6
CONTINUOUS
 70
0
 71
3
 72
9
 73
5
 74
0
 42
0.0000001
 43
0.0000001
 44
0.0000000001
 40
0.0
 40
0.0
 40
0.0
 40
0.0
 40
0.4946240348
 40
1.0
 40
1.0
 40
1.0
 40
1.0
 10
4.2781626878
 20
3.5107638842
 30
0.0
 10
4.2795054063
 20
3.5103730132
 30
0.0
 10
4.2822504268
 20
3.5096846474
 30
0.0
 10
4.285035407
 20
3.5091841315
 30
0.0
 10
4.2864492206
 20
3.5089773678
 30
0.0
  0
SPLINE
  5
301
100
AcDbEntity
  8
0
100
AcDbSpline
 62
7
  6
CONTINUOUS
 70
0
 71
3
 72
14
 73
10
 74
0
 42
0.0000001
 43
0.0000001
 44
0.0000000001
 40
0.0
 40
0.0
 40
0.0
 40
0.0
 40
0.2924915274
 40
0.4303847349
 40
0.5612338494
 40
0.6841785192
 40
0.7985205982
 40
0.9038235533
 40
1.0
 40
1.0
 40
1.0
 40
1.0
 10
4.3004336555
 20
3.5474792333
 30
0.0
 10
4.3027043996
 20
3.5473355134
 30
0.0
 10
4.3060397365
 20
3.5469474661
 30
0.0
 10
4.3103138348
 20
3.5460464126
 30
0.0
 10
4.313249677
 20
3.545221657
 30
0.0
 10
4.3159456923
 20
3.5442478896
 30
0.0
 10
4.3183725134
 20
3.5431379501
 30
0.0
 10
4.3205025794
 20
3.541905986
 30
0.0
 10
4.3217672124
 20
3.5409720411
 30
0.0
 10
4.3223361245
 20
3.5404861652
 30
0.0
  0
LINE
  5
302
100
AcDbEntity
  8
0
100
AcDbLine
 62
7
  6
CONTINUOUS
 10
4.3223361245
 20
3.5404861652
 11
4.3235203048
 21
3.5393539217
  0
SPLINE
  5
303
100
AcDbEntity
  8
0
100
AcDbSpline
 62
7
  6
CONTINUOUS
 70
0
 71
3
 72
11
 73
7
 74
0
 42
0.0000001
 43
0.0000001
 44
0.0000000001
 40
0.0
 40
0.0
 40
0.0
 40
0.0
 40
0.2733578691
 40
0.5285624821
 40
0.7691872104
 40
1.0
 40
1.0
 40
1.0
 40
1.0
 10
4.3235203048
 20
3.5393539217
 30
0.0
 10
4.3238486225
 20
3.5389996609
 30
0.0
 10
4.3244451231
 20
3.538277262
 30
0.0
 10
4.325162086
 20
3.5371170017
 30
0.0
 10
4.3256604277
 20
3.5359276888
 30
0.0
 10
4.3258461862
 20
3.5351102753
 30
0.0
 10
4.3258993326
 20
3.5347059228
 30
0.0
  0
LINE
  5
304
100
AcDbEntity
  8
0
100
AcDbLine
 62
7
  6
CONTINUOUS
 10
4.2919552151
 20
3.5084025813
 11
4.2864492206
 21
3.5089773678
  0
LINE
  5
305
100
AcDbEntity
  8
0
100
AcDbLine
 62
7
  6
CONTINUOUS
 10
3.7959870861
 20
4.0312182861
 11
3.7959553753
 21
4.0317735732
  0
SPLINE
  5
306
100
AcDbEntity
  8
0
100
AcDbSpline
 62
7
  6
CONTINUOUS
 70
0
 71
3
 72
11
 73
7
 74
0
 42
0.0000001
 43
0.0000001
 44
0.0000000001
 40
0.0
 40
0.0
 40
0.0
 40
0.0
 40
0.2499990522
 40
0.5000000536
 40
0.750000766
 40
1.0
 40
1.0
 40
1.0
 40
1.0
 10
4.0784158765
 20
4.3003056579
 30
0.0
 10
4.0723344836
 20
4.2784861992
 30
0.0
 10
4.061658845
 20
4.2344172143
 30
0.0
 10
4.0501670537
 20
4.1673915252
 30
0.0
 10
4.0432362202
 20
4.0997418885
 30
0.0
 10
4.0416863632
 20
4.054424685
 30
0.0
 10
4.0416863632
 20
4.0317735732
 30
0.0
  0
SPLINE
  5
307
100
AcDbEntity
  8
0
100
AcDbSpline
 62
7
  6
CONTINUOUS
 70
0
 71
3
 72
12
 73
8
 74
0
 42
0.0000001
 43
0.0000001
 44
0.0000000001
 40
0.0
 40
0.0
 40
0.0
 40
0.0
 40
0.2473993139
 40
0.3719944185
 40
0.4970536537
 40
0.7481568855
 40
1.0
 40
1.0
 40
1.0
 40
1.0
 10
4.0783789534
 20
4.3002862659
 30
0.0
 10
4.0722933098
 20
4.2787123482
 30
0.0
 10
4.0642913626
 20
4.2459337588
 30
0.0
 10
4.055898574
 20
4.2016804615
 30
0.0
 10
4.0489861593
 20
4.1568299986
 30
0.0
 10
4.0432197782
 20
4.10017609
 30
0.0
 10
4.0416863649
 20
4.0545920273
 30
0.0
 10
4.0416863632
 20
4.0317735732
 30
0.0
  0
SPLINE
  5
308
100
AcDbEntity
  8
0
100
AcDbSpline
 62
7
  6
CONTINUOUS
 70
0
 71
3
 72
11
 73
7
 74
0
 42
0.0000001
 43
0.0000001
 44
0.0000000001
 40
0.0
 40
0.0
 40
0.0
 40
0.0
 40
0.2517110909
 40
0.5027036943
 40
0.7523473146
 40
1.0
 40
1.0
 40
1.0
 40
1.0
 10
3.7959553753
 20
4.0317735732
 30
0.0
 10
3.794567482
 20
4.0547980773
 30
0.0
 10
3.7900532732
 20
4.1006956205
 30
0.0
 10
3.7780794235
 20
4.1686579089
 30
0.0
 10
3.7609959473
 20
4.2351359461
 30
0.0
 10
3.7462225952
 20
4.278304945
 30
0.0
 10
3.7380250203
 20
4.2994670624
 30
0.0
  0
SPLINE
  5
309
100
AcDbEntity
  8
0
100
AcDbSpline
 62
7
  6
CONTINUOUS
 70
0
 71
3
 72
8
 73
4
 74
0
 42
0.0000001
 43
0.0000001
 44
0.0000000001
 40
0.0
 40
0.0
 40
0.0
 40
0.0
 40
1.0
 40
1.0
 40
1.0
 40
1.0
 10
4.3699553753
 20
3.5072735732
 30
0.0
 10
4.3179136586
 20
3.5072735732
 30
0.0
 10
4.265997092
 20
3.5010235732
 30
0.0
 10
4.2139553753
 20
3.5010235732
 30
0.0
  0
SPLINE
  5
30A
100
AcDbEntity
  8
0
100
AcDbSpline
 62
7
  6
CONTINUOUS
 70
0
 71
3
 72
8
 73
4
 74
0
 42
0.0000001
 43
0.0000001
 44
0.0000000001
 40
0.0
 40
0.0
 40
0.0
 40
0.0
 40
1.0
 40
1.0
 40
1.0
 40
1.0
 10
4.3699553753
 20
3.8322735732
 30
0.0
 10
4.3179136586
 20
3.8322735732
 30
0.0
 10
4.265997092
 20
3.8385235732
 30
0.0
 10
4.2139553753
 20
3.8385235732
 30
0.0
  0
SPLINE
  5
30B
100
AcDbEntity
  8
0
100
AcDbSpline
 62
7
  6
CONTINUOUS
 70
0
 71
3
 72
11
 73
7
 74
0
 42
0.0000001
 43
0.0000001
 44
0.0000000001
 40
0.0
 40
0.0
 40
0.0
 40
0.0
 40
0.2787800506
 40
0.5386061597
 40
0.7787536549
 40
1.0
 40
1.0
 40
1.0
 40
1.0
 10
4.3244564753
 20
3.5417813335
 30
0.0
 10
4.3254603907
 20
3.5411429817
 30
0.0
 10
4.3273340106
 20
3.539800971
 30
0.0
 10
4.3297856887
 20
3.5375439829
 30
0.0
 10
4.3317517951
 20
3.5351630382
 30
0.0
 10
4.3327612474
 20
3.5334596983
 30
0.0
 10
4.3331649477
 20
3.5326061995
 30
0.0
  0
SPLINE
  5
30C
100
AcDbEntity
  8
0
100
AcDbSpline
 62
7
  6
CONTINUOUS
 70
0
 71
3
 72
10
 73
6
 74
0
 42
0.0000001
 43
0.0000001
 44
0.0000000001
 40
0.0
 40
0.0
 40
0.0
 40
0.0
 40
0.5164315146
 40
0.7614205882
 40
1.0
 40
1.0
 40
1.0
 40
1.0
 10
4.3331649477
 20
3.5326061995
 30
0.0
 10
4.3335609297
 20
3.5317690187
 30
0.0
 10
4.334033981
 20
3.5304740905
 30
0.0
 10
4.3343561161
 20
3.5287069791
 30
0.0
 10
4.3344101669
 20
3.5278388613
 30
0.0
 10
4.3344101777
 20
3.5274110215
 30
0.0
  0
SPLINE
  5
30D
100
AcDbEntity
  8
0
100
AcDbSpline
 62
7
  6
CONTINUOUS
 70
0
 71
3
 72
10
 73
6
 74
0
 42
0.0000001
 43
0.0000001
 44
0.0000000001
 40
0.0
 40
0.0
 40
0.0
 40
0.0
 40
0.2486299227
 40
0.4996579277
 40
1.0
 40
1.0
 40
1.0
 40
1.0
 10
4.2750830002
 20
3.5414632898
 30
0.0
 10
4.2767225074
 20
3.5422548864
 30
0.0
 10
4.2800814543
 20
3.5437182757
 30
0.0
 10
4.2870127744
 20
3.5460927722
 30
0.0
 10
4.292443041
 20
3.5472029487
 30
0.0
 10
4.2960870789
 20
3.5475828132
 30
0.0
  0
SPLINE
  5
30E
100
AcDbEntity
  8
0
100
AcDbSpline
 62
7
  6
CONTINUOUS
 70
0
 71
3
 72
14
 73
10
 74
0
 42
0.0000001
 43
0.0000001
 44
0.0000000001
 40
0.0
 40
0.0
 40
0.0
 40
0.0
 40
0.180018098
 40
0.285829302
 40
0.4034282876
 40
0.5334908046
 40
0.67636527
 40
0.832010104
 40
1.0
 40
1.0
 40
1.0
 40
1.0
 10
4.2537904934
 20
3.5092061174
 30
0.0
 10
4.253843849
 20
3.5102347662
 30
0.0
 10
4.2540906296
 20
3.5118623048
 30
0.0
 10
4.2547071859
 20
3.5140880802
 30
0.0
 10
4.2553976752
 20
3.5159913881
 30
0.0
 10
4.2563068705
 20
3.5180343539
 30
0.0
 10
4.2574440665
 20
3.5202086796
 30
0.0
 10
4.2588120562
 20
3.5225021348
 30
0.0
 10
4.259838289
 20
3.5240444763
 30
0.0
 10
4.2603875216
 20
3.5248333141
 30
0.0
  0
SPLINE
  5
30F
100
AcDbEntity
  8
0
100
AcDbSpline
 62
7
  6
CONTINUOUS
 70
0
 71
3
 72
11
 73
7
 74
0
 42
0.0000001
 43
0.0000001
 44
0.0000000001
 40
0.0
 40
0.0
 40
0.0
 40
0.0
 40
0.2269797805
 40
0.4709698031
 40
0.7294385363
 40
1.0
 40
1.0
 40
1.0
 40
1.0
 10
4.2606308159
 20
3.5251804615
 30
0.0
 10
4.2614506705
 20
3.5263427157
 30
0.0
 10
4.2632249996
 20
3.5287031573
 30
0.0
 10
4.2661496433
 20
3.5322178062
 30
0.0
 10
4.2694046097
 20
3.5358068797
 30
0.0
 10
4.2717221953
 20
3.538178317
 30
0.0
 10
4.2729272479
 20
3.5393709124
 30
0.0
  0
SPLINE
  5
310
100
AcDbEntity
  8
0
100
AcDbSpline
 62
7
  6
CONTINUOUS
 70
0
 71
3
 72
9
 73
5
 74
0
 42
0.0000001
 43
0.0000001
 44
0.0000000001
 40
0.0
 40
0.0
 40
0.0
 40
0.0
 40
0.4862955742
 40
1.0
 40
1.0
 40
1.0
 40
1.0
 10
4.2705031888
 20
3.5119892273
 30
0.0
 10
4.271914227
 20
3.5113002549
 30
0.0
 10
4.2748988884
 20
3.5100502964
 30
0.0
 10
4.2779884346
 20
3.5090950778
 30
0.0
 10
4.2795925802
 20
3.5086729293
 30
0.0
  0
SPLINE
  5
311
100
AcDbEntity
  8
0
100
AcDbSpline
 62
7
  6
CONTINUOUS
 70
0
 71
3
 72
14
 73
10
 74
0
 42
0.0000001
 43
0.0000001
 44
0.0000000001
 40
0.0
 40
0.0
 40
0.0
 40
0.0
 40
0.1460264671
 40
0.286354122
 40
0.5481142619
 40
0.6695524607
 40
0.7849708611
 40
0.8948719094
 40
1.0
 40
1.0
 40
1.0
 40
1.0
 10
4.2705031888
 20
3.5119892273
 30
0.0
 10
4.2698005199
 20
3.5123323218
 30
0.0
 10
4.2684416203
 20
3.5130456524
 30
0.0
 10
4.2659346383
 20
3.5145737802
 30
0.0
 10
4.2636913813
 20
3.5162783286
 30
0.0
 10
4.2617957991
 20
3.5181633958
 30
0.0
 10
4.2606088589
 20
3.5195956863
 30
0.0
 10
4.2596304097
 20
3.521074274
 30
0.0
 10
4.2591110764
 20
3.5221058727
 30
0.0
 10
4.2588913196
 20
3.5226241587
 30
0.0
  0
SPLINE
  5
312
100
AcDbEntity
  8
0
100
AcDbSpline
 62
9
  6
CONTINUOUS
 70
0
 71
3
 72
11
 73
7
 74
0
 42
0.0000001
 43
0.0000001
 44
0.0000000001
 40
0.0
 40
0.0
 40
0.0
 40
0.0
 40
0.2386931097
 40
0.4820547891
 40
0.7345502378
 40
1.0
 40
1.0
 40
1.0
 40
1.0
 10
3.8291615634
 20
4.3495360797
 30
0.0
 10
3.8288978116
 20
4.3495367319
 30
0.0
 10
3.828364124
 20
4.3494955401
 30
0.0
 10
3.8275715182
 20
4.3493071375
 30
0.0
 10
3.8267881372
 20
4.3489929851
 30
0.0
 10
3.8262892816
 20
4.3487086599
 30
0.0
 10
3.8260435821
 20
4.3485484494
 30
0.0
  0
SPLINE
  5
313
100
AcDbEntity
  8
0
100
AcDbSpline
 62
9
  6
CONTINUOUS
 70
0
 71
3
 72
13
 73
9
 74
0
 42
0.0000001
 43
0.0000001
 44
0.0000000001
 40
0.0
 40
0.0
 40
0.0
 40
0.0
 40
0.1083698253
 40
0.2188401635
 40
0.3330275098
 40
0.4523905693
 40
0.7108782887
 40
1.0
 40
1.0
 40
1.0
 40
1.0
 10
4.0760768171
 20
3.3859464189
 30
0.0
 10
4.0759335405
 20
3.3858815583
 30
0.0
 10
4.0756329843
 20
3.3857740298
 30
0.0
 10
4.0751561704
 20
3.3856845785
 30
0.0
 10
4.0746554185
 20
3.3856669121
 30
0.0
 10
4.0739432203
 20
3.3857413138
 30
0.0
 10
4.0730089452
 20
3.3860271255
 30
0.0
 10
4.0723058718
 20
3.3864070532
 30
0.0
 10
4.0719527628
 20
3.3866337091
 30
0.0
  0
SPLINE
  5
314
100
AcDbEntity
  8
0
100
AcDbSpline
 62
7
  6
CONTINUOUS
 70
0
 71
3
 72
15
 73
11
 74
0
 42
0.0000001
 43
0.0000001
 44
0.0000000001
 40
0.0
 40
0.0
 40
0.0
 40
0.0
 40
0.0998592987
 40
0.2028473288
 40
0.3117099433
 40
0.4286562876
 40
0.5552356
 40
0.6923849165
 40
0.8406193464
 40
1.0
 40
1.0
 40
1.0
 40
1.0
 10
4.325955253
 20
3.5338565551
 30
0.0
 10
4.3259553842
 20
3.533416347
 30
0.0
 10
4.3258628236
 20
3.532519611
 30
0.0
 10
4.3254513717
 20
3.5312002697
 30
0.0
 10
4.3247750054
 20
3.5299103057
 30
0.0
 10
4.323840718
 20
3.5286622021
 30
0.0
 10
4.3226585475
 20
3.527464981
 30
0.0
 10
4.321238659
 20
3.5263271051
 30
0.0
 10
4.3195912077
 20
3.525259033
 30
0.0
 10
4.3183923627
 20
3.5246216065
 30
0.0
 10
4.3177603502
 20
3.5243146863
 30
0.0
  0
SPLINE
  5
315
100
AcDbEntity
  8
0
100
AcDbSpline
 62
9
  6
CONTINUOUS
 70
0
 71
3
 72
11
 73
7
 74
0
 42
0.0000001
 43
0.0000001
 44
0.0000000001
 40
0.0
 40
0.0
 40
0.0
 40
0.0
 40
0.2500024734
 40
0.5000030442
 40
0.7500020918
 40
1.0
 40
1.0
 40
1.0
 40
1.0
 10
4.2139553753
 20
3.6260234143
 30
0.0
 10
4.2086323324
 20
3.624524017
 30
0.0
 10
4.1980956796
 20
3.6211195153
 30
0.0
 10
4.182733308
 20
3.6148128787
 30
0.0
 10
4.1679083523
 20
3.6073293159
 30
0.0
 10
4.1584472859
 20
3.6015741921
 30
0.0
 10
4.1538415112
 20
3.5985133588
 30
0.0
  0
SPLINE
  5
316
100
AcDbEntity
  8
0
100
AcDbSpline
 62
9
  6
CONTINUOUS
 70
0
 71
3
 72
30
 73
26
 74
0
 42
0.0000001
 43
0.0000001
 44
0.0000000001
 40
0.0
 40
0.0
 40
0.0
 40
0.0
 40
0.0624926072
 40
0.1249865198
 40
0.1874817496
 40
0.2499780283
 40
0.3124752751
 40
0.3749733903
 40
0.4374723763
 40
0.4999722029
 40
0.5624729785
 40
0.6249746403
 40
0.6874766638
 40
0.7499787875
 40
0.7812317704
 40
0.8124845719
 40
0.8437372291
 40
0.8749897755
 40
0.9062422996
 40
0.9218686032
 40
0.9374949211
 40
0.9531212182
 40
0.968747521
 40
0.9843737533
 40
1.0
 40
1.0
 40
1.0
 40
1.0
 10
4.1538415112
 20
3.5985133588
 30
0.0
 10
4.1500164927
 20
3.5959714105
 30
0.0
 10
4.1425840431
 20
3.5905518182
 30
0.0
 10
4.1321529363
 20
3.5815281984
 30
0.0
 10
4.122472687
 20
3.5717031973
 30
0.0
 10
4.1135731212
 20
3.5611672549
 30
0.0
 10
4.1054743911
 20
3.5500047605
 30
0.0
 10
4.0981891155
 20
3.5382959341
 30
0.0
 10
4.0917215689
 20
3.5261170762
 30
0.0
 10
4.0860668124
 20
3.5135409518
 30
0.0
 10
4.0812105544
 20
3.5006362024
 30
0.0
 10
4.0771283128
 20
3.487466945
 30
0.0
 10
4.0737814061
 20
3.4740930308
 30
0.0
 10
4.0715614325
 20
3.4628213725
 30
0.0
 10
4.0700928182
 20
3.4537520367
 30
0.0
 10
4.0691338035
 20
3.4469282191
 30
0.0
 10
4.0683046745
 20
3.4400875673
 30
0.0
 10
4.0675917966
 20
3.4332339315
 30
0.0
 10
4.0670798445
 20
3.427514683
 30
0.0
 10
4.0667125946
 20
3.4229358163
 30
0.0
 10
4.0664543945
 20
3.4195003228
 30
0.0
 10
4.0662108036
 20
3.416063767
 30
0.0
 10
4.0659868763
 20
3.41262585
 30
0.0
 10
4.0657585898
 20
3.4091883818
 30
0.0
 10
4.0656360257
 20
3.4068944367
 30
0.0
 10
4.065602052
 20
3.4057465539
 30
0.0
  0
SPLINE
  5
317
100
AcDbEntity
  8
0
100
AcDbSpline
 62
9
  6
CONTINUOUS
 70
0
 71
3
 72
15
 73
11
 74
0
 42
0.0000001
 43
0.0000001
 44
0.0000000001
 40
0.0
 40
0.0
 40
0.0
 40
0.0
 40
0.1250076594
 40
0.2500122273
 40
0.3750139242
 40
0.5000132734
 40
0.6250109493
 40
0.7500075943
 40
0.8750037953
 40
1.0
 40
1.0
 40
1.0
 40
1.0
 10
4.0271863488
 20
4.0317735732
 30
0.0
 10
4.0271842016
 20
4.0226159484
 30
0.0
 10
4.0276517713
 20
4.004296278
 30
0.0
 10
4.0299410652
 20
3.9769031893
 30
0.0
 10
4.0339700444
 20
3.9497081297
 30
0.0
 10
4.0398543051
 20
3.9228512168
 30
0.0
 10
4.0476678849
 20
3.8964890439
 30
0.0
 10
4.0574443231
 20
3.870788004
 30
0.0
 10
4.0691790968
 20
3.845920727
 30
0.0
 10
4.0782876437
 20
3.8300066109
 30
0.0
 10
4.0831502128
 20
3.8222476064
 30
0.0
  0
SPLINE
  5
318
100
AcDbEntity
  8
0
100
AcDbSpline
 62
9
  6
CONTINUOUS
 70
0
 71
3
 72
17
 73
13
 74
0
 42
0.0000001
 43
0.0000001
 44
0.0000000001
 40
0.0
 40
0.0
 40
0.0
 40
0.0
 40
0.1250019786
 40
0.2500022155
 40
0.3749996133
 40
0.4375103864
 40
0.5000210143
 40
0.6250123703
 40
0.7500004875
 40
0.8125102563
 40
0.8750199292
 40
1.0
 40
1.0
 40
1.0
 40
1.0
 10
4.0831502128
 20
3.8222476064
 30
0.0
 10
4.0869863919
 20
3.8161264797
 30
0.0
 10
4.0950729396
 20
3.804137114
 30
0.0
 10
4.1084753659
 20
3.7870829808
 30
0.0
 10
4.1207125755
 20
3.7737724757
 30
0.0
 10
4.1311243403
 20
3.7637494124
 30
0.0
 10
4.1419434205
 20
3.7541679163
 30
0.0
 10
4.1562167446
 20
3.743065827
 30
0.0
 10
4.1714191873
 20
3.7332699253
 30
0.0
 10
4.1840817834
 20
3.7263023756
 30
0.0
 10
4.1970576442
 20
3.7199413847
 30
0.0
 10
4.2071281585
 20
3.7158805524
 30
0.0
 10
4.2139553753
 20
3.7135235874
 30
0.0
  0
LINE
  5
319
100
AcDbEntity
  8
0
100
AcDbLine
 62
9
  6
CONTINUOUS
 10
3.8059682712
 20
4.0317734842
 11
3.8059384943
 21
4.0323287915
  0
SPLINE
  5
31A
100
AcDbEntity
  8
0
100
AcDbSpline
 62
9
  6
CONTINUOUS
 70
0
 71
3
 72
12
 73
8
 74
0
 42
0.0000001
 43
0.0000001
 44
0.0000000001
 40
0.0
 40
0.0
 40
0.0
 40
0.0
 40
0.2516932337
 40
0.502683663
 40
0.6277364382
 40
0.7523679212
 40
1.0
 40
1.0
 40
1.0
 40
1.0
 10
3.8059366167
 20
4.0323286903
 30
0.0
 10
3.8044755217
 20
4.0554292696
 30
0.0
 10
3.799824679
 20
4.1014742684
 30
0.0
 10
3.7896889825
 20
4.1583653498
 30
0.0
 10
3.7790183853
 20
4.2031669896
 30
0.0
 10
3.7667092107
 20
4.2472227965
 30
0.0
 10
3.755574571
 20
4.2796455711
 30
0.0
 10
3.7473239702
 20
4.300871709
 30
0.0
  0
LINE
  5
31B
100
AcDbEntity
  8
0
100
AcDbLine
 62
9
  6
CONTINUOUS
 10
3.7473239702
 20
4.300871709
 11
4.0639668017
 21
4.3000907897
  0
SPLINE
  5
31C
100
AcDbEntity
  8
0
100
AcDbSpline
 62
9
  6
CONTINUOUS
 70
0
 71
3
 72
12
 73
8
 74
0
 42
0.0000001
 43
0.0000001
 44
0.0000000001
 40
0.0
 40
0.0
 40
0.0
 40
0.0
 40
0.247467677
 40
0.372071969
 40
0.4971284625
 40
0.748202226
 40
1.0
 40
1.0
 40
1.0
 40
1.0
 10
4.0639668017
 20
4.3000907897
 30
0.0
 10
4.0578450452
 20
4.2785353737
 30
0.0
 10
4.0498070146
 20
4.2457792657
 30
0.0
 10
4.041392014
 20
4.2015521629
 30
0.0
 10
4.0344715598
 20
4.1567338888
 30
0.0
 10
4.0287121007
 20
4.1001220655
 30
0.0
 10
4.0271861139
 20
4.0545735101
 30
0.0
 10
4.0271863507
 20
4.0317735732
 30
0.0
  0
LINE
  5
31D
100
AcDbEntity
  8
0
100
AcDbLine
 62
9
  6
CONTINUOUS
 10
3.7380250203
 20
4.2994670624
 11
3.7374772204
 21
4.3008500317
  0
LINE
  5
31E
100
AcDbEntity
  8
0
100
AcDbLine
 62
9
  6
CONTINUOUS
 10
3.9786710153
 20
4.3481675178
 11
3.9789636376
 21
4.3480576871
  0
LINE
  5
31F
100
AcDbEntity
  8
0
100
AcDbLine
 62
9
  6
CONTINUOUS
 10
4.0690841426
 20
4.3117818536
 11
3.9838701232
 21
4.3460829657
  0
LINE
  5
320
100
AcDbEntity
  8
0
100
AcDbLine
 62
9
  6
CONTINUOUS
 10
3.9838701232
 20
4.3460829657
 11
3.9789636376
 21
4.3480576871
  0
LINE
  5
321
100
AcDbEntity
  8
0
100
AcDbLine
 62
9
  6
CONTINUOUS
 10
3.7473715098
 20
4.3125866748
 11
4.0690841426
 21
4.3117818536
  0
LINE
  5
322
100
AcDbEntity
  8
0
100
AcDbLine
 62
9
  6
CONTINUOUS
 10
3.7473715098
 20
4.3125866748
 11
3.7468214979
 21
4.3139753843
  0
SPLINE
  5
323
100
AcDbEntity
  8
0
100
AcDbSpline
 62
9
  6
CONTINUOUS
 70
0
 71
3
 72
17
 73
13
 74
0
 42
0.0000001
 43
0.0000001
 44
0.0000000001
 40
0.0
 40
0.0
 40
0.0
 40
0.0
 40
0.0450334192
 40
0.0896531245
 40
0.1348496738
 40
0.1816000833
 40
0.28287955
 40
0.3985815022
 40
0.5303329682
 40
0.6770464042
 40
0.8355067141
 40
1.0
 40
1.0
 40
1.0
 40
1.0
 10
4.0733669268
 20
3.3921602137
 30
0.0
 10
4.0734090414
 20
3.3923129116
 30
0.0
 10
4.0734658807
 20
3.392625211
 30
0.0
 10
4.0734629173
 20
3.3931021491
 30
0.0
 10
4.0733708809
 20
3.3935763773
 30
0.0
 10
4.0731245925
 20
3.3942131915
 30
0.0
 10
4.0725781948
 20
3.394981012
 30
0.0
 10
4.0716294451
 20
3.3957736299
 30
0.0
 10
4.0704032571
 20
3.3964367981
 30
0.0
 10
4.0689447924
 20
3.3969395785
 30
0.0
 10
4.0673179037
 20
3.3972526729
 30
0.0
 10
4.0661806351
 20
3.3973236196
 30
0.0
 10
4.0656020515
 20
3.3973236758
 30
0.0
  0
LINE
  5
324
100
AcDbEntity
  8
0
100
AcDbLine
 62
9
  6
CONTINUOUS
 10
3.7473239704
 20
4.3008717091
 11
3.7473715099
 21
4.3125866748
  0
SPLINE
  5
325
100
AcDbEntity
  8
0
100
AcDbSpline
 62
7
  6
CONTINUOUS
 70
0
 71
3
 72
11
 73
7
 74
0
 42
0.0000001
 43
0.0000001
 44
0.0000000001
 40
0.0
 40
0.0
 40
0.0
 40
0.0
 40
0.2383675674
 40
0.4891341873
 40
0.7445728507
 40
1.0
 40
1.0
 40
1.0
 40
1.0
 10
4.076862686
 20
4.3088513535
 30
0.0
 10
4.075857781
 20
4.3081267484
 30
0.0
 10
4.073787814
 20
4.306650726
 30
0.0
 10
4.070606916
 20
4.3044464234
 30
0.0
 10
4.0673195296
 20
4.3022408744
 30
0.0
 10
4.0650892748
 20
4.3007996628
 30
0.0
 10
4.0639668017
 20
4.3000907897
 30
0.0
  0
LINE
  5
326
100
AcDbEntity
  8
0
100
AcDbLine
 62
9
  6
CONTINUOUS
 10
4.2139553002
 20
3.8385235735
 11
4.2139622539
 21
3.713521197
  0
SPLINE
  5
327
100
AcDbEntity
  8
0
100
AcDbSpline
 62
9
  6
CONTINUOUS
 70
0
 71
3
 72
30
 73
26
 74
0
 42
0.0000001
 43
0.0000001
 44
0.0000000001
 40
0.0
 40
0.0
 40
0.0
 40
0.0
 40
0.0917287156
 40
0.182652522
 40
0.271722297
 40
0.3580804313
 40
0.4409291568
 40
0.5194983974
 40
0.5930682086
 40
0.6610421787
 40
0.722924598
 40
0.7514825995
 40
0.7784111247
 40
0.8036990574
 40
0.8273614399
 40
0.8494335995
 40
0.8699738143
 40
0.8890736188
 40
0.9068730405
 40
0.9235582258
 40
0.9393653423
 40
0.9545822734
 40
0.9695345396
 40
0.9845625949
 40
1.0
 40
1.0
 40
1.0
 40
1.0
 10
4.0831502128
 20
3.8222476064
 30
0.0
 10
4.0848693862
 20
3.8233250173
 30
0.0
 10
4.088256094
 20
3.8255293462
 30
0.0
 10
4.0931787042
 20
3.8289793384
 30
0.0
 10
4.0978805139
 20
3.8325311438
 30
0.0
 10
4.102308262
 20
3.8361430018
 30
0.0
 10
4.1064134746
 20
3.8397761084
 30
0.0
 10
4.1101521373
 20
3.8433894239
 30
0.0
 10
4.1134822326
 20
3.8469440993
 30
0.0
 10
4.1163682227
 20
3.8503995183
 30
0.0
 10
4.1184293415
 20
3.8532377006
 30
0.0
 10
4.1198180188
 20
3.8554319786
 30
0.0
 10
4.1207019996
 20
3.8569854189
 30
0.0
 10
4.1214538961
 20
3.8584868706
 30
0.0
 10
4.1220719962
 20
3.8599322271
 30
0.0
 10
4.1225548172
 20
3.8613177171
 30
0.0
 10
4.1229008465
 20
3.8626398106
 30
0.0
 10
4.1231083538
 20
3.8638953099
 30
0.0
 10
4.1231765761
 20
3.8650811031
 30
0.0
 10
4.1231045991
 20
3.8661942744
 30
0.0
 10
4.1228911877
 20
3.8672315573
 30
0.0
 10
4.1225352149
 20
3.8681886521
 30
0.0
 10
4.122038338
 20
3.8690612721
 30
0.0
 10
4.1214034195
 20
3.8698451483
 30
0.0
 10
4.120899955
 20
3.8702976108
 30
0.0
 10
4.1206302822
 20
3.8705070487
 30
0.0
  0
LINE
  5
328
100
AcDbEntity
  8
0
100
AcDbLine
 62
9
  6
CONTINUOUS
 10
3.9789636487
 20
4.3480576827
 11
3.9808866637
 21
4.3483300734
  0
SPLINE
  5
329
100
AcDbEntity
  8
0
100
AcDbSpline
 62
9
  6
CONTINUOUS
 70
0
 71
3
 72
9
 73
5
 74
0
 42
0.0000001
 43
0.0000001
 44
0.0000000001
 40
0.0
 40
0.0
 40
0.0
 40
0.0
 40
0.5048846645
 40
1.0
 40
1.0
 40
1.0
 40
1.0
 10
3.9808866637
 20
4.3483300734
 30
0.0
 10
3.9815110667
 20
4.3483561452
 30
0.0
 10
3.9827568763
 20
4.3482840603
 30
0.0
 10
3.9839594183
 20
4.3479468697
 30
0.0
 10
3.9845278696
 20
4.3477178418
 30
0.0
  0
SPLINE
  5
32A
100
AcDbEntity
  8
0
100
AcDbSpline
 62
9
  6
CONTINUOUS
 70
0
 71
3
 72
22
 73
18
 74
0
 42
0.0000001
 43
0.0000001
 44
0.0000000001
 40
0.0
 40
0.0
 40
0.0
 40
0.0
 40
0.035108683
 40
0.069943603
 40
0.1065037343
 40
0.1465162931
 40
0.168240458
 40
0.1912426477
 40
0.2413365505
 40
0.2970982687
 40
0.3585051328
 40
0.4253473659
 40
0.4972097262
 40
0.5735974541
 40
0.6539255715
 40
0.8237112337
 40
1.0
 40
1.0
 40
1.0
 40
1.0
 10
4.0830063815
 20
3.3979219101
 30
0.0
 10
4.0830712841
 20
3.3981570536
 30
0.0
 10
4.0831430424
 20
3.3986443713
 30
0.0
 10
4.0830490961
 20
3.399387078
 30
0.0
 10
4.0827549971
 20
3.4001113708
 30
0.0
 10
4.0823620713
 20
3.4006756699
 30
0.0
 10
4.0819666793
 20
3.4011124631
 30
0.0
 10
4.0814873346
 20
3.4015653434
 30
0.0
 10
4.080773216
 20
3.4021095133
 30
0.0
 10
4.0797770784
 20
3.4027112995
 30
0.0
 10
4.0786278949
 20
3.403274792
 30
0.0
 10
4.0773371296
 20
3.4037943682
 30
0.0
 10
4.0759178184
 20
3.4042650431
 30
0.0
 10
4.0743842764
 20
3.4046808465
 30
0.0
 10
4.0721669411
 20
3.4051639356
 30
0.0
 10
4.0692304491
 20
3.4055871087
 30
0.0
 10
4.0668267551
 20
3.4057276111
 30
0.0
 10
4.0656020477
 20
3.4057468844
 30
0.0
  0
SPLINE
  5
32B
100
AcDbEntity
  8
0
100
AcDbSpline
 62
9
  6
CONTINUOUS
 70
0
 71
3
 72
31
 73
27
 74
0
 42
0.0000001
 43
0.0000001
 44
0.0000000001
 40
0.0
 40
0.0
 40
0.0
 40
0.0
 40
0.0925001464
 40
0.1841592669
 40
0.2739603491
 40
0.3610564175
 40
0.444630366
 40
0.5238840988
 40
0.5981015113
 40
0.6666492497
 40
0.6986363391
 40
0.7290215556
 40
0.7577604546
 40
0.7848257045
 40
0.8102003653
 40
0.8338806556
 40
0.8558882007
 40
0.8762707778
 40
0.895103305
 40
0.9125003939
 40
0.928631375
 40
0.943720418
 40
0.9580513621
 40
0.9719622884
 40
0.9858215432
 40
1.0
 40
1.0
 40
1.0
 40
1.0
 10
4.1538415112
 20
3.5985133588
 30
0.0
 10
4.1557770162
 20
3.5956008613
 30
0.0
 10
4.1595405059
 20
3.5897420076
 30
0.0
 10
4.1648644196
 20
3.5808561
 30
0.0
 10
4.1697992592
 20
3.5719811729
 30
0.0
 10
4.1742911876
 20
3.5632160174
 30
0.0
 10
4.1782928605
 20
3.5546544068
 30
0.0
 10
4.1817611917
 20
3.546388345
 30
0.0
 10
4.184659487
 20
3.538507971
 30
0.0
 10
4.1866172403
 20
3.5321940044
 30
0.0
 10
4.1878582979
 20
3.5274018634
 30
0.0
 10
4.1886073233
 20
3.5240390466
 30
0.0
 10
4.1891940877
 20
3.5208330289
 30
0.0
 10
4.1896174598
 20
3.5177923464
 30
0.0
 10
4.1898764311
 20
3.5149250156
 30
0.0
 10
4.1899697307
 20
3.5122385422
 30
0.0
 10
4.1898971991
 20
3.5097398547
 30
0.0
 10
4.1896592949
 20
3.5074351364
 30
0.0
 10
4.1892560219
 20
3.5053300692
 30
0.0
 10
4.1886868843
 20
3.5034300035
 30
0.0
 10
4.1879523832
 20
3.5017397212
 30
0.0
 10
4.1870524971
 20
3.5002641998
 30
0.0
 10
4.1859870586
 20
3.4990102119
 30
0.0
 10
4.1847591818
 20
3.497984707
 30
0.0
 10
4.183375953
 20
3.4971931738
 30
0.0
 10
4.1823737722
 20
3.4968306349
 30
0.0
 10
4.1818569591
 20
3.4966884423
 30
0.0
  0
LINE
  5
32C
100
AcDbEntity
  8
0
100
AcDbLine
 62
9
  6
CONTINUOUS
 10
4.2139532694
 20
3.6260228231
 11
4.2139553843
 21
3.5010235729
  0
LINE
  5
32D
100
AcDbEntity
  8
0
100
AcDbLine
 62
9
  6
CONTINUOUS
 10
3.8059703919
 20
4.031766036
 11
3.7959870685
 21
4.0312184095
  0
LINE
  5
32E
100
AcDbEntity
  8
0
100
AcDbLine
 62
9
  6
CONTINUOUS
 10
3.7988792177
 20
4.0319257182
 11
3.7959553753
 21
4.0317735732
  0
SPLINE
  5
32F
100
AcDbEntity
  8
0
100
AcDbSpline
 62
9
  6
CONTINUOUS
 70
0
 71
3
 72
19
 73
15
 74
0
 42
0.0000001
 43
0.0000001
 44
0.0000000001
 40
0.0
 40
0.0
 40
0.0
 40
0.0
 40
0.188187218
 40
0.367678196
 40
0.5323118423
 40
0.6769637378
 40
0.7404393066
 40
0.797364499
 40
0.8474355088
 40
0.8905016716
 40
0.9265631056
 40
0.9559804901
 40
0.9797703019
 40
1.0
 40
1.0
 40
1.0
 40
1.0
 10
3.7473239704
 20
4.3008717091
 30
0.0
 10
3.7467529933
 20
4.300661616
 30
0.0
 10
3.7456295322
 20
4.3002721928
 30
0.0
 10
3.7439816459
 20
4.2997742677
 30
0.0
 10
3.7424490339
 20
4.2993870037
 30
0.0
 10
3.7412649048
 20
4.2991575973
 30
0.0
 10
3.7404151754
 20
4.2990450117
 30
0.0
 10
3.739865725
 20
4.298998818
 30
0.0
 10
3.7393803449
 20
4.2989872267
 30
0.0
 10
3.738962718
 20
4.2990100081
 30
0.0
 10
3.7386154582
 20
4.2990670529
 30
0.0
 10
3.7383401202
 20
4.2991590203
 30
0.0
 10
3.7381361245
 20
4.2992870436
 30
0.0
 10
3.7380494409
 20
4.2994063908
 30
0.0
 10
3.7380250203
 20
4.2994670624
 30
0.0
  0
SPLINE
  5
330
100
AcDbEntity
  8
0
100
AcDbSpline
 62
9
  6
CONTINUOUS
 70
0
 71
3
 72
20
 73
16
 74
0
 42
0.0000001
 43
0.0000001
 44
0.0000000001
 40
0.0
 40
0.0
 40
0.0
 40
0.0
 40
0.1273702281
 40
0.191458758
 40
0.2554892769
 40
0.319391626
 40
0.3831016649
 40
0.4465464263
 40
0.5096397427
 40
0.6343590991
 40
0.6961591463
 40
0.757541025
 40
0.8185837441
 40
0.8793837794
 40
1.0
 40
1.0
 40
1.0
 40
1.0
 10
3.7473715099
 20
4.3125866748
 30
0.0
 10
3.7465755874
 20
4.3125577978
 30
0.0
 10
3.7453787314
 20
4.3123743991
 30
0.0
 10
3.7438604594
 20
4.3118700554
 30
0.0
 10
3.7427689209
 20
4.3113630961
 30
0.0
 10
3.7417437365
 20
4.3107377254
 30
0.0
 10
3.7407995523
 20
4.3100015266
 30
0.0
 10
3.7399492817
 20
4.3091655305
 30
0.0
 10
3.738961443
 20
4.307940437
 30
0.0
 10
3.7382020873
 20
4.3065565636
 30
0.0
 10
3.7377123039
 20
4.3050826818
 30
0.0
 10
3.7374851249
 20
4.3039502777
 30
0.0
 10
3.7373998182
 20
4.3028045247
 30
0.0
 10
3.7374788507
 20
4.3012877796
 30
0.0
 10
3.73775285
 20
4.300170455
 30
0.0
 10
3.7380250203
 20
4.2994670624
 30
0.0
  0
SPLINE
  5
331
100
AcDbEntity
  8
0
100
AcDbSpline
 62
9
  6
CONTINUOUS
 70
0
 71
3
 72
15
 73
11
 74
0
 42
0.0000001
 43
0.0000001
 44
0.0000000001
 40
0.0
 40
0.0
 40
0.0
 40
0.0
 40
0.1285885295
 40
0.256443119
 40
0.3832167415
 40
0.5087332307
 40
0.6329283843
 40
0.7560304887
 40
0.8784009882
 40
1.0
 40
1.0
 40
1.0
 40
1.0
 10
3.7419337427
 20
4.31256803
 30
0.0
 10
3.7414274359
 20
4.3122761024
 30
0.0
 10
3.7404643435
 20
4.3116083141
 30
0.0
 10
3.7392131608
 20
4.3103852663
 30
0.0
 10
3.7381954189
 20
4.3089783917
 30
0.0
 10
3.7374431977
 20
4.30743167
 30
0.0
 10
3.7369802958
 20
4.3057922967
 30
0.0
 10
3.7368209829
 20
4.304110082
 30
0.0
 10
3.736973608
 20
4.3024395925
 30
0.0
 10
3.7372773673
 20
4.3013653024
 30
0.0
 10
3.737477226
 20
4.3008500339
 30
0.0
  0
SPLINE
  5
332
100
AcDbEntity
  8
0
100
AcDbSpline
 62
9
  6
CONTINUOUS
 70
0
 71
3
 72
11
 73
7
 74
0
 42
0.0000001
 43
0.0000001
 44
0.0000000001
 40
0.0
 40
0.0
 40
0.0
 40
0.0
 40
0.2449223897
 40
0.4920409183
 40
0.7431389215
 40
1.0
 40
1.0
 40
1.0
 40
1.0
 10
3.8211019764
 20
4.3478622211
 30
0.0
 10
3.8213737222
 20
4.3479809914
 30
0.0
 10
3.8219382734
 20
4.3481792501
 30
0.0
 10
3.822824766
 20
4.3483505405
 30
0.0
 10
3.8237409843
 20
4.348393965
 30
0.0
 10
3.8243556842
 20
4.3483381321
 30
0.0
 10
3.8246629816
 20
4.3482901332
 30
0.0
  0
SPLINE
  5
333
100
AcDbEntity
  8
0
100
AcDbSpline
 62
9
  6
CONTINUOUS
 70
0
 71
3
 72
11
 73
7
 74
0
 42
0.0000001
 43
0.0000001
 44
0.0000000001
 40
0.0
 40
0.0
 40
0.0
 40
0.0
 40
0.2582976665
 40
0.5097173883
 40
0.7562059268
 40
1.0
 40
1.0
 40
1.0
 40
1.0
 10
3.7468215007
 20
4.3139753855
 30
0.0
 10
3.746476356
 20
4.3140524212
 30
0.0
 10
3.7457833044
 20
4.3141564776
 30
0.0
 10
3.7447438611
 20
4.3141532998
 30
0.0
 10
3.743737639
 20
4.3139874598
 30
0.0
 10
3.7430987935
 20
4.3137698328
 30
0.0
 10
3.7427929493
 20
4.3136361592
 30
0.0
  0
SPLINE
  5
334
100
AcDbEntity
  8
0
100
AcDbSpline
 62
9
  6
CONTINUOUS
 70
0
 71
3
 72
13
 73
9
 74
0
 42
0.0000001
 43
0.0000001
 44
0.0000000001
 40
0.0
 40
0.0
 40
0.0
 40
0.0
 40
0.2878582006
 40
0.4150603028
 40
0.5336171179
 40
0.6471437316
 40
0.7600534867
 40
1.0
 40
1.0
 40
1.0
 40
1.0
 10
3.9786710149
 20
4.3481675178
 30
0.0
 10
3.9785640729
 20
4.3483201804
 30
0.0
 10
3.9783986623
 20
4.3485336082
 30
0.0
 10
3.9781517228
 20
4.3487760197
 30
0.0
 10
3.9779680004
 20
4.348919745
 30
0.0
 10
3.9777736531
 20
4.349031699
 30
0.0
 10
3.9774902249
 20
4.3491392406
 30
0.0
 10
3.9772591887
 20
4.3491664554
 30
0.0
 10
3.9771038196
 20
4.3491668416
 30
0.0
  0
SPLINE
  5
335
100
AcDbEntity
  8
0
100
AcDbSpline
 62
9
  6
CONTINUOUS
 70
0
 71
3
 72
10
 73
6
 74
0
 42
0.0000001
 43
0.0000001
 44
0.0000000001
 40
0.0
 40
0.0
 40
0.0
 40
0.0
 40
0.5188438236
 40
0.7630498677
 40
1.0
 40
1.0
 40
1.0
 40
1.0
 10
3.9786710292
 20
4.3481675129
 30
0.0
 10
3.9794578943
 20
4.3483845946
 30
0.0
 10
3.9806644681
 20
4.3485688956
 30
0.0
 10
3.9822380087
 20
4.3484498902
 30
0.0
 10
3.9829782868
 20
4.3482728885
 30
0.0
 10
3.9833322192
 20
4.3481558647
 30
0.0
  0
SPLINE
  5
336
100
AcDbEntity
  8
0
100
AcDbSpline
 62
9
  6
CONTINUOUS
 70
0
 71
3
 72
11
 73
7
 74
0
 42
0.0000001
 43
0.0000001
 44
0.0000000001
 40
0.0
 40
0.0
 40
0.0
 40
0.0
 40
0.2422758485
 40
0.4878372433
 40
0.7396100325
 40
1.0
 40
1.0
 40
1.0
 40
1.0
 10
3.8229280444
 20
4.3485562119
 30
0.0
 10
3.8231708272
 20
4.3486351429
 30
0.0
 10
3.8236735076
 20
4.3487545536
 30
0.0
 10
3.8244538269
 20
4.3488119462
 30
0.0
 10
3.8252525707
 20
4.3487476523
 30
0.0
 10
3.8257806652
 20
4.3486269855
 30
0.0
 10
3.8260435617
 20
4.3485484428
 30
0.0
  0
LINE
  5
337
100
AcDbEntity
  8
0
100
AcDbLine
 62
9
  6
CONTINUOUS
 10
4.0172076379
 20
3.3618508592
 11
4.0182086146
 21
3.3613111556
  0
SPLINE
  5
338
100
AcDbEntity
  8
0
100
AcDbSpline
 62
9
  6
CONTINUOUS
 70
0
 71
3
 72
9
 73
5
 74
0
 42
0.0000001
 43
0.0000001
 44
0.0000000001
 40
0.0
 40
0.0
 40
0.0
 40
0.0
 40
0.5240546029
 40
1.0
 40
1.0
 40
1.0
 40
1.0
 10
4.0182086146
 20
3.3613111556
 30
0.0
 10
4.0185188003
 20
3.3611760049
 30
0.0
 10
4.0191335905
 20
3.3609656141
 30
0.0
 10
4.0197816616
 20
3.3608895061
 30
0.0
 10
4.020088917
 20
3.3608940541
 30
0.0
  0
LINE
  5
339
100
AcDbEntity
  8
0
100
AcDbLine
 62
9
  6
CONTINUOUS
 10
4.020088917
 20
3.3608940541
 11
4.0213316922
 21
3.361163569
  0
SPLINE
  5
33A
100
AcDbEntity
  8
0
100
AcDbSpline
 62
9
  6
CONTINUOUS
 70
0
 71
3
 72
11
 73
7
 74
0
 42
0.0000001
 43
0.0000001
 44
0.0000000001
 40
0.0
 40
0.0
 40
0.0
 40
0.0
 40
0.2817611343
 40
0.5388917165
 40
0.775422558
 40
1.0
 40
1.0
 40
1.0
 40
1.0
 10
3.8375613935
 20
3.3949656885
 30
0.0
 10
3.8371108033
 20
3.3947464714
 30
0.0
 10
3.8362111432
 20
3.3943976603
 30
0.0
 10
3.8348386617
 20
3.3941721305
 30
0.0
 10
3.8335512051
 20
3.3942870097
 30
0.0
 10
3.8327765608
 20
3.3945983576
 30
0.0
 10
3.8324336742
 20
3.3948031538
 30
0.0
  0
SPLINE
  5
33B
100
AcDbEntity
  8
0
100
AcDbSpline
 62
9
  6
CONTINUOUS
 70
0
 71
3
 72
11
 73
7
 74
0
 42
0.0000001
 43
0.0000001
 44
0.0000000001
 40
0.0
 40
0.0
 40
0.0
 40
0.0
 40
0.2285682275
 40
0.4669867263
 40
0.7225517301
 40
1.0
 40
1.0
 40
1.0
 40
1.0
 10
3.88787724
 20
3.3616883245
 30
0.0
 10
3.8881815914
 20
3.3615065443
 30
0.0
 10
3.8888582674
 20
3.361220455
 30
0.0
 10
3.8899792578
 20
3.3610652104
 30
0.0
 10
3.8911794077
 20
3.3611794896
 30
0.0
 10
3.8919759569
 20
3.3614193594
 30
0.0
 10
3.8923768824
 20
3.3615756652
 30
0.0
  0
SPLINE
  5
33C
100
AcDbEntity
  8
0
100
AcDbSpline
 62
9
  6
CONTINUOUS
 70
0
 71
3
 72
14
 73
10
 74
0
 42
0.0000001
 43
0.0000001
 44
0.0000000001
 40
0.0
 40
0.0
 40
0.0
 40
0.0
 40
0.1166892831
 40
0.2347521722
 40
0.3547837356
 40
0.4775485662
 40
0.6035816736
 40
0.7329426871
 40
1.0
 40
1.0
 40
1.0
 40
1.0
 10
3.8275708182
 20
3.4029543466
 30
0.0
 10
3.8275894847
 20
3.4025247026
 30
0.0
 10
3.8277073343
 20
3.4016619444
 30
0.0
 10
3.8281144469
 20
3.400412447
 30
0.0
 10
3.8287461932
 20
3.3992344625
 30
0.0
 10
3.8295838761
 20
3.398156294
 30
0.0
 10
3.8306089094
 20
3.3972032192
 30
0.0
 10
3.8322039435
 20
3.3961153688
 30
0.0
 10
3.8335841288
 20
3.3955645658
 30
0.0
 10
3.8345379707
 20
3.3953219282
 30
0.0
  0
SPLINE
  5
33D
100
AcDbEntity
  8
0
100
AcDbSpline
 62
9
  6
CONTINUOUS
 70
0
 71
3
 72
15
 73
11
 74
0
 42
0.0000001
 43
0.0000001
 44
0.0000000001
 40
0.0
 40
0.0
 40
0.0
 40
0.0
 40
0.114424482
 40
0.2307011136
 40
0.349871779
 40
0.4729103324
 40
0.6000194133
 40
0.7308474911
 40
0.8647069836
 40
1.0
 40
1.0
 40
1.0
 40
1.0
 10
3.8274683398
 20
3.4053116646
 30
0.0
 10
3.8274917203
 20
3.4047741544
 30
0.0
 10
3.8276648173
 20
3.403692129
 30
0.0
 10
3.8282844785
 20
3.4021544259
 30
0.0
 10
3.8292431293
 20
3.4007525951
 30
0.0
 10
3.8305009644
 20
3.3995393422
 30
0.0
 10
3.8320092233
 20
3.3985544394
 30
0.0
 10
3.8337147184
 20
3.3978334319
 30
0.0
 10
3.8355537107
 20
3.3974021577
 30
0.0
 10
3.8368228024
 20
3.397315477
 30
0.0
 10
3.837458893
 20
3.3973235169
 30
0.0
  0
SPLINE
  5
33E
100
AcDbEntity
  8
0
100
AcDbSpline
 62
9
  6
CONTINUOUS
 70
0
 71
3
 72
15
 73
11
 74
0
 42
0.0000001
 43
0.0000001
 44
0.0000000001
 40
0.0
 40
0.0
 40
0.0
 40
0.0
 40
0.115065144
 40
0.2318479232
 40
0.3511012423
 40
0.4736671941
 40
0.6000542625
 40
0.7303238149
 40
0.8640809257
 40
1.0
 40
1.0
 40
1.0
 40
1.0
 10
4.0830063779
 20
3.3979219161
 30
0.0
 10
4.0828822997
 20
3.397472449
 30
0.0
 10
4.0825381736
 20
3.3965902143
 30
0.0
 10
4.0817659983
 20
3.3953847964
 30
0.0
 10
4.0807538645
 20
3.39432982
 30
0.0
 10
4.0795364829
 20
3.3934536875
 30
0.0
 10
4.0781470259
 20
3.3927807225
 30
0.0
 10
4.0766246474
 20
3.3923264651
 30
0.0
 10
4.0750131046
 20
3.3921066491
 30
0.0
 10
4.0739159489
 20
3.3921161739
 30
0.0
 10
4.0733669268
 20
3.3921602137
 30
0.0
  0
SPLINE
  5
33F
100
AcDbEntity
  8
0
100
AcDbSpline
 62
9
  6
CONTINUOUS
 70
0
 71
3
 72
15
 73
11
 74
0
 42
0.0000001
 43
0.0000001
 44
0.0000000001
 40
0.0
 40
0.0
 40
0.0
 40
0.0
 40
0.1168254459
 40
0.2350492422
 40
0.3551661447
 40
0.4778046714
 40
0.6034745017
 40
0.7324490122
 40
0.8647071475
 40
1.0
 40
1.0
 40
1.0
 40
1.0
 10
4.0816855801
 20
3.3927602812
 30
0.0
 10
4.0815940487
 20
3.3923723008
 30
0.0
 10
4.081341063
 20
3.3916063391
 30
0.0
 10
4.0807708002
 20
3.3905308802
 30
0.0
 10
4.080017563
 20
3.3895491759
 30
0.0
 10
4.0790990166
 20
3.3886834706
 30
0.0
 10
4.0780357167
 20
3.3879493835
 30
0.0
 10
4.076848299
 20
3.3873624005
 30
0.0
 10
4.075561455
 20
3.3869319964
 30
0.0
 10
4.0746620455
 20
3.3867587873
 30
0.0
 10
4.0742041898
 20
3.3866997554
 30
0.0
  0
SPLINE
  5
340
100
AcDbEntity
  8
0
100
AcDbSpline
 62
7
  6
CONTINUOUS
 70
0
 71
3
 72
10
 73
6
 74
0
 42
0.0000001
 43
0.0000001
 44
0.0000000001
 40
0.0
 40
0.0
 40
0.0
 40
0.0
 40
0.5196967844
 40
0.7659883589
 40
1.0
 40
1.0
 40
1.0
 40
1.0
 10
4.3007612019
 20
3.5474617246
 30
0.0
 10
4.304998898
 20
3.5472289056
 30
0.0
 10
4.311242555
 20
3.546378939
 30
0.0
 10
4.319094993
 20
3.5440999173
 30
0.0
 10
4.3227352046
 20
3.5426115943
 30
0.0
 10
4.3244564753
 20
3.5417813335
 30
0.0
  0
SPLINE
  5
341
100
AcDbEntity
  8
0
100
AcDbSpline
 62
7
  6
CONTINUOUS
 70
0
 71
3
 72
22
 73
18
 74
0
 42
0.0000001
 43
0.0000001
 44
0.0000000001
 40
0.0
 40
0.0
 40
0.0
 40
0.0
 40
0.0424493491
 40
0.084878028
 40
0.1283565927
 40
0.1738649752
 40
0.2222292025
 40
0.2740698346
 40
0.3298016451
 40
0.3896539584
 40
0.453700848
 40
0.5218562643
 40
0.5939322482
 40
0.6696454836
 40
0.7486331668
 40
0.8304674157
 40
1.0
 40
1.0
 40
1.0
 40
1.0
 10
4.3344101777
 20
3.5274110215
 30
0.0
 10
4.3344101929
 20
3.5268124348
 30
0.0
 10
4.3343054164
 20
3.5256125083
 30
0.0
 10
4.333820836
 20
3.523858831
 30
0.0
 10
4.3330179614
 20
3.5221786066
 30
0.0
 10
4.3319057823
 20
3.5205836559
 30
0.0
 10
4.3304969952
 20
3.5190796077
 30
0.0
 10
4.3288047568
 20
3.5176682141
 30
0.0
 10
4.3268415658
 20
3.5163505196
 30
0.0
 10
4.3246221228
 20
3.5151243467
 30
0.0
 10
4.3221611766
 20
3.5139891224
 30
0.0
 10
4.3194762933
 20
3.512941551
 30
0.0
 10
4.3165860413
 20
3.5119794544
 30
0.0
 10
4.3135106607
 20
3.5111000515
 30
0.0
 10
4.3102719079
 20
3.5103001021
 30
0.0
 10
4.3057160816
 20
3.5093253701
 30
0.0
 10
4.3022207628
 20
3.5087254434
 30
0.0
 10
4.299856669
 20
3.508370353
 30
0.0
  0
SPLINE
  5
342
100
AcDbEntity
  8
0
100
AcDbSpline
 62
7
  6
CONTINUOUS
 70
0
 71
3
 72
28
 73
24
 74
0
 42
0.0000001
 43
0.0000001
 44
0.0000000001
 40
0.0
 40
0.0
 40
0.0
 40
0.0
 40
0.0176262931
 40
0.0360192986
 40
0.0554051089
 40
0.0759565652
 40
0.0977950809
 40
0.1210048587
 40
0.1456344245
 40
0.1716913584
 40
0.2279850751
 40
0.258155909
 40
0.2895725261
 40
0.3557798119
 40
0.4258020929
 40
0.4986845096
 40
0.5733787535
 40
0.6487951372
 40
0.7238295376
 40
0.7974119954
 40
0.8685349987
 40
0.9363110417
 40
1.0
 40
1.0
 40
1.0
 40
1.0
 10
4.3341349766
 20
3.5274615758
 30
0.0
 10
4.3340205091
 20
3.5270127403
 30
0.0
 10
4.3337168088
 20
3.5261121345
 30
0.0
 10
4.3330637371
 20
3.5248063424
 30
0.0
 10
4.3322087534
 20
3.5235295934
 30
0.0
 10
4.3311575685
 20
3.522288533
 30
0.0
 10
4.3299161768
 20
3.5210887307
 30
0.0
 10
4.3284902591
 20
3.5199366139
 30
0.0
 10
4.3268864005
 20
3.5188384946
 30
0.0
 10
4.3244590676
 20
3.5174165194
 30
0.0
 10
4.321767523
 20
3.5161728724
 30
0.0
 10
4.3188631061
 20
3.5150935032
 30
0.0
 10
4.3156606787
 20
3.5140779059
 30
0.0
 10
4.3113733403
 20
3.5130386691
 30
0.0
 10
4.3059409513
 20
3.5121759283
 30
0.0
 10
4.3002373489
 20
3.5117011807
 30
0.0
 10
4.2943730332
 20
3.5116276465
 30
0.0
 10
4.2884612655
 20
3.5119646684
 30
0.0
 10
4.2826162742
 20
3.5127101564
 30
0.0
 10
4.2769511116
 20
3.5138562372
 30
0.0
 10
4.271574705
 20
3.515387005
 30
0.0
 10
4.2665907047
 20
3.5172774091
 30
0.0
 10
4.2634868811
 20
3.5188116034
 30
0.0
 10
4.2620317632
 20
3.5196385562
 30
0.0
  0
LINE
  5
343
100
AcDbEntity
  8
0
100
AcDbLine
 62
7
  6
CONTINUOUS
 10
4.2601392794
 20
3.5072498964
 11
4.2560801103
 21
3.5102977766
  0
LINE
  5
344
100
AcDbEntity
  8
0
100
AcDbLine
 62
7
  6
CONTINUOUS
 10
4.2560801103
 20
3.5102977766
 11
4.2543854122
 21
3.5119340317
  0
SPLINE
  5
345
100
AcDbEntity
  8
0
100
AcDbSpline
 62
7
  6
CONTINUOUS
 70
0
 71
3
 72
15
 73
11
 74
0
 42
0.0000001
 43
0.0000001
 44
0.0000000001
 40
0.0
 40
0.0
 40
0.0
 40
0.0
 40
0.1249026746
 40
0.2498258689
 40
0.3748775679
 40
0.5000279649
 40
0.6251775172
 40
0.750224563
 40
0.8751329292
 40
1.0
 40
1.0
 40
1.0
 40
1.0
 10
4.3699553753
 20
3.5119733586
 30
0.0
 10
4.3634414
 20
3.5119951676
 30
0.0
 10
4.3504099504
 20
3.5116857752
 30
0.0
 10
4.3308966053
 20
3.5104242146
 30
0.0
 10
4.3114138648
 20
3.5086298367
 30
0.0
 10
4.2919473913
 20
3.5065653098
 30
0.0
 10
4.2724820648
 20
3.5044926231
 30
0.0
 10
4.2530027761
 20
3.5026737427
 30
0.0
 10
4.2334951702
 20
3.5013712734
 30
0.0
 10
4.2204675226
 20
3.5010235736
 30
0.0
 10
4.2139553676
 20
3.5010235732
 30
0.0
  0
SPLINE
  5
346
100
AcDbEntity
  8
0
100
AcDbSpline
 62
7
  6
CONTINUOUS
 70
0
 71
3
 72
11
 73
7
 74
0
 42
0.0000001
 43
0.0000001
 44
0.0000000001
 40
0.0
 40
0.0
 40
0.0
 40
0.0
 40
0.2502169985
 40
0.4999825279
 40
0.7497626509
 40
1.0
 40
1.0
 40
1.0
 40
1.0
 10
4.3699553753
 20
3.6307675215
 30
0.0
 10
4.3569386231
 20
3.6306088266
 30
0.0
 10
4.3309313686
 20
3.6300553613
 30
0.0
 10
4.2919450315
 20
3.6287795664
 30
0.0
 10
4.2529641596
 20
3.6273262333
 30
0.0
 10
4.2269660637
 20
3.626418095
 30
0.0
 10
4.2139532714
 20
3.6260233505
 30
0.0
  0
LINE
  5
347
100
AcDbEntity
  8
0
100
AcDbLine
 62
7
  6
CONTINUOUS
 10
4.299856669
 20
3.508370353
 11
4.2919552151
 21
3.5084025813
  0
SPLINE
  5
348
100
AcDbEntity
  8
0
100
AcDbSpline
 62
7
  6
CONTINUOUS
 70
0
 71
3
 72
11
 73
7
 74
0
 42
0.0000001
 43
0.0000001
 44
0.0000000001
 40
0.0
 40
0.0
 40
0.0
 40
0.0
 40
0.221613459
 40
0.461826242
 40
0.7212616046
 40
1.0
 40
1.0
 40
1.0
 40
1.0
 10
4.2537904934
 20
3.5092061174
 30
0.0
 10
4.2542287288
 20
3.5089817087
 30
0.0
 10
4.2551684126
 20
3.5085648914
 30
0.0
 10
4.2566854811
 20
3.5080444052
 30
0.0
 10
4.2583579282
 20
3.5075999445
 30
0.0
 10
4.2595298944
 20
3.5073600661
 30
0.0
 10
4.2601392794
 20
3.5072498964
 30
0.0
  0
SPLINE
  5
349
100
AcDbEntity
  8
0
100
AcDbSpline
 62
7
  6
CONTINUOUS
 70
0
 71
3
 72
11
 73
7
 74
0
 42
0.0000001
 43
0.0000001
 44
0.0000000001
 40
0.0
 40
0.0
 40
0.0
 40
0.0
 40
0.2502126925
 40
0.499982637
 40
0.7497669944
 40
1.0
 40
1.0
 40
1.0
 40
1.0
 10
4.3699553753
 20
3.708364917
 30
0.0
 10
4.3569384365
 20
3.7085607319
 30
0.0
 10
4.3309309952
 20
3.7091858917
 30
0.0
 10
4.2919451875
 20
3.7105643909
 30
0.0
 10
4.252965229
 20
3.7121184473
 30
0.0
 10
4.2269677655
 20
3.7130943348
 30
0.0
 10
4.2139553753
 20
3.7135235874
 30
0.0
  0
SPLINE
  5
34A
100
AcDbEntity
  8
0
100
AcDbSpline
 62
7
  6
CONTINUOUS
 70
0
 71
3
 72
15
 73
11
 74
0
 42
0.0000001
 43
0.0000001
 44
0.0000000001
 40
0.0
 40
0.0
 40
0.0
 40
0.0
 40
0.1249026744
 40
0.2498258698
 40
0.3748775708
 40
0.5000279695
 40
0.6251775223
 40
0.7502245669
 40
0.8751329306
 40
1.0
 40
1.0
 40
1.0
 40
1.0
 10
4.3699553753
 20
3.8275737994
 30
0.0
 10
4.3634413972
 20
3.8275519905
 30
0.0
 10
4.3504099419
 20
3.8278613839
 30
0.0
 10
4.3308965882
 20
3.8291229477
 30
0.0
 10
4.3114138392
 20
3.8309173292
 30
0.0
 10
4.2919473573
 20
3.8329818589
 30
0.0
 10
4.2724820222
 20
3.8350545464
 30
0.0
 10
4.2530027248
 20
3.8368734244
 30
0.0
 10
4.2334951102
 20
3.8381758868
 30
0.0
 10
4.2204674568
 20
3.8385235781
 30
0.0
 10
4.2139552991
 20
3.8385235732
 30
0.0
  0
SPLINE
  5
34B
100
AcDbEntity
  8
0
100
AcDbSpline
 62
7
  6
CONTINUOUS
 70
0
 71
3
 72
12
 73
8
 74
0
 42
0.0000001
 43
0.0000001
 44
0.0000000001
 40
0.0
 40
0.0
 40
0.0
 40
0.0
 40
0.2210292138
 40
0.3383542331
 40
0.4605580876
 40
0.7200804491
 40
1.0
 40
1.0
 40
1.0
 40
1.0
 10
4.4443591047
 20
5.0983309414
 30
0.0
 10
4.4447969833
 20
5.0974949594
 30
0.0
 10
4.4455989321
 20
5.0962808283
 30
0.0
 10
4.4468776744
 20
5.094785613
 30
0.0
 10
4.448383913
 20
5.0932755432
 30
0.0
 10
4.4505891642
 20
5.0914961861
 30
0.0
 10
4.4525452148
 20
5.0902705144
 30
0.0
 10
4.4535878131
 20
5.0896862246
 30
0.0
  0
LINE
  5
34C
100
AcDbEntity
  8
0
100
AcDbLine
 62
7
  6
CONTINUOUS
 10
4.4535878131
 20
5.0896862246
 11
4.4581030858
 21
5.0875210647
  0
LINE
  5
34D
100
AcDbEntity
  8
0
100
AcDbLine
 62
7
  6
CONTINUOUS
 10
4.4581030858
 20
5.0875210647
 11
4.4631626878
 21
5.0857638842
  0
SPLINE
  5
34E
100
AcDbEntity
  8
0
100
AcDbSpline
 62
7
  6
CONTINUOUS
 70
0
 71
3
 72
9
 73
5
 74
0
 42
0.0000001
 43
0.0000001
 44
0.0000000001
 40
0.0
 40
0.0
 40
0.0
 40
0.0
 40
0.4946240348
 40
1.0
 40
1.0
 40
1.0
 40
1.0
 10
4.4631626878
 20
5.0857638842
 30
0.0
 10
4.4645054063
 20
5.0853730132
 30
0.0
 10
4.4672504268
 20
5.0846846474
 30
0.0
 10
4.470035407
 20
5.0841841315
 30
0.0
 10
4.4714492206
 20
5.0839773678
 30
0.0
  0
SPLINE
  5
34F
100
AcDbEntity
  8
0
100
AcDbSpline
 62
7
  6
CONTINUOUS
 70
0
 71
3
 72
14
 73
10
 74
0
 42
0.0000001
 43
0.0000001
 44
0.0000000001
 40
0.0
 40
0.0
 40
0.0
 40
0.0
 40
0.2924915274
 40
0.4303847349
 40
0.5612338494
 40
0.6841785192
 40
0.7985205982
 40
0.9038235533
 40
1.0
 40
1.0
 40
1.0
 40
1.0
 10
4.4854336555
 20
5.1224792333
 30
0.0
 10
4.4877043996
 20
5.1223355134
 30
0.0
 10
4.4910397365
 20
5.1219474661
 30
0.0
 10
4.4953138348
 20
5.1210464126
 30
0.0
 10
4.498249677
 20
5.120221657
 30
0.0
 10
4.5009456923
 20
5.1192478896
 30
0.0
 10
4.5033725134
 20
5.1181379501
 30
0.0
 10
4.5055025794
 20
5.116905986
 30
0.0
 10
4.5067672124
 20
5.1159720411
 30
0.0
 10
4.5073361245
 20
5.1154861652
 30
0.0
  0
LINE
  5
350
100
AcDbEntity
  8
0
100
AcDbLine
 62
7
  6
CONTINUOUS
 10
4.5073361245
 20
5.1154861652
 11
4.5085203048
 21
5.1143539217
  0
SPLINE
  5
351
100
AcDbEntity
  8
0
100
AcDbSpline
 62
7
  6
CONTINUOUS
 70
0
 71
3
 72
11
 73
7
 74
0
 42
0.0000001
 43
0.0000001
 44
0.0000000001
 40
0.0
 40
0.0
 40
0.0
 40
0.0
 40
0.2733578691
 40
0.5285624821
 40
0.7691872104
 40
1.0
 40
1.0
 40
1.0
 40
1.0
 10
4.5085203048
 20
5.1143539217
 30
0.0
 10
4.5088486225
 20
5.1139996609
 30
0.0
 10
4.5094451231
 20
5.113277262
 30
0.0
 10
4.510162086
 20
5.1121170017
 30
0.0
 10
4.5106604277
 20
5.1109276888
 30
0.0
 10
4.5108461862
 20
5.1101102753
 30
0.0
 10
4.5108993326
 20
5.1097059228
 30
0.0
  0
LINE
  5
352
100
AcDbEntity
  8
0
100
AcDbLine
 62
7
  6
CONTINUOUS
 10
4.4769552151
 20
5.0834025813
 11
4.4714492206
 21
5.0839773678
  0
LINE
  5
353
100
AcDbEntity
  8
0
100
AcDbLine
 62
7
  6
CONTINUOUS
 10
3.9809870861
 20
5.6062182861
 11
3.9809553753
 21
5.6067735732
  0
SPLINE
  5
354
100
AcDbEntity
  8
0
100
AcDbSpline
 62
7
  6
CONTINUOUS
 70
0
 71
3
 72
11
 73
7
 74
0
 42
0.0000001
 43
0.0000001
 44
0.0000000001
 40
0.0
 40
0.0
 40
0.0
 40
0.0
 40
0.2499990522
 40
0.5000000536
 40
0.750000766
 40
1.0
 40
1.0
 40
1.0
 40
1.0
 10
4.2634158765
 20
5.8753056579
 30
0.0
 10
4.2573344836
 20
5.8534861992
 30
0.0
 10
4.246658845
 20
5.8094172143
 30
0.0
 10
4.2351670537
 20
5.7423915252
 30
0.0
 10
4.2282362202
 20
5.6747418885
 30
0.0
 10
4.2266863632
 20
5.629424685
 30
0.0
 10
4.2266863632
 20
5.6067735732
 30
0.0
  0
SPLINE
  5
355
100
AcDbEntity
  8
0
100
AcDbSpline
 62
7
  6
CONTINUOUS
 70
0
 71
3
 72
12
 73
8
 74
0
 42
0.0000001
 43
0.0000001
 44
0.0000000001
 40
0.0
 40
0.0
 40
0.0
 40
0.0
 40
0.2473993139
 40
0.3719944185
 40
0.4970536537
 40
0.7481568855
 40
1.0
 40
1.0
 40
1.0
 40
1.0
 10
4.2633789534
 20
5.8752862659
 30
0.0
 10
4.2572933098
 20
5.8537123482
 30
0.0
 10
4.2492913626
 20
5.8209337588
 30
0.0
 10
4.240898574
 20
5.7766804615
 30
0.0
 10
4.2339861593
 20
5.7318299986
 30
0.0
 10
4.2282197782
 20
5.67517609
 30
0.0
 10
4.2266863649
 20
5.6295920273
 30
0.0
 10
4.2266863632
 20
5.6067735732
 30
0.0
  0
SPLINE
  5
356
100
AcDbEntity
  8
0
100
AcDbSpline
 62
7
  6
CONTINUOUS
 70
0
 71
3
 72
11
 73
7
 74
0
 42
0.0000001
 43
0.0000001
 44
0.0000000001
 40
0.0
 40
0.0
 40
0.0
 40
0.0
 40
0.2517110909
 40
0.5027036943
 40
0.7523473146
 40
1.0
 40
1.0
 40
1.0
 40
1.0
 10
3.9809553753
 20
5.6067735732
 30
0.0
 10
3.979567482
 20
5.6297980773
 30
0.0
 10
3.9750532732
 20
5.6756956205
 30
0.0
 10
3.9630794235
 20
5.7436579089
 30
0.0
 10
3.9459959473
 20
5.8101359461
 30
0.0
 10
3.9312225952
 20
5.853304945
 30
0.0
 10
3.9230250203
 20
5.8744670624
 30
0.0
  0
SPLINE
  5
357
100
AcDbEntity
  8
0
100
AcDbSpline
 62
7
  6
CONTINUOUS
 70
0
 71
3
 72
8
 73
4
 74
0
 42
0.0000001
 43
0.0000001
 44
0.0000000001
 40
0.0
 40
0.0
 40
0.0
 40
0.0
 40
1.0
 40
1.0
 40
1.0
 40
1.0
 10
4.5549553753
 20
5.0822735732
 30
0.0
 10
4.5029136586
 20
5.0822735732
 30
0.0
 10
4.450997092
 20
5.0760235732
 30
0.0
 10
4.3989553753
 20
5.0760235732
 30
0.0
  0
SPLINE
  5
358
100
AcDbEntity
  8
0
100
AcDbSpline
 62
7
  6
CONTINUOUS
 70
0
 71
3
 72
8
 73
4
 74
0
 42
0.0000001
 43
0.0000001
 44
0.0000000001
 40
0.0
 40
0.0
 40
0.0
 40
0.0
 40
1.0
 40
1.0
 40
1.0
 40
1.0
 10
4.5549553753
 20
5.4072735732
 30
0.0
 10
4.5029136586
 20
5.4072735732
 30
0.0
 10
4.450997092
 20
5.4135235732
 30
0.0
 10
4.3989553753
 20
5.4135235732
 30
0.0
  0
SPLINE
  5
359
100
AcDbEntity
  8
0
100
AcDbSpline
 62
7
  6
CONTINUOUS
 70
0
 71
3
 72
11
 73
7
 74
0
 42
0.0000001
 43
0.0000001
 44
0.0000000001
 40
0.0
 40
0.0
 40
0.0
 40
0.0
 40
0.2787800506
 40
0.5386061597
 40
0.7787536549
 40
1.0
 40
1.0
 40
1.0
 40
1.0
 10
4.5094564753
 20
5.1167813335
 30
0.0
 10
4.5104603907
 20
5.1161429817
 30
0.0
 10
4.5123340106
 20
5.114800971
 30
0.0
 10
4.5147856887
 20
5.1125439829
 30
0.0
 10
4.5167517951
 20
5.1101630382
 30
0.0
 10
4.5177612474
 20
5.1084596983
 30
0.0
 10
4.5181649477
 20
5.1076061995
 30
0.0
  0
SPLINE
  5
35A
100
AcDbEntity
  8
0
100
AcDbSpline
 62
7
  6
CONTINUOUS
 70
0
 71
3
 72
10
 73
6
 74
0
 42
0.0000001
 43
0.0000001
 44
0.0000000001
 40
0.0
 40
0.0
 40
0.0
 40
0.0
 40
0.5164315146
 40
0.7614205882
 40
1.0
 40
1.0
 40
1.0
 40
1.0
 10
4.5181649477
 20
5.1076061995
 30
0.0
 10
4.5185609297
 20
5.1067690187
 30
0.0
 10
4.519033981
 20
5.1054740905
 30
0.0
 10
4.5193561161
 20
5.1037069791
 30
0.0
 10
4.5194101669
 20
5.1028388613
 30
0.0
 10
4.5194101777
 20
5.1024110215
 30
0.0
  0
SPLINE
  5
35B
100
AcDbEntity
  8
0
100
AcDbSpline
 62
7
  6
CONTINUOUS
 70
0
 71
3
 72
10
 73
6
 74
0
 42
0.0000001
 43
0.0000001
 44
0.0000000001
 40
0.0
 40
0.0
 40
0.0
 40
0.0
 40
0.2486299227
 40
0.4996579277
 40
1.0
 40
1.0
 40
1.0
 40
1.0
 10
4.4600830002
 20
5.1164632898
 30
0.0
 10
4.4617225074
 20
5.1172548864
 30
0.0
 10
4.4650814543
 20
5.1187182757
 30
0.0
 10
4.4720127744
 20
5.1210927722
 30
0.0
 10
4.477443041
 20
5.1222029487
 30
0.0
 10
4.4810870789
 20
5.1225828132
 30
0.0
  0
SPLINE
  5
35C
100
AcDbEntity
  8
0
100
AcDbSpline
 62
7
  6
CONTINUOUS
 70
0
 71
3
 72
14
 73
10
 74
0
 42
0.0000001
 43
0.0000001
 44
0.0000000001
 40
0.0
 40
0.0
 40
0.0
 40
0.0
 40
0.180018098
 40
0.285829302
 40
0.4034282876
 40
0.5334908046
 40
0.67636527
 40
0.832010104
 40
1.0
 40
1.0
 40
1.0
 40
1.0
 10
4.4387904934
 20
5.0842061174
 30
0.0
 10
4.438843849
 20
5.0852347662
 30
0.0
 10
4.4390906296
 20
5.0868623048
 30
0.0
 10
4.4397071859
 20
5.0890880802
 30
0.0
 10
4.4403976752
 20
5.0909913881
 30
0.0
 10
4.4413068705
 20
5.0930343539
 30
0.0
 10
4.4424440665
 20
5.0952086796
 30
0.0
 10
4.4438120562
 20
5.0975021348
 30
0.0
 10
4.444838289
 20
5.0990444763
 30
0.0
 10
4.4453875216
 20
5.0998333141
 30
0.0
  0
SPLINE
  5
35D
100
AcDbEntity
  8
0
100
AcDbSpline
 62
7
  6
CONTINUOUS
 70
0
 71
3
 72
11
 73
7
 74
0
 42
0.0000001
 43
0.0000001
 44
0.0000000001
 40
0.0
 40
0.0
 40
0.0
 40
0.0
 40
0.2269797805
 40
0.4709698031
 40
0.7294385363
 40
1.0
 40
1.0
 40
1.0
 40
1.0
 10
4.4456308159
 20
5.1001804615
 30
0.0
 10
4.4464506705
 20
5.1013427157
 30
0.0
 10
4.4482249996
 20
5.1037031573
 30
0.0
 10
4.4511496433
 20
5.1072178062
 30
0.0
 10
4.4544046097
 20
5.1108068797
 30
0.0
 10
4.4567221953
 20
5.113178317
 30
0.0
 10
4.4579272479
 20
5.1143709124
 30
0.0
  0
SPLINE
  5
35E
100
AcDbEntity
  8
0
100
AcDbSpline
 62
7
  6
CONTINUOUS
 70
0
 71
3
 72
9
 73
5
 74
0
 42
0.0000001
 43
0.0000001
 44
0.0000000001
 40
0.0
 40
0.0
 40
0.0
 40
0.0
 40
0.4862955742
 40
1.0
 40
1.0
 40
1.0
 40
1.0
 10
4.4555031888
 20
5.0869892273
 30
0.0
 10
4.456914227
 20
5.0863002549
 30
0.0
 10
4.4598988884
 20
5.0850502964
 30
0.0
 10
4.4629884346
 20
5.0840950778
 30
0.0
 10
4.4645925802
 20
5.0836729293
 30
0.0
  0
SPLINE
  5
35F
100
AcDbEntity
  8
0
100
AcDbSpline
 62
7
  6
CONTINUOUS
 70
0
 71
3
 72
14
 73
10
 74
0
 42
0.0000001
 43
0.0000001
 44
0.0000000001
 40
0.0
 40
0.0
 40
0.0
 40
0.0
 40
0.1460264671
 40
0.286354122
 40
0.5481142619
 40
0.6695524607
 40
0.7849708611
 40
0.8948719094
 40
1.0
 40
1.0
 40
1.0
 40
1.0
 10
4.4555031888
 20
5.0869892273
 30
0.0
 10
4.4548005199
 20
5.0873323218
 30
0.0
 10
4.4534416203
 20
5.0880456524
 30
0.0
 10
4.4509346383
 20
5.0895737802
 30
0.0
 10
4.4486913813
 20
5.0912783286
 30
0.0
 10
4.4467957991
 20
5.0931633958
 30
0.0
 10
4.4456088589
 20
5.0945956863
 30
0.0
 10
4.4446304097
 20
5.096074274
 30
0.0
 10
4.4441110764
 20
5.0971058727
 30
0.0
 10
4.4438913196
 20
5.0976241587
 30
0.0
  0
SPLINE
  5
360
100
AcDbEntity
  8
0
100
AcDbSpline
 62
9
  6
CONTINUOUS
 70
0
 71
3
 72
11
 73
7
 74
0
 42
0.0000001
 43
0.0000001
 44
0.0000000001
 40
0.0
 40
0.0
 40
0.0
 40
0.0
 40
0.2386931097
 40
0.4820547891
 40
0.7345502378
 40
1.0
 40
1.0
 40
1.0
 40
1.0
 10
4.0141615634
 20
5.9245360797
 30
0.0
 10
4.0138978116
 20
5.9245367319
 30
0.0
 10
4.013364124
 20
5.9244955401
 30
0.0
 10
4.0125715182
 20
5.9243071375
 30
0.0
 10
4.0117881372
 20
5.9239929851
 30
0.0
 10
4.0112892816
 20
5.9237086599
 30
0.0
 10
4.0110435821
 20
5.9235484494
 30
0.0
  0
SPLINE
  5
361
100
AcDbEntity
  8
0
100
AcDbSpline
 62
9
  6
CONTINUOUS
 70
0
 71
3
 72
13
 73
9
 74
0
 42
0.0000001
 43
0.0000001
 44
0.0000000001
 40
0.0
 40
0.0
 40
0.0
 40
0.0
 40
0.1083698253
 40
0.2188401635
 40
0.3330275098
 40
0.4523905693
 40
0.7108782887
 40
1.0
 40
1.0
 40
1.0
 40
1.0
 10
4.2610768171
 20
4.9609464189
 30
0.0
 10
4.2609335405
 20
4.9608815583
 30
0.0
 10
4.2606329843
 20
4.9607740298
 30
0.0
 10
4.2601561704
 20
4.9606845785
 30
0.0
 10
4.2596554185
 20
4.9606669121
 30
0.0
 10
4.2589432203
 20
4.9607413138
 30
0.0
 10
4.2580089452
 20
4.9610271255
 30
0.0
 10
4.2573058718
 20
4.9614070532
 30
0.0
 10
4.2569527628
 20
4.9616337091
 30
0.0
  0
SPLINE
  5
362
100
AcDbEntity
  8
0
100
AcDbSpline
 62
7
  6
CONTINUOUS
 70
0
 71
3
 72
15
 73
11
 74
0
 42
0.0000001
 43
0.0000001
 44
0.0000000001
 40
0.0
 40
0.0
 40
0.0
 40
0.0
 40
0.0998592987
 40
0.2028473288
 40
0.3117099433
 40
0.4286562876
 40
0.5552356
 40
0.6923849165
 40
0.8406193464
 40
1.0
 40
1.0
 40
1.0
 40
1.0
 10
4.510955253
 20
5.1088565551
 30
0.0
 10
4.5109553842
 20
5.108416347
 30
0.0
 10
4.5108628236
 20
5.107519611
 30
0.0
 10
4.5104513717
 20
5.1062002697
 30
0.0
 10
4.5097750054
 20
5.1049103057
 30
0.0
 10
4.508840718
 20
5.1036622021
 30
0.0
 10
4.5076585475
 20
5.102464981
 30
0.0
 10
4.506238659
 20
5.1013271051
 30
0.0
 10
4.5045912077
 20
5.100259033
 30
0.0
 10
4.5033923627
 20
5.0996216065
 30
0.0
 10
4.5027603502
 20
5.0993146863
 30
0.0
  0
SPLINE
  5
363
100
AcDbEntity
  8
0
100
AcDbSpline
 62
9
  6
CONTINUOUS
 70
0
 71
3
 72
11
 73
7
 74
0
 42
0.0000001
 43
0.0000001
 44
0.0000000001
 40
0.0
 40
0.0
 40
0.0
 40
0.0
 40
0.2500024734
 40
0.5000030442
 40
0.7500020918
 40
1.0
 40
1.0
 40
1.0
 40
1.0
 10
4.3989553753
 20
5.2010234143
 30
0.0
 10
4.3936323324
 20
5.199524017
 30
0.0
 10
4.3830956796
 20
5.1961195153
 30
0.0
 10
4.367733308
 20
5.1898128787
 30
0.0
 10
4.3529083523
 20
5.1823293159
 30
0.0
 10
4.3434472859
 20
5.1765741921
 30
0.0
 10
4.3388415112
 20
5.1735133588
 30
0.0
  0
SPLINE
  5
364
100
AcDbEntity
  8
0
100
AcDbSpline
 62
9
  6
CONTINUOUS
 70
0
 71
3
 72
30
 73
26
 74
0
 42
0.0000001
 43
0.0000001
 44
0.0000000001
 40
0.0
 40
0.0
 40
0.0
 40
0.0
 40
0.0624926072
 40
0.1249865198
 40
0.1874817496
 40
0.2499780283
 40
0.3124752751
 40
0.3749733903
 40
0.4374723763
 40
0.4999722029
 40
0.5624729785
 40
0.6249746403
 40
0.6874766638
 40
0.7499787875
 40
0.7812317704
 40
0.8124845719
 40
0.8437372291
 40
0.8749897755
 40
0.9062422996
 40
0.9218686032
 40
0.9374949211
 40
0.9531212182
 40
0.968747521
 40
0.9843737533
 40
1.0
 40
1.0
 40
1.0
 40
1.0
 10
4.3388415112
 20
5.1735133588
 30
0.0
 10
4.3350164927
 20
5.1709714105
 30
0.0
 10
4.3275840431
 20
5.1655518182
 30
0.0
 10
4.3171529363
 20
5.1565281984
 30
0.0
 10
4.307472687
 20
5.1467031973
 30
0.0
 10
4.2985731212
 20
5.1361672549
 30
0.0
 10
4.2904743911
 20
5.1250047605
 30
0.0
 10
4.2831891155
 20
5.1132959341
 30
0.0
 10
4.2767215689
 20
5.1011170762
 30
0.0
 10
4.2710668124
 20
5.0885409518
 30
0.0
 10
4.2662105544
 20
5.0756362024
 30
0.0
 10
4.2621283128
 20
5.062466945
 30
0.0
 10
4.2587814061
 20
5.0490930308
 30
0.0
 10
4.2565614325
 20
5.0378213725
 30
0.0
 10
4.2550928182
 20
5.0287520367
 30
0.0
 10
4.2541338035
 20
5.0219282191
 30
0.0
 10
4.2533046745
 20
5.0150875673
 30
0.0
 10
4.2525917966
 20
5.0082339315
 30
0.0
 10
4.2520798445
 20
5.002514683
 30
0.0
 10
4.2517125946
 20
4.9979358163
 30
0.0
 10
4.2514543945
 20
4.9945003228
 30
0.0
 10
4.2512108036
 20
4.991063767
 30
0.0
 10
4.2509868763
 20
4.98762585
 30
0.0
 10
4.2507585898
 20
4.9841883818
 30
0.0
 10
4.2506360257
 20
4.9818944367
 30
0.0
 10
4.250602052
 20
4.9807465539
 30
0.0
  0
SPLINE
  5
365
100
AcDbEntity
  8
0
100
AcDbSpline
 62
9
  6
CONTINUOUS
 70
0
 71
3
 72
15
 73
11
 74
0
 42
0.0000001
 43
0.0000001
 44
0.0000000001
 40
0.0
 40
0.0
 40
0.0
 40
0.0
 40
0.1250076594
 40
0.2500122273
 40
0.3750139242
 40
0.5000132734
 40
0.6250109493
 40
0.7500075943
 40
0.8750037953
 40
1.0
 40
1.0
 40
1.0
 40
1.0
 10
4.2121863488
 20
5.6067735732
 30
0.0
 10
4.2121842016
 20
5.5976159484
 30
0.0
 10
4.2126517713
 20
5.579296278
 30
0.0
 10
4.2149410652
 20
5.5519031893
 30
0.0
 10
4.2189700444
 20
5.5247081297
 30
0.0
 10
4.2248543051
 20
5.4978512168
 30
0.0
 10
4.2326678849
 20
5.4714890439
 30
0.0
 10
4.2424443231
 20
5.445788004
 30
0.0
 10
4.2541790968
 20
5.420920727
 30
0.0
 10
4.2632876437
 20
5.4050066109
 30
0.0
 10
4.2681502128
 20
5.3972476064
 30
0.0
  0
SPLINE
  5
366
100
AcDbEntity
  8
0
100
AcDbSpline
 62
9
  6
CONTINUOUS
 70
0
 71
3
 72
17
 73
13
 74
0
 42
0.0000001
 43
0.0000001
 44
0.0000000001
 40
0.0
 40
0.0
 40
0.0
 40
0.0
 40
0.1250019786
 40
0.2500022155
 40
0.3749996133
 40
0.4375103864
 40
0.5000210143
 40
0.6250123703
 40
0.7500004875
 40
0.8125102563
 40
0.8750199292
 40
1.0
 40
1.0
 40
1.0
 40
1.0
 10
4.2681502128
 20
5.3972476064
 30
0.0
 10
4.2719863919
 20
5.3911264797
 30
0.0
 10
4.2800729396
 20
5.379137114
 30
0.0
 10
4.2934753659
 20
5.3620829808
 30
0.0
 10
4.3057125755
 20
5.3487724757
 30
0.0
 10
4.3161243403
 20
5.3387494124
 30
0.0
 10
4.3269434205
 20
5.3291679163
 30
0.0
 10
4.3412167446
 20
5.318065827
 30
0.0
 10
4.3564191873
 20
5.3082699253
 30
0.0
 10
4.3690817834
 20
5.3013023756
 30
0.0
 10
4.3820576442
 20
5.2949413847
 30
0.0
 10
4.3921281585
 20
5.2908805524
 30
0.0
 10
4.3989553753
 20
5.2885235874
 30
0.0
  0
LINE
  5
367
100
AcDbEntity
  8
0
100
AcDbLine
 62
9
  6
CONTINUOUS
 10
3.9909682712
 20
5.6067734842
 11
3.9909384943
 21
5.6073287915
  0
SPLINE
  5
368
100
AcDbEntity
  8
0
100
AcDbSpline
 62
9
  6
CONTINUOUS
 70
0
 71
3
 72
12
 73
8
 74
0
 42
0.0000001
 43
0.0000001
 44
0.0000000001
 40
0.0
 40
0.0
 40
0.0
 40
0.0
 40
0.2516932337
 40
0.502683663
 40
0.6277364382
 40
0.7523679212
 40
1.0
 40
1.0
 40
1.0
 40
1.0
 10
3.9909366167
 20
5.6073286903
 30
0.0
 10
3.9894755217
 20
5.6304292696
 30
0.0
 10
3.984824679
 20
5.6764742684
 30
0.0
 10
3.9746889825
 20
5.7333653498
 30
0.0
 10
3.9640183853
 20
5.7781669896
 30
0.0
 10
3.9517092107
 20
5.8222227965
 30
0.0
 10
3.940574571
 20
5.8546455711
 30
0.0
 10
3.9323239702
 20
5.875871709
 30
0.0
  0
LINE
  5
369
100
AcDbEntity
  8
0
100
AcDbLine
 62
9
  6
CONTINUOUS
 10
3.9323239702
 20
5.875871709
 11
4.2489668017
 21
5.8750907897
  0
SPLINE
  5
36A
100
AcDbEntity
  8
0
100
AcDbSpline
 62
9
  6
CONTINUOUS
 70
0
 71
3
 72
12
 73
8
 74
0
 42
0.0000001
 43
0.0000001
 44
0.0000000001
 40
0.0
 40
0.0
 40
0.0
 40
0.0
 40
0.247467677
 40
0.372071969
 40
0.4971284625
 40
0.748202226
 40
1.0
 40
1.0
 40
1.0
 40
1.0
 10
4.2489668017
 20
5.8750907897
 30
0.0
 10
4.2428450452
 20
5.8535353737
 30
0.0
 10
4.2348070146
 20
5.8207792657
 30
0.0
 10
4.226392014
 20
5.7765521629
 30
0.0
 10
4.2194715598
 20
5.7317338888
 30
0.0
 10
4.2137121007
 20
5.6751220655
 30
0.0
 10
4.2121861139
 20
5.6295735101
 30
0.0
 10
4.2121863507
 20
5.6067735732
 30
0.0
  0
LINE
  5
36B
100
AcDbEntity
  8
0
100
AcDbLine
 62
9
  6
CONTINUOUS
 10
3.9230250203
 20
5.8744670624
 11
3.9224772204
 21
5.8758500317
  0
LINE
  5
36C
100
AcDbEntity
  8
0
100
AcDbLine
 62
9
  6
CONTINUOUS
 10
4.1636710153
 20
5.9231675178
 11
4.1639636376
 21
5.9230576871
  0
LINE
  5
36D
100
AcDbEntity
  8
0
100
AcDbLine
 62
9
  6
CONTINUOUS
 10
4.2540841426
 20
5.8867818536
 11
4.1688701232
 21
5.9210829657
  0
LINE
  5
36E
100
AcDbEntity
  8
0
100
AcDbLine
 62
9
  6
CONTINUOUS
 10
4.1688701232
 20
5.9210829657
 11
4.1639636376
 21
5.9230576871
  0
LINE
  5
36F
100
AcDbEntity
  8
0
100
AcDbLine
 62
9
  6
CONTINUOUS
 10
3.9323715098
 20
5.8875866748
 11
4.2540841426
 21
5.8867818536
  0
LINE
  5
370
100
AcDbEntity
  8
0
100
AcDbLine
 62
9
  6
CONTINUOUS
 10
3.9323715098
 20
5.8875866748
 11
3.9318214979
 21
5.8889753843
  0
SPLINE
  5
371
100
AcDbEntity
  8
0
100
AcDbSpline
 62
9
  6
CONTINUOUS
 70
0
 71
3
 72
17
 73
13
 74
0
 42
0.0000001
 43
0.0000001
 44
0.0000000001
 40
0.0
 40
0.0
 40
0.0
 40
0.0
 40
0.0450334192
 40
0.0896531245
 40
0.1348496738
 40
0.1816000833
 40
0.28287955
 40
0.3985815022
 40
0.5303329682
 40
0.6770464042
 40
0.8355067141
 40
1.0
 40
1.0
 40
1.0
 40
1.0
 10
4.2583669268
 20
4.9671602137
 30
0.0
 10
4.2584090414
 20
4.9673129116
 30
0.0
 10
4.2584658807
 20
4.967625211
 30
0.0
 10
4.2584629173
 20
4.9681021491
 30
0.0
 10
4.2583708809
 20
4.9685763773
 30
0.0
 10
4.2581245925
 20
4.9692131915
 30
0.0
 10
4.2575781948
 20
4.969981012
 30
0.0
 10
4.2566294451
 20
4.9707736299
 30
0.0
 10
4.2554032571
 20
4.9714367981
 30
0.0
 10
4.2539447924
 20
4.9719395785
 30
0.0
 10
4.2523179037
 20
4.9722526729
 30
0.0
 10
4.2511806351
 20
4.9723236196
 30
0.0
 10
4.2506020515
 20
4.9723236758
 30
0.0
  0
LINE
  5
372
100
AcDbEntity
  8
0
100
AcDbLine
 62
9
  6
CONTINUOUS
 10
3.9323239704
 20
5.8758717091
 11
3.9323715099
 21
5.8875866748
  0
SPLINE
  5
373
100
AcDbEntity
  8
0
100
AcDbSpline
 62
7
  6
CONTINUOUS
 70
0
 71
3
 72
11
 73
7
 74
0
 42
0.0000001
 43
0.0000001
 44
0.0000000001
 40
0.0
 40
0.0
 40
0.0
 40
0.0
 40
0.2383675674
 40
0.4891341873
 40
0.7445728507
 40
1.0
 40
1.0
 40
1.0
 40
1.0
 10
4.261862686
 20
5.8838513535
 30
0.0
 10
4.260857781
 20
5.8831267484
 30
0.0
 10
4.258787814
 20
5.881650726
 30
0.0
 10
4.255606916
 20
5.8794464234
 30
0.0
 10
4.2523195296
 20
5.8772408744
 30
0.0
 10
4.2500892748
 20
5.8757996628
 30
0.0
 10
4.2489668017
 20
5.8750907897
 30
0.0
  0
LINE
  5
374
100
AcDbEntity
  8
0
100
AcDbLine
 62
9
  6
CONTINUOUS
 10
4.3989553002
 20
5.4135235735
 11
4.3989622539
 21
5.288521197
  0
SPLINE
  5
375
100
AcDbEntity
  8
0
100
AcDbSpline
 62
9
  6
CONTINUOUS
 70
0
 71
3
 72
30
 73
26
 74
0
 42
0.0000001
 43
0.0000001
 44
0.0000000001
 40
0.0
 40
0.0
 40
0.0
 40
0.0
 40
0.0917287156
 40
0.182652522
 40
0.271722297
 40
0.3580804313
 40
0.4409291568
 40
0.5194983974
 40
0.5930682086
 40
0.6610421787
 40
0.722924598
 40
0.7514825995
 40
0.7784111247
 40
0.8036990574
 40
0.8273614399
 40
0.8494335995
 40
0.8699738143
 40
0.8890736188
 40
0.9068730405
 40
0.9235582258
 40
0.9393653423
 40
0.9545822734
 40
0.9695345396
 40
0.9845625949
 40
1.0
 40
1.0
 40
1.0
 40
1.0
 10
4.2681502128
 20
5.3972476064
 30
0.0
 10
4.2698693862
 20
5.3983250173
 30
0.0
 10
4.273256094
 20
5.4005293462
 30
0.0
 10
4.2781787042
 20
5.4039793384
 30
0.0
 10
4.2828805139
 20
5.4075311438
 30
0.0
 10
4.287308262
 20
5.4111430018
 30
0.0
 10
4.2914134746
 20
5.4147761084
 30
0.0
 10
4.2951521373
 20
5.4183894239
 30
0.0
 10
4.2984822326
 20
5.4219440993
 30
0.0
 10
4.3013682227
 20
5.4253995183
 30
0.0
 10
4.3034293415
 20
5.4282377006
 30
0.0
 10
4.3048180188
 20
5.4304319786
 30
0.0
 10
4.3057019996
 20
5.4319854189
 30
0.0
 10
4.3064538961
 20
5.4334868706
 30
0.0
 10
4.3070719962
 20
5.4349322271
 30
0.0
 10
4.3075548172
 20
5.4363177171
 30
0.0
 10
4.3079008465
 20
5.4376398106
 30
0.0
 10
4.3081083538
 20
5.4388953099
 30
0.0
 10
4.3081765761
 20
5.4400811031
 30
0.0
 10
4.3081045991
 20
5.4411942744
 30
0.0
 10
4.3078911877
 20
5.4422315573
 30
0.0
 10
4.3075352149
 20
5.4431886521
 30
0.0
 10
4.307038338
 20
5.4440612721
 30
0.0
 10
4.3064034195
 20
5.4448451483
 30
0.0
 10
4.305899955
 20
5.4452976108
 30
0.0
 10
4.3056302822
 20
5.4455070487
 30
0.0
  0
LINE
  5
376
100
AcDbEntity
  8
0
100
AcDbLine
 62
9
  6
CONTINUOUS
 10
4.1639636487
 20
5.9230576827
 11
4.1658866637
 21
5.9233300734
  0
SPLINE
  5
377
100
AcDbEntity
  8
0
100
AcDbSpline
 62
9
  6
CONTINUOUS
 70
0
 71
3
 72
9
 73
5
 74
0
 42
0.0000001
 43
0.0000001
 44
0.0000000001
 40
0.0
 40
0.0
 40
0.0
 40
0.0
 40
0.5048846645
 40
1.0
 40
1.0
 40
1.0
 40
1.0
 10
4.1658866637
 20
5.9233300734
 30
0.0
 10
4.1665110667
 20
5.9233561452
 30
0.0
 10
4.1677568763
 20
5.9232840603
 30
0.0
 10
4.1689594183
 20
5.9229468697
 30
0.0
 10
4.1695278696
 20
5.9227178418
 30
0.0
  0
SPLINE
  5
378
100
AcDbEntity
  8
0
100
AcDbSpline
 62
9
  6
CONTINUOUS
 70
0
 71
3
 72
22
 73
18
 74
0
 42
0.0000001
 43
0.0000001
 44
0.0000000001
 40
0.0
 40
0.0
 40
0.0
 40
0.0
 40
0.035108683
 40
0.069943603
 40
0.1065037343
 40
0.1465162931
 40
0.168240458
 40
0.1912426477
 40
0.2413365505
 40
0.2970982687
 40
0.3585051328
 40
0.4253473659
 40
0.4972097262
 40
0.5735974541
 40
0.6539255715
 40
0.8237112337
 40
1.0
 40
1.0
 40
1.0
 40
1.0
 10
4.2680063815
 20
4.9729219101
 30
0.0
 10
4.2680712841
 20
4.9731570536
 30
0.0
 10
4.2681430424
 20
4.9736443713
 30
0.0
 10
4.2680490961
 20
4.974387078
 30
0.0
 10
4.2677549971
 20
4.9751113708
 30
0.0
 10
4.2673620713
 20
4.9756756699
 30
0.0
 10
4.2669666793
 20
4.9761124631
 30
0.0
 10
4.2664873346
 20
4.9765653434
 30
0.0
 10
4.265773216
 20
4.9771095133
 30
0.0
 10
4.2647770784
 20
4.9777112995
 30
0.0
 10
4.2636278949
 20
4.978274792
 30
0.0
 10
4.2623371296
 20
4.9787943682
 30
0.0
 10
4.2609178184
 20
4.9792650431
 30
0.0
 10
4.2593842764
 20
4.9796808465
 30
0.0
 10
4.2571669411
 20
4.9801639356
 30
0.0
 10
4.2542304491
 20
4.9805871087
 30
0.0
 10
4.2518267551
 20
4.9807276111
 30
0.0
 10
4.2506020477
 20
4.9807468844
 30
0.0
  0
SPLINE
  5
379
100
AcDbEntity
  8
0
100
AcDbSpline
 62
9
  6
CONTINUOUS
 70
0
 71
3
 72
31
 73
27
 74
0
 42
0.0000001
 43
0.0000001
 44
0.0000000001
 40
0.0
 40
0.0
 40
0.0
 40
0.0
 40
0.0925001464
 40
0.1841592669
 40
0.2739603491
 40
0.3610564175
 40
0.444630366
 40
0.5238840988
 40
0.5981015113
 40
0.6666492497
 40
0.6986363391
 40
0.7290215556
 40
0.7577604546
 40
0.7848257045
 40
0.8102003653
 40
0.8338806556
 40
0.8558882007
 40
0.8762707778
 40
0.895103305
 40
0.9125003939
 40
0.928631375
 40
0.943720418
 40
0.9580513621
 40
0.9719622884
 40
0.9858215432
 40
1.0
 40
1.0
 40
1.0
 40
1.0
 10
4.3388415112
 20
5.1735133588
 30
0.0
 10
4.3407770162
 20
5.1706008613
 30
0.0
 10
4.3445405059
 20
5.1647420076
 30
0.0
 10
4.3498644196
 20
5.1558561
 30
0.0
 10
4.3547992592
 20
5.1469811729
 30
0.0
 10
4.3592911876
 20
5.1382160174
 30
0.0
 10
4.3632928605
 20
5.1296544068
 30
0.0
 10
4.3667611917
 20
5.121388345
 30
0.0
 10
4.369659487
 20
5.113507971
 30
0.0
 10
4.3716172403
 20
5.1071940044
 30
0.0
 10
4.3728582979
 20
5.1024018634
 30
0.0
 10
4.3736073233
 20
5.0990390466
 30
0.0
 10
4.3741940877
 20
5.0958330289
 30
0.0
 10
4.3746174598
 20
5.0927923464
 30
0.0
 10
4.3748764311
 20
5.0899250156
 30
0.0
 10
4.3749697307
 20
5.0872385422
 30
0.0
 10
4.3748971991
 20
5.0847398547
 30
0.0
 10
4.3746592949
 20
5.0824351364
 30
0.0
 10
4.3742560219
 20
5.0803300692
 30
0.0
 10
4.3736868843
 20
5.0784300035
 30
0.0
 10
4.3729523832
 20
5.0767397212
 30
0.0
 10
4.3720524971
 20
5.0752641998
 30
0.0
 10
4.3709870586
 20
5.0740102119
 30
0.0
 10
4.3697591818
 20
5.072984707
 30
0.0
 10
4.368375953
 20
5.0721931738
 30
0.0
 10
4.3673737722
 20
5.0718306349
 30
0.0
 10
4.3668569591
 20
5.0716884423
 30
0.0
  0
LINE
  5
37A
100
AcDbEntity
  8
0
100
AcDbLine
 62
9
  6
CONTINUOUS
 10
4.3989532694
 20
5.2010228231
 11
4.3989553843
 21
5.0760235729
  0
LINE
  5
37B
100
AcDbEntity
  8
0
100
AcDbLine
 62
9
  6
CONTINUOUS
 10
3.9909703919
 20
5.606766036
 11
3.9809870685
 21
5.6062184095
  0
LINE
  5
37C
100
AcDbEntity
  8
0
100
AcDbLine
 62
9
  6
CONTINUOUS
 10
3.9838792177
 20
5.6069257182
 11
3.9809553753
 21
5.6067735732
  0
SPLINE
  5
37D
100
AcDbEntity
  8
0
100
AcDbSpline
 62
9
  6
CONTINUOUS
 70
0
 71
3
 72
19
 73
15
 74
0
 42
0.0000001
 43
0.0000001
 44
0.0000000001
 40
0.0
 40
0.0
 40
0.0
 40
0.0
 40
0.188187218
 40
0.367678196
 40
0.5323118423
 40
0.6769637378
 40
0.7404393066
 40
0.797364499
 40
0.8474355088
 40
0.8905016716
 40
0.9265631056
 40
0.9559804901
 40
0.9797703019
 40
1.0
 40
1.0
 40
1.0
 40
1.0
 10
3.9323239704
 20
5.8758717091
 30
0.0
 10
3.9317529933
 20
5.875661616
 30
0.0
 10
3.9306295322
 20
5.8752721928
 30
0.0
 10
3.9289816459
 20
5.8747742677
 30
0.0
 10
3.9274490339
 20
5.8743870037
 30
0.0
 10
3.9262649048
 20
5.8741575973
 30
0.0
 10
3.9254151754
 20
5.8740450117
 30
0.0
 10
3.924865725
 20
5.873998818
 30
0.0
 10
3.9243803449
 20
5.8739872267
 30
0.0
 10
3.923962718
 20
5.8740100081
 30
0.0
 10
3.9236154582
 20
5.8740670529
 30
0.0
 10
3.9233401202
 20
5.8741590203
 30
0.0
 10
3.9231361245
 20
5.8742870436
 30
0.0
 10
3.9230494409
 20
5.8744063908
 30
0.0
 10
3.9230250203
 20
5.8744670624
 30
0.0
  0
SPLINE
  5
37E
100
AcDbEntity
  8
0
100
AcDbSpline
 62
9
  6
CONTINUOUS
 70
0
 71
3
 72
20
 73
16
 74
0
 42
0.0000001
 43
0.0000001
 44
0.0000000001
 40
0.0
 40
0.0
 40
0.0
 40
0.0
 40
0.1273702281
 40
0.191458758
 40
0.2554892769
 40
0.319391626
 40
0.3831016649
 40
0.4465464263
 40
0.5096397427
 40
0.6343590991
 40
0.6961591463
 40
0.757541025
 40
0.8185837441
 40
0.8793837794
 40
1.0
 40
1.0
 40
1.0
 40
1.0
 10
3.9323715099
 20
5.8875866748
 30
0.0
 10
3.9315755874
 20
5.8875577978
 30
0.0
 10
3.9303787314
 20
5.8873743991
 30
0.0
 10
3.9288604594
 20
5.8868700554
 30
0.0
 10
3.9277689209
 20
5.8863630961
 30
0.0
 10
3.9267437365
 20
5.8857377254
 30
0.0
 10
3.9257995523
 20
5.8850015266
 30
0.0
 10
3.9249492817
 20
5.8841655305
 30
0.0
 10
3.923961443
 20
5.882940437
 30
0.0
 10
3.9232020873
 20
5.8815565636
 30
0.0
 10
3.9227123039
 20
5.8800826818
 30
0.0
 10
3.9224851249
 20
5.8789502777
 30
0.0
 10
3.9223998182
 20
5.8778045247
 30
0.0
 10
3.9224788507
 20
5.8762877796
 30
0.0
 10
3.92275285
 20
5.875170455
 30
0.0
 10
3.9230250203
 20
5.8744670624
 30
0.0
  0
SPLINE
  5
37F
100
AcDbEntity
  8
0
100
AcDbSpline
 62
9
  6
CONTINUOUS
 70
0
 71
3
 72
15
 73
11
 74
0
 42
0.0000001
 43
0.0000001
 44
0.0000000001
 40
0.0
 40
0.0
 40
0.0
 40
0.0
 40
0.1285885295
 40
0.256443119
 40
0.3832167415
 40
0.5087332307
 40
0.6329283843
 40
0.7560304887
 40
0.8784009882
 40
1.0
 40
1.0
 40
1.0
 40
1.0
 10
3.9269337427
 20
5.88756803
 30
0.0
 10
3.9264274359
 20
5.8872761024
 30
0.0
 10
3.9254643435
 20
5.8866083141
 30
0.0
 10
3.9242131608
 20
5.8853852663
 30
0.0
 10
3.9231954189
 20
5.8839783917
 30
0.0
 10
3.9224431977
 20
5.88243167
 30
0.0
 10
3.9219802958
 20
5.8807922967
 30
0.0
 10
3.9218209829
 20
5.879110082
 30
0.0
 10
3.921973608
 20
5.8774395925
 30
0.0
 10
3.9222773673
 20
5.8763653024
 30
0.0
 10
3.922477226
 20
5.8758500339
 30
0.0
  0
SPLINE
  5
380
100
AcDbEntity
  8
0
100
AcDbSpline
 62
9
  6
CONTINUOUS
 70
0
 71
3
 72
11
 73
7
 74
0
 42
0.0000001
 43
0.0000001
 44
0.0000000001
 40
0.0
 40
0.0
 40
0.0
 40
0.0
 40
0.2449223897
 40
0.4920409183
 40
0.7431389215
 40
1.0
 40
1.0
 40
1.0
 40
1.0
 10
4.0061019764
 20
5.9228622211
 30
0.0
 10
4.0063737222
 20
5.9229809914
 30
0.0
 10
4.0069382734
 20
5.9231792501
 30
0.0
 10
4.007824766
 20
5.9233505405
 30
0.0
 10
4.0087409843
 20
5.923393965
 30
0.0
 10
4.0093556842
 20
5.9233381321
 30
0.0
 10
4.0096629816
 20
5.9232901332
 30
0.0
  0
SPLINE
  5
381
100
AcDbEntity
  8
0
100
AcDbSpline
 62
9
  6
CONTINUOUS
 70
0
 71
3
 72
11
 73
7
 74
0
 42
0.0000001
 43
0.0000001
 44
0.0000000001
 40
0.0
 40
0.0
 40
0.0
 40
0.0
 40
0.2582976665
 40
0.5097173883
 40
0.7562059268
 40
1.0
 40
1.0
 40
1.0
 40
1.0
 10
3.9318215007
 20
5.8889753855
 30
0.0
 10
3.931476356
 20
5.8890524212
 30
0.0
 10
3.9307833044
 20
5.8891564776
 30
0.0
 10
3.9297438611
 20
5.8891532998
 30
0.0
 10
3.928737639
 20
5.8889874598
 30
0.0
 10
3.9280987935
 20
5.8887698328
 30
0.0
 10
3.9277929493
 20
5.8886361592
 30
0.0
  0
SPLINE
  5
382
100
AcDbEntity
  8
0
100
AcDbSpline
 62
9
  6
CONTINUOUS
 70
0
 71
3
 72
13
 73
9
 74
0
 42
0.0000001
 43
0.0000001
 44
0.0000000001
 40
0.0
 40
0.0
 40
0.0
 40
0.0
 40
0.2878582006
 40
0.4150603028
 40
0.5336171179
 40
0.6471437316
 40
0.7600534867
 40
1.0
 40
1.0
 40
1.0
 40
1.0
 10
4.1636710149
 20
5.9231675178
 30
0.0
 10
4.1635640729
 20
5.9233201804
 30
0.0
 10
4.1633986623
 20
5.9235336082
 30
0.0
 10
4.1631517228
 20
5.9237760197
 30
0.0
 10
4.1629680004
 20
5.923919745
 30
0.0
 10
4.1627736531
 20
5.924031699
 30
0.0
 10
4.1624902249
 20
5.9241392406
 30
0.0
 10
4.1622591887
 20
5.9241664554
 30
0.0
 10
4.1621038196
 20
5.9241668416
 30
0.0
  0
SPLINE
  5
383
100
AcDbEntity
  8
0
100
AcDbSpline
 62
9
  6
CONTINUOUS
 70
0
 71
3
 72
10
 73
6
 74
0
 42
0.0000001
 43
0.0000001
 44
0.0000000001
 40
0.0
 40
0.0
 40
0.0
 40
0.0
 40
0.5188438236
 40
0.7630498677
 40
1.0
 40
1.0
 40
1.0
 40
1.0
 10
4.1636710292
 20
5.9231675129
 30
0.0
 10
4.1644578943
 20
5.9233845946
 30
0.0
 10
4.1656644681
 20
5.9235688956
 30
0.0
 10
4.1672380087
 20
5.9234498902
 30
0.0
 10
4.1679782868
 20
5.9232728885
 30
0.0
 10
4.1683322192
 20
5.9231558647
 30
0.0
  0
SPLINE
  5
384
100
AcDbEntity
  8
0
100
AcDbSpline
 62
9
  6
CONTINUOUS
 70
0
 71
3
 72
11
 73
7
 74
0
 42
0.0000001
 43
0.0000001
 44
0.0000000001
 40
0.0
 40
0.0
 40
0.0
 40
0.0
 40
0.2422758485
 40
0.4878372433
 40
0.7396100325
 40
1.0
 40
1.0
 40
1.0
 40
1.0
 10
4.0079280444
 20
5.9235562119
 30
0.0
 10
4.0081708272
 20
5.9236351429
 30
0.0
 10
4.0086735076
 20
5.9237545536
 30
0.0
 10
4.0094538269
 20
5.9238119462
 30
0.0
 10
4.0102525707
 20
5.9237476523
 30
0.0
 10
4.0107806652
 20
5.9236269855
 30
0.0
 10
4.0110435617
 20
5.9235484428
 30
0.0
  0
LINE
  5
385
100
AcDbEntity
  8
0
100
AcDbLine
 62
9
  6
CONTINUOUS
 10
4.2022076379
 20
4.9368508592
 11
4.2032086146
 21
4.9363111556
  0
SPLINE
  5
386
100
AcDbEntity
  8
0
100
AcDbSpline
 62
9
  6
CONTINUOUS
 70
0
 71
3
 72
9
 73
5
 74
0
 42
0.0000001
 43
0.0000001
 44
0.0000000001
 40
0.0
 40
0.0
 40
0.0
 40
0.0
 40
0.5240546029
 40
1.0
 40
1.0
 40
1.0
 40
1.0
 10
4.2032086146
 20
4.9363111556
 30
0.0
 10
4.2035188003
 20
4.9361760049
 30
0.0
 10
4.2041335905
 20
4.9359656141
 30
0.0
 10
4.2047816616
 20
4.9358895061
 30
0.0
 10
4.205088917
 20
4.9358940541
 30
0.0
  0
LINE
  5
387
100
AcDbEntity
  8
0
100
AcDbLine
 62
9
  6
CONTINUOUS
 10
4.205088917
 20
4.9358940541
 11
4.2063316922
 21
4.936163569
  0
SPLINE
  5
388
100
AcDbEntity
  8
0
100
AcDbSpline
 62
9
  6
CONTINUOUS
 70
0
 71
3
 72
11
 73
7
 74
0
 42
0.0000001
 43
0.0000001
 44
0.0000000001
 40
0.0
 40
0.0
 40
0.0
 40
0.0
 40
0.2817611343
 40
0.5388917165
 40
0.775422558
 40
1.0
 40
1.0
 40
1.0
 40
1.0
 10
4.0225613935
 20
4.9699656885
 30
0.0
 10
4.0221108033
 20
4.9697464714
 30
0.0
 10
4.0212111432
 20
4.9693976603
 30
0.0
 10
4.0198386617
 20
4.9691721305
 30
0.0
 10
4.0185512051
 20
4.9692870097
 30
0.0
 10
4.0177765608
 20
4.9695983576
 30
0.0
 10
4.0174336742
 20
4.9698031538
 30
0.0
  0
SPLINE
  5
389
100
AcDbEntity
  8
0
100
AcDbSpline
 62
9
  6
CONTINUOUS
 70
0
 71
3
 72
11
 73
7
 74
0
 42
0.0000001
 43
0.0000001
 44
0.0000000001
 40
0.0
 40
0.0
 40
0.0
 40
0.0
 40
0.2285682275
 40
0.4669867263
 40
0.7225517301
 40
1.0
 40
1.0
 40
1.0
 40
1.0
 10
4.07287724
 20
4.9366883245
 30
0.0
 10
4.0731815914
 20
4.9365065443
 30
0.0
 10
4.0738582674
 20
4.936220455
 30
0.0
 10
4.0749792578
 20
4.9360652104
 30
0.0
 10
4.0761794077
 20
4.9361794896
 30
0.0
 10
4.0769759569
 20
4.9364193594
 30
0.0
 10
4.0773768824
 20
4.9365756652
 30
0.0
  0
SPLINE
  5
38A
100
AcDbEntity
  8
0
100
AcDbSpline
 62
9
  6
CONTINUOUS
 70
0
 71
3
 72
14
 73
10
 74
0
 42
0.0000001
 43
0.0000001
 44
0.0000000001
 40
0.0
 40
0.0
 40
0.0
 40
0.0
 40
0.1166892831
 40
0.2347521722
 40
0.3547837356
 40
0.4775485662
 40
0.6035816736
 40
0.7329426871
 40
1.0
 40
1.0
 40
1.0
 40
1.0
 10
4.0125708182
 20
4.9779543466
 30
0.0
 10
4.0125894847
 20
4.9775247026
 30
0.0
 10
4.0127073343
 20
4.9766619444
 30
0.0
 10
4.0131144469
 20
4.975412447
 30
0.0
 10
4.0137461932
 20
4.9742344625
 30
0.0
 10
4.0145838761
 20
4.973156294
 30
0.0
 10
4.0156089094
 20
4.9722032192
 30
0.0
 10
4.0172039435
 20
4.9711153688
 30
0.0
 10
4.0185841288
 20
4.9705645658
 30
0.0
 10
4.0195379707
 20
4.9703219282
 30
0.0
  0
SPLINE
  5
38B
100
AcDbEntity
  8
0
100
AcDbSpline
 62
9
  6
CONTINUOUS
 70
0
 71
3
 72
15
 73
11
 74
0
 42
0.0000001
 43
0.0000001
 44
0.0000000001
 40
0.0
 40
0.0
 40
0.0
 40
0.0
 40
0.114424482
 40
0.2307011136
 40
0.349871779
 40
0.4729103324
 40
0.6000194133
 40
0.7308474911
 40
0.8647069836
 40
1.0
 40
1.0
 40
1.0
 40
1.0
 10
4.0124683398
 20
4.9803116646
 30
0.0
 10
4.0124917203
 20
4.9797741544
 30
0.0
 10
4.0126648173
 20
4.978692129
 30
0.0
 10
4.0132844785
 20
4.9771544259
 30
0.0
 10
4.0142431293
 20
4.9757525951
 30
0.0
 10
4.0155009644
 20
4.9745393422
 30
0.0
 10
4.0170092233
 20
4.9735544394
 30
0.0
 10
4.0187147184
 20
4.9728334319
 30
0.0
 10
4.0205537107
 20
4.9724021577
 30
0.0
 10
4.0218228024
 20
4.972315477
 30
0.0
 10
4.022458893
 20
4.9723235169
 30
0.0
  0
SPLINE
  5
38C
100
AcDbEntity
  8
0
100
AcDbSpline
 62
9
  6
CONTINUOUS
 70
0
 71
3
 72
15
 73
11
 74
0
 42
0.0000001
 43
0.0000001
 44
0.0000000001
 40
0.0
 40
0.0
 40
0.0
 40
0.0
 40
0.115065144
 40
0.2318479232
 40
0.3511012423
 40
0.4736671941
 40
0.6000542625
 40
0.7303238149
 40
0.8640809257
 40
1.0
 40
1.0
 40
1.0
 40
1.0
 10
4.2680063779
 20
4.9729219161
 30
0.0
 10
4.2678822997
 20
4.972472449
 30
0.0
 10
4.2675381736
 20
4.9715902143
 30
0.0
 10
4.2667659983
 20
4.9703847964
 30
0.0
 10
4.2657538645
 20
4.96932982
 30
0.0
 10
4.2645364829
 20
4.9684536875
 30
0.0
 10
4.2631470259
 20
4.9677807225
 30
0.0
 10
4.2616246474
 20
4.9673264651
 30
0.0
 10
4.2600131046
 20
4.9671066491
 30
0.0
 10
4.2589159489
 20
4.9671161739
 30
0.0
 10
4.2583669268
 20
4.9671602137
 30
0.0
  0
SPLINE
  5
38D
100
AcDbEntity
  8
0
100
AcDbSpline
 62
9
  6
CONTINUOUS
 70
0
 71
3
 72
15
 73
11
 74
0
 42
0.0000001
 43
0.0000001
 44
0.0000000001
 40
0.0
 40
0.0
 40
0.0
 40
0.0
 40
0.1168254459
 40
0.2350492422
 40
0.3551661447
 40
0.4778046714
 40
0.6034745017
 40
0.7324490122
 40
0.8647071475
 40
1.0
 40
1.0
 40
1.0
 40
1.0
 10
4.2666855801
 20
4.9677602812
 30
0.0
 10
4.2665940487
 20
4.9673723008
 30
0.0
 10
4.266341063
 20
4.9666063391
 30
0.0
 10
4.2657708002
 20
4.9655308802
 30
0.0
 10
4.265017563
 20
4.9645491759
 30
0.0
 10
4.2640990166
 20
4.9636834706
 30
0.0
 10
4.2630357167
 20
4.9629493835
 30
0.0
 10
4.261848299
 20
4.9623624005
 30
0.0
 10
4.260561455
 20
4.9619319964
 30
0.0
 10
4.2596620455
 20
4.9617587873
 30
0.0
 10
4.2592041898
 20
4.9616997554
 30
0.0
  0
SPLINE
  5
38E
100
AcDbEntity
  8
0
100
AcDbSpline
 62
7
  6
CONTINUOUS
 70
0
 71
3
 72
10
 73
6
 74
0
 42
0.0000001
 43
0.0000001
 44
0.0000000001
 40
0.0
 40
0.0
 40
0.0
 40
0.0
 40
0.5196967844
 40
0.7659883589
 40
1.0
 40
1.0
 40
1.0
 40
1.0
 10
4.4857612019
 20
5.1224617246
 30
0.0
 10
4.489998898
 20
5.1222289056
 30
0.0
 10
4.496242555
 20
5.121378939
 30
0.0
 10
4.504094993
 20
5.1190999173
 30
0.0
 10
4.5077352046
 20
5.1176115943
 30
0.0
 10
4.5094564753
 20
5.1167813335
 30
0.0
  0
SPLINE
  5
38F
100
AcDbEntity
  8
0
100
AcDbSpline
 62
7
  6
CONTINUOUS
 70
0
 71
3
 72
22
 73
18
 74
0
 42
0.0000001
 43
0.0000001
 44
0.0000000001
 40
0.0
 40
0.0
 40
0.0
 40
0.0
 40
0.0424493491
 40
0.084878028
 40
0.1283565927
 40
0.1738649752
 40
0.2222292025
 40
0.2740698346
 40
0.3298016451
 40
0.3896539584
 40
0.453700848
 40
0.5218562643
 40
0.5939322482
 40
0.6696454836
 40
0.7486331668
 40
0.8304674157
 40
1.0
 40
1.0
 40
1.0
 40
1.0
 10
4.5194101777
 20
5.1024110215
 30
0.0
 10
4.5194101929
 20
5.1018124348
 30
0.0
 10
4.5193054164
 20
5.1006125083
 30
0.0
 10
4.518820836
 20
5.098858831
 30
0.0
 10
4.5180179614
 20
5.0971786066
 30
0.0
 10
4.5169057823
 20
5.0955836559
 30
0.0
 10
4.5154969952
 20
5.0940796077
 30
0.0
 10
4.5138047568
 20
5.0926682141
 30
0.0
 10
4.5118415658
 20
5.0913505196
 30
0.0
 10
4.5096221228
 20
5.0901243467
 30
0.0
 10
4.5071611766
 20
5.0889891224
 30
0.0
 10
4.5044762933
 20
5.087941551
 30
0.0
 10
4.5015860413
 20
5.0869794544
 30
0.0
 10
4.4985106607
 20
5.0861000515
 30
0.0
 10
4.4952719079
 20
5.0853001021
 30
0.0
 10
4.4907160816
 20
5.0843253701
 30
0.0
 10
4.4872207628
 20
5.0837254434
 30
0.0
 10
4.484856669
 20
5.083370353
 30
0.0
  0
SPLINE
  5
390
100
AcDbEntity
  8
0
100
AcDbSpline
 62
7
  6
CONTINUOUS
 70
0
 71
3
 72
28
 73
24
 74
0
 42
0.0000001
 43
0.0000001
 44
0.0000000001
 40
0.0
 40
0.0
 40
0.0
 40
0.0
 40
0.0176262931
 40
0.0360192986
 40
0.0554051089
 40
0.0759565652
 40
0.0977950809
 40
0.1210048587
 40
0.1456344245
 40
0.1716913584
 40
0.2279850751
 40
0.258155909
 40
0.2895725261
 40
0.3557798119
 40
0.4258020929
 40
0.4986845096
 40
0.5733787535
 40
0.6487951372
 40
0.7238295376
 40
0.7974119954
 40
0.8685349987
 40
0.9363110417
 40
1.0
 40
1.0
 40
1.0
 40
1.0
 10
4.5191349766
 20
5.1024615758
 30
0.0
 10
4.5190205091
 20
5.1020127403
 30
0.0
 10
4.5187168088
 20
5.1011121345
 30
0.0
 10
4.5180637371
 20
5.0998063424
 30
0.0
 10
4.5172087534
 20
5.0985295934
 30
0.0
 10
4.5161575685
 20
5.097288533
 30
0.0
 10
4.5149161768
 20
5.0960887307
 30
0.0
 10
4.5134902591
 20
5.0949366139
 30
0.0
 10
4.5118864005
 20
5.0938384946
 30
0.0
 10
4.5094590676
 20
5.0924165194
 30
0.0
 10
4.506767523
 20
5.0911728724
 30
0.0
 10
4.5038631061
 20
5.0900935032
 30
0.0
 10
4.5006606787
 20
5.0890779059
 30
0.0
 10
4.4963733403
 20
5.0880386691
 30
0.0
 10
4.4909409513
 20
5.0871759283
 30
0.0
 10
4.4852373489
 20
5.0867011807
 30
0.0
 10
4.4793730332
 20
5.0866276465
 30
0.0
 10
4.4734612655
 20
5.0869646684
 30
0.0
 10
4.4676162742
 20
5.0877101564
 30
0.0
 10
4.4619511116
 20
5.0888562372
 30
0.0
 10
4.456574705
 20
5.090387005
 30
0.0
 10
4.4515907047
 20
5.0922774091
 30
0.0
 10
4.4484868811
 20
5.0938116034
 30
0.0
 10
4.4470317632
 20
5.0946385562
 30
0.0
  0
LINE
  5
391
100
AcDbEntity
  8
0
100
AcDbLine
 62
7
  6
CONTINUOUS
 10
4.4451392794
 20
5.0822498964
 11
4.4410801103
 21
5.0852977766
  0
LINE
  5
392
100
AcDbEntity
  8
0
100
AcDbLine
 62
7
  6
CONTINUOUS
 10
4.4410801103
 20
5.0852977766
 11
4.4393854122
 21
5.0869340317
  0
SPLINE
  5
393
100
AcDbEntity
  8
0
100
AcDbSpline
 62
7
  6
CONTINUOUS
 70
0
 71
3
 72
15
 73
11
 74
0
 42
0.0000001
 43
0.0000001
 44
0.0000000001
 40
0.0
 40
0.0
 40
0.0
 40
0.0
 40
0.1249026746
 40
0.2498258689
 40
0.3748775679
 40
0.5000279649
 40
0.6251775172
 40
0.750224563
 40
0.8751329292
 40
1.0
 40
1.0
 40
1.0
 40
1.0
 10
4.5549553753
 20
5.0869733586
 30
0.0
 10
4.5484414
 20
5.0869951676
 30
0.0
 10
4.5354099504
 20
5.0866857752
 30
0.0
 10
4.5158966053
 20
5.0854242146
 30
0.0
 10
4.4964138648
 20
5.0836298367
 30
0.0
 10
4.4769473913
 20
5.0815653098
 30
0.0
 10
4.4574820648
 20
5.0794926231
 30
0.0
 10
4.4380027761
 20
5.0776737427
 30
0.0
 10
4.4184951702
 20
5.0763712734
 30
0.0
 10
4.4054675226
 20
5.0760235736
 30
0.0
 10
4.3989553676
 20
5.0760235732
 30
0.0
  0
SPLINE
  5
394
100
AcDbEntity
  8
0
100
AcDbSpline
 62
7
  6
CONTINUOUS
 70
0
 71
3
 72
11
 73
7
 74
0
 42
0.0000001
 43
0.0000001
 44
0.0000000001
 40
0.0
 40
0.0
 40
0.0
 40
0.0
 40
0.2502169985
 40
0.4999825279
 40
0.7497626509
 40
1.0
 40
1.0
 40
1.0
 40
1.0
 10
4.5549553753
 20
5.2057675215
 30
0.0
 10
4.5419386231
 20
5.2056088266
 30
0.0
 10
4.5159313686
 20
5.2050553613
 30
0.0
 10
4.4769450315
 20
5.2037795664
 30
0.0
 10
4.4379641596
 20
5.2023262333
 30
0.0
 10
4.4119660637
 20
5.201418095
 30
0.0
 10
4.3989532714
 20
5.2010233505
 30
0.0
  0
LINE
  5
395
100
AcDbEntity
  8
0
100
AcDbLine
 62
7
  6
CONTINUOUS
 10
4.484856669
 20
5.083370353
 11
4.4769552151
 21
5.0834025813
  0
SPLINE
  5
396
100
AcDbEntity
  8
0
100
AcDbSpline
 62
7
  6
CONTINUOUS
 70
0
 71
3
 72
11
 73
7
 74
0
 42
0.0000001
 43
0.0000001
 44
0.0000000001
 40
0.0
 40
0.0
 40
0.0
 40
0.0
 40
0.221613459
 40
0.461826242
 40
0.7212616046
 40
1.0
 40
1.0
 40
1.0
 40
1.0
 10
4.4387904934
 20
5.0842061174
 30
0.0
 10
4.4392287288
 20
5.0839817087
 30
0.0
 10
4.4401684126
 20
5.0835648914
 30
0.0
 10
4.4416854811
 20
5.0830444052
 30
0.0
 10
4.4433579282
 20
5.0825999445
 30
0.0
 10
4.4445298944
 20
5.0823600661
 30
0.0
 10
4.4451392794
 20
5.0822498964
 30
0.0
  0
SPLINE
  5
397
100
AcDbEntity
  8
0
100
AcDbSpline
 62
7
  6
CONTINUOUS
 70
0
 71
3
 72
11
 73
7
 74
0
 42
0.0000001
 43
0.0000001
 44
0.0000000001
 40
0.0
 40
0.0
 40
0.0
 40
0.0
 40
0.2502126925
 40
0.499982637
 40
0.7497669944
 40
1.0
 40
1.0
 40
1.0
 40
1.0
 10
4.5549553753
 20
5.283364917
 30
0.0
 10
4.5419384365
 20
5.2835607319
 30
0.0
 10
4.5159309952
 20
5.2841858917
 30
0.0
 10
4.4769451875
 20
5.2855643909
 30
0.0
 10
4.437965229
 20
5.2871184473
 30
0.0
 10
4.4119677655
 20
5.2880943348
 30
0.0
 10
4.3989553753
 20
5.2885235874
 30
0.0
  0
SPLINE
  5
398
100
AcDbEntity
  8
0
100
AcDbSpline
 62
7
  6
CONTINUOUS
 70
0
 71
3
 72
15
 73
11
 74
0
 42
0.0000001
 43
0.0000001
 44
0.0000000001
 40
0.0
 40
0.0
 40
0.0
 40
0.0
 40
0.1249026744
 40
0.2498258698
 40
0.3748775708
 40
0.5000279695
 40
0.6251775223
 40
0.7502245669
 40
0.8751329306
 40
1.0
 40
1.0
 40
1.0
 40
1.0
 10
4.5549553753
 20
5.4025737994
 30
0.0
 10
4.5484413972
 20
5.4025519905
 30
0.0
 10
4.5354099419
 20
5.4028613839
 30
0.0
 10
4.5158965882
 20
5.4041229477
 30
0.0
 10
4.4964138392
 20
5.4059173292
 30
0.0
 10
4.4769473573
 20
5.4079818589
 30
0.0
 10
4.4574820222
 20
5.4100545464
 30
0.0
 10
4.4380027248
 20
5.4118734244
 30
0.0
 10
4.4184951102
 20
5.4131758868
 30
0.0
 10
4.4054674568
 20
5.4135235781
 30
0.0
 10
4.3989552991
 20
5.4135235732
 30
0.0
  0
SPLINE
  5
399
100
AcDbEntity
  8
ALL_FEATURES
100
AcDbSpline
 62
7
  6
CONTINUOUS
 70
0
 71
3
 72
23
 73
19
 74
0
 42
0.0000001
 43
0.0000001
 44
0.0000000001
 40
0.0
 40
0.0
 40
0.0
 40
0.0
 40
0.0389138738
 40
0.1482036724
 40
0.2238482954
 40
0.3098483236
 40
0.3557672002
 40
0.4030646136
 40
0.4512970421
 40
0.4999994331
 40
0.5487019825
 40
0.5969346648
 40
0.6442322483
 40
0.6901511995
 40
0.7761511838
 40
0.8517956158
 40
0.9610860392
 40
1.0
 40
1.0
 40
1.0
 40
1.0
 10
4.8535178753
 20
4.0831594
 30
0.0
 10
4.8509333233
 20
4.0825243662
 30
0.0
 10
4.8410690485
 20
4.0801876994
 30
0.0
 10
4.8260570878
 20
4.0771427241
 30
0.0
 10
4.8077505112
 20
4.0742457951
 30
0.0
 10
4.7936476862
 20
4.0725749678
 30
0.0
 10
4.7814332072
 20
4.0715350111
 30
0.0
 10
4.7717760079
 20
4.070938832
 30
0.0
 10
4.761916828
 20
4.0705726289
 30
0.0
 10
4.7519554808
 20
4.0704470705
 30
0.0
 10
4.7419941164
 20
4.0705726315
 30
0.0
 10
4.7321348962
 20
4.0709388216
 30
0.0
 10
4.7224776628
 20
4.0715350037
 30
0.0
 10
4.7102631696
 20
4.0725749551
 30
0.0
 10
4.6961603552
 20
4.074245779
 30
0.0
 10
4.6778537514
 20
4.0771427063
 30
0.0
 10
4.6628417552
 20
4.0801876868
 30
0.0
 10
4.652977433
 20
4.0825243648
 30
0.0
 10
4.6503928753
 20
4.0831594
 30
0.0
  0
ENDSEC
  0
SECTION
  2
OBJECTS
  0
DICTIONARY
  5
C
100
AcDbDictionary
280
0
281
1
  3
ACAD_GROUP
350
D
  3
ACAD_MLINESTYLE
350
17
  3
ACAD_LAYOUT
350
1A
  3
ACAD_PLOTSETTINGS
350
19
  3
ACAD_PLOTSTYLENAME
350
E
  0
DICTIONARY
  5
D
102
{ACAD_REACTORS
330
C
102
}
100
AcDbDictionary
280
0
281
1
  0
ACDBDICTIONARYWDFLT
  5
E
102
{ACAD_REACTORS
330
C
102
}
100
AcDbDictionary
281
1
  3
Normal
350
F
100
AcDbDictionaryWithDefault
340
F
  0
DICTIONARY
  5
17
102
{ACAD_REACTORS
330
C
102
}
100
AcDbDictionary
280
0
281
1
  3
Standard
350
18
  0
DICTIONARY
  5
19
102
{ACAD_REACTORS
330
C
102
}
100
AcDbDictionary
281
1
  0
DICTIONARY
  5
1A
102
{ACAD_REACTORS
330
C
102
}
100
AcDbDictionary
281
1
  3
Model
350
39A
  3
Layout1
350
39B
  0
ACDBPLACEHOLDER
  5
F
102
{ACAD_REACTORS
330
E
102
}
  0
MLINESTYLE
  5
18
102
{ACAD_REACTORS
330
17
102
}
100
AcDbMlineStyle
  2
STANDARD
 70
0
  3

 62
256
 51
90.0
 52
90.0
 71
2
 49
0.5
 62
256
  6
BYLAYER
 49
-0.5
 62
256
  6
BYLAYER
  0
LAYOUT
  5
39A
102
{ACAD_REACTORS
330
1A
102
}
100
AcDbPlotSettings
  1

  2
none_device
  4
ANSI_A_(11.00_x_8.50_Inches)
  6

 40
0.0
 41
0.0
 42
0.0
 43
0.0
 44
279.4
 45
215.9
 46
0.0
 47
0.0
 48
0.0
 49
0.0
140
0.0
141
0.0
142
1.0
143
1.0
 70
1024
 72
0
 73
0
 74
0
  7

 75
0
147
1.0
148
0.0
149
0.0
100
AcDbLayout
  1
Model
 70
0
 71
0
 10
0.0
 20
0.0
 11
11.0
 21
8.5
 12
0.0
 22
0.0
 32
0.0
 14
0.0
 24
0.0
 34
0.0
 15
0.0
 25
0.0
 35
0.0
146
0.0
 13
0.0
 23
0.0
 33
0.0
 16
1.0
 26
0.0
 36
0.0
 17
0.0
 27
1.0
 37
0.0
 76
0
330
220
345
0
346
0
  0
LAYOUT
  5
39B
102
{ACAD_REACTORS
330
1A
102
}
100
AcDbPlotSettings
  1

  2
none_device
  4
ANSI_A_(11.00_x_8.50_Inches)
  6

 40
0.0
 41
0.0
 42
0.0
 43
0.0
 44
279.4
 45
215.9
 46
0.0
 47
0.0
 48
0.0
 49
0.0
140
0.0
141
0.0
142
1.0
143
1.0
 70
0
 72
0
 73
0
 74
0
  7

 75
0
147
1.0
148
0.0
149
0.0
100
AcDbLayout
  1
Layout1
 70
0
 71
1
 10
0.0
 20
0.0
 11
11.0
 21
8.5
 12
0.0
 22
0.0
 32
0.0
 14
0.0
 24
0.0
 34
0.0
 15
0.0
 25
0.0
 35
0.0
146
0.0
 13
0.0
 23
0.0
 33
0.0
 16
1.0
 26
0.0
 36
0.0
 17
0.0
 27
1.0
 37
0.0
 76
0
330
221
345
0
346
0
  0
ENDSEC
  0
EOF
