999
DXF file: E:\BT Custom\CADOUTPUT\_RIGHT.dxf
999
Pro/ENGINEER 2018400 by Parametric Technology Corporation
  0
SECTION
  2
HEADER
  9
$ACADVER
  1
AC1018
  9
$DWGCODEPAGE
  3
ANSI_1252
  9
$EXTMAX
 10
22.0
 20
17.0
 30
0.0
  9
$EXTMIN
 10
0.0
 20
0.0
 30
0.0
  9
$LIMMIN
 10
0.0
 20
0.0
  9
$LIMMAX
 10
22.0
 20
17.0
  9
$VIEWCTR
 10
11.0
 20
8.5
  9
$VIEWSIZE
 40
17.0
  9
$CLAYER
  8
0
  9
$LTSCALE
 40
1.21
  9
$CELTYPE
  6
BYLAYER
  9
$DIMSCALE
 40
1.0
  9
$DIMASZ
 40
0.1
  9
$DIMEXO
 40
0.0625
  9
$DIMDLI
 40
0.836
  9
$DIMEXE
 40
0.125
  9
$DIMCEN
 40
0.198
  9
$DIMLFAC
 40
1.0
  9
$DIMBLK
  1
_FILLED
  9
$DIMALT
 70
1
  9
$DIMALTD
 70
2
  9
$DIMALTTD
 70
2
  9
$DIMALTF
 40
25.4
  9
$DIMTXT
 40
0.08
  9
$DIMTOL
 70
1
  9
$DIMLIM
 70
0
  9
$DIMTFAC
 40
1.0
  9
$DIMTP
 40
0.001
  9
$DIMTM
 40
0.001
  9
$DIMGAP
 40
0.09
  9
$DIMDSEP
 70
46
  9
$AUNITS
 70
0
  9
$PDMODE
 70
3
  9
$PDSIZE
 40
0.06
  9
$HANDSEED
  5
5BE
  9
$TILEMODE
 70
1
  9
$MEASUREMENT
 70
0
  9
$INSUNITS
 70
1
  0
ENDSEC
  0
SECTION
  2
CLASSES
  0
CLASS
  1
ACDBDICTIONARYWDFLT
  2
AcDbDictionaryWithDefault
  3
AutoCAD 2000
 90
0
 91
1
280
0
281
0
  0
CLASS
  1
ACDBPLACEHOLDER
  2
AcDbPlaceHolder
  3
AutoCAD 2000
 90
0
 91
1
280
0
281
0
  0
CLASS
  1
LAYOUT
  2
AcDbLayout
  3
AutoCAD 2000
 90
0
 91
0
280
0
281
0
  0
ENDSEC
  0
SECTION
  2
TABLES
  0
TABLE
  2
VPORT
  5
8
100
AcDbSymbolTable
 70
2
  0
VPORT
  5
1F4
100
AcDbSymbolTableRecord
100
AcDbViewportTableRecord
  2
*ACTIVE
 70
0
 10
0.0
 20
0.0
 11
1.0
 21
1.0
 12
11.0
 22
8.5
 13
0.0
 23
0.0
 14
1.0
 24
1.0
 15
0.0
 25
0.0
 16
0.0
 26
0.0
 36
1.0
 17
0.0
 27
0.0
 37
0.0
 40
17.0
 41
1.2941176471
 42
50.0
 43
0.0
 44
0.0
 50
0.0
 51
0.0
 71
0
 72
100
 73
1
 74
1
 75
0
 76
0
 77
0
 78
0
  0
ENDTAB
  0
TABLE
  2
LTYPE
  5
5
100
AcDbSymbolTable
 70
6
  0
LTYPE
  5
14
100
AcDbSymbolTableRecord
100
AcDbLinetypeTableRecord
  2
BYBLOCK
 70
0
  3

 72
65
 73
0
 40
0.0
  0
LTYPE
  5
15
100
AcDbSymbolTableRecord
100
AcDbLinetypeTableRecord
  2
BYLAYER
 70
0
  3

 72
65
 73
0
 40
0.0
  0
LTYPE
  5
16
100
AcDbSymbolTableRecord
100
AcDbLinetypeTableRecord
  2
CONTINUOUS
 70
64
  3
Solid line
 72
65
 73
0
 40
0.0
  0
LTYPE
  5
1F5
100
AcDbSymbolTableRecord
100
AcDbLinetypeTableRecord
  2
CENTER
 70
64
  3
____ _ ____ _ ____ _ ____ _ ____ _ ____ _ ____
 72
65
 73
4
 40
0.6
 49
0.375
 74
0
 49
-0.075
 74
0
 49
0.075
 74
0
 49
-0.075
 74
0
  0
LTYPE
  5
1F6
100
AcDbSymbolTableRecord
100
AcDbLinetypeTableRecord
  2
HIDDEN
 70
64
  3
- - - - - - - - - - - - - - - - - - - -
 72
65
 73
2
 40
0.2
 49
0.1
 74
0
 49
-0.1
 74
0
  0
LTYPE
  5
1F7
100
AcDbSymbolTableRecord
100
AcDbLinetypeTableRecord
  2
PHANTOM
 70
64
  3
_____ _ _ _____ _ _ _____ _ _ _____
 72
65
 73
6
 40
0.8
 49
0.45
 74
0
 49
-0.05
 74
0
 49
0.1
 74
0
 49
-0.05
 74
0
 49
0.1
 74
0
 49
-0.05
 74
0
  0
LTYPE
  5
1F8
100
AcDbSymbolTableRecord
100
AcDbLinetypeTableRecord
  2
DOT
 70
64
  3
. . . . . . . . . . . . . . . . . . . .
 72
65
 73
2
 40
0.2
 49
0.1
 74
0
 49
-0.1
 74
0
  0
LTYPE
  5
1F9
100
AcDbSymbolTableRecord
100
AcDbLinetypeTableRecord
  2
DASHED
 70
64
  3
- - - - - - - - - - - - - - - - - - - -
 72
65
 73
2
 40
0.2
 49
0.1
 74
0
 49
-0.1
 74
0
  0
ENDTAB
  0
TABLE
  2
LAYER
  5
2
100
AcDbSymbolTable
 70
36
  0
LAYER
  5
10
100
AcDbSymbolTableRecord
100
AcDbLayerTableRecord
  2
0
 70
0
 62
7
  6
CONTINUOUS
370
-3
390
F
  0
LAYER
  5
1FA
100
AcDbSymbolTableRecord
100
AcDbLayerTableRecord
  2
DEFAULT_1
 70
0
 62
7
  6
CENTER
370
-3
390
F
  0
LAYER
  5
1FB
100
AcDbSymbolTableRecord
100
AcDbLayerTableRecord
  2
DEFAULT_2
 70
0
 62
8
  6
HIDDEN
370
-3
390
F
  0
LAYER
  5
1FC
100
AcDbSymbolTableRecord
100
AcDbLayerTableRecord
  2
DEFAULT_3
 70
0
 62
7
  6
PHANTOM
370
-3
390
F
  0
LAYER
  5
1FD
100
AcDbSymbolTableRecord
100
AcDbLayerTableRecord
  2
ALL_FEATURES
 70
0
 62
7
  6
CONTINUOUS
370
-3
390
F
  0
LAYER
  5
1FE
100
AcDbSymbolTableRecord
100
AcDbLayerTableRecord
  2
AXES_FEATURES
 70
0
 62
7
  6
CONTINUOUS
370
-3
390
F
  0
LAYER
  5
1FF
100
AcDbSymbolTableRecord
100
AcDbLayerTableRecord
  2
DEFAULT_COORDINATE_SYSTEM
 70
0
 62
7
  6
CONTINUOUS
370
-3
390
F
  0
LAYER
  5
200
100
AcDbSymbolTableRecord
100
AcDbLayerTableRecord
  2
DEFAULT_DATUM_AXES
 70
0
 62
7
  6
CONTINUOUS
370
-3
390
F
  0
LAYER
  5
201
100
AcDbSymbolTableRecord
100
AcDbLayerTableRecord
  2
DEFAULT_DATUM_PLANES
 70
0
 62
7
  6
CONTINUOUS
370
-3
390
F
  0
LAYER
  5
202
100
AcDbSymbolTableRecord
100
AcDbLayerTableRecord
  2
DIMENSIONS
 70
0
 62
7
  6
CONTINUOUS
370
-3
390
F
  0
ENDTAB
  0
TABLE
  2
STYLE
  5
3
100
AcDbSymbolTable
 70
1
  0
STYLE
  5
11
100
AcDbSymbolTableRecord
100
AcDbTextStyleTableRecord
  2
STANDARD
 70
0
 40
0.0
 41
0.8
 50
0.0
 71
0
 42
0.2
  3
txt
  4

  0
STYLE
  5
203
100
AcDbSymbolTableRecord
100
AcDbTextStyleTableRecord
  2
TEXTSTYLE_1
 70
0
 40
0.0
 41
0.8
 50
0.0
 71
0
 42
0.2
  3
gdt
  4

  0
ENDTAB
  0
TABLE
  2
VIEW
  5
6
100
AcDbSymbolTable
 70
0
  0
ENDTAB
  0
TABLE
  2
UCS
  5
7
100
AcDbSymbolTable
 70
0
  0
ENDTAB
  0
TABLE
  2
APPID
  5
9
100
AcDbSymbolTable
 70
1
  0
APPID
  5
204
100
AcDbSymbolTableRecord
100
AcDbRegAppTableRecord
  2
ACAD
 70
0
  0
ENDTAB
  0
TABLE
  2
BLOCK_RECORD
  5
1
100
AcDbSymbolTable
 70
0
  0
BLOCK_RECORD
  5
205
100
AcDbSymbolTableRecord
100
AcDbBlockTableRecord
  2
*Model_Space
  0
BLOCK_RECORD
  5
206
100
AcDbSymbolTableRecord
100
AcDbBlockTableRecord
  2
*Paper_Space
  0
BLOCK_RECORD
  5
207
100
AcDbSymbolTableRecord
100
AcDbBlockTableRecord
  2
_FILLED
  0
ENDTAB
  0
TABLE
  2
DIMSTYLE
  5
A
100
AcDbSymbolTable
 70
1
100
AcDbDimStyleTable
 71
0
  0
DIMSTYLE
105
208
100
AcDbSymbolTableRecord
100
AcDbDimStyleTableRecord
  2
STANDARD
 70
0
  3

  4

 40
1.0
 41
0.1
 42
0.0625
 43
0.38
 44
0.125
 45
0.0
 46
0.0
 47
0.001
 48
0.001
140
0.08
141
0.09
142
0.0
143
25.4
144
1.0
145
0.0
146
1.0
147
0.09
 71
1.0
 72
0.0
 73
1
 74
1
 75
0
 76
0
 77
0
 78
4
 79
1
170
1
171
2
172
0
173
0
174
0
175
0
176
0
177
0
178
0
270
2
179
3
271
3
272
3
273
2
274
2
275
0
280
0
281
0
282
0
283
1
284
4
285
0
286
0
287
3
288
0
340
11
278
46
341
207
342
207
343
207
344
207
  0
ENDTAB
  0
ENDSEC
  0
SECTION
  2
BLOCKS
  0
BLOCK
  5
20
100
AcDbEntity
  8
0
100
AcDbBlockBegin
  2
*Model_Space
 70
0
 10
0.0
 20
0.0
 30
0.0
  3
*Model_Space
  1

  0
ENDBLK
  5
21
100
AcDbEntity
  8
0
100
AcDbBlockEnd
  0
BLOCK
  5
1C
100
AcDbEntity
  8
0
100
AcDbBlockBegin
  2
*Paper_Space
 70
0
 10
0.0
 20
0.0
 30
0.0
  3
*Paper_Space
  1

  0
ENDBLK
  5
1D
100
AcDbEntity
  8
0
100
AcDbBlockEnd
  0
BLOCK
  5
209
100
AcDbEntity
  8
0
100
AcDbBlockBegin
  2
_FILLED
 70
64
 10
0.0
 20
0.0
  3
_FILLED
  1

  0
SOLID
  5
20A
100
AcDbEntity
  8
0
  6
BYBLOCK
 62
0
100
AcDbTrace
 10
0.0
 20
0.0
 11
-1.0
 21
0.2
 12
-1.0
 22
-0.2
 13
-1.0
 23
-0.2
  0
ENDBLK
  5
20B
100
AcDbEntity
  8
0
  6
BYBLOCK
 62
0
100
AcDbBlockEnd
  0
ENDSEC
  0
SECTION
  2
ENTITIES
  0
LINE
  5
20C
100
AcDbEntity
  8
0
100
AcDbLine
 62
7
  6
CONTINUOUS
 10
14.5174226038
 20
1.1734005456
 11
14.7974226038
 21
1.1734005456
  0
LINE
  5
20D
100
AcDbEntity
  8
0
100
AcDbLine
 62
7
  6
CONTINUOUS
 10
11.3814578057
 20
0.8713830625
 11
11.1418782539
 21
0.8795400436
  0
LINE
  5
20E
100
AcDbEntity
  8
0
100
AcDbLine
 62
9
  6
CONTINUOUS
 10
11.3622644865
 20
0.874516984
 11
11.1612402813
 21
0.8813612686
  0
LINE
  5
20F
100
AcDbEntity
  8
0
100
AcDbLine
 62
9
  6
CONTINUOUS
 10
14.4874226038
 20
1.2034005456
 11
14.7974226038
 21
1.2034005456
  0
LINE
  5
210
100
AcDbEntity
  8
0
100
AcDbLine
 62
7
  6
CONTINUOUS
 10
11.1323237714
 20
0.882345791
 11
10.9031006776
 21
1.0188848182
  0
LINE
  5
211
100
AcDbEntity
  8
0
100
AcDbLine
 62
9
  6
CONTINUOUS
 10
11.1612402813
 20
0.8813612686
 11
10.9305091002
 21
1.0187986031
  0
LINE
  5
212
100
AcDbEntity
  8
0
100
AcDbLine
 62
7
  6
CONTINUOUS
 10
7.2428325282
 20
14.1721113288
 11
6.6459758319
 21
13.5752546326
  0
LINE
  5
213
100
AcDbEntity
  8
0
100
AcDbLine
 62
7
  6
CONTINUOUS
 10
14.4574226038
 20
2.773425754
 11
14.4874226038
 21
2.773425754
  0
LINE
  5
214
100
AcDbEntity
  8
0
100
AcDbLine
 62
7
  6
CONTINUOUS
 10
14.4874226038
 20
2.7737389394
 11
14.4574226038
 21
2.7737389394
  0
LINE
  5
215
100
AcDbEntity
  8
0
100
AcDbLine
 62
9
  6
CONTINUOUS
 10
14.4874226038
 20
2.7937289328
 11
14.4574225978
 21
2.7937289328
  0
LINE
  5
216
100
AcDbEntity
  8
0
100
AcDbLine
 62
7
  6
CONTINUOUS
 10
10.8997128011
 20
1.0214087052
 11
10.9021197199
 21
1.0195046584
  0
LINE
  5
217
100
AcDbEntity
  8
0
100
AcDbLine
 62
7
  6
CONTINUOUS
 10
6.7904497756
 20
13.2910102916
 11
6.7657577365
 21
13.2663182525
  0
LINE
  5
218
100
AcDbEntity
  8
0
100
AcDbLine
 62
7
  6
CONTINUOUS
 10
6.8293417933
 20
13.2521182738
 11
6.8046497543
 21
13.2274262347
  0
LINE
  5
219
100
AcDbEntity
  8
0
100
AcDbLine
 62
7
  6
CONTINUOUS
 10
6.9433674199
 20
13.1380926473
 11
6.9186753808
 21
13.1134006082
  0
LINE
  5
21A
100
AcDbEntity
  8
0
100
AcDbLine
 62
7
  6
CONTINUOUS
 10
6.9152366559
 20
13.0787168538
 11
6.9049196111
 21
13.068399809
  0
LINE
  5
21B
100
AcDbEntity
  8
0
100
AcDbLine
 62
7
  6
CONTINUOUS
 10
6.9814803098
 20
13.0112256004
 11
6.9717870648
 21
13.0015323554
  0
LINE
  5
21C
100
AcDbEntity
  8
0
100
AcDbLine
 62
7
  6
CONTINUOUS
 10
7.0511330355
 20
13.0120119258
 11
7.0355985493
 21
12.9964774396
  0
LINE
  5
21D
100
AcDbEntity
  8
0
100
AcDbLine
 62
9
  6
CONTINUOUS
 10
11.6141960544
 20
3.3249006519
 11
11.1413745901
 21
3.3249005456
  0
LINE
  5
21E
100
AcDbEntity
  8
0
100
AcDbLine
 62
9
  6
CONTINUOUS
 10
11.1213469332
 20
3.32489813
 11
11.1213226031
 21
3.3249005457
  0
LINE
  5
21F
100
AcDbEntity
  8
0
100
AcDbLine
 62
9
  6
CONTINUOUS
 10
11.6141960424
 20
3.3249005456
 11
11.6340707996
 21
3.322665859
  0
LINE
  5
220
100
AcDbEntity
  8
0
100
AcDbLine
 62
7
  6
CONTINUOUS
 10
7.1979237935
 20
12.6442331496
 11
7.1974064799
 21
12.6436819835
  0
LINE
  5
221
100
AcDbEntity
  8
0
100
AcDbLine
 62
7
  6
CONTINUOUS
 10
7.1247559972
 20
12.95670407
 11
7.1000639581
 21
12.9320120309
  0
LINE
  5
222
100
AcDbEntity
  8
0
100
AcDbLine
 62
7
  6
CONTINUOUS
 10
7.0864875027
 20
12.9157930758
 11
7.0720069235
 21
12.9013124966
  0
LINE
  5
223
100
AcDbEntity
  8
0
100
AcDbLine
 62
7
  6
CONTINUOUS
 10
7.1106583107
 20
12.8820475995
 11
7.1009650657
 21
12.8723543545
  0
LINE
  5
224
100
AcDbEntity
  8
0
100
AcDbLine
 62
7
  6
CONTINUOUS
 10
7.08087269
 20
12.8242164954
 11
7.0760815031
 21
12.8194253085
  0
LINE
  5
225
100
AcDbEntity
  8
0
100
AcDbLine
 62
7
  6
CONTINUOUS
 10
7.2346780326
 20
12.8327797682
 11
7.2169871266
 21
12.8150888623
  0
LINE
  5
226
100
AcDbEntity
  8
0
100
AcDbLine
 62
7
  6
CONTINUOUS
 10
7.2169736246
 20
12.7879231959
 11
7.2011849244
 21
12.7721344957
  0
LINE
  5
227
100
AcDbEntity
  8
0
100
AcDbLine
 62
7
  6
CONTINUOUS
 10
7.1799438803
 20
12.6615537381
 11
7.1612153506
 21
12.6428252084
  0
LINE
  5
228
100
AcDbEntity
  8
0
100
AcDbLine
 62
7
  6
CONTINUOUS
 10
7.1974058508
 20
12.6436817464
 11
7.1788823317
 21
12.6251582273
  0
LINE
  5
229
100
AcDbEntity
  8
0
100
AcDbLine
 62
7
  6
CONTINUOUS
 10
7.3135127865
 20
12.7195315136
 11
7.2836503465
 21
12.6896690736
  0
LINE
  5
22A
100
AcDbEntity
  8
0
100
AcDbLine
 62
7
  6
CONTINUOUS
 10
7.3611461935
 20
12.7203138737
 11
7.3364541544
 21
12.6956218346
  0
LINE
  5
22B
100
AcDbEntity
  8
0
100
AcDbLine
 62
7
  6
CONTINUOUS
 10
7.2514243263
 20
12.5883904773
 11
7.233537204
 21
12.570503355
  0
LINE
  5
22C
100
AcDbEntity
  8
0
100
AcDbLine
 62
7
  6
CONTINUOUS
 10
7.3935634503
 20
12.5991424599
 11
7.3838702053
 21
12.5894492149
  0
LINE
  5
22D
100
AcDbEntity
  8
0
100
AcDbLine
 62
7
  6
CONTINUOUS
 10
7.3384612425
 20
12.474987676
 11
7.3337570628
 21
12.4702834963
  0
LINE
  5
22E
100
AcDbEntity
  8
0
100
AcDbLine
 62
7
  6
CONTINUOUS
 10
7.4738799504
 20
12.5992012935
 11
7.4533773229
 21
12.578698666
  0
LINE
  5
22F
100
AcDbEntity
  8
0
100
AcDbLine
 62
7
  6
CONTINUOUS
 10
7.3484960034
 20
12.4629468509
 11
7.3447948558
 21
12.4592457033
  0
LWPOLYLINE
  5
230
100
AcDbEntity
  8
0
100
AcDbPolyline
 62
7
  6
CONTINUOUS
 90
5
 70
0
 10
7.338458801
 20
12.4749883777
 10
7.3395429413
 20
12.4759447914
 10
7.3416004207
 20
12.4772195208
 10
7.3437591889
 20
12.4780060801
 10
7.3458132353
 20
12.4783326513
  0
LINE
  5
231
100
AcDbEntity
  8
0
100
AcDbLine
 62
7
  6
CONTINUOUS
 10
11.9878226038
 20
3.6704005456
 11
11.9568226038
 21
3.6704005456
  0
LINE
  5
232
100
AcDbEntity
  8
0
100
AcDbLine
 62
7
  6
CONTINUOUS
 10
11.9878226038
 20
4.1764005456
 11
11.9568226038
 21
4.1764005456
  0
LINE
  5
233
100
AcDbEntity
  8
0
100
AcDbLine
 62
7
  6
CONTINUOUS
 10
10.897509066
 20
1.0238066812
 11
10.8997128011
 21
1.0214087052
  0
LINE
  5
234
100
AcDbEntity
  8
0
100
AcDbLine
 62
7
  6
CONTINUOUS
 10
7.3499079636
 20
12.4270683363
 11
7.3148438385
 21
12.3518730772
  0
LINE
  5
235
100
AcDbEntity
  8
0
100
AcDbLine
 62
7
  6
CONTINUOUS
 10
7.5349836731
 20
12.4935166786
 11
7.5073932073
 21
12.4659262128
  0
LINE
  5
236
100
AcDbEntity
  8
0
100
AcDbLine
 62
7
  6
CONTINUOUS
 10
9.4044579583
 20
14.3184824325
 11
8.739777584
 21
13.6538020582
  0
LINE
  5
237
100
AcDbEntity
  8
0
100
AcDbLine
 62
7
  6
CONTINUOUS
 10
9.4149468117
 20
14.3079935791
 11
9.1674594383
 21
14.0605062057
  0
LINE
  5
238
100
AcDbEntity
  8
0
100
AcDbLine
 62
7
  6
CONTINUOUS
 10
7.6364284075
 20
12.4450316596
 11
7.6117363684
 21
12.4203396205
  0
LINE
  5
239
100
AcDbEntity
  8
0
100
AcDbLine
 62
7
  6
CONTINUOUS
 10
7.6173063111
 20
12.3753995991
 11
7.6076130661
 21
12.3657063541
  0
LINE
  5
23A
100
AcDbEntity
  8
0
100
AcDbLine
 62
7
  6
CONTINUOUS
 10
10.0072664892
 20
14.7480498021
 11
9.7794877019
 21
14.5202710148
  0
LINE
  5
23B
100
AcDbEntity
  8
0
100
AcDbLine
 62
7
  6
CONTINUOUS
 10
9.9284005587
 20
14.6501390373
 11
9.789010119
 21
14.5107485976
  0
LINE
  5
23C
100
AcDbEntity
  8
0
100
AcDbLine
 62
7
  6
CONTINUOUS
 10
11.0227236069
 20
15.6980995425
 11
10.2454207387
 21
14.9207966743
  0
LINE
  5
23D
100
AcDbEntity
  8
0
100
AcDbLine
 62
7
  6
CONTINUOUS
 10
10.2145890009
 20
14.8899649365
 11
10.2081343686
 21
14.8835103042
  0
LINE
  5
23E
100
AcDbEntity
  8
0
100
AcDbLine
 62
7
  6
CONTINUOUS
 10
10.1761301159
 20
14.8515060515
 11
10.158356818
 21
14.8337327536
  0
LINE
  5
23F
100
AcDbEntity
  8
0
100
AcDbLine
 62
7
  6
CONTINUOUS
 10
10.1248903688
 20
14.8002663044
 11
10.108709327
 21
14.7840852626
  0
LINE
  5
240
100
AcDbEntity
  8
0
100
AcDbLine
 62
7
  6
CONTINUOUS
 10
10.0735205731
 20
14.7488965087
 11
10.0589006671
 21
14.7342766027
  0
LINE
  5
241
100
AcDbEntity
  8
0
100
AcDbLine
 62
7
  6
CONTINUOUS
 10
9.533532224
 20
14.1894081669
 11
9.2860448505
 21
13.9419207934
  0
LINE
  5
242
100
AcDbEntity
  8
0
100
AcDbLine
 62
7
  6
CONTINUOUS
 10
10.2394545027
 20
14.8833022453
 11
10.2520834298
 21
14.8959311725
  0
LINE
  5
243
100
AcDbEntity
  8
0
100
AcDbLine
 62
7
  6
CONTINUOUS
 10
10.2152325529
 20
14.8570496121
 11
10.2028102918
 21
14.8446273511
  0
LINE
  5
244
100
AcDbEntity
  8
0
100
AcDbLine
 62
7
  6
CONTINUOUS
 10
10.1659894907
 20
14.8052739137
 11
10.1535681935
 21
14.7928526165
  0
LINE
  5
245
100
AcDbEntity
  8
0
100
AcDbLine
 62
7
  6
CONTINUOUS
 10
10.1169713055
 20
14.7532725605
 11
10.1045512622
 21
14.7408525172
  0
LINE
  5
246
100
AcDbEntity
  8
0
100
AcDbLine
 62
7
  6
CONTINUOUS
 10
10.0676769244
 20
14.7015535294
 11
10.0607198431
 21
14.6945964482
  0
LINE
  5
247
100
AcDbEntity
  8
0
100
AcDbLine
 62
7
  6
CONTINUOUS
 10
7.6119663421
 20
12.2193741214
 11
7.5983163899
 21
12.2057241692
  0
LINE
  5
248
100
AcDbEntity
  8
0
100
AcDbLine
 62
7
  6
CONTINUOUS
 10
7.752438513
 20
12.327195428
 11
7.728659537
 21
12.303416452
  0
LINE
  5
249
100
AcDbEntity
  8
0
100
AcDbLine
 62
7
  6
CONTINUOUS
 10
10.0165233424
 20
14.5620162537
 11
9.8771329027
 21
14.422625814
  0
LINE
  5
24A
100
AcDbEntity
  8
0
100
AcDbLine
 62
7
  6
CONTINUOUS
 10
7.7820035831
 20
12.2414311196
 11
7.7569459418
 21
12.2163734783
  0
LINE
  5
24B
100
AcDbEntity
  8
0
100
AcDbLine
 62
7
  6
CONTINUOUS
 10
7.7074703114
 20
12.1144383732
 11
7.6985362486
 21
12.1055043104
  0
LINE
  5
24C
100
AcDbEntity
  8
0
100
AcDbLine
 62
7
  6
CONTINUOUS
 10
7.7631223469
 20
12.0646675861
 11
7.7512476599
 21
12.0527928991
  0
LINE
  5
24D
100
AcDbEntity
  8
0
100
AcDbLine
 62
7
  6
CONTINUOUS
 10
7.8796026371
 20
12.1385904561
 11
7.8571658006
 21
12.1161536195
  0
LINE
  5
24E
100
AcDbEntity
  8
0
100
AcDbLine
 62
7
  6
CONTINUOUS
 10
7.9318426114
 20
12.1496174558
 11
7.9071505723
 21
12.1249254167
  0
LWPOLYLINE
  5
24F
100
AcDbEntity
  8
0
100
AcDbPolyline
 62
7
  6
CONTINUOUS
 90
8
 70
0
 10
7.7074705255
 20
12.1144407137
 10
7.7089846306
 20
12.115696797
 10
7.711151776
 20
12.1168335175
 10
7.7132043265
 20
12.1173804727
 10
7.7148475213
 20
12.117489975
 10
7.7159550067
 20
12.1173869344
 10
7.7165597109
 20
12.1172529489
 10
7.7167058274
 20
12.1172068907
  0
LINE
  5
250
100
AcDbEntity
  8
0
100
AcDbLine
 62
9
  6
CONTINUOUS
 10
11.6959678698
 20
4.435501132
 11
11.6763895961
 21
4.4314156223
  0
LINE
  5
251
100
AcDbEntity
  8
0
100
AcDbLine
 62
9
  6
CONTINUOUS
 10
11.6763895999
 20
4.4314156058
 11
11.2151975366
 21
4.4314155927
  0
LINE
  5
252
100
AcDbEntity
  8
0
100
AcDbLine
 62
9
  6
CONTINUOUS
 10
11.6763896128
 20
4.4483755555
 11
11.2151975366
 21
4.4483755588
  0
LINE
  5
253
100
AcDbEntity
  8
0
100
AcDbLine
 62
9
  6
CONTINUOUS
 10
11.3706709153
 20
4.5394605117
 11
11.5060810218
 21
4.5394605117
  0
LINE
  5
254
100
AcDbEntity
  8
0
100
AcDbLine
 62
7
  6
CONTINUOUS
 10
11.3494384952
 20
4.5425005456
 11
11.5277743815
 21
4.5425005456
  0
LINE
  5
255
100
AcDbEntity
  8
0
100
AcDbLine
 62
9
  6
CONTINUOUS
 10
11.2034162058
 20
4.4303724095
 11
11.1834323026
 21
4.4311746644
  0
LINE
  5
256
100
AcDbEntity
  8
0
100
AcDbLine
 62
7
  6
CONTINUOUS
 10
10.8957238934
 20
1.0265302443
 11
10.897509066
 21
1.0238066812
  0
LINE
  5
257
100
AcDbEntity
  8
0
100
AcDbLine
 62
7
  6
CONTINUOUS
 10
6.759992122
 20
13.2523988276
 11
6.759992122
 21
13.2408672423
  0
LINE
  5
258
100
AcDbEntity
  8
0
100
AcDbLine
 62
7
  6
CONTINUOUS
 10
6.7988841397
 20
13.2135059651
 11
6.7988841397
 21
13.201975188
  0
LINE
  5
259
100
AcDbEntity
  8
0
100
AcDbLine
 62
7
  6
CONTINUOUS
 10
6.8991539965
 20
13.0544799792
 11
6.8991539965
 21
13.0429486991
  0
LINE
  5
25A
100
AcDbEntity
  8
0
100
AcDbLine
 62
7
  6
CONTINUOUS
 10
6.9129097663
 20
13.0994803386
 11
6.9129097663
 21
13.0879495615
  0
LINE
  5
25B
100
AcDbEntity
  8
0
100
AcDbLine
 62
7
  6
CONTINUOUS
 10
6.9660214502
 20
12.9876125166
 11
6.9660214502
 21
12.9760812455
  0
LINE
  5
25C
100
AcDbEntity
  8
0
100
AcDbLine
 62
7
  6
CONTINUOUS
 10
7.0942983436
 20
12.9180917613
 11
7.0942983436
 21
12.9065609842
  0
LINE
  5
25D
100
AcDbEntity
  8
0
100
AcDbLine
 62
7
  6
CONTINUOUS
 10
7.0951994511
 20
12.8584345157
 11
7.0951994511
 21
12.8469032446
  0
LINE
  5
25E
100
AcDbEntity
  8
0
100
AcDbLine
 62
7
  6
CONTINUOUS
 10
10.7826563731
 20
14.340512152
 11
10.7826503061
 21
14.3405059152
  0
LINE
  5
25F
100
AcDbEntity
  8
0
100
AcDbLine
 62
7
  6
CONTINUOUS
 10
7.8621757751
 20
11.9632812968
 11
7.8514675186
 21
11.9525730404
  0
LINE
  5
260
100
AcDbEntity
  8
0
100
AcDbLine
 62
7
  6
CONTINUOUS
 10
7.917228463
 20
11.9069421653
 11
7.9071634284
 21
11.8968771307
  0
LINE
  5
261
100
AcDbEntity
  8
0
100
AcDbLine
 62
7
  6
CONTINUOUS
 10
8.0487657799
 20
12.0326942873
 11
8.0240737408
 21
12.0080022482
  0
LINE
  5
262
100
AcDbEntity
  8
0
100
AcDbLine
 62
7
  6
CONTINUOUS
 10
8.0377387802
 20
11.980454313
 11
8.0153019437
 21
11.9580174765
  0
LINE
  5
263
100
AcDbEntity
  8
0
100
AcDbLine
 62
7
  6
CONTINUOUS
 10
8.0199011107
 20
11.8091750955
 11
8.0073832871
 21
11.7966572719
  0
LINE
  5
264
100
AcDbEntity
  8
0
100
AcDbLine
 62
7
  6
CONTINUOUS
 10
8.1405794437
 20
11.882855259
 11
8.1155218024
 21
11.8577976177
  0
LINE
  5
265
100
AcDbEntity
  8
0
100
AcDbLine
 62
7
  6
CONTINUOUS
 10
8.2263437521
 20
11.8532901889
 11
8.2025647761
 21
11.8295112129
  0
LINE
  5
266
100
AcDbEntity
  8
0
100
AcDbLine
 62
7
  6
CONTINUOUS
 10
10.6140074562
 20
14.1804738727
 11
10.626427152
 21
14.1928935685
  0
LINE
  5
267
100
AcDbEntity
  8
0
100
AcDbLine
 62
7
  6
CONTINUOUS
 10
10.6658456136
 20
14.2296561939
 11
10.6782663692
 21
14.2420769495
  0
LINE
  5
268
100
AcDbEntity
  8
0
100
AcDbLine
 62
7
  6
CONTINUOUS
 10
10.7176537834
 20
14.2788611313
 11
10.7300755093
 21
14.2912828572
  0
LINE
  5
269
100
AcDbEntity
  8
0
100
AcDbLine
 62
7
  6
CONTINUOUS
 10
10.7695039638
 20
14.3280289397
 11
10.7819267232
 21
14.3404516991
  0
LINE
  5
26A
100
AcDbEntity
  8
0
100
AcDbLine
 62
7
  6
CONTINUOUS
 10
10.7826503061
 20
14.3405059152
 11
10.7950794966
 21
14.3529351057
  0
LINE
  5
26B
100
AcDbEntity
  8
0
100
AcDbLine
 62
7
  6
CONTINUOUS
 10
11.5972478666
 20
15.1235752828
 11
10.8199449984
 21
14.3462724145
  0
LINE
  5
26C
100
AcDbEntity
  8
0
100
AcDbLine
 62
7
  6
CONTINUOUS
 10
10.7763016711
 20
14.3026290872
 11
10.7577856511
 21
14.2841130673
  0
LINE
  5
26D
100
AcDbEntity
  8
0
100
AcDbLine
 62
7
  6
CONTINUOUS
 10
10.7250186981
 20
14.2513461143
 11
10.7080285344
 21
14.2343559505
  0
LINE
  5
26E
100
AcDbEntity
  8
0
100
AcDbLine
 62
7
  6
CONTINUOUS
 10
10.6737585339
 20
14.2000859501
 11
10.6582865541
 21
14.1846139702
  0
LINE
  5
26F
100
AcDbEntity
  8
0
100
AcDbLine
 62
7
  6
CONTINUOUS
 10
10.6224832631
 20
14.1488106792
 11
10.6144944376
 21
14.1408218538
  0
LINE
  5
270
100
AcDbEntity
  8
0
100
AcDbLine
 62
7
  6
CONTINUOUS
 10
10.6471981262
 20
14.1081181651
 11
10.4194193389
 21
13.8803393778
  0
LINE
  5
271
100
AcDbEntity
  8
0
100
AcDbLine
 62
7
  6
CONTINUOUS
 10
8.2745479232
 20
11.718157987
 11
8.2648546782
 21
11.7084647419
  0
LINE
  5
272
100
AcDbEntity
  8
0
100
AcDbLine
 62
7
  6
CONTINUOUS
 10
8.3441799838
 20
11.7372800834
 11
8.3194879447
 21
11.7125880443
  0
LWPOLYLINE
  5
273
100
AcDbEntity
  8
0
100
AcDbPolyline
 62
7
  6
CONTINUOUS
 90
7
 70
0
 10
8.0199000303
 20
11.8091734463
 10
8.0212771564
 20
11.8103328369
 10
8.023379012
 20
11.811476253
 10
8.0253780923
 20
11.8120421924
 10
8.0269292764
 20
11.8121682384
 10
8.0278749881
 20
11.8120947595
 10
8.0281940216
 20
11.812033518
  0
LWPOLYLINE
  5
274
100
AcDbEntity
  8
0
100
AcDbPolyline
 62
7
  6
CONTINUOUS
 90
7
 70
0
 10
7.8621722583
 20
11.963280545
 10
7.8636263381
 20
11.9644929079
 10
7.8658155763
 20
11.965645458
 10
7.8678969093
 20
11.9661862024
 10
7.8694919748
 20
11.9662708139
 10
7.8704368836
 20
11.9661675346
 10
7.8707395465
 20
11.9660996382
  0
LINE
  5
275
100
AcDbEntity
  8
0
100
AcDbLine
 62
9
  6
CONTINUOUS
 10
14.4874226038
 20
5.053072138
 11
14.4574226053
 21
5.053072138
  0
LINE
  5
276
100
AcDbEntity
  8
0
100
AcDbLine
 62
7
  6
CONTINUOUS
 10
14.4874226038
 20
5.0730621313
 11
14.4574226047
 21
5.0730621313
  0
LINE
  5
277
100
AcDbEntity
  8
0
100
AcDbLine
 62
7
  6
CONTINUOUS
 10
14.4874226038
 20
5.0733752991
 11
14.4574226037
 21
5.0733752991
  0
LWPOLYLINE
  5
278
100
AcDbEntity
  8
0
100
AcDbPolyline
 62
7
  6
CONTINUOUS
 90
7
 70
0
 10
14.1766256993
 20
4.8704900968
 10
14.1693441081
 20
4.8706922016
 10
14.1593006946
 20
4.8700012396
 10
14.1493972805
 20
4.8681929298
 10
14.1397577825
 20
4.8652898992
 10
14.1305028148
 20
4.8613284745
 10
14.1243293548
 20
4.8579601139
  0
LINE
  5
279
100
AcDbEntity
  8
0
100
AcDbLine
 62
9
  6
CONTINUOUS
 10
11.5060810218
 20
4.5394605117
 11
11.6746570154
 21
4.4570946585
  0
LINE
  5
27A
100
AcDbEntity
  8
0
100
AcDbLine
 62
7
  6
CONTINUOUS
 10
11.5365543616
 20
4.5404702965
 11
11.6813915771
 21
4.4697031573
  0
LINE
  5
27B
100
AcDbEntity
  8
0
100
AcDbLine
 62
7
  6
CONTINUOUS
 10
7.1577559819
 20
12.6344734917
 11
7.1577559819
 21
12.6164192715
  0
LINE
  5
27C
100
AcDbEntity
  8
0
100
AcDbLine
 62
7
  6
CONTINUOUS
 10
7.175422963
 20
12.6168065106
 11
7.175422963
 21
12.5987522429
  0
LINE
  5
27D
100
AcDbEntity
  8
0
100
AcDbLine
 62
7
  6
CONTINUOUS
 10
7.2300778353
 20
12.5621516383
 11
7.2300778353
 21
12.5440973706
  0
LINE
  5
27E
100
AcDbEntity
  8
0
100
AcDbLine
 62
7
  6
CONTINUOUS
 10
7.277884732
 20
12.6757492349
 11
7.277884732
 21
12.6642179637
  0
LINE
  5
27F
100
AcDbEntity
  8
0
100
AcDbLine
 62
7
  6
CONTINUOUS
 10
7.3306885398
 20
12.681701565
 11
7.3306885398
 21
12.6701707879
  0
LINE
  5
280
100
AcDbEntity
  8
0
100
AcDbLine
 62
7
  6
CONTINUOUS
 10
7.341335487
 20
12.4508939865
 11
7.341335487
 21
12.4328397189
  0
LINE
  5
281
100
AcDbEntity
  8
0
100
AcDbLine
 62
7
  6
CONTINUOUS
 10
7.3729509498
 20
12.2672939635
 11
7.3729509498
 21
12.2557626862
  0
LINE
  5
282
100
AcDbEntity
  8
0
100
AcDbLine
 62
7
  6
CONTINUOUS
 10
7.5016275928
 20
12.4520063741
 11
7.5016275928
 21
12.4404751029
  0
LINE
  5
283
100
AcDbEntity
  8
0
100
AcDbLine
 62
7
  6
CONTINUOUS
 10
7.5514863306
 20
12.0887585803
 11
7.5514863306
 21
12.0772273054
  0
LINE
  5
284
100
AcDbEntity
  8
0
100
AcDbLine
 62
7
  6
CONTINUOUS
 10
7.5948570211
 20
12.1973724524
 11
7.5948570211
 21
12.1793181854
  0
LINE
  5
285
100
AcDbEntity
  8
0
100
AcDbLine
 62
7
  6
CONTINUOUS
 10
7.6059707539
 20
12.4064193509
 11
7.6059707539
 21
12.3948885738
  0
LINE
  5
286
100
AcDbEntity
  8
0
100
AcDbLine
 62
7
  6
CONTINUOUS
 10
7.7477882912
 20
12.0444411824
 11
7.7477882912
 21
12.0263869147
  0
LINE
  5
287
100
AcDbEntity
  8
0
100
AcDbLine
 62
7
  6
CONTINUOUS
 10
7.7511803273
 20
12.2024536395
 11
7.7511803273
 21
12.1909223684
  0
LINE
  5
288
100
AcDbEntity
  8
0
100
AcDbLine
 62
7
  6
CONTINUOUS
 10
10.2176307566
 20
13.5053096342
 11
9.5529503823
 21
12.8406292599
  0
LINE
  5
289
100
AcDbEntity
  8
0
100
AcDbLine
 62
7
  6
CONTINUOUS
 10
8.3926650028
 20
11.635835349
 11
8.3650745369
 21
11.6082448832
  0
LINE
  5
28A
100
AcDbEntity
  8
0
100
AcDbLine
 62
7
  6
CONTINUOUS
 10
8.321509906
 20
11.4931727275
 11
8.3161888688
 21
11.4878516903
  0
LINE
  5
28B
100
AcDbEntity
  8
0
100
AcDbLine
 62
7
  6
CONTINUOUS
 10
8.4983496176
 20
11.5747316263
 11
8.4778469902
 21
11.5542289988
  0
LINE
  5
28C
100
AcDbEntity
  8
0
100
AcDbLine
 62
7
  6
CONTINUOUS
 10
8.498290784
 20
11.4944151262
 11
8.488597539
 21
11.4847218812
  0
LINE
  5
28D
100
AcDbEntity
  8
0
100
AcDbLine
 62
7
  6
CONTINUOUS
 10
8.4336775793
 20
11.4049006833
 11
8.4164087275
 21
11.3876318315
  0
LINE
  5
28E
100
AcDbEntity
  8
0
100
AcDbLine
 62
7
  6
CONTINUOUS
 10
8.6194621978
 20
11.4619978694
 11
8.5947701587
 21
11.4373058303
  0
LINE
  5
28F
100
AcDbEntity
  8
0
100
AcDbLine
 62
7
  6
CONTINUOUS
 10
8.5114201094
 20
11.32894373
 11
8.4932584692
 21
11.3107820898
  0
LINE
  5
290
100
AcDbEntity
  8
0
100
AcDbLine
 62
7
  6
CONTINUOUS
 10
8.6186798377
 20
11.4143644624
 11
8.5888173977
 21
11.3845020224
  0
LINE
  5
291
100
AcDbEntity
  8
0
100
AcDbLine
 62
7
  6
CONTINUOUS
 10
8.5536127139
 20
11.2877235905
 11
8.5349648412
 21
11.2690757178
  0
LINE
  5
292
100
AcDbEntity
  8
0
100
AcDbLine
 62
7
  6
CONTINUOUS
 10
8.68707152
 20
11.3178253005
 11
8.6712828198
 21
11.3020366003
  0
LINE
  5
293
100
AcDbEntity
  8
0
100
AcDbLine
 62
7
  6
CONTINUOUS
 10
8.7319280924
 20
11.3355297084
 11
8.7142371864
 21
11.3178388025
  0
LINE
  5
294
100
AcDbEntity
  8
0
100
AcDbLine
 62
7
  6
CONTINUOUS
 10
8.5536124097
 20
11.2877241271
 11
8.5539009508
 21
11.2880032741
  0
LWPOLYLINE
  5
295
100
AcDbEntity
  8
0
100
AcDbPolyline
 62
7
  6
CONTINUOUS
 90
10
 70
0
 10
8.5114208069
 20
11.3289437428
 10
8.5124683307
 20
11.3298726479
 10
8.5145382292
 20
11.3311681085
 10
8.5167251091
 20
11.3319721518
 10
8.5187631764
 20
11.3323002021
 10
8.5204107493
 20
11.3322894988
 10
8.5215805869
 20
11.332125737
 10
8.5223451664
 20
11.3319394419
 10
8.5227847088
 20
11.3317966787
 10
8.5229596799
 20
11.3317294253
  0
LWPOLYLINE
  5
296
100
AcDbEntity
  8
0
100
AcDbPolyline
 62
7
  6
CONTINUOUS
 90
9
 70
0
 10
8.4336746711
 20
11.404899168
 10
8.4348964032
 20
11.4059583066
 10
8.436949143
 20
11.407178817
 10
8.439036576
 20
11.4078941109
 10
8.4408981219
 20
11.4081599614
 10
8.4423165752
 20
11.4081338499
 10
8.4432315548
 20
11.4079993919
 10
8.4437075628
 20
11.4078822015
 10
8.4438210246
 20
11.4078462819
  0
LWPOLYLINE
  5
297
100
AcDbEntity
  8
0
100
AcDbPolyline
 62
7
  6
CONTINUOUS
 90
9
 70
0
 10
8.5539009508
 20
11.2880032741
 10
8.555423564
 20
11.2892062995
 10
8.5570664287
 20
11.2901182619
 10
8.5587677356
 20
11.2907384903
 10
8.5604424794
 20
11.2910773484
 10
8.5619961598
 20
11.2911716216
 10
8.5633970856
 20
11.2910784604
 10
8.5646239534
 20
11.2908537638
 10
8.5656430475
 20
11.2905583821
  0
LINE
  5
298
100
AcDbEntity
  8
0
100
AcDbLine
 62
7
  6
CONTINUOUS
 10
8.3209699252
 20
11.4483130467
 11
8.2510214013
 21
11.4156955143
  0
LINE
  5
299
100
AcDbEntity
  8
0
100
AcDbLine
 62
7
  6
CONTINUOUS
 10
7.8039734876
 20
11.8362714257
 11
7.8039734876
 21
11.8247401484
  0
LINE
  5
29A
100
AcDbEntity
  8
0
100
AcDbLine
 62
7
  6
CONTINUOUS
 10
7.9013849577
 20
12.1110051473
 11
7.9013849577
 21
12.09947437
  0
LINE
  5
29B
100
AcDbEntity
  8
0
100
AcDbLine
 62
7
  6
CONTINUOUS
 10
7.9037040596
 20
11.8885254139
 11
7.9037040596
 21
11.8704711463
  0
LINE
  5
29C
100
AcDbEntity
  8
0
100
AcDbLine
 62
7
  6
CONTINUOUS
 10
7.9825088684
 20
11.6523380065
 11
7.9825088684
 21
11.6462047676
  0
LINE
  5
29D
100
AcDbEntity
  8
0
100
AcDbLine
 62
7
  6
CONTINUOUS
 10
8.0095363291
 20
11.9440976377
 11
8.0095363291
 21
11.9325663666
  0
LINE
  5
29E
100
AcDbEntity
  8
0
100
AcDbLine
 62
7
  6
CONTINUOUS
 10
8.1967991616
 20
11.8155909433
 11
8.1967991616
 21
11.8040601661
  0
LINE
  5
29F
100
AcDbEntity
  8
0
100
AcDbLine
 62
7
  6
CONTINUOUS
 10
8.2590890636
 20
11.6945449032
 11
8.2590890636
 21
11.683013632
  0
LINE
  5
2A0
100
AcDbEntity
  8
0
100
AcDbLine
 62
7
  6
CONTINUOUS
 10
8.3127295
 20
11.4794999735
 11
8.3127295
 21
11.4614457058
  0
LINE
  5
2A1
100
AcDbEntity
  8
0
100
AcDbLine
 62
7
  6
CONTINUOUS
 10
8.7233648195
 20
11.1817243659
 11
8.7185736326
 21
11.176933179
  0
LINE
  5
2A2
100
AcDbEntity
  8
0
100
AcDbLine
 62
7
  6
CONTINUOUS
 10
8.7811959236
 20
11.2115099866
 11
8.7715026786
 21
11.2018167416
  0
LINE
  5
2A3
100
AcDbEntity
  8
0
100
AcDbLine
 62
7
  6
CONTINUOUS
 10
8.8149413999
 20
11.1873391786
 11
8.8004608207
 21
11.1728585994
  0
LINE
  5
2A4
100
AcDbEntity
  8
0
100
AcDbLine
 62
7
  6
CONTINUOUS
 10
8.8558523941
 20
11.2256076731
 11
8.831160355
 21
11.200915634
  0
LINE
  5
2A5
100
AcDbEntity
  8
0
100
AcDbLine
 62
7
  6
CONTINUOUS
 10
8.9111602499
 20
11.1519847114
 11
8.8956257638
 21
11.1364502252
  0
LINE
  5
2A6
100
AcDbEntity
  8
0
100
AcDbLine
 62
7
  6
CONTINUOUS
 10
8.9103739245
 20
11.0823319857
 11
8.9006806795
 21
11.0726387407
  0
LINE
  5
2A7
100
AcDbEntity
  8
0
100
AcDbLine
 62
7
  6
CONTINUOUS
 10
8.9778651779
 20
11.0160883317
 11
8.9675481332
 21
11.005771287
  0
LINE
  5
2A8
100
AcDbEntity
  8
0
100
AcDbLine
 62
7
  6
CONTINUOUS
 10
9.0372409714
 20
11.0442190958
 11
9.0125489323
 21
11.0195270567
  0
LINE
  5
2A9
100
AcDbEntity
  8
0
100
AcDbLine
 62
7
  6
CONTINUOUS
 10
9.1512665979
 20
10.9301934692
 11
9.1265745588
 21
10.9055014301
  0
LINE
  5
2AA
100
AcDbEntity
  8
0
100
AcDbLine
 62
9
  6
CONTINUOUS
 10
14.4874226038
 20
6.6434005456
 11
14.7974226038
 21
6.6434005456
  0
LWPOLYLINE
  5
2AB
100
AcDbEntity
  8
0
100
AcDbPolyline
 62
7
  6
CONTINUOUS
 90
8
 70
0
 10
7.2004206523
 20
12.6549772812
 10
7.2006492639
 20
12.6539955234
 10
7.2008074797
 20
12.652756359
 10
7.2008167878
 20
12.6512582538
 10
7.2005868874
 20
12.6495451289
 10
7.2000433897
 20
12.6477202494
 10
7.19915709
 20
12.6459190415
 10
7.1979237935
 20
12.6442331496
  0
LWPOLYLINE
  5
2AC
100
AcDbEntity
  8
0
100
AcDbPolyline
 62
7
  6
CONTINUOUS
 90
7
 70
0
 10
7.1829439985
 20
12.6731663716
 10
7.1833578173
 20
12.6709391756
 10
7.1833362118
 20
12.6686528945
 10
7.1828588808
 20
12.666362053
 10
7.1819379031
 20
12.6642093558
 10
7.1806175676
 20
12.6622874976
 10
7.1799432278
 20
12.6615544519
  0
LINE
  5
2AD
100
AcDbEntity
  8
0
100
AcDbLine
 62
7
  6
CONTINUOUS
 10
8.4720813756
 20
11.5403087292
 11
8.4720813756
 21
11.5287779521
  0
LINE
  5
2AE
100
AcDbEntity
  8
0
100
AcDbLine
 62
7
  6
CONTINUOUS
 10
8.4828319244
 20
11.4708020424
 11
8.4828319244
 21
11.4592707713
  0
LINE
  5
2AF
100
AcDbEntity
  8
0
100
AcDbLine
 62
7
  6
CONTINUOUS
 10
8.6655172053
 20
11.2881167616
 11
8.6655172053
 21
11.2765854904
  0
LINE
  5
2B0
100
AcDbEntity
  8
0
100
AcDbLine
 62
7
  6
CONTINUOUS
 10
8.7084715719
 20
11.3039185329
 11
8.7084715719
 21
11.2923877558
  0
LINE
  5
2B1
100
AcDbEntity
  8
0
100
AcDbLine
 62
7
  6
CONTINUOUS
 10
8.7946952062
 20
11.1589387606
 11
8.7946952062
 21
11.1474074895
  0
LINE
  5
2B2
100
AcDbEntity
  8
0
100
AcDbLine
 62
7
  6
CONTINUOUS
 10
8.8898601492
 20
11.1225299556
 11
8.8898601492
 21
11.1109991785
  0
LINE
  5
2B3
100
AcDbEntity
  8
0
100
AcDbLine
 62
7
  6
CONTINUOUS
 10
9.3188050041
 20
10.7861015028
 11
9.2967960914
 21
10.7640925901
  0
LINE
  5
2B4
100
AcDbEntity
  8
0
100
AcDbLine
 62
7
  6
CONTINUOUS
 10
10.0712596529
 20
11.3436842041
 11
9.4744029567
 21
10.7468275078
  0
LINE
  5
2B5
100
AcDbEntity
  8
0
100
AcDbLine
 62
7
  6
CONTINUOUS
 10
14.5174226038
 20
6.6734005456
 11
14.7974226038
 21
6.6734005456
  0
LINE
  5
2B6
100
AcDbEntity
  8
0
100
AcDbLine
 62
7
  6
CONTINUOUS
 10
7.1821349377
 20
12.6752299468
 11
7.1829439985
 21
12.6731663716
  0
LWPOLYLINE
  5
2B7
100
AcDbEntity
  8
0
100
AcDbPolyline
 62
7
  6
CONTINUOUS
 90
8
 70
0
 10
7.7660029429
 20
12.0729115021
 10
7.7659527386
 20
12.0730581039
 10
7.7660141916
 20
12.0727770176
 10
7.7661060723
 20
12.0718534291
 10
7.7660096982
 20
12.0703016364
 10
7.7654787465
 20
12.0682938062
 10
7.7643678185
 20
12.0661707228
 10
7.7631193336
 20
12.064664028
  0
LWPOLYLINE
  5
2B8
100
AcDbEntity
  8
0
100
AcDbPolyline
 62
7
  6
CONTINUOUS
 90
8
 70
0
 10
7.6148638936
 20
12.2276921182
 10
7.6148475399
 20
12.2277421278
 10
7.614926519
 20
12.2273147788
 10
7.6149867355
 20
12.2262951629
 10
7.6148261845
 20
12.2247108633
 10
7.614236737
 20
12.2227531749
 10
7.6131081494
 20
12.2207227173
 10
7.611968779
 20
12.2193758541
  0
LINE
  5
2B9
100
AcDbEntity
  8
0
100
AcDbLine
 62
7
  6
CONTINUOUS
 10
9.5141927789
 20
12.8607148501
 11
9.517498764
 21
12.0433963268
  0
LINE
  5
2BA
100
AcDbEntity
  8
0
100
AcDbLine
 62
7
  6
CONTINUOUS
 10
9.0038857757
 20
11.0085043291
 11
9.0038857757
 21
10.996973552
  0
LWPOLYLINE
  5
2BB
100
AcDbEntity
  8
0
100
AcDbPolyline
 62
7
  6
CONTINUOUS
 90
6
 70
0
 10
7.1999057425
 20
12.6563776534
 10
7.1998743805
 20
12.6564353568
 10
7.1999015765
 20
12.6563807148
 10
7.2000080972
 20
12.6561476851
 10
7.2001907864
 20
12.6556886193
 10
7.2004206523
 20
12.6549772812
  0
LWPOLYLINE
  5
2BC
100
AcDbEntity
  8
0
100
AcDbPolyline
 62
7
  6
CONTINUOUS
 90
8
 70
0
 10
7.9200354673
 20
11.9156939676
 10
7.9200314452
 20
11.9157022986
 10
7.9201278982
 20
11.9152860639
 10
7.9202336722
 20
11.9142961565
 10
7.9201437435
 20
11.9126770429
 10
7.9195900733
 20
11.9105699412
 10
7.9184197161
 20
11.9083658937
 10
7.9172268387
 20
11.9069409537
  0
LWPOLYLINE
  5
2BD
100
AcDbEntity
  8
0
100
AcDbPolyline
 62
7
  6
CONTINUOUS
 90
11
 70
0
 10
7.2543279082
 20
12.59931028
 10
7.2542900154
 20
12.5993969361
 10
7.2543252711
 20
12.5993020983
 10
7.2544383213
 20
12.5989421748
 10
7.2545992786
 20
12.5982535653
 10
7.2547416712
 20
12.5971786044
 10
7.2547464131
 20
12.5956295936
 10
7.2544312785
 20
12.5936662199
 10
7.2536497817
 20
12.5915211573
 10
7.252374048
 20
12.5894656121
 10
7.2514255557
 20
12.5883918126
  0
LINE
  5
2BE
100
AcDbEntity
  8
0
100
AcDbLine
 62
7
  6
CONTINUOUS
 10
9.7244237768
 20
14.3873349399
 11
9.7244237768
 21
14.3140187751
  0
LINE
  5
2BF
100
AcDbEntity
  8
0
100
AcDbLine
 62
7
  6
CONTINUOUS
 10
10.1086580185
 20
14.7833742878
 11
10.108709327
 21
14.7840852626
  0
LINE
  5
2C0
100
AcDbEntity
  8
0
100
AcDbLine
 62
7
  6
CONTINUOUS
 10
10.0588497922
 20
14.7335725866
 11
10.0589006671
 21
14.7342766027
  0
LINE
  5
2C1
100
AcDbEntity
  8
0
100
AcDbLine
 62
7
  6
CONTINUOUS
 10
10.1583057582
 20
14.8330262958
 11
10.158356818
 21
14.8337327536
  0
LINE
  5
2C2
100
AcDbEntity
  8
0
100
AcDbLine
 62
7
  6
CONTINUOUS
 10
10.2081343686
 20
14.8835103042
 11
10.2080835027
 21
14.88280642
  0
LINE
  5
2C3
100
AcDbEntity
  8
0
100
AcDbLine
 62
7
  6
CONTINUOUS
 10
7.0760815031
 20
12.8194253085
 11
7.1812284708
 21
12.6767305067
  0
LWPOLYLINE
  5
2C4
100
AcDbEntity
  8
0
100
AcDbPolyline
 62
7
  6
CONTINUOUS
 90
11
 70
0
 10
8.3238005624
 20
11.5054961898
 10
8.3237989515
 20
11.5054985327
 10
8.3239106255
 20
11.5052905713
 10
8.3241531516
 20
11.5047452888
 10
8.324448382
 20
11.5038629988
 10
8.3247101906
 20
11.5026130576
 10
8.3248167617
 20
11.5009398741
 10
8.3245831165
 20
11.4988433509
 10
8.3238326933
 20
11.4965375235
 10
8.3225266148
 20
11.494337796
 10
8.3215085538
 20
11.4931707606
  0
LINE
  5
2C5
100
AcDbEntity
  8
0
100
AcDbLine
 62
7
  6
CONTINUOUS
 10
7.1810121325
 20
12.6770296185
 11
7.1821349377
 21
12.6752299468
  0
LINE
  5
2C6
100
AcDbEntity
  8
0
100
AcDbLine
 62
7
  6
CONTINUOUS
 10
10.6224832631
 20
14.1488106792
 11
10.6225374057
 21
14.1495595615
  0
LINE
  5
2C7
100
AcDbEntity
  8
0
100
AcDbLine
 62
7
  6
CONTINUOUS
 10
10.6738131144
 20
14.2008404781
 11
10.6737585339
 21
14.2000859501
  0
LINE
  5
2C8
100
AcDbEntity
  8
0
100
AcDbLine
 62
7
  6
CONTINUOUS
 10
10.7250727324
 20
14.2520935773
 11
10.7250186981
 21
14.2513461143
  0
LINE
  5
2C9
100
AcDbEntity
  8
0
100
AcDbLine
 62
7
  6
CONTINUOUS
 10
10.7763558069
 20
14.3033778664
 11
10.7763016711
 21
14.3026290872
  0
LINE
  5
2CA
100
AcDbEntity
  8
0
100
AcDbLine
 62
7
  6
CONTINUOUS
 10
7.3787206625
 20
12.2418400445
 11
7.5314304499
 21
12.0891302571
  0
LINE
  5
2CB
100
AcDbEntity
  8
0
100
AcDbLine
 62
7
  6
CONTINUOUS
 10
7.5572529997
 20
12.0633077073
 11
7.7099688745
 21
11.9105918326
  0
LINE
  5
2CC
100
AcDbEntity
  8
0
100
AcDbLine
 62
7
  6
CONTINUOUS
 10
7.8097401602
 20
11.8108205469
 11
7.9624560279
 21
11.6581046791
  0
LINE
  5
2CD
100
AcDbEntity
  8
0
100
AcDbLine
 62
7
  6
CONTINUOUS
 10
7.9882784825
 20
11.6322822245
 11
8.1409884672
 21
11.4795722398
  0
LINE
  5
2CE
100
AcDbEntity
  8
0
100
AcDbLine
 62
9
  6
CONTINUOUS
 10
7.9763756295
 20
11.6523380065
 11
7.8039734876
 21
11.8247401484
  0
LINE
  5
2CF
100
AcDbEntity
  8
0
100
AcDbLine
 62
9
  6
CONTINUOUS
 10
7.7238884725
 20
11.9048251634
 11
7.5514863306
 21
12.0772273054
  0
LINE
  5
2D0
100
AcDbEntity
  8
0
100
AcDbLine
 62
9
  6
CONTINUOUS
 10
7.5453530917
 20
12.0833605443
 11
7.3729509498
 21
12.2557626862
  0
LINE
  5
2D1
100
AcDbEntity
  8
0
100
AcDbLine
 62
9
  6
CONTINUOUS
 10
7.7308483877
 20
11.9048251634
 11
7.8039734876
 21
11.8317000636
  0
LINE
  5
2D2
100
AcDbEntity
  8
0
100
AcDbLine
 62
9
  6
CONTINUOUS
 10
8.1664422853
 20
11.4738026256
 11
7.8039734876
 21
11.8362714257
  0
LINE
  5
2D3
100
AcDbEntity
  8
0
100
AcDbLine
 62
9
  6
CONTINUOUS
 10
7.7354197475
 20
11.9048251634
 11
7.3729509498
 21
12.2672939635
  0
LINE
  5
2D4
100
AcDbEntity
  8
0
100
AcDbLine
 62
7
  6
CONTINUOUS
 10
7.318764954
 20
12.3296346026
 11
8.2287829268
 21
11.4196166299
  0
LINE
  5
2D5
100
AcDbEntity
  8
0
100
AcDbLine
 62
9
  6
CONTINUOUS
 10
8.2510214013
 20
11.4156955143
 11
7.3148438385
 21
12.3518730772
  0
LINE
  5
2D6
100
AcDbEntity
  8
0
100
AcDbLine
 62
7
  6
CONTINUOUS
 10
7.1612141433
 20
12.6080688286
 11
7.2989961109
 21
12.470286861
  0
LINE
  5
2D7
100
AcDbEntity
  8
0
100
AcDbLine
 62
7
  6
CONTINUOUS
 10
7.3447950914
 20
12.4244878806
 11
7.3474613708
 21
12.4218216011
  0
LINE
  5
2D8
100
AcDbEntity
  8
0
100
AcDbLine
 62
7
  6
CONTINUOUS
 10
7.5983175473
 20
12.1709654246
 11
7.663777504
 21
12.1055054679
  0
LINE
  5
2D9
100
AcDbEntity
  8
0
100
AcDbLine
 62
7
  6
CONTINUOUS
 10
7.7512485277
 20
12.0180344442
 11
7.8167090637
 21
11.9525739082
  0
LINE
  5
2DA
100
AcDbEntity
  8
0
100
AcDbLine
 62
7
  6
CONTINUOUS
 10
7.9071639587
 20
11.8621190132
 11
7.9726251697
 21
11.7966578023
  0
LINE
  5
2DB
100
AcDbEntity
  8
0
100
AcDbLine
 62
7
  6
CONTINUOUS
 10
8.316190629
 20
11.4530923429
 11
8.3882175553
 21
11.3810654166
  0
LINE
  5
2DC
100
AcDbEntity
  8
0
100
AcDbLine
 62
7
  6
CONTINUOUS
 10
8.3930400035
 20
11.3762429684
 11
8.5002136686
 21
11.2690693033
  0
LINE
  5
2DD
100
AcDbEntity
  8
0
100
AcDbLine
 62
9
  6
CONTINUOUS
 10
7.341335487
 20
12.4328397189
 11
7.349017174
 21
12.4251580319
  0
LINE
  5
2DE
100
AcDbEntity
  8
0
100
AcDbLine
 62
9
  6
CONTINUOUS
 10
7.9809773027
 20
11.7931979032
 11
7.9037040596
 21
11.8704711463
  0
LINE
  5
2DF
100
AcDbEntity
  8
0
100
AcDbLine
 62
9
  6
CONTINUOUS
 10
7.8250615342
 20
11.9491136717
 11
7.7477882912
 21
12.0263869147
  0
LINE
  5
2E0
100
AcDbEntity
  8
0
100
AcDbLine
 62
9
  6
CONTINUOUS
 10
7.6721302649
 20
12.1020449417
 11
7.5948570211
 21
12.1793181854
  0
LINE
  5
2E1
100
AcDbEntity
  8
0
100
AcDbLine
 62
9
  6
CONTINUOUS
 10
7.3073510784
 20
12.4668241275
 11
7.1577559819
 21
12.6164192715
  0
LINE
  5
2E2
100
AcDbEntity
  8
0
100
AcDbLine
 62
9
  6
CONTINUOUS
 10
7.3499079636
 20
12.4270683363
 11
7.5948570211
 21
12.1821192785
  0
LINE
  5
2E3
100
AcDbEntity
  8
0
100
AcDbLine
 62
9
  6
CONTINUOUS
 10
7.827862628
 20
11.9491136717
 11
7.9037040596
 21
11.87327224
  0
LINE
  5
2E4
100
AcDbEntity
  8
0
100
AcDbLine
 62
9
  6
CONTINUOUS
 10
7.674931358
 20
12.1020449417
 11
7.7477882912
 21
12.0291880085
  0
LINE
  5
2E5
100
AcDbEntity
  8
0
100
AcDbLine
 62
9
  6
CONTINUOUS
 10
7.9837783965
 20
11.7931979032
 11
8.3127295
 21
11.464246802
  0
LINE
  5
2E6
100
AcDbEntity
  8
0
100
AcDbLine
 62
9
  6
CONTINUOUS
 10
7.341335487
 20
12.4508939865
 11
7.3532390174
 21
12.4389904562
  0
LINE
  5
2E7
100
AcDbEntity
  8
0
100
AcDbLine
 62
9
  6
CONTINUOUS
 10
8.5266131245
 20
11.2656163491
 11
8.3127295
 21
11.4794999735
  0
LINE
  5
2E8
100
AcDbEntity
  8
0
100
AcDbLine
 62
9
  6
CONTINUOUS
 10
7.9990315704
 20
11.7931979032
 11
7.9037040596
 21
11.8885254139
  0
LINE
  5
2E9
100
AcDbEntity
  8
0
100
AcDbLine
 62
9
  6
CONTINUOUS
 10
7.8431158019
 20
11.9491136717
 11
7.7477882912
 21
12.0444411824
  0
LINE
  5
2EA
100
AcDbEntity
  8
0
100
AcDbLine
 62
9
  6
CONTINUOUS
 10
7.6901845318
 20
12.1020449417
 11
7.5948570211
 21
12.1973724524
  0
LINE
  5
2EB
100
AcDbEntity
  8
0
100
AcDbLine
 62
9
  6
CONTINUOUS
 10
7.325405346
 20
12.4668241275
 11
7.1577559819
 21
12.6344734917
  0
LINE
  5
2EC
100
AcDbEntity
  8
0
100
AcDbLine
 62
9
  6
CONTINUOUS
 10
8.5349648412
 20
11.2690757178
 11
8.3161888688
 21
11.4878516903
  0
LINE
  5
2ED
100
AcDbEntity
  8
0
100
AcDbLine
 62
9
  6
CONTINUOUS
 10
8.0073832871
 20
11.7966572719
 11
7.9071634284
 21
11.8968771307
  0
LINE
  5
2EE
100
AcDbEntity
  8
0
100
AcDbLine
 62
9
  6
CONTINUOUS
 10
7.8514675186
 20
11.9525730404
 11
7.7512476599
 21
12.0527928991
  0
LINE
  5
2EF
100
AcDbEntity
  8
0
100
AcDbLine
 62
9
  6
CONTINUOUS
 10
7.6985362486
 20
12.1055043104
 11
7.5983163899
 21
12.2057241692
  0
LINE
  5
2F0
100
AcDbEntity
  8
0
100
AcDbLine
 62
9
  6
CONTINUOUS
 10
7.3527636632
 20
12.4512768958
 11
7.3447948558
 21
12.4592457033
  0
LINE
  5
2F1
100
AcDbEntity
  8
0
100
AcDbLine
 62
9
  6
CONTINUOUS
 10
7.3337570628
 20
12.4702834963
 11
7.1612153506
 21
12.6428252084
  0
LINE
  5
2F2
100
AcDbEntity
  8
0
100
AcDbLine
 62
7
  6
CONTINUOUS
 10
7.3447325042
 20
12.4685944818
 11
7.6029596033
 21
12.2103673826
  0
LINE
  5
2F3
100
AcDbEntity
  8
0
100
AcDbLine
 62
7
  6
CONTINUOUS
 10
7.7031794621
 20
12.1101475239
 11
7.7558908733
 21
12.0574361126
  0
LINE
  5
2F4
100
AcDbEntity
  8
0
100
AcDbLine
 62
7
  6
CONTINUOUS
 10
7.8561107321
 20
11.9572162538
 11
7.9119153543
 21
11.9014116316
  0
LINE
  5
2F5
100
AcDbEntity
  8
0
100
AcDbLine
 62
7
  6
CONTINUOUS
 10
8.0120265006
 20
11.8013004854
 11
8.3208320822
 21
11.4924949037
  0
LINE
  5
2F6
100
AcDbEntity
  8
0
100
AcDbLine
 62
9
  6
CONTINUOUS
 10
7.9825088684
 20
11.6462047676
 11
8.1549110103
 21
11.4738026256
  0
LINE
  5
2F7
100
AcDbEntity
  8
0
100
AcDbLine
 62
9
  6
CONTINUOUS
 10
8.3127295
 20
11.4614457058
 11
8.5085588559
 21
11.2656163491
  0
LINE
  5
2F8
100
AcDbEntity
  8
0
100
AcDbLine
 62
7
  6
CONTINUOUS
 10
6.6733056714
 20
13.4316008356
 11
6.6430927884
 21
13.4651556416
  0
LINE
  5
2F9
100
AcDbEntity
  8
0
100
AcDbLine
 62
9
  6
CONTINUOUS
 10
11.2034162058
 20
4.4303724095
 11
11.2003142697
 21
4.4484445767
  0
LINE
  5
2FA
100
AcDbEntity
  8
0
100
AcDbLine
 62
7
  6
CONTINUOUS
 10
11.6288851235
 20
1.6800933804
 11
11.6157556969
 21
1.9934738689
  0
LINE
  5
2FB
100
AcDbEntity
  8
0
100
AcDbLine
 62
7
  6
CONTINUOUS
 10
11.6157556969
 20
1.9934738689
 11
11.6100464577
 21
2.1374008948
  0
LINE
  5
2FC
100
AcDbEntity
  8
0
100
AcDbLine
 62
9
  6
CONTINUOUS
 10
11.2151975366
 20
4.4314155927
 11
11.2151975368
 21
4.4483755588
  0
LINE
  5
2FD
100
AcDbEntity
  8
0
100
AcDbLine
 62
9
  6
CONTINUOUS
 10
11.3706709153
 20
4.5425005456
 11
11.3706709153
 21
4.5394605117
  0
LINE
  5
2FE
100
AcDbEntity
  8
0
100
AcDbLine
 62
9
  6
CONTINUOUS
 10
10.931128046
 20
1.0365145234
 11
10.9305091002
 21
1.0187986031
  0
LINE
  5
2FF
100
AcDbEntity
  8
0
100
AcDbLine
 62
7
  6
CONTINUOUS
 10
9.3307491597
 20
10.7741573473
 11
9.3643039657
 21
10.7439444643
  0
LINE
  5
300
100
AcDbEntity
  8
0
100
AcDbLine
 62
7
  6
CONTINUOUS
 10
7.0725308167
 20
12.8325583687
 11
8.7317066928
 21
11.1733824926
  0
LINE
  5
301
100
AcDbEntity
  8
0
100
AcDbLine
 62
7
  6
CONTINUOUS
 10
8.8054528958
 20
11.1213333894
 11
7.0204817135
 21
12.9063045716
  0
LINE
  5
302
100
AcDbEntity
  8
0
100
AcDbLine
 62
7
  6
CONTINUOUS
 10
6.9049130165
 20
13.0290363249
 11
6.9657759857
 21
12.9681733557
  0
LINE
  5
303
100
AcDbEntity
  8
0
100
AcDbLine
 62
7
  6
CONTINUOUS
 10
6.9717888634
 20
12.962160478
 11
7.0326350462
 21
12.9013142952
  0
LINE
  5
304
100
AcDbEntity
  8
0
100
AcDbLine
 62
7
  6
CONTINUOUS
 10
7.1009668862
 20
12.8329824552
 11
7.1618130252
 21
12.7721363162
  0
LINE
  5
305
100
AcDbEntity
  8
0
100
AcDbLine
 62
7
  6
CONTINUOUS
 10
7.2836510144
 20
12.650298327
 11
7.3444994586
 21
12.5894498828
  0
LINE
  5
306
100
AcDbEntity
  8
0
100
AcDbLine
 62
7
  6
CONTINUOUS
 10
7.5073943894
 20
12.426554952
 11
7.5682418053
 21
12.3657075361
  0
LINE
  5
307
100
AcDbEntity
  8
0
100
AcDbLine
 62
7
  6
CONTINUOUS
 10
7.7569470703
 20
12.1770022711
 11
7.8177945934
 21
12.116154748
  0
LINE
  5
308
100
AcDbEntity
  8
0
100
AcDbLine
 62
7
  6
CONTINUOUS
 10
8.015303069
 20
11.9186462723
 11
8.0761505983
 21
11.8577987431
  0
LINE
  5
309
100
AcDbEntity
  8
0
100
AcDbLine
 62
7
  6
CONTINUOUS
 10
8.2648558733
 20
11.6690934681
 11
8.3257032631
 21
11.6082460783
  0
LINE
  5
30A
100
AcDbEntity
  8
0
100
AcDbLine
 62
7
  6
CONTINUOUS
 10
8.4885981692
 20
11.4453511722
 11
8.5494466887
 21
11.3845026526
  0
LINE
  5
30B
100
AcDbEntity
  8
0
100
AcDbLine
 62
7
  6
CONTINUOUS
 10
8.6712845176
 20
11.2626648238
 11
8.732130902
 21
11.2018184394
  0
LINE
  5
30C
100
AcDbEntity
  8
0
100
AcDbLine
 62
7
  6
CONTINUOUS
 10
8.800462628
 20
11.1334867134
 11
8.8613087934
 21
11.0726405479
  0
LINE
  5
30D
100
AcDbEntity
  8
0
100
AcDbLine
 62
7
  6
CONTINUOUS
 10
8.8673218135
 20
11.0666275279
 11
8.928172735
 21
11.0057766064
  0
LINE
  5
30E
100
AcDbEntity
  8
0
100
AcDbLine
 62
9
  6
CONTINUOUS
 10
8.795804457
 20
11.1409726784
 11
8.7396167576
 21
11.1971603778
  0
LINE
  5
30F
100
AcDbEntity
  8
0
100
AcDbLine
 62
9
  6
CONTINUOUS
 10
8.6666264561
 20
11.2701506793
 11
8.5569314768
 21
11.3798456586
  0
LINE
  5
310
100
AcDbEntity
  8
0
100
AcDbLine
 62
9
  6
CONTINUOUS
 10
8.4839411752
 20
11.4528359602
 11
8.333188616
 21
11.6035885194
  0
LINE
  5
311
100
AcDbEntity
  8
0
100
AcDbLine
 62
9
  6
CONTINUOUS
 10
8.2601983144
 20
11.676578821
 11
8.0836358814
 21
11.853141254
  0
LINE
  5
312
100
AcDbEntity
  8
0
100
AcDbLine
 62
9
  6
CONTINUOUS
 10
8.0106455799
 20
11.9261315555
 11
7.8252798796
 21
12.1114972558
  0
LINE
  5
313
100
AcDbEntity
  8
0
100
AcDbLine
 62
9
  6
CONTINUOUS
 10
7.7522895781
 20
12.1844875573
 11
7.5757271451
 21
12.3610499903
  0
LINE
  5
314
100
AcDbEntity
  8
0
100
AcDbLine
 62
9
  6
CONTINUOUS
 10
7.5027368435
 20
12.4340402919
 11
7.3519842843
 21
12.5847928511
  0
LINE
  5
315
100
AcDbEntity
  8
0
100
AcDbLine
 62
9
  6
CONTINUOUS
 10
7.2789939828
 20
12.6577831526
 11
7.1692990034
 21
12.7674781319
  0
LINE
  5
316
100
AcDbEntity
  8
0
100
AcDbLine
 62
9
  6
CONTINUOUS
 10
7.0963087019
 20
12.8404684335
 11
7.0401210025
 21
12.8966561329
  0
LINE
  5
317
100
AcDbEntity
  8
0
100
AcDbLine
 62
9
  6
CONTINUOUS
 10
8.7460515687
 20
11.196051127
 11
8.6655172053
 21
11.2765854904
  0
LINE
  5
318
100
AcDbEntity
  8
0
100
AcDbLine
 62
9
  6
CONTINUOUS
 10
8.5633662878
 20
11.3787364079
 11
8.4828319244
 21
11.4592707713
  0
LINE
  5
319
100
AcDbEntity
  8
0
100
AcDbLine
 62
9
  6
CONTINUOUS
 10
8.339623427
 20
11.6024792687
 11
8.2590890636
 21
11.683013632
  0
LINE
  5
31A
100
AcDbEntity
  8
0
100
AcDbLine
 62
9
  6
CONTINUOUS
 10
8.0900706925
 20
11.8520320032
 11
8.0095363291
 21
11.9325663666
  0
LINE
  5
31B
100
AcDbEntity
  8
0
100
AcDbLine
 62
9
  6
CONTINUOUS
 10
7.8317146907
 20
12.110388005
 11
7.7511803273
 21
12.1909223684
  0
LINE
  5
31C
100
AcDbEntity
  8
0
100
AcDbLine
 62
9
  6
CONTINUOUS
 10
7.5821619562
 20
12.3599407395
 11
7.5016275928
 21
12.4404751029
  0
LINE
  5
31D
100
AcDbEntity
  8
0
100
AcDbLine
 62
9
  6
CONTINUOUS
 10
7.3584190954
 20
12.5836836003
 11
7.277884732
 21
12.6642179637
  0
LINE
  5
31E
100
AcDbEntity
  8
0
100
AcDbLine
 62
9
  6
CONTINUOUS
 10
7.1757338145
 20
12.7663688812
 11
7.0951994511
 21
12.8469032446
  0
LINE
  5
31F
100
AcDbEntity
  8
0
100
AcDbLine
 62
9
  6
CONTINUOUS
 10
7.0465558136
 20
12.8955468821
 11
6.8991539965
 21
13.0429486991
  0
LINE
  5
320
100
AcDbEntity
  8
0
100
AcDbLine
 62
9
  6
CONTINUOUS
 10
8.7575828398
 20
11.196051127
 11
8.6655172053
 21
11.2881167616
  0
LINE
  5
321
100
AcDbEntity
  8
0
100
AcDbLine
 62
9
  6
CONTINUOUS
 10
8.3511546982
 20
11.6024792687
 11
8.2590890636
 21
11.6945449032
  0
LINE
  5
322
100
AcDbEntity
  8
0
100
AcDbLine
 62
9
  6
CONTINUOUS
 10
7.8432459618
 20
12.110388005
 11
7.7511803273
 21
12.2024536395
  0
LINE
  5
323
100
AcDbEntity
  8
0
100
AcDbLine
 62
9
  6
CONTINUOUS
 10
7.3699503665
 20
12.5836836003
 11
7.277884732
 21
12.6757492349
  0
LINE
  5
324
100
AcDbEntity
  8
0
100
AcDbLine
 62
9
  6
CONTINUOUS
 10
7.0580870848
 20
12.8955468821
 11
6.8991539965
 21
13.0544799792
  0
LINE
  5
325
100
AcDbEntity
  8
0
100
AcDbLine
 62
9
  6
CONTINUOUS
 10
8.9536282944
 20
11.0000056724
 11
8.7946952062
 21
11.1589387606
  0
LINE
  5
326
100
AcDbEntity
  8
0
100
AcDbLine
 62
9
  6
CONTINUOUS
 10
8.574897559
 20
11.3787364079
 11
8.4828319244
 21
11.4708020424
  0
LINE
  5
327
100
AcDbEntity
  8
0
100
AcDbLine
 62
9
  6
CONTINUOUS
 10
8.1016019636
 20
11.8520320032
 11
8.0095363291
 21
11.9440976377
  0
LINE
  5
328
100
AcDbEntity
  8
0
100
AcDbLine
 62
9
  6
CONTINUOUS
 10
7.5936932273
 20
12.3599407395
 11
7.5016275928
 21
12.4520063741
  0
LINE
  5
329
100
AcDbEntity
  8
0
100
AcDbLine
 62
9
  6
CONTINUOUS
 10
7.1872650857
 20
12.7663688812
 11
7.0951994511
 21
12.8584345157
  0
LINE
  5
32A
100
AcDbEntity
  8
0
100
AcDbLine
 62
9
  6
CONTINUOUS
 10
8.7968150722
 20
11.167814043
 11
8.7664581221
 21
11.198170993
  0
LINE
  5
32B
100
AcDbEntity
  8
0
100
AcDbLine
 62
9
  6
CONTINUOUS
 10
8.6676370713
 20
11.2969920439
 11
8.5837728413
 21
11.3808562739
  0
LINE
  5
32C
100
AcDbEntity
  8
0
100
AcDbLine
 62
9
  6
CONTINUOUS
 10
8.4849517904
 20
11.4796773247
 11
8.3600299805
 21
11.6045991347
  0
LINE
  5
32D
100
AcDbEntity
  8
0
100
AcDbLine
 62
9
  6
CONTINUOUS
 10
8.2612089297
 20
11.7034201855
 11
8.110477246
 21
11.8541518692
  0
LINE
  5
32E
100
AcDbEntity
  8
0
100
AcDbLine
 62
9
  6
CONTINUOUS
 10
8.0116561951
 20
11.95297292
 11
7.8521212442
 21
12.112507871
  0
LINE
  5
32F
100
AcDbEntity
  8
0
100
AcDbLine
 62
9
  6
CONTINUOUS
 10
7.7533001933
 20
12.2113289219
 11
7.6025685096
 21
12.3620606055
  0
LINE
  5
330
100
AcDbEntity
  8
0
100
AcDbLine
 62
9
  6
CONTINUOUS
 10
7.5037474588
 20
12.4608816564
 11
7.3788256488
 21
12.5858034663
  0
LINE
  5
331
100
AcDbEntity
  8
0
100
AcDbLine
 62
9
  6
CONTINUOUS
 10
7.280004598
 20
12.6846245172
 11
7.196140368
 21
12.7684887472
  0
LINE
  5
332
100
AcDbEntity
  8
0
100
AcDbLine
 62
9
  6
CONTINUOUS
 10
7.0973193171
 20
12.867309798
 11
7.0669623671
 21
12.8976667481
  0
LINE
  5
333
100
AcDbEntity
  8
0
100
AcDbLine
 62
9
  6
CONTINUOUS
 10
8.9675481332
 20
11.005771287
 11
8.8004608207
 21
11.1728585994
  0
LINE
  5
334
100
AcDbEntity
  8
0
100
AcDbLine
 62
9
  6
CONTINUOUS
 10
8.7715026786
 20
11.2018167416
 11
8.6712828198
 21
11.3020366003
  0
LINE
  5
335
100
AcDbEntity
  8
0
100
AcDbLine
 62
9
  6
CONTINUOUS
 10
8.5888173977
 20
11.3845020224
 11
8.488597539
 21
11.4847218812
  0
LINE
  5
336
100
AcDbEntity
  8
0
100
AcDbLine
 62
9
  6
CONTINUOUS
 10
8.3650745369
 20
11.6082448832
 11
8.2648546782
 21
11.7084647419
  0
LINE
  5
337
100
AcDbEntity
  8
0
100
AcDbLine
 62
9
  6
CONTINUOUS
 10
8.1155218024
 20
11.8577976177
 11
8.0153019437
 21
11.9580174765
  0
LINE
  5
338
100
AcDbEntity
  8
0
100
AcDbLine
 62
9
  6
CONTINUOUS
 10
7.8571658006
 20
12.1161536195
 11
7.7569459418
 21
12.2163734783
  0
LINE
  5
339
100
AcDbEntity
  8
0
100
AcDbLine
 62
9
  6
CONTINUOUS
 10
7.6076130661
 20
12.3657063541
 11
7.5073932073
 21
12.4659262128
  0
LINE
  5
33A
100
AcDbEntity
  8
0
100
AcDbLine
 62
9
  6
CONTINUOUS
 10
7.3838702053
 20
12.5894492149
 11
7.2836503465
 21
12.6896690736
  0
LINE
  5
33B
100
AcDbEntity
  8
0
100
AcDbLine
 62
9
  6
CONTINUOUS
 10
7.2011849244
 20
12.7721344957
 11
7.1009650657
 21
12.8723543545
  0
LINE
  5
33C
100
AcDbEntity
  8
0
100
AcDbLine
 62
9
  6
CONTINUOUS
 10
7.0720069235
 20
12.9013124966
 11
6.9049196111
 21
13.068399809
  0
LINE
  5
33D
100
AcDbEntity
  8
0
100
AcDbLine
 62
7
  6
CONTINUOUS
 10
7.0801392843
 20
12.9094448573
 11
7.1090974264
 21
12.8804867152
  0
LINE
  5
33E
100
AcDbEntity
  8
0
100
AcDbLine
 62
7
  6
CONTINUOUS
 10
7.2093172852
 20
12.7802668564
 11
7.2917827073
 21
12.6978014344
  0
LINE
  5
33F
100
AcDbEntity
  8
0
100
AcDbLine
 62
7
  6
CONTINUOUS
 10
7.392002566
 20
12.5975815756
 11
7.5155255681
 21
12.4740585736
  0
LINE
  5
340
100
AcDbEntity
  8
0
100
AcDbLine
 62
7
  6
CONTINUOUS
 10
7.6157454268
 20
12.3738387148
 11
7.7650783026
 21
12.224505839
  0
LINE
  5
341
100
AcDbEntity
  8
0
100
AcDbLine
 62
7
  6
CONTINUOUS
 10
7.8652981613
 20
12.1242859803
 11
8.0234343044
 21
11.9661498372
  0
LINE
  5
342
100
AcDbEntity
  8
0
100
AcDbLine
 62
7
  6
CONTINUOUS
 10
8.1236541631
 20
11.8659299785
 11
8.2729870389
 21
11.7165971027
  0
LINE
  5
343
100
AcDbEntity
  8
0
100
AcDbLine
 62
7
  6
CONTINUOUS
 10
8.3732068977
 20
11.6163772439
 11
8.4967298997
 21
11.4928542419
  0
LINE
  5
344
100
AcDbEntity
  8
0
100
AcDbLine
 62
7
  6
CONTINUOUS
 10
8.5969497585
 20
11.3926343831
 11
8.6794151806
 21
11.3101689611
  0
LINE
  5
345
100
AcDbEntity
  8
0
100
AcDbLine
 62
7
  6
CONTINUOUS
 10
8.7796350393
 20
11.2099491023
 11
8.8085931815
 21
11.1809909601
  0
LINE
  5
346
100
AcDbEntity
  8
0
100
AcDbLine
 62
7
  6
CONTINUOUS
 10
6.7657579572
 20
13.226947953
 11
6.8822068862
 21
13.110499024
  0
LINE
  5
347
100
AcDbEntity
  8
0
100
AcDbLine
 62
7
  6
CONTINUOUS
 10
6.9186788817
 20
13.0740270286
 11
6.9962249697
 21
12.9964809405
  0
LINE
  5
348
100
AcDbEntity
  8
0
100
AcDbLine
 62
7
  6
CONTINUOUS
 10
7.1000646207
 20
12.8926412895
 11
7.1776163853
 21
12.815089525
  0
LINE
  5
349
100
AcDbEntity
  8
0
100
AcDbLine
 62
7
  6
CONTINUOUS
 10
7.3364549475
 20
12.6562509627
 11
7.4140064511
 21
12.5786994592
  0
LINE
  5
34A
100
AcDbEntity
  8
0
100
AcDbLine
 62
7
  6
CONTINUOUS
 10
7.6117377681
 20
12.3809681421
 11
7.6892880586
 21
12.3034178517
  0
LINE
  5
34B
100
AcDbEntity
  8
0
100
AcDbLine
 62
7
  6
CONTINUOUS
 10
7.9071519668
 20
12.0855539435
 11
7.9847022676
 21
12.0080036426
  0
LINE
  5
34C
100
AcDbEntity
  8
0
100
AcDbLine
 62
7
  6
CONTINUOUS
 10
8.2025661198
 20
11.7901397904
 11
8.2801165222
 21
11.712589388
  0
LINE
  5
34D
100
AcDbEntity
  8
0
100
AcDbLine
 62
7
  6
CONTINUOUS
 10
8.4778478
 20
11.5148581103
 11
8.5553992701
 21
11.4373066401
  0
LINE
  5
34E
100
AcDbEntity
  8
0
100
AcDbLine
 62
7
  6
CONTINUOUS
 10
8.7142378095
 20
11.2784681007
 11
8.7917896532
 21
11.200916257
  0
LINE
  5
34F
100
AcDbEntity
  8
0
100
AcDbLine
 62
7
  6
CONTINUOUS
 10
8.8956291107
 20
11.0970767995
 11
8.9731755066
 21
11.0195304036
  0
LINE
  5
350
100
AcDbEntity
  8
0
100
AcDbLine
 62
7
  6
CONTINUOUS
 10
9.009647517
 20
10.9830583933
 11
9.0872083534
 21
10.9054975568
  0
LINE
  5
351
100
AcDbEntity
  8
0
100
AcDbLine
 62
9
  6
CONTINUOUS
 10
9.1011235121
 20
10.8997358156
 11
9.0038857757
 21
10.996973552
  0
LINE
  5
352
100
AcDbEntity
  8
0
100
AcDbLine
 62
9
  6
CONTINUOUS
 10
8.9870978856
 20
11.0137614421
 11
8.8898601492
 21
11.1109991785
  0
LINE
  5
353
100
AcDbEntity
  8
0
100
AcDbLine
 62
9
  6
CONTINUOUS
 10
8.8057093083
 20
11.1951500194
 11
8.7084715719
 21
11.2923877558
  0
LINE
  5
354
100
AcDbEntity
  8
0
100
AcDbLine
 62
9
  6
CONTINUOUS
 10
8.569319112
 20
11.4315402157
 11
8.4720813756
 21
11.5287779521
  0
LINE
  5
355
100
AcDbEntity
  8
0
100
AcDbLine
 62
9
  6
CONTINUOUS
 10
8.2940368979
 20
11.7068224298
 11
8.1967991616
 21
11.8040601661
  0
LINE
  5
356
100
AcDbEntity
  8
0
100
AcDbLine
 62
9
  6
CONTINUOUS
 10
7.9986226941
 20
12.0022366336
 11
7.9013849577
 21
12.09947437
  0
LINE
  5
357
100
AcDbEntity
  8
0
100
AcDbLine
 62
9
  6
CONTINUOUS
 10
7.7032084903
 20
12.2976508375
 11
7.6059707539
 21
12.3948885738
  0
LINE
  5
358
100
AcDbEntity
  8
0
100
AcDbLine
 62
9
  6
CONTINUOUS
 10
7.4279262762
 20
12.5729330515
 11
7.3306885398
 21
12.6701707879
  0
LINE
  5
359
100
AcDbEntity
  8
0
100
AcDbLine
 62
9
  6
CONTINUOUS
 10
7.1915360799
 20
12.8093232478
 11
7.0942983436
 21
12.9065609842
  0
LINE
  5
35A
100
AcDbEntity
  8
0
100
AcDbLine
 62
9
  6
CONTINUOUS
 10
7.0101475026
 20
12.9907118251
 11
6.9129097663
 21
13.0879495615
  0
LINE
  5
35B
100
AcDbEntity
  8
0
100
AcDbLine
 62
9
  6
CONTINUOUS
 10
6.759992122
 20
13.2408672423
 11
6.8961218761
 21
13.1047374516
  0
LINE
  5
35C
100
AcDbEntity
  8
0
100
AcDbLine
 62
9
  6
CONTINUOUS
 10
7.0216782797
 20
12.9907118251
 11
6.9201958751
 21
13.0921942297
  0
LINE
  5
35D
100
AcDbEntity
  8
0
100
AcDbLine
 62
9
  6
CONTINUOUS
 10
6.759992122
 20
13.2523984761
 11
6.9076526532
 21
13.1047374516
  0
LINE
  5
35E
100
AcDbEntity
  8
0
100
AcDbLine
 62
9
  6
CONTINUOUS
 10
9.1126542892
 20
10.8997358156
 11
9.0038857757
 21
11.0085043291
  0
LINE
  5
35F
100
AcDbEntity
  8
0
100
AcDbLine
 62
9
  6
CONTINUOUS
 10
8.9986286627
 20
11.0137614421
 11
8.8898601492
 21
11.1225299556
  0
LINE
  5
360
100
AcDbEntity
  8
0
100
AcDbLine
 62
9
  6
CONTINUOUS
 10
8.8172400854
 20
11.1951500194
 11
8.7084715719
 21
11.3039185329
  0
LINE
  5
361
100
AcDbEntity
  8
0
100
AcDbLine
 62
9
  6
CONTINUOUS
 10
8.5808498891
 20
11.4315402157
 11
8.4720813756
 21
11.5403087292
  0
LINE
  5
362
100
AcDbEntity
  8
0
100
AcDbLine
 62
9
  6
CONTINUOUS
 10
8.3055676751
 20
11.7068224298
 11
8.1967991616
 21
11.8155909433
  0
LINE
  5
363
100
AcDbEntity
  8
0
100
AcDbLine
 62
9
  6
CONTINUOUS
 10
8.0101534714
 20
12.0022366336
 11
7.9013849577
 21
12.1110051473
  0
LINE
  5
364
100
AcDbEntity
  8
0
100
AcDbLine
 62
9
  6
CONTINUOUS
 10
7.7147392674
 20
12.2976508375
 11
7.6059707539
 21
12.4064193509
  0
LINE
  5
365
100
AcDbEntity
  8
0
100
AcDbLine
 62
9
  6
CONTINUOUS
 10
7.4394570533
 20
12.5729330515
 11
7.3306885398
 21
12.681701565
  0
LINE
  5
366
100
AcDbEntity
  8
0
100
AcDbLine
 62
9
  6
CONTINUOUS
 10
7.203066857
 20
12.8093232478
 11
7.0942983436
 21
12.9180917613
  0
LINE
  5
367
100
AcDbEntity
  8
0
100
AcDbLine
 62
9
  6
CONTINUOUS
 10
6.9201959317
 20
13.0921950179
 11
6.9129097663
 21
13.0994803386
  0
LINE
  5
368
100
AcDbEntity
  8
0
100
AcDbLine
 62
9
  6
CONTINUOUS
 10
9.1265745588
 20
10.9055014301
 11
8.8956257638
 21
11.1364502252
  0
LINE
  5
369
100
AcDbEntity
  8
0
100
AcDbLine
 62
9
  6
CONTINUOUS
 10
8.831160355
 20
11.200915634
 11
8.7142371864
 21
11.3178388025
  0
LINE
  5
36A
100
AcDbEntity
  8
0
100
AcDbLine
 62
9
  6
CONTINUOUS
 10
8.5947701587
 20
11.4373058303
 11
8.4778469902
 21
11.5542289988
  0
LINE
  5
36B
100
AcDbEntity
  8
0
100
AcDbLine
 62
9
  6
CONTINUOUS
 10
8.3194879447
 20
11.7125880443
 11
8.2025647761
 21
11.8295112129
  0
LINE
  5
36C
100
AcDbEntity
  8
0
100
AcDbLine
 62
9
  6
CONTINUOUS
 10
8.0240737408
 20
12.0080022482
 11
7.9071505723
 21
12.1249254167
  0
LINE
  5
36D
100
AcDbEntity
  8
0
100
AcDbLine
 62
9
  6
CONTINUOUS
 10
7.728659537
 20
12.303416452
 11
7.6117363684
 21
12.4203396205
  0
LINE
  5
36E
100
AcDbEntity
  8
0
100
AcDbLine
 62
9
  6
CONTINUOUS
 10
7.4533773229
 20
12.578698666
 11
7.3364541544
 21
12.6956218346
  0
LINE
  5
36F
100
AcDbEntity
  8
0
100
AcDbLine
 62
9
  6
CONTINUOUS
 10
7.2169871266
 20
12.8150888623
 11
7.1000639581
 21
12.9320120309
  0
LINE
  5
370
100
AcDbEntity
  8
0
100
AcDbLine
 62
9
  6
CONTINUOUS
 10
7.0355985493
 20
12.9964774396
 11
6.7657577365
 21
13.2663182525
  0
LINE
  5
371
100
AcDbEntity
  8
0
100
AcDbLine
 62
7
  6
CONTINUOUS
 10
6.7412574111
 20
13.3402026561
 11
9.237431761
 21
10.8440283061
  0
LINE
  5
372
100
AcDbEntity
  8
0
100
AcDbLine
 62
7
  6
CONTINUOUS
 10
6.7400553966
 20
13.3417492144
 11
9.2389906461
 21
10.8428139648
  0
LINE
  5
373
100
AcDbEntity
  8
0
100
AcDbLine
 62
7
  6
CONTINUOUS
 10
9.3307491597
 20
10.7741573473
 11
6.6733056714
 21
13.4316008356
  0
LINE
  5
374
100
AcDbEntity
  8
0
100
AcDbLine
 62
9
  6
CONTINUOUS
 10
6.6430927884
 20
13.4651556416
 11
9.3643039657
 21
10.7439444643
  0
LINE
  5
375
100
AcDbEntity
  8
0
100
AcDbLine
 62
9
  6
CONTINUOUS
 10
6.6459758319
 20
13.5752546326
 11
9.4744029567
 21
10.7468275078
  0
LINE
  5
376
100
AcDbEntity
  8
0
100
AcDbLine
 62
7
  6
CONTINUOUS
 10
8.7185736326
 20
11.176933179
 11
7.0760815031
 21
12.8194253085
  0
LINE
  5
377
100
AcDbEntity
  8
0
100
AcDbLine
 62
9
  6
CONTINUOUS
 10
8.7946952062
 20
11.1474074895
 11
8.9420970332
 21
11.0000056724
  0
LINE
  5
378
100
AcDbEntity
  8
0
100
AcDbLine
 62
7
  6
CONTINUOUS
 10
9.2374317568
 20
10.8440283104
 11
9.2373111871
 21
10.8441514998
  0
LWPOLYLINE
  5
379
100
AcDbEntity
  8
0
100
AcDbPolyline
 62
7
  6
CONTINUOUS
 90
3
 70
0
 10
11.6100464707
 20
2.1374005456
 10
11.6073094008
 20
2.5729248276
 10
11.6154200432
 20
2.9688683155
  0
LWPOLYLINE
  5
37A
100
AcDbEntity
  8
0
100
AcDbPolyline
 62
7
  6
CONTINUOUS
 90
3
 70
0
 10
11.6415972118
 20
1.0148555735
 10
11.6395396783
 20
1.3526227718
 10
11.6288851098
 20
1.6800935748
  0
LINE
  5
37B
100
AcDbEntity
  8
0
100
AcDbLine
 62
9
  6
CONTINUOUS
 10
11.5060810218
 20
4.5425005456
 11
11.5060810217
 21
4.5394605117
  0
LINE
  5
37C
100
AcDbEntity
  8
0
100
AcDbLine
 62
9
  6
CONTINUOUS
 10
11.6763895995
 20
4.4314156058
 11
11.676389603
 21
4.4483755555
  0
LINE
  5
37D
100
AcDbEntity
  8
0
100
AcDbLine
 62
7
  6
CONTINUOUS
 10
11.9568226038
 20
3.6484005456
 11
11.9568226038
 21
4.1984005455
  0
LINE
  5
37E
100
AcDbEntity
  8
0
100
AcDbLine
 62
7
  6
CONTINUOUS
 10
11.9878226038
 20
3.6434003815
 11
11.9878226038
 21
4.203400599
  0
LINE
  5
37F
100
AcDbEntity
  8
0
100
AcDbLine
 62
7
  6
CONTINUOUS
 10
11.6415970185
 20
1.0148491205
 11
11.641592091
 21
1.014598083
  0
LINE
  5
380
100
AcDbEntity
  8
0
100
AcDbLine
 62
7
  6
CONTINUOUS
 10
11.6415455881
 20
1.0129245018
 11
11.6415920774
 21
1.0145977351
  0
LINE
  5
381
100
AcDbEntity
  8
0
100
AcDbLine
 62
7
  6
CONTINUOUS
 10
11.6415327329
 20
1.0125273031
 11
11.6415455881
 21
1.0129245018
  0
LINE
  5
382
100
AcDbEntity
  8
0
100
AcDbLine
 62
9
  6
CONTINUOUS
 10
11.1611559272
 20
0.8788836953
 11
11.1612402813
 21
0.8813612686
  0
LINE
  5
383
100
AcDbEntity
  8
0
100
AcDbLine
 62
9
  6
CONTINUOUS
 10
11.3621801324
 20
0.8720394107
 11
11.3622644865
 21
0.874516984
  0
LINE
  5
384
100
AcDbEntity
  8
0
100
AcDbLine
 62
7
  6
CONTINUOUS
 10
11.6154200432
 20
2.9688683155
 11
11.6343226038
 21
3.3249005456
  0
LWPOLYLINE
  5
385
100
AcDbEntity
  8
0
100
AcDbPolyline
 62
7
  6
CONTINUOUS
 90
4
 70
0
 10
11.1213225975
 20
3.3249004522
 10
11.0924378873
 20
2.900343372
 10
11.0624838764
 20
2.4911522214
 10
11.0329908506
 20
2.1411719285
  0
LWPOLYLINE
  5
386
100
AcDbEntity
  8
0
100
AcDbPolyline
 62
7
  6
CONTINUOUS
 90
5
 70
0
 10
10.8935560722
 20
1.0393594191
 10
10.8932891759
 20
1.0358801116
 10
10.8935880565
 20
1.0326445568
 10
10.8944063327
 20
1.0295017956
 10
10.8957238934
 20
1.0265302443
  0
LINE
  5
387
100
AcDbEntity
  8
0
100
AcDbLine
 62
7
  6
CONTINUOUS
 10
11.0329900693
 20
2.1411627674
 11
11.0326461796
 21
2.1374009572
  0
LWPOLYLINE
  5
388
100
AcDbEntity
  8
0
100
AcDbPolyline
 62
7
  6
CONTINUOUS
 90
3
 70
0
 10
11.0326461419
 20
2.1374005456
 10
10.9905022261
 20
1.7351460893
 10
10.9436670954
 20
1.3681027066
  0
LINE
  5
389
100
AcDbEntity
  8
0
100
AcDbLine
 62
9
  6
CONTINUOUS
 10
10.0712596529
 20
11.3436842041
 11
7.2428325282
 21
14.1721113288
  0
LINE
  5
38A
100
AcDbEntity
  8
0
100
AcDbLine
 62
7
  6
CONTINUOUS
 10
10.0712596529
 20
11.4568212891
 11
7.3559696134
 21
14.1721113286
  0
LINE
  5
38B
100
AcDbEntity
  8
0
100
AcDbLine
 62
7
  6
CONTINUOUS
 10
10.2520834298
 20
14.8959311725
 11
10.2454207387
 21
14.9207966743
  0
LINE
  5
38C
100
AcDbEntity
  8
0
100
AcDbLine
 62
7
  6
CONTINUOUS
 10
10.0588497922
 20
14.7335725865
 11
10.0674288096
 21
14.7014871961
  0
LINE
  5
38D
100
AcDbEntity
  8
0
100
AcDbLine
 62
7
  6
CONTINUOUS
 10
10.1086580173
 20
14.7833742866
 11
10.116724211
 21
14.7532065004
  0
LINE
  5
38E
100
AcDbEntity
  8
0
100
AcDbLine
 62
7
  6
CONTINUOUS
 10
10.1583057585
 20
14.8330262961
 11
10.165743875
 21
14.8052082463
  0
LINE
  5
38F
100
AcDbEntity
  8
0
100
AcDbLine
 62
7
  6
CONTINUOUS
 10
10.2080835027
 20
14.88280642
 11
10.2149880728
 21
14.8569842465
  0
LINE
  5
390
100
AcDbEntity
  8
0
100
AcDbLine
 62
7
  6
CONTINUOUS
 10
10.6225374057
 20
14.1495595615
 11
10.6142548996
 21
14.1805400178
  0
LINE
  5
391
100
AcDbEntity
  8
0
100
AcDbLine
 62
9
  6
CONTINUOUS
 10
12.5474226038
 20
15.5171505456
 11
12.5474226038
 21
16.3296505456
  0
LINE
  5
392
100
AcDbEntity
  8
0
100
AcDbLine
 62
7
  6
CONTINUOUS
 10
10.9436670954
 20
1.3681027066
 11
10.8935560725
 21
1.0393594191
  0
LINE
  5
393
100
AcDbEntity
  8
0
100
AcDbLine
 62
7
  6
CONTINUOUS
 10
9.1126542892
 20
10.8997358156
 11
9.1011235121
 21
10.8997358156
  0
LWPOLYLINE
  5
394
100
AcDbEntity
  8
0
100
AcDbPolyline
 62
7
  6
CONTINUOUS
 90
5
 70
0
 10
8.5656430475
 20
11.2905583821
 10
8.566394213
 20
11.2902693008
 10
8.5668587904
 20
11.2900546644
 10
8.5670880134
 20
11.2899354865
 10
8.5671447149
 20
11.2899038203
  0
LINE
  5
395
100
AcDbEntity
  8
0
100
AcDbLine
 62
9
  6
CONTINUOUS
 10
9.517498764
 20
12.0433963268
 11
7.9425446509
 21
13.6183504399
  0
LINE
  5
396
100
AcDbEntity
  8
0
100
AcDbLine
 62
9
  6
CONTINUOUS
 10
9.5141927789
 20
12.8607148501
 11
8.7598631742
 21
13.6150444548
  0
LINE
  5
397
100
AcDbEntity
  8
0
100
AcDbLine
 62
7
  6
CONTINUOUS
 10
9.5529498938
 20
12.8406297484
 11
8.7397780725
 21
13.6538015696
  0
LINE
  5
398
100
AcDbEntity
  8
0
100
AcDbLine
 62
7
  6
CONTINUOUS
 10
10.6738131146
 20
14.2008404783
 11
10.6660917942
 21
14.2297220017
  0
LINE
  5
399
100
AcDbEntity
  8
0
100
AcDbLine
 62
7
  6
CONTINUOUS
 10
10.7250727324
 20
14.2520935773
 11
10.7178988299
 21
14.2789266388
  0
LINE
  5
39A
100
AcDbEntity
  8
0
100
AcDbLine
 62
7
  6
CONTINUOUS
 10
10.7763558069
 20
14.3033778663
 11
10.7697477924
 21
14.328094123
  0
LINE
  5
39B
100
AcDbEntity
  8
0
100
AcDbLine
 62
7
  6
CONTINUOUS
 10
8.9536282944
 20
11.0000056724
 11
8.9420970332
 21
11.0000056724
  0
LINE
  5
39C
100
AcDbEntity
  8
0
100
AcDbLine
 62
7
  6
CONTINUOUS
 10
8.9986286627
 20
11.0137614421
 11
8.9870978856
 21
11.0137614421
  0
LINE
  5
39D
100
AcDbEntity
  8
0
100
AcDbLine
 62
7
  6
CONTINUOUS
 10
8.8867608407
 20
11.0668731261
 11
8.8752295696
 21
11.0668731261
  0
LINE
  5
39E
100
AcDbEntity
  8
0
100
AcDbLine
 62
7
  6
CONTINUOUS
 10
8.8172400854
 20
11.1951500194
 11
8.8057093083
 21
11.1951500194
  0
LINE
  5
39F
100
AcDbEntity
  8
0
100
AcDbLine
 62
7
  6
CONTINUOUS
 10
8.7575828398
 20
11.196051127
 11
8.7460515687
 21
11.196051127
  0
LINE
  5
3A0
100
AcDbEntity
  8
0
100
AcDbLine
 62
7
  6
CONTINUOUS
 10
8.5266131245
 20
11.2656163491
 11
8.5085588559
 21
11.2656163491
  0
LINE
  5
3A1
100
AcDbEntity
  8
0
100
AcDbLine
 62
7
  6
CONTINUOUS
 10
8.4849067525
 20
11.3073227211
 11
8.4668524849
 21
11.3073227211
  0
LINE
  5
3A2
100
AcDbEntity
  8
0
100
AcDbLine
 62
7
  6
CONTINUOUS
 10
8.574897559
 20
11.3787364079
 11
8.5633662878
 21
11.3787364079
  0
LINE
  5
3A3
100
AcDbEntity
  8
0
100
AcDbLine
 62
7
  6
CONTINUOUS
 10
8.4080570108
 20
11.3841724628
 11
8.3900027431
 21
11.3841724628
  0
LINE
  5
3A4
100
AcDbEntity
  8
0
100
AcDbLine
 62
7
  6
CONTINUOUS
 10
8.5808498891
 20
11.4315402157
 11
8.569319112
 21
11.4315402157
  0
LINE
  5
3A5
100
AcDbEntity
  8
0
100
AcDbLine
 62
7
  6
CONTINUOUS
 10
8.1664422853
 20
11.4738026256
 11
8.1549110103
 21
11.4738026256
  0
LINE
  5
3A6
100
AcDbEntity
  8
0
100
AcDbLine
 62
7
  6
CONTINUOUS
 10
9.2860448506
 20
13.9419207934
 11
9.1674594383
 21
14.0605062057
  0
LINE
  5
3A7
100
AcDbEntity
  8
0
100
AcDbLine
 62
7
  6
CONTINUOUS
 10
8.3511546982
 20
11.6024792687
 11
8.339623427
 21
11.6024792687
  0
LINE
  5
3A8
100
AcDbEntity
  8
0
100
AcDbLine
 62
7
  6
CONTINUOUS
 10
7.9879069068
 20
11.6523380065
 11
7.9763756295
 21
11.6523380065
  0
LINE
  5
3A9
100
AcDbEntity
  8
0
100
AcDbLine
 62
7
  6
CONTINUOUS
 10
8.3055676751
 20
11.7068224298
 11
8.2940368979
 21
11.7068224298
  0
LINE
  5
3AA
100
AcDbEntity
  8
0
100
AcDbLine
 62
7
  6
CONTINUOUS
 10
7.9990315704
 20
11.7931979032
 11
7.9809773027
 21
11.7931979032
  0
LINE
  5
3AB
100
AcDbEntity
  8
0
100
AcDbLine
 62
7
  6
CONTINUOUS
 10
8.1016019636
 20
11.8520320032
 11
8.0900706925
 21
11.8520320032
  0
LINE
  5
3AC
100
AcDbEntity
  8
0
100
AcDbLine
 62
7
  6
CONTINUOUS
 10
7.7354197475
 20
11.9048251634
 11
7.7238884725
 21
11.9048251634
  0
LINE
  5
3AD
100
AcDbEntity
  8
0
100
AcDbLine
 62
7
  6
CONTINUOUS
 10
7.8431158019
 20
11.9491136717
 11
7.8250615342
 21
11.9491136717
  0
LINE
  5
3AE
100
AcDbEntity
  8
0
100
AcDbLine
 62
7
  6
CONTINUOUS
 10
8.0101534714
 20
12.0022366336
 11
7.9986226941
 21
12.0022366336
  0
LINE
  5
3AF
100
AcDbEntity
  8
0
100
AcDbLine
 62
7
  6
CONTINUOUS
 10
7.5514863306
 20
12.0833605443
 11
7.5453530917
 21
12.0833605443
  0
LINE
  5
3B0
100
AcDbEntity
  8
0
100
AcDbLine
 62
7
  6
CONTINUOUS
 10
7.6901845318
 20
12.1020449417
 11
7.6721302649
 21
12.1020449417
  0
LINE
  5
3B1
100
AcDbEntity
  8
0
100
AcDbLine
 62
7
  6
CONTINUOUS
 10
7.8432459618
 20
12.110388005
 11
7.8317146907
 21
12.110388005
  0
LINE
  5
3B2
100
AcDbEntity
  8
0
100
AcDbLine
 62
7
  6
CONTINUOUS
 10
10.2176307131
 20
13.5053096778
 11
9.4044580019
 21
14.3184823889
  0
LINE
  5
3B3
100
AcDbEntity
  8
0
100
AcDbLine
 62
9
  6
CONTINUOUS
 10
10.1331671074
 20
13.7452393726
 11
9.6443876967
 21
14.2340187833
  0
LINE
  5
3B4
100
AcDbEntity
  8
0
100
AcDbLine
 62
9
  6
CONTINUOUS
 10
10.2131670992
 20
13.8252754527
 11
9.7244237768
 21
14.3140187751
  0
LINE
  5
3B5
100
AcDbEntity
  8
0
100
AcDbLine
 62
9
  6
CONTINUOUS
 10
9.7244237768
 20
14.3873349399
 11
10.286483264
 21
13.8252754527
  0
LINE
  5
3B6
100
AcDbEntity
  8
0
100
AcDbLine
 62
9
  6
CONTINUOUS
 10
14.222608914
 20
2.9305445166
 11
14.2227238518
 21
2.9286262522
  0
LINE
  5
3B7
100
AcDbEntity
  8
0
100
AcDbLine
 62
9
  6
CONTINUOUS
 10
14.1244444544
 20
4.8559491056
 11
14.1243300241
 21
4.8579644166
  0
LINE
  5
3B8
100
AcDbEntity
  8
0
100
AcDbLine
 62
9
  6
CONTINUOUS
 10
14.1244443944
 20
3.007920295
 11
14.1244451787
 21
4.8388806409
  0
LINE
  5
3B9
100
AcDbEntity
  8
0
100
AcDbLine
 62
9
  6
CONTINUOUS
 10
14.2226085816
 20
4.8994076744
 11
14.2226094236
 21
2.9473930485
  0
LINE
  5
3BA
100
AcDbEntity
  8
0
100
AcDbLine
 62
7
  6
CONTINUOUS
 10
7.7147392674
 20
12.2976508375
 11
7.7032084903
 21
12.2976508375
  0
LINE
  5
3BB
100
AcDbEntity
  8
0
100
AcDbLine
 62
7
  6
CONTINUOUS
 10
7.5936932273
 20
12.3599407395
 11
7.5821619562
 21
12.3599407395
  0
LINE
  5
3BC
100
AcDbEntity
  8
0
100
AcDbLine
 62
7
  6
CONTINUOUS
 10
7.325405346
 20
12.4668241275
 11
7.3073510784
 21
12.4668241275
  0
LINE
  5
3BD
100
AcDbEntity
  8
0
100
AcDbLine
 62
7
  6
CONTINUOUS
 10
7.4394570533
 20
12.5729330515
 11
7.4279262762
 21
12.5729330515
  0
LINE
  5
3BE
100
AcDbEntity
  8
0
100
AcDbLine
 62
7
  6
CONTINUOUS
 10
7.3699503665
 20
12.5836836003
 11
7.3584190954
 21
12.5836836003
  0
LWPOLYLINE
  5
3BF
100
AcDbEntity
  8
0
100
AcDbPolyline
 62
7
  6
CONTINUOUS
 90
7
 70
0
 10
7.3458132353
 20
12.4783326513
 10
7.3475845074
 20
12.4783101488
 10
7.3490396622
 20
12.4780757456
 10
7.350224233
 20
12.477726552
 10
7.3511080583
 20
12.4773553128
 10
7.3516329915
 20
12.477076059
 10
7.3517697194
 20
12.47699281
  0
LINE
  5
3C0
100
AcDbEntity
  8
0
100
AcDbLine
 62
9
  6
CONTINUOUS
 10
9.7794877019
 20
14.5202710148
 11
9.789010119
 21
14.5107485976
  0
LINE
  5
3C1
100
AcDbEntity
  8
0
100
AcDbLine
 62
9
  6
CONTINUOUS
 10
9.8771329027
 20
14.422625814
 11
10.4194193389
 21
13.8803393778
  0
LINE
  5
3C2
100
AcDbEntity
  8
0
100
AcDbLine
 62
7
  6
CONTINUOUS
 10
9.9284005587
 20
14.6501390373
 11
10.0165233424
 21
14.5620162537
  0
LINE
  5
3C3
100
AcDbEntity
  8
0
100
AcDbLine
 62
7
  6
CONTINUOUS
 10
10.6471976618
 20
14.1081186295
 11
10.0072669536
 21
14.7480493377
  0
LINE
  5
3C4
100
AcDbEntity
  8
0
100
AcDbLine
 62
7
  6
CONTINUOUS
 10
14.4474226038
 20
14.7384005456
 11
14.4474226038
 21
17.1084005456
  0
LINE
  5
3C5
100
AcDbEntity
  8
0
100
AcDbLine
 62
7
  6
CONTINUOUS
 10
14.4574226037
 20
5.0733752991
 11
14.4574226047
 21
5.0730621313
  0
LINE
  5
3C6
100
AcDbEntity
  8
0
100
AcDbLine
 62
7
  6
CONTINUOUS
 10
14.4574226053
 20
5.053072138
 11
14.4574225978
 21
2.7937289328
  0
LINE
  5
3C7
100
AcDbEntity
  8
0
100
AcDbLine
 62
7
  6
CONTINUOUS
 10
14.4574226038
 20
2.7734646367
 11
14.4574226038
 21
2.773425754
  0
LINE
  5
3C8
100
AcDbEntity
  8
0
100
AcDbLine
 62
7
  6
CONTINUOUS
 10
14.4874226038
 20
1.2034005456
 11
14.4874226038
 21
6.6434005456
  0
LINE
  5
3C9
100
AcDbEntity
  8
0
100
AcDbLine
 62
9
  6
CONTINUOUS
 10
14.4874226038
 20
14.6984005456
 11
14.4874226038
 21
17.1484005456
  0
LINE
  5
3CA
100
AcDbEntity
  8
0
100
AcDbLine
 62
9
  6
CONTINUOUS
 10
14.5174226038
 20
1.1734005456
 11
14.5174226038
 21
6.6734005456
  0
LINE
  5
3CB
100
AcDbEntity
  8
0
100
AcDbLine
 62
7
  6
CONTINUOUS
 10
14.7974226038
 20
1.1734005456
 11
14.7974226038
 21
6.6734005456
  0
LINE
  5
3CC
100
AcDbEntity
  8
0
100
AcDbLine
 62
7
  6
CONTINUOUS
 10
14.7974226038
 20
14.6984005456
 11
14.7974226038
 21
17.1484005456
  0
LINE
  5
3CD
100
AcDbEntity
  8
0
100
AcDbLine
 62
9
  6
CONTINUOUS
 10
14.1243284844
 20
2.9888370845
 11
14.1244447027
 21
2.9908516337
  0
LINE
  5
3CE
100
AcDbEntity
  8
0
100
AcDbLine
 62
9
  6
CONTINUOUS
 10
14.2227209029
 20
4.9181727036
 11
14.2226094933
 21
4.9162567822
  0
LINE
  5
3CF
100
AcDbEntity
  8
0
100
AcDbLine
 62
7
  6
CONTINUOUS
 10
11.3393286171
 20
4.5397571491
 11
11.1935761804
 21
4.4543672648
  0
LINE
  5
3D0
100
AcDbEntity
  8
0
100
AcDbLine
 62
9
  6
CONTINUOUS
 10
11.3706709153
 20
4.5394605117
 11
11.2151975366
 21
4.4483755588
  0
LINE
  5
3D1
100
AcDbEntity
  8
0
100
AcDbLine
 62
7
  6
CONTINUOUS
 10
7.1872650857
 20
12.7663688812
 11
7.1757338145
 21
12.7663688812
  0
LINE
  5
3D2
100
AcDbEntity
  8
0
100
AcDbLine
 62
7
  6
CONTINUOUS
 10
7.203066857
 20
12.8093232478
 11
7.1915360799
 21
12.8093232478
  0
LINE
  5
3D3
100
AcDbEntity
  8
0
100
AcDbLine
 62
7
  6
CONTINUOUS
 10
7.0580870848
 20
12.8955468821
 11
7.0465558136
 21
12.8955468821
  0
LINE
  5
3D4
100
AcDbEntity
  8
0
100
AcDbLine
 62
7
  6
CONTINUOUS
 10
7.0216782797
 20
12.9907118251
 11
7.0101475026
 21
12.9907118251
  0
LINE
  5
3D5
100
AcDbEntity
  8
0
100
AcDbLine
 62
7
  6
CONTINUOUS
 10
6.9076526532
 20
13.1047374516
 11
6.8961218761
 21
13.1047374516
  0
LINE
  5
3D6
100
AcDbEntity
  8
0
100
AcDbLine
 62
7
  6
CONTINUOUS
 10
10.2145890009
 20
14.8899649365
 11
10.3049560993
 21
14.799597838
  0
LINE
  5
3D7
100
AcDbEntity
  8
0
100
AcDbLine
 62
7
  6
CONTINUOUS
 10
10.7823604731
 20
14.3403962749
 11
10.2394545027
 21
14.8833022453
  0
LINE
  5
3D8
100
AcDbEntity
  8
0
100
AcDbLine
 62
7
  6
CONTINUOUS
 10
10.7950794966
 20
14.3529351057
 11
10.2520834298
 21
14.8959311725
  0
LINE
  5
3D9
100
AcDbEntity
  8
0
100
AcDbLine
 62
7
  6
CONTINUOUS
 10
10.8199449984
 20
14.3462724145
 11
10.2454207387
 21
14.9207966743
  0
LINE
  5
3DA
100
AcDbEntity
  8
0
100
AcDbLine
 62
7
  6
CONTINUOUS
 10
10.286483264
 20
13.8252754527
 11
10.2131670992
 21
13.8252754527
  0
LINE
  5
3DB
100
AcDbEntity
  8
0
100
AcDbLine
 62
7
  6
CONTINUOUS
 10
8.7598631742
 20
13.6150444548
 11
7.9425446509
 21
13.6183504399
  0
LWPOLYLINE
  5
3DC
100
AcDbEntity
  8
0
100
AcDbPolyline
 62
7
  6
CONTINUOUS
 90
7
 70
0
 10
14.2227240218
 20
4.9181716876
 10
14.2185044446
 20
4.9152706001
 10
14.2123400686
 20
4.9099403763
 10
14.2069567146
 20
4.903826444
 10
14.2024526567
 20
4.8970422892
 10
14.1989099234
 20
4.8897137756
 10
14.1971367819
 20
4.8846660476
  0
LWPOLYLINE
  5
3DD
100
AcDbEntity
  8
0
100
AcDbPolyline
 62
7
  6
CONTINUOUS
 90
4
 70
0
 10
14.4574226037
 20
5.0733752991
 10
14.3790858199
 20
5.0197471403
 10
14.2991777459
 20
4.9669317899
 10
14.222722665
 20
4.9181738074
  0
LWPOLYLINE
  5
3DE
100
AcDbEntity
  8
0
100
AcDbPolyline
 62
7
  6
CONTINUOUS
 90
3
 70
0
 10
14.1243275816
 20
4.857963097
 10
13.9203601564
 20
4.7421736585
 10
13.716305554
 20
4.6383600017
  0
LINE
  5
3DF
100
AcDbEntity
  8
0
100
AcDbLine
 62
7
  6
CONTINUOUS
 10
13.716305554
 20
4.6383600017
 11
13.5154140376
 21
4.5476658818
  0
LINE
  5
3E0
100
AcDbEntity
  8
0
100
AcDbLine
 62
7
  6
CONTINUOUS
 10
13.5154140376
 20
4.5476658818
 11
13.3184234893
 21
4.4696381285
  0
LINE
  5
3E1
100
AcDbEntity
  8
0
100
AcDbLine
 62
7
  6
CONTINUOUS
 10
10.6575827652
 20
14.1845631095
 11
10.6582865541
 21
14.1846139702
  0
LINE
  5
3E2
100
AcDbEntity
  8
0
100
AcDbLine
 62
7
  6
CONTINUOUS
 10
10.7073305426
 20
14.2343054888
 11
10.7080285344
 21
14.2343559505
  0
LINE
  5
3E3
100
AcDbEntity
  8
0
100
AcDbLine
 62
7
  6
CONTINUOUS
 10
10.7570804177
 20
14.2840621058
 11
10.7577856511
 21
14.2841130673
  0
LINE
  5
3E4
100
AcDbEntity
  8
0
100
AcDbLine
 62
7
  6
CONTINUOUS
 10
10.7823604731
 20
14.3403962749
 11
10.7821768077
 21
14.3403848371
  0
LINE
  5
3E5
100
AcDbEntity
  8
0
100
AcDbLine
 62
7
  6
CONTINUOUS
 10
10.6258557507
 20
14.1930463341
 11
10.6575827651
 21
14.1845631094
  0
LINE
  5
3E6
100
AcDbEntity
  8
0
100
AcDbLine
 62
7
  6
CONTINUOUS
 10
10.6776978474
 20
14.2422289508
 11
10.7073305415
 21
14.2343054877
  0
LINE
  5
3E7
100
AcDbEntity
  8
0
100
AcDbLine
 62
7
  6
CONTINUOUS
 10
10.7295096472
 20
14.2914341471
 11
10.7570804176
 21
14.2840621058
  0
LINE
  5
3E8
100
AcDbEntity
  8
0
100
AcDbLine
 62
7
  6
CONTINUOUS
 10
10.1051216606
 20
14.7407000374
 11
10.0742631324
 21
14.7489501155
  0
LINE
  5
3E9
100
AcDbEntity
  8
0
100
AcDbLine
 62
7
  6
CONTINUOUS
 10
10.1541351687
 20
14.7927010496
 11
10.125636445
 21
14.8003202467
  0
LINE
  5
3EA
100
AcDbEntity
  8
0
100
AcDbLine
 62
7
  6
CONTINUOUS
 10
10.2033746336
 20
14.8444764862
 11
10.1768789313
 21
14.851560187
  0
LINE
  5
3EB
100
AcDbEntity
  8
0
100
AcDbLine
 62
7
  6
CONTINUOUS
 10
10.7950794966
 20
14.3529351057
 11
10.8199449984
 21
14.3462724145
  0
LINE
  5
3EC
100
AcDbEntity
  8
0
100
AcDbLine
 62
9
  6
CONTINUOUS
 10
11.5972478666
 20
15.1235752828
 11
11.0227236069
 21
15.6980995425
  0
LINE
  5
3ED
100
AcDbEntity
  8
0
100
AcDbLine
 62
7
  6
CONTINUOUS
 10
10.0742631335
 20
14.7489501165
 11
10.0735205731
 21
14.7488965087
  0
LINE
  5
3EE
100
AcDbEntity
  8
0
100
AcDbLine
 62
7
  6
CONTINUOUS
 10
10.1256364447
 20
14.8003202464
 11
10.1248903688
 21
14.8002663044
  0
LINE
  5
3EF
100
AcDbEntity
  8
0
100
AcDbLine
 62
7
  6
CONTINUOUS
 10
10.1768789313
 20
14.8515601871
 11
10.1761301159
 21
14.8515060515
  0
LINE
  5
3F0
100
AcDbEntity
  8
0
100
AcDbLine
 62
7
  6
CONTINUOUS
 10
14.4874226038
 20
14.6984005456
 11
14.7974226038
 21
14.6984005456
  0
LINE
  5
3F1
100
AcDbEntity
  8
0
100
AcDbLine
 62
9
  6
CONTINUOUS
 10
14.4474226038
 20
14.7384005456
 11
14.7974226038
 21
14.7384005456
  0
LINE
  5
3F2
100
AcDbEntity
  8
0
100
AcDbLine
 62
7
  6
CONTINUOUS
 10
10.2145890009
 20
14.8899649365
 11
10.2394545027
 21
14.8833022453
  0
LINE
  5
3F3
100
AcDbEntity
  8
0
100
AcDbLine
 62
7
  6
CONTINUOUS
 10
10.8935567503
 20
1.039363517
 11
10.8936160609
 21
1.0394043759
  0
LINE
  5
3F4
100
AcDbEntity
  8
0
100
AcDbLine
 62
7
  6
CONTINUOUS
 10
14.4474226038
 20
15.5171505456
 11
12.5474226038
 21
15.5171505456
  0
LWPOLYLINE
  5
3F5
100
AcDbEntity
  8
0
100
AcDbPolyline
 62
7
  6
CONTINUOUS
 90
23
 70
0
 10
11.6319706961
 20
0.9956625373
 10
11.6331017908
 20
0.9964098467
 10
11.6341554729
 20
0.997212309
 10
11.6351322105
 20
0.9980627168
 10
11.6360329086
 20
0.9989545263
 10
11.6368588035
 20
0.9998818329
 10
11.6376114038
 20
1.0008393866
 10
11.6382919641
 20
1.0018218997
 10
11.6389008049
 20
1.0028224972
 10
11.6394388306
 20
1.0038343568
 10
11.6399076531
 20
1.0048510469
 10
11.6403095137
 20
1.0058666347
 10
11.6406471269
 20
1.0068755742
 10
11.6409233179
 20
1.0078715144
 10
11.6411381472
 20
1.0088314223
 10
11.6412908439
 20
1.0097018948
 10
11.641389791
 20
1.0104399819
 10
11.6414480331
 20
1.0110156772
 10
11.641480172
 20
1.0114315354
 10
11.641498395
 20
1.0117288047
 10
11.6415102046
 20
1.011960881
 10
11.6415188957
 20
1.0121585766
 10
11.6415327329
 20
1.0125273031
  0
LINE
  5
3F6
100
AcDbEntity
  8
0
100
AcDbLine
 62
7
  6
CONTINUOUS
 10
14.4474226038
 20
16.3296505456
 11
12.5474226038
 21
16.3296505456
  0
LWPOLYLINE
  5
3F7
100
AcDbEntity
  8
0
100
AcDbPolyline
 62
7
  6
CONTINUOUS
 90
3
 70
0
 10
11.6305602208
 20
0.9948743951
 10
11.6307622744
 20
0.9949782631
 10
11.6319706961
 20
0.9956625373
  0
LINE
  5
3F8
100
AcDbEntity
  8
0
100
AcDbLine
 62
9
  6
CONTINUOUS
 10
11.3622644865
 20
0.874516984
 11
11.6007332635
 21
0.9953974093
  0
LINE
  5
3F9
100
AcDbEntity
  8
0
100
AcDbLine
 62
7
  6
CONTINUOUS
 10
11.3911809964
 20
0.8735324617
 11
11.6305602236
 21
0.9948743965
  0
LINE
  5
3FA
100
AcDbEntity
  8
0
100
AcDbLine
 62
9
  6
CONTINUOUS
 10
14.4474226038
 20
17.1084005456
 11
14.7974226038
 21
17.1084005456
  0
LINE
  5
3FB
100
AcDbEntity
  8
0
100
AcDbLine
 62
7
  6
CONTINUOUS
 10
14.4874226038
 20
17.1484005456
 11
14.7974226038
 21
17.1484005456
  0
ARC
  5
3FC
100
AcDbEntity
  8
0
100
AcDbCircle
 62
9
  6
CONTINUOUS
 10
-23.4993376362
 20
5.8234936328
 40
34.7307055925
100
AcDbArc
 50
355.8744685895
 51
357.7011297242
  0
ARC
  5
3FD
100
AcDbEntity
  8
0
100
AcDbCircle
 62
7
  6
CONTINUOUS
 10
-23.4992664353
 20
5.8234896524
 40
34.7106342898
100
AcDbArc
 50
355.8745134777
 51
357.7011315963
  0
ARC
  5
3FE
100
AcDbEntity
  8
0
100
AcDbCircle
 62
7
  6
CONTINUOUS
 10
-12.5039585038
 20
4.2451335332
 40
23.6307918936
100
AcDbArc
 50
354.9059209177
 51
355.2558733777
  0
ARC
  5
3FF
100
AcDbEntity
  8
0
100
AcDbCircle
 62
9
  6
CONTINUOUS
 10
3.7203707395
 20
1.286769069
 40
7.88574733
100
AcDbArc
 50
357.8824876525
 51
358.0237096841
  0
ARC
  5
400
100
AcDbEntity
  8
0
100
AcDbCircle
 62
7
  6
CONTINUOUS
 10
11.1705570163
 20
-1.9419975194
 40
5.7479299158
100
AcDbArc
 50
55.1284684322
 51
57.9267654654
  0
ARC
  5
401
100
AcDbEntity
  8
0
100
AcDbCircle
 62
9
  6
CONTINUOUS
 10
11.3436133929
 20
-1.6034429629
 40
5.3850465688
100
AcDbArc
 50
54.6789697989
 51
57.6813213287
  0
ARC
  5
402
100
AcDbEntity
  8
0
100
AcDbCircle
 62
9
  6
CONTINUOUS
 10
11.3608515948
 20
-1.6091551725
 40
5.3664260194
100
AcDbArc
 50
54.7636219775
 51
57.7732951766
  0
ARC
  5
403
100
AcDbEntity
  8
0
100
AcDbCircle
 62
7
  6
CONTINUOUS
 10
11.7516004204
 20
-0.865826888
 40
4.5230491243
100
AcDbArc
 50
66.7471903638
 51
69.0918168687
  0
ARC
  5
404
100
AcDbEntity
  8
0
100
AcDbCircle
 62
7
  6
CONTINUOUS
 10
11.7860995649
 20
-0.7762255103
 40
4.4270359307
100
AcDbArc
 50
69.0950695923
 51
69.7474030865
  0
ARC
  5
405
100
AcDbEntity
  8
0
100
AcDbCircle
 62
7
  6
CONTINUOUS
 10
14.5174226038
 20
1.2034005456
 40
0.03
100
AcDbArc
 50
180.0
 51
270.0
  0
ARC
  5
406
100
AcDbEntity
  8
0
100
AcDbCircle
 62
7
  6
CONTINUOUS
 10
10.9133358624
 20
1.0360675426
 40
0.0200001257
100
AcDbArc
 50
170.3958236881
 51
239.219131549
  0
ARC
  5
407
100
AcDbEntity
  8
0
100
AcDbCircle
 62
7
  6
CONTINUOUS
 10
11.3821383527
 20
0.8913714806
 40
0.02
100
AcDbArc
 50
268.05
 51
296.8805653006
  0
ARC
  5
408
100
AcDbEntity
  8
0
100
AcDbCircle
 62
7
  6
CONTINUOUS
 10
11.142558801
 20
0.8995284616
 40
0.02
100
AcDbArc
 50
239.2194346994
 51
268.05
  0
ARC
  5
409
100
AcDbEntity
  8
0
100
AcDbCircle
 62
7
  6
CONTINUOUS
 10
12.302433455
 20
3.2451779508
 40
0.6728505004
100
AcDbArc
 50
171.3121340558
 51
173.1939023786
  0
ARC
  5
40A
100
AcDbEntity
  8
0
100
AcDbCircle
 62
7
  6
CONTINUOUS
 10
12.1650838282
 20
4.5325214329
 40
0.4790547094
100
AcDbArc
 50
189.3618321407
 51
189.4857428819
  0
ARC
  5
40B
100
AcDbEntity
  8
0
100
AcDbCircle
 62
7
  6
CONTINUOUS
 10
12.1611220304
 20
4.5318568899
 40
0.4750375635
100
AcDbArc
 50
189.5094712303
 51
189.7732788842
  0
ARC
  5
40C
100
AcDbEntity
  8
0
100
AcDbCircle
 62
9
  6
CONTINUOUS
 10
12.1354888574
 20
4.5441361475
 40
0.4689799648
100
AcDbArc
 50
190.6959674449
 51
191.7820332516
  0
ARC
  5
40D
100
AcDbEntity
  8
0
100
AcDbCircle
 62
7
  6
CONTINUOUS
 10
12.1547237511
 20
4.5307735604
 40
0.4685483346
100
AcDbArc
 50
189.3103151942
 51
190.6916064102
  0
ARC
  5
40E
100
AcDbEntity
  8
0
100
AcDbCircle
 62
7
  6
CONTINUOUS
 10
12.1340017196
 20
4.5268808934
 40
0.4474638603
100
AcDbArc
 50
190.6940797711
 51
191.7836671001
  0
ARC
  5
40F
100
AcDbEntity
  8
0
100
AcDbCircle
 62
7
  6
CONTINUOUS
 10
12.013609433
 20
4.634450048
 40
0.439731637
100
AcDbArc
 50
257.9774379139
 51
262.5801160535
  0
ARC
  5
410
100
AcDbEntity
  8
0
100
AcDbCircle
 62
9
  6
CONTINUOUS
 10
14.1708325868
 20
4.7785482765
 40
0.0902364495
100
AcDbArc
 50
86.2790426604
 51
120.93524675
  0
ARC
  5
411
100
AcDbEntity
  8
0
100
AcDbCircle
 62
7
  6
CONTINUOUS
 10
14.1708323153
 20
3.0682516367
 40
0.0902364142
100
AcDbArc
 50
239.0647689091
 51
273.7211443043
  0
ARC
  5
412
100
AcDbEntity
  8
0
100
AcDbCircle
 62
7
  6
CONTINUOUS
 10
14.1704889826
 20
3.0660977369
 40
0.09
100
AcDbArc
 50
239.1431809943
 51
273.9098030093
  0
ARC
  5
413
100
AcDbEntity
  8
0
100
AcDbCircle
 62
7
  6
CONTINUOUS
 10
14.2545758147
 20
2.9794735969
 40
0.06
100
AcDbArc
 50
196.7979840265
 51
237.9360111637
  0
ARC
  5
414
100
AcDbEntity
  8
0
100
AcDbCircle
 62
9
  6
CONTINUOUS
 10
14.2545407653
 20
2.9812159339
 40
0.0598928555
100
AcDbArc
 50
196.6423972069
 51
237.7818998035
  0
ARC
  5
415
100
AcDbEntity
  8
0
100
AcDbCircle
 62
7
  6
CONTINUOUS
 10
14.2545379835
 20
4.8655891101
 40
0.0598894567
100
AcDbArc
 50
122.2172879798
 51
163.3602740071
  0
ARC
  5
416
100
AcDbEntity
  8
0
100
AcDbCircle
 62
9
  6
CONTINUOUS
 10
14.2288920501
 20
4.8624624956
 40
0.0349449666
100
AcDbArc
 50
146.4242852012
 51
147.1604104816
  0
ARC
  5
417
100
AcDbEntity
  8
0
100
AcDbCircle
 62
7
  6
CONTINUOUS
 10
14.5174226038
 20
6.6434005456
 40
0.03
100
AcDbArc
 50
90.0
 51
180.0
  0
ARC
  5
418
100
AcDbEntity
  8
0
100
AcDbCircle
 62
7
  6
CONTINUOUS
 10
14.1779894396
 20
4.8904470152
 40
0.0200000034
100
AcDbArc
 50
266.0908259318
 51
343.2000766381
  0
ARC
  5
419
100
AcDbEntity
  8
0
100
AcDbCircle
 62
7
  6
CONTINUOUS
 10
14.1779894413
 20
2.9563537479
 40
0.02
100
AcDbArc
 50
16.7979840247
 51
93.9098030093
  0
ARC
  5
41A
100
AcDbEntity
  8
0
100
AcDbCircle
 62
7
  6
CONTINUOUS
 10
11.672611597
 20
4.4517334063
 40
0.02
100
AcDbArc
 50
9.3163491726
 51
63.9599688661
  0
ARC
  5
41B
100
AcDbEntity
  8
0
100
AcDbCircle
 62
7
  6
CONTINUOUS
 10
11.2036860585
 20
4.4371106613
 40
0.02
100
AcDbArc
 50
120.3641445256
 51
177.7122155184
  0
ARC
  5
41C
100
AcDbEntity
  8
0
100
AcDbCircle
 62
7
  6
CONTINUOUS
 10
11.3494384952
 20
4.5225005456
 40
0.02
100
AcDbArc
 50
90.0
 51
120.3641445256
  0
ARC
  5
41D
100
AcDbEntity
  8
0
100
AcDbCircle
 62
7
  6
CONTINUOUS
 10
11.5277743815
 20
4.5225005456
 40
0.02
100
AcDbArc
 50
63.9599688661
 51
90.0
  0
ARC
  5
41E
100
AcDbEntity
  8
0
100
AcDbCircle
 62
7
  6
CONTINUOUS
 10
14.1782095424
 20
4.888426781
 40
0.0197832821
100
AcDbArc
 50
326.5509701876
 51
343.2893988397
  0
ARC
  5
41F
100
AcDbEntity
  8
0
100
AcDbCircle
 62
7
  6
CONTINUOUS
 10
14.178209874
 20
2.9583742547
 40
0.0197829459
100
AcDbArc
 50
16.7115856131
 51
33.4459402125
  0
ARC
  5
420
100
AcDbEntity
  8
0
100
AcDbCircle
 62
7
  6
CONTINUOUS
 10
14.4431139801
 20
2.7937380649
 40
0.0143086206
100
AcDbArc
 50
346.3175632806
 51
359.9634323098
  0
ARC
  5
421
100
AcDbEntity
  8
0
100
AcDbCircle
 62
7
  6
CONTINUOUS
 10
14.4431495249
 20
5.0530680694
 40
0.014273081
100
AcDbArc
 50
0.0163324653
 51
13.6957300595
  0
ARC
  5
422
100
AcDbEntity
  8
0
100
AcDbCircle
 62
7
  6
CONTINUOUS
 10
8.4264938661
 20
11.2611945284
 40
0.249767385
100
AcDbArc
 50
45.0314418216
 51
46.2553661819
  0
ARC
  5
423
100
AcDbEntity
  8
0
100
AcDbCircle
 62
7
  6
CONTINUOUS
 10
8.508558909
 20
11.2774273727
 40
0.0118110236
100
AcDbArc
 50
225.046466486
 51
269.9997468347
  0
ARC
  5
424
100
AcDbEntity
  8
0
100
AcDbCircle
 62
7
  6
CONTINUOUS
 10
8.5266131863
 20
11.2774273727
 40
0.0118110236
100
AcDbArc
 50
269.9996999689
 51
315.0
  0
ARC
  5
425
100
AcDbEntity
  8
0
100
AcDbCircle
 62
7
  6
CONTINUOUS
 10
8.466852537
 20
11.3191337447
 40
0.0118110236
100
AcDbArc
 50
224.990812678
 51
269.9997472495
  0
ARC
  5
426
100
AcDbEntity
  8
0
100
AcDbCircle
 62
7
  6
CONTINUOUS
 10
8.4849068143
 20
11.3191337447
 40
0.0118110236
100
AcDbArc
 50
269.9997000847
 51
315.0
  0
ARC
  5
427
100
AcDbEntity
  8
0
100
AcDbCircle
 62
7
  6
CONTINUOUS
 10
7.7842884482
 20
11.8362722588
 40
0.0196850394
100
AcDbArc
 50
359.9975750785
 51
44.9960818716
  0
ARC
  5
428
100
AcDbEntity
  8
0
100
AcDbCircle
 62
7
  6
CONTINUOUS
 10
7.8236585269
 20
11.8247410297
 40
0.0196850394
100
AcDbArc
 50
180.0025651318
 51
225.0041748092
  0
ARC
  5
429
100
AcDbEntity
  8
0
100
AcDbCircle
 62
7
  6
CONTINUOUS
 10
7.9155150833
 20
11.8704711985
 40
0.0118110236
100
AcDbArc
 50
180.0002531656
 51
225.0027666779
  0
ARC
  5
42A
100
AcDbEntity
  8
0
100
AcDbCircle
 62
9
  6
CONTINUOUS
 10
7.9008858247
 20
12.0179494711
 40
0.0606281996
100
AcDbArc
 50
238.6066913956
 51
239.4589013699
  0
ARC
  5
42B
100
AcDbEntity
  8
0
100
AcDbCircle
 62
9
  6
CONTINUOUS
 10
7.747932502
 20
12.166348229
 40
0.0588367991
100
AcDbArc
 50
236.3516635316
 51
237.5549362903
  0
ARC
  5
42C
100
AcDbEntity
  8
0
100
AcDbCircle
 62
7
  6
CONTINUOUS
 10
7.9210699971
 20
12.1110059919
 40
0.0196850394
100
AcDbArc
 50
135.0
 51
180.0024582326
  0
ARC
  5
42D
100
AcDbEntity
  8
0
100
AcDbCircle
 62
7
  6
CONTINUOUS
 10
7.9210699971
 20
12.0994747628
 40
0.0196850394
100
AcDbArc
 50
180.0011432897
 51
225.00468718
  0
ARC
  5
42E
100
AcDbEntity
  8
0
100
AcDbCircle
 62
7
  6
CONTINUOUS
 10
7.7147401122
 20
12.3173358768
 40
0.0196850394
100
AcDbArc
 50
269.9975411861
 51
315.0
  0
ARC
  5
42F
100
AcDbEntity
  8
0
100
AcDbCircle
 62
7
  6
CONTINUOUS
 10
7.7032088831
 20
12.3173358768
 40
0.0196850394
100
AcDbArc
 50
224.9958655024
 51
269.9988567095
  0
ARC
  5
430
100
AcDbEntity
  8
0
100
AcDbCircle
 62
7
  6
CONTINUOUS
 10
7.5936936412
 20
12.3796257789
 40
0.0196850394
100
AcDbArc
 50
269.9987952044
 51
315.0
  0
ARC
  5
431
100
AcDbEntity
  8
0
100
AcDbCircle
 62
7
  6
CONTINUOUS
 10
7.5821624121
 20
12.3796257789
 40
0.0196850394
100
AcDbArc
 50
224.9952661822
 51
269.998672795
  0
ARC
  5
432
100
AcDbEntity
  8
0
100
AcDbCircle
 62
7
  6
CONTINUOUS
 10
7.8317151467
 20
12.1300730444
 40
0.0196850394
100
AcDbArc
 50
224.9966911052
 51
269.9986727884
  0
ARC
  5
433
100
AcDbEntity
  8
0
100
AcDbCircle
 62
7
  6
CONTINUOUS
 10
7.8432463758
 20
12.1300730444
 40
0.0196850394
100
AcDbArc
 50
269.9987952044
 51
315.0
  0
ARC
  5
434
100
AcDbEntity
  8
0
100
AcDbCircle
 62
7
  6
CONTINUOUS
 10
7.7708653667
 20
12.2024540535
 40
0.0196850394
100
AcDbArc
 50
135.0
 51
180.0012047956
  0
ARC
  5
435
100
AcDbEntity
  8
0
100
AcDbCircle
 62
7
  6
CONTINUOUS
 10
7.7708653667
 20
12.1909228244
 40
0.0196850394
100
AcDbArc
 50
180.0013272117
 51
225.0033088948
  0
ARC
  5
436
100
AcDbEntity
  8
0
100
AcDbCircle
 62
7
  6
CONTINUOUS
 10
7.7238893538
 20
11.9245102028
 40
0.0196850394
100
AcDbArc
 50
224.9958502723
 51
269.9974348102
  0
ARC
  5
437
100
AcDbEntity
  8
0
100
AcDbCircle
 62
7
  6
CONTINUOUS
 10
7.7354205829
 20
11.8851401241
 40
0.0196850394
100
AcDbArc
 50
45.00392895
 51
90.0024317524
  0
ARC
  5
438
100
AcDbEntity
  8
0
100
AcDbCircle
 62
7
  6
CONTINUOUS
 10
7.5318012912
 20
12.0887594158
 40
0.0196850394
100
AcDbArc
 50
359.9975682479
 51
44.9960710504
  0
ARC
  5
439
100
AcDbEntity
  8
0
100
AcDbCircle
 62
7
  6
CONTINUOUS
 10
7.57117137
 20
12.0772281867
 40
0.0196850394
100
AcDbArc
 50
180.0025651901
 51
225.0041497282
  0
ARC
  5
43A
100
AcDbEntity
  8
0
100
AcDbCircle
 62
7
  6
CONTINUOUS
 10
7.545353973
 20
12.1030455837
 40
0.0196850394
100
AcDbArc
 50
224.9862190795
 51
269.9974348681
  0
ARC
  5
43B
100
AcDbEntity
  8
0
100
AcDbCircle
 62
7
  6
CONTINUOUS
 10
7.3532659104
 20
12.2672947966
 40
0.0196850394
100
AcDbArc
 50
359.9975750784
 51
44.9960818714
  0
ARC
  5
43C
100
AcDbEntity
  8
0
100
AcDbCircle
 62
7
  6
CONTINUOUS
 10
7.3926359891
 20
12.2557635675
 40
0.0196850394
100
AcDbArc
 50
180.0025651318
 51
225.0137809205
  0
ARC
  5
43D
100
AcDbEntity
  8
0
100
AcDbCircle
 62
7
  6
CONTINUOUS
 10
7.3326845567
 20
12.3435538496
 40
0.0196850394
100
AcDbArc
 50
155.0000948195
 51
224.9995434545
  0
ARC
  5
43E
100
AcDbEntity
  8
0
100
AcDbCircle
 62
7
  6
CONTINUOUS
 10
7.8250615864
 20
11.9609246953
 40
0.0118110236
100
AcDbArc
 50
224.9958316548
 51
269.999746835
  0
ARC
  5
43F
100
AcDbEntity
  8
0
100
AcDbCircle
 62
7
  6
CONTINUOUS
 10
7.8431158638
 20
11.9609246953
 40
0.0118110236
100
AcDbArc
 50
269.9997000112
 51
315.0
  0
ARC
  5
440
100
AcDbEntity
  8
0
100
AcDbCircle
 62
7
  6
CONTINUOUS
 10
7.7595993148
 20
12.0444412442
 40
0.0118110236
100
AcDbArc
 50
135.0
 51
180.0002999888
  0
ARC
  5
441
100
AcDbEntity
  8
0
100
AcDbCircle
 62
7
  6
CONTINUOUS
 10
7.7595993148
 20
12.0263869669
 40
0.0118110236
100
AcDbArc
 50
180.0002531649
 51
225.0041683452
  0
ARC
  5
442
100
AcDbEntity
  8
0
100
AcDbCircle
 62
7
  6
CONTINUOUS
 10
7.6721303164
 20
12.1138559653
 40
0.0118110236
100
AcDbArc
 50
224.9936484249
 51
269.9997499651
  0
ARC
  5
443
100
AcDbEntity
  8
0
100
AcDbCircle
 62
7
  6
CONTINUOUS
 10
7.6901845937
 20
12.1138559653
 40
0.0118110236
100
AcDbArc
 50
269.9996996385
 51
315.0
  0
ARC
  5
444
100
AcDbEntity
  8
0
100
AcDbCircle
 62
7
  6
CONTINUOUS
 10
7.6066680447
 20
12.1973725143
 40
0.0118110236
100
AcDbArc
 50
135.0
 51
180.0003003629
  0
ARC
  5
445
100
AcDbEntity
  8
0
100
AcDbCircle
 62
7
  6
CONTINUOUS
 10
7.6066680447
 20
12.179318237
 40
0.0118110236
100
AcDbArc
 50
180.0002500349
 51
225.0063515751
  0
ARC
  5
446
100
AcDbEntity
  8
0
100
AcDbCircle
 62
7
  6
CONTINUOUS
 10
7.9155150833
 20
11.8885254758
 40
0.0118110236
100
AcDbArc
 50
135.0
 51
180.000299988
  0
ARC
  5
447
100
AcDbEntity
  8
0
100
AcDbCircle
 62
9
  6
CONTINUOUS
 10
8.0583453887
 20
11.8673638694
 40
0.0636514859
100
AcDbArc
 50
240.2194159006
 51
240.5829873782
  0
ARC
  5
448
100
AcDbEntity
  8
0
100
AcDbCircle
 62
7
  6
CONTINUOUS
 10
8.5808507339
 20
11.4512252551
 40
0.0196850394
100
AcDbArc
 50
269.9975411864
 51
315.0
  0
ARC
  5
449
100
AcDbEntity
  8
0
100
AcDbCircle
 62
7
  6
CONTINUOUS
 10
8.491766415
 20
11.540309574
 40
0.0196850394
100
AcDbArc
 50
135.0
 51
180.0024588143
  0
ARC
  5
44A
100
AcDbEntity
  8
0
100
AcDbCircle
 62
7
  6
CONTINUOUS
 10
8.491766415
 20
11.5287783449
 40
0.0196850394
100
AcDbArc
 50
180.0011432902
 51
225.0027964971
  0
ARC
  5
44B
100
AcDbEntity
  8
0
100
AcDbCircle
 62
7
  6
CONTINUOUS
 10
8.5693195048
 20
11.4512252551
 40
0.0196850394
100
AcDbArc
 50
224.9972035029
 51
269.9988567098
  0
ARC
  5
44C
100
AcDbEntity
  8
0
100
AcDbCircle
 62
7
  6
CONTINUOUS
 10
8.3055685198
 20
11.7265074691
 40
0.0196850394
100
AcDbArc
 50
269.9975411863
 51
315.0
  0
ARC
  5
44D
100
AcDbEntity
  8
0
100
AcDbCircle
 62
7
  6
CONTINUOUS
 10
8.2164842009
 20
11.815591788
 40
0.0196850394
100
AcDbArc
 50
135.0
 51
180.0024588147
  0
ARC
  5
44E
100
AcDbEntity
  8
0
100
AcDbCircle
 62
7
  6
CONTINUOUS
 10
8.2164842009
 20
11.8040605589
 40
0.0196850394
100
AcDbArc
 50
180.0011432896
 51
225.0039193772
  0
ARC
  5
44F
100
AcDbEntity
  8
0
100
AcDbCircle
 62
7
  6
CONTINUOUS
 10
8.2940372907
 20
11.7265074691
 40
0.0196850394
100
AcDbArc
 50
224.9960806215
 51
269.9988567094
  0
ARC
  5
450
100
AcDbEntity
  8
0
100
AcDbCircle
 62
7
  6
CONTINUOUS
 10
8.1016023776
 20
11.8717170426
 40
0.0196850394
100
AcDbArc
 50
269.9987950343
 51
315.0
  0
ARC
  5
451
100
AcDbEntity
  8
0
100
AcDbCircle
 62
7
  6
CONTINUOUS
 10
8.0900711485
 20
11.8717170426
 40
0.0196850394
100
AcDbArc
 50
224.9966737578
 51
269.9986727936
  0
ARC
  5
452
100
AcDbEntity
  8
0
100
AcDbCircle
 62
7
  6
CONTINUOUS
 10
8.5025169638
 20
11.4708024563
 40
0.0196850394
100
AcDbArc
 50
135.0
 51
180.0012047959
  0
ARC
  5
453
100
AcDbEntity
  8
0
100
AcDbCircle
 62
7
  6
CONTINUOUS
 10
8.5748979729
 20
11.3984214472
 40
0.0196850394
100
AcDbArc
 50
269.9987952047
 51
315.0
  0
ARC
  5
454
100
AcDbEntity
  8
0
100
AcDbCircle
 62
7
  6
CONTINUOUS
 10
8.5633667438
 20
11.3984214472
 40
0.0196850394
100
AcDbArc
 50
224.9975688172
 51
269.9986727949
  0
ARC
  5
455
100
AcDbEntity
  8
0
100
AcDbCircle
 62
7
  6
CONTINUOUS
 10
8.5025169638
 20
11.4592712272
 40
0.0196850394
100
AcDbArc
 50
180.0013272051
 51
225.0024311828
  0
ARC
  5
456
100
AcDbEntity
  8
0
100
AcDbCircle
 62
7
  6
CONTINUOUS
 10
8.339623883
 20
11.622164308
 40
0.0196850394
100
AcDbArc
 50
224.9952407133
 51
269.998672795
  0
ARC
  5
457
100
AcDbEntity
  8
0
100
AcDbCircle
 62
7
  6
CONTINUOUS
 10
8.3511551121
 20
11.622164308
 40
0.0196850394
100
AcDbArc
 50
269.9987952045
 51
315.0
  0
ARC
  5
458
100
AcDbEntity
  8
0
100
AcDbCircle
 62
7
  6
CONTINUOUS
 10
8.278774103
 20
11.6945453171
 40
0.0196850394
100
AcDbArc
 50
135.0
 51
180.0012047948
  0
ARC
  5
459
100
AcDbEntity
  8
0
100
AcDbCircle
 62
7
  6
CONTINUOUS
 10
8.278774103
 20
11.683014088
 40
0.0196850394
100
AcDbArc
 50
180.0013272052
 51
225.0047592869
  0
ARC
  5
45A
100
AcDbEntity
  8
0
100
AcDbCircle
 62
7
  6
CONTINUOUS
 10
7.9763765108
 20
11.6720230459
 40
0.0196850394
100
AcDbArc
 50
224.9958251907
 51
269.9974348682
  0
ARC
  5
45B
100
AcDbEntity
  8
0
100
AcDbCircle
 62
7
  6
CONTINUOUS
 10
7.9879077399
 20
11.6326529671
 40
0.0196850394
100
AcDbArc
 50
45.0039181287
 51
90.0024249216
  0
ARC
  5
45C
100
AcDbEntity
  8
0
100
AcDbCircle
 62
7
  6
CONTINUOUS
 10
8.1549118916
 20
11.493487665
 40
0.0196850394
100
AcDbArc
 50
224.9866177591
 51
269.9974348102
  0
ARC
  5
45D
100
AcDbEntity
  8
0
100
AcDbCircle
 62
7
  6
CONTINUOUS
 10
8.2427021737
 20
11.4335362326
 40
0.0196850394
100
AcDbArc
 50
225.0004565455
 51
294.9999051805
  0
ARC
  5
45E
100
AcDbEntity
  8
0
100
AcDbCircle
 62
7
  6
CONTINUOUS
 10
8.1664431207
 20
11.4541175863
 40
0.0196850394
100
AcDbArc
 50
45.00392895
 51
90.0024317524
  0
ARC
  5
45F
100
AcDbEntity
  8
0
100
AcDbCircle
 62
7
  6
CONTINUOUS
 10
8.0021939078
 20
11.6462056489
 40
0.0196850394
100
AcDbArc
 50
180.0025651901
 51
225.0133822414
  0
ARC
  5
460
100
AcDbEntity
  8
0
100
AcDbCircle
 62
7
  6
CONTINUOUS
 10
8.3900027953
 20
11.3959834864
 40
0.0118110236
100
AcDbArc
 50
224.9918137509
 51
269.9997466605
  0
ARC
  5
461
100
AcDbEntity
  8
0
100
AcDbCircle
 62
7
  6
CONTINUOUS
 10
8.4080570726
 20
11.3959834864
 40
0.0118110236
100
AcDbArc
 50
269.9997000109
 51
315.0
  0
ARC
  5
462
100
AcDbEntity
  8
0
100
AcDbCircle
 62
7
  6
CONTINUOUS
 10
8.3245405237
 20
11.4795000354
 40
0.0118110236
100
AcDbArc
 50
135.0
 51
180.0002999879
  0
ARC
  5
463
100
AcDbEntity
  8
0
100
AcDbCircle
 62
7
  6
CONTINUOUS
 10
8.3245405237
 20
11.4614457581
 40
0.0118110236
100
AcDbArc
 50
180.0002533395
 51
225.0081862491
  0
ARC
  5
464
100
AcDbEntity
  8
0
100
AcDbCircle
 62
7
  6
CONTINUOUS
 10
8.4013902654
 20
11.3845960164
 40
0.0118110236
100
AcDbArc
 50
181.8824798174
 51
225.0091873219
  0
ARC
  5
465
100
AcDbEntity
  8
0
100
AcDbCircle
 62
7
  6
CONTINUOUS
 10
7.9809773549
 20
11.8050089268
 40
0.0118110236
100
AcDbArc
 50
224.9972333239
 51
269.9997468357
  0
ARC
  5
466
100
AcDbEntity
  8
0
100
AcDbCircle
 62
7
  6
CONTINUOUS
 10
7.9990316322
 20
11.8050089268
 40
0.0118110236
100
AcDbArc
 50
269.9997000107
 51
315.0
  0
ARC
  5
467
100
AcDbEntity
  8
0
100
AcDbCircle
 62
7
  6
CONTINUOUS
 10
8.3965713476
 20
11.3894149341
 40
0.0118110236
100
AcDbArc
 50
224.9886659131
 51
241.8518773464
  0
ARC
  5
468
100
AcDbEntity
  8
0
100
AcDbCircle
 62
7
  6
CONTINUOUS
 10
8.010154316
 20
12.021921673
 40
0.0196850394
100
AcDbArc
 50
269.9975417674
 51
315.0
  0
ARC
  5
469
100
AcDbEntity
  8
0
100
AcDbCircle
 62
7
  6
CONTINUOUS
 10
7.9986230869
 20
12.021921673
 40
0.0196850394
100
AcDbArc
 50
224.99531282
 51
269.9988567103
  0
ARC
  5
46A
100
AcDbEntity
  8
0
100
AcDbCircle
 62
7
  6
CONTINUOUS
 10
8.0292213685
 20
11.9440980516
 40
0.0196850394
100
AcDbArc
 50
135.0
 51
180.0012049649
  0
ARC
  5
46B
100
AcDbEntity
  8
0
100
AcDbCircle
 62
7
  6
CONTINUOUS
 10
8.0292213685
 20
11.9325668226
 40
0.0196850394
100
AcDbArc
 50
180.0013272063
 51
225.0033262421
  0
ARC
  5
46C
100
AcDbEntity
  8
0
100
AcDbCircle
 62
7
  6
CONTINUOUS
 10
9.0376370572
 20
10.3690773481
 40
0.4724409449
100
AcDbArc
 50
34.4249168973
 51
56.7360171921
  0
ARC
  5
46D
100
AcDbEntity
  8
0
100
AcDbCircle
 62
7
  6
CONTINUOUS
 10
9.0235708151
 20
11.0085051739
 40
0.0196850394
100
AcDbArc
 50
161.2637548569
 51
180.0024588139
  0
ARC
  5
46E
100
AcDbEntity
  8
0
100
AcDbCircle
 62
7
  6
CONTINUOUS
 10
9.0235708151
 20
10.9969739448
 40
0.0196850394
100
AcDbArc
 50
180.0011432895
 51
224.9846661657
  0
ARC
  5
46F
100
AcDbEntity
  8
0
100
AcDbCircle
 62
7
  6
CONTINUOUS
 10
8.9986295075
 20
11.0334464815
 40
0.0196850394
100
AcDbArc
 50
269.9975411858
 51
315.0
  0
ARC
  5
470
100
AcDbEntity
  8
0
100
AcDbCircle
 62
7
  6
CONTINUOUS
 10
8.9095451886
 20
11.1225308004
 40
0.0196850394
100
AcDbArc
 50
135.0
 51
180.0024588142
  0
ARC
  5
471
100
AcDbEntity
  8
0
100
AcDbCircle
 62
7
  6
CONTINUOUS
 10
8.9095451886
 20
11.1109995713
 40
0.0196850394
100
AcDbArc
 50
180.00114329
 51
225.0134346003
  0
ARC
  5
472
100
AcDbEntity
  8
0
100
AcDbCircle
 62
7
  6
CONTINUOUS
 10
8.9870982784
 20
11.0334464815
 40
0.0196850394
100
AcDbArc
 50
224.9865653997
 51
269.99885671
  0
ARC
  5
473
100
AcDbEntity
  8
0
100
AcDbCircle
 62
7
  6
CONTINUOUS
 10
8.8172409302
 20
11.2148350588
 40
0.0196850394
100
AcDbArc
 50
269.9975411859
 51
315.0
  0
ARC
  5
474
100
AcDbEntity
  8
0
100
AcDbCircle
 62
7
  6
CONTINUOUS
 10
8.7281566113
 20
11.3039193777
 40
0.0196850394
100
AcDbArc
 50
135.0
 51
180.0024588136
  0
ARC
  5
475
100
AcDbEntity
  8
0
100
AcDbCircle
 62
7
  6
CONTINUOUS
 10
8.7281566113
 20
11.2923881486
 40
0.0196850394
100
AcDbArc
 50
180.0011432902
 51
225.0017020294
  0
ARC
  5
476
100
AcDbEntity
  8
0
100
AcDbCircle
 62
7
  6
CONTINUOUS
 10
8.8057097011
 20
11.2148350588
 40
0.0196850394
100
AcDbArc
 50
224.9982979706
 51
269.9988567098
  0
ARC
  5
477
100
AcDbEntity
  8
0
100
AcDbCircle
 62
7
  6
CONTINUOUS
 10
8.8143802456
 20
11.1589391746
 40
0.0196850394
100
AcDbArc
 50
135.0
 51
180.0012047948
  0
ARC
  5
478
100
AcDbEntity
  8
0
100
AcDbCircle
 62
7
  6
CONTINUOUS
 10
8.8867612547
 20
11.0865581655
 40
0.0196850394
100
AcDbArc
 50
269.9987952044
 51
315.0
  0
ARC
  5
479
100
AcDbEntity
  8
0
100
AcDbCircle
 62
7
  6
CONTINUOUS
 10
8.8752300256
 20
11.0865581655
 40
0.0196850394
100
AcDbArc
 50
224.9942783704
 51
269.998672795
  0
ARC
  5
47A
100
AcDbEntity
  8
0
100
AcDbCircle
 62
7
  6
CONTINUOUS
 10
8.8143802456
 20
11.1474079455
 40
0.0196850394
100
AcDbArc
 50
180.0013272057
 51
225.0057216306
  0
ARC
  5
47B
100
AcDbEntity
  8
0
100
AcDbCircle
 62
7
  6
CONTINUOUS
 10
8.7460520247
 20
11.2157361664
 40
0.0196850394
100
AcDbArc
 50
224.9949388004
 51
269.9986727947
  0
ARC
  5
47C
100
AcDbEntity
  8
0
100
AcDbCircle
 62
7
  6
CONTINUOUS
 10
8.7575832537
 20
11.2157361664
 40
0.0196850394
100
AcDbArc
 50
269.9987952051
 51
315.0
  0
ARC
  5
47D
100
AcDbEntity
  8
0
100
AcDbCircle
 62
7
  6
CONTINUOUS
 10
8.6852022446
 20
11.2881171755
 40
0.0196850394
100
AcDbArc
 50
135.0
 51
180.0012047956
  0
ARC
  5
47E
100
AcDbEntity
  8
0
100
AcDbCircle
 62
7
  6
CONTINUOUS
 10
8.6852022446
 20
11.2765859464
 40
0.0196850394
100
AcDbArc
 50
180.0013272053
 51
225.0050611996
  0
ARC
  5
47F
100
AcDbEntity
  8
0
100
AcDbCircle
 62
7
  6
CONTINUOUS
 10
8.9420974793
 20
11.0196907118
 40
0.0196850394
100
AcDbArc
 50
225.0242762446
 51
269.9986727884
  0
ARC
  5
480
100
AcDbEntity
  8
0
100
AcDbCircle
 62
7
  6
CONTINUOUS
 10
8.9536287083
 20
11.0196907118
 40
0.0196850394
100
AcDbArc
 50
269.9987952044
 51
315.0
  0
ARC
  5
481
100
AcDbEntity
  8
0
100
AcDbCircle
 62
7
  6
CONTINUOUS
 10
8.8812476992
 20
11.0805404918
 40
0.0196850394
100
AcDbArc
 50
212.4770253979
 51
224.9757237554
  0
ARC
  5
482
100
AcDbEntity
  8
0
100
AcDbCircle
 62
7
  6
CONTINUOUS
 10
8.8099527344
 20
11.1277949353
 40
0.0078740157
100
AcDbArc
 50
235.1465387618
 51
294.9661125839
  0
ARC
  5
483
100
AcDbEntity
  8
0
100
AcDbCircle
 62
7
  6
CONTINUOUS
 10
9.3136754696
 20
10.5582611711
 40
0.1377952756
100
AcDbArc
 50
249.6710480599
 51
34.4249168912
  0
ARC
  5
484
100
AcDbEntity
  8
0
100
AcDbCircle
 62
7
  6
CONTINUOUS
 10
9.4178344142
 20
10.8033960503
 40
0.08
100
AcDbArc
 50
228.0
 51
315.0
  0
ARC
  5
485
100
AcDbEntity
  8
0
100
AcDbCircle
 62
7
  6
CONTINUOUS
 10
9.4436121044
 20
10.9089807894
 40
0.5118110236
100
AcDbArc
 50
169.7158850771
 51
249.6710480593
  0
ARC
  5
486
100
AcDbEntity
  8
0
100
AcDbCircle
 62
9
  6
CONTINUOUS
 10
9.4432276554
 20
10.9085877805
 40
0.4449133295
100
AcDbArc
 50
169.6569711077
 51
249.6684952285
  0
ARC
  5
487
100
AcDbEntity
  8
0
100
AcDbCircle
 62
7
  6
CONTINUOUS
 10
9.112655134
 20
10.919420855
 40
0.0196850394
100
AcDbArc
 50
269.9975411862
 51
315.0
  0
ARC
  5
488
100
AcDbEntity
  8
0
100
AcDbCircle
 62
7
  6
CONTINUOUS
 10
9.1011239049
 20
10.919420855
 40
0.0196850394
100
AcDbArc
 50
225.0153338328
 51
269.9988567094
  0
ARC
  5
489
100
AcDbEntity
  8
0
100
AcDbCircle
 62
7
  6
CONTINUOUS
 10
9.2431176715
 20
10.849719857
 40
0.0080451031
100
AcDbArc
 50
225.0285947497
 51
239.1370683212
  0
ARC
  5
48A
100
AcDbEntity
  8
0
100
AcDbCircle
 62
7
  6
CONTINUOUS
 10
10.0146911104
 20
11.4002527466
 40
0.08
100
AcDbArc
 50
315.0
 51
45.0
  0
ARC
  5
48B
100
AcDbEntity
  8
0
100
AcDbCircle
 62
7
  6
CONTINUOUS
 10
9.5974981095
 20
12.0437199175
 40
0.08
100
AcDbArc
 50
180.2317553725
 51
225.0
  0
ARC
  5
48C
100
AcDbEntity
  8
0
100
AcDbCircle
 62
7
  6
CONTINUOUS
 10
7.1661114416
 20
12.5329859918
 40
0.2416999432
100
AcDbArc
 50
43.724156436
 51
44.9889876586
  0
ARC
  5
48D
100
AcDbEntity
  8
0
100
AcDbCircle
 62
7
  6
CONTINUOUS
 10
7.1148844905
 20
12.8584349296
 40
0.0196850394
100
AcDbArc
 50
135.0
 51
180.0012047959
  0
ARC
  5
48E
100
AcDbEntity
  8
0
100
AcDbCircle
 62
7
  6
CONTINUOUS
 10
7.1757342705
 20
12.7860539205
 40
0.0196850394
100
AcDbArc
 50
224.9945062516
 51
269.9986727949
  0
ARC
  5
48F
100
AcDbEntity
  8
0
100
AcDbCircle
 62
7
  6
CONTINUOUS
 10
7.1148844905
 20
12.8469037005
 40
0.0196850394
100
AcDbArc
 50
180.0013272051
 51
225.0054937484
  0
ARC
  5
490
100
AcDbEntity
  8
0
100
AcDbCircle
 62
7
  6
CONTINUOUS
 10
7.1695670055
 20
12.6164192762
 40
0.0118110236
100
AcDbArc
 50
180.0002531643
 51
224.9948564502
  0
ARC
  5
491
100
AcDbEntity
  8
0
100
AcDbCircle
 62
7
  6
CONTINUOUS
 10
7.1695670055
 20
12.6344735535
 40
0.0118110236
100
AcDbArc
 50
135.0
 51
180.0002999892
  0
ARC
  5
492
100
AcDbEntity
  8
0
100
AcDbCircle
 62
7
  6
CONTINUOUS
 10
6.7796771613
 20
13.2408675986
 40
0.0196850394
100
AcDbArc
 50
180.0010369649
 51
225.0009085171
  0
ARC
  5
493
100
AcDbEntity
  8
0
100
AcDbCircle
 62
7
  6
CONTINUOUS
 10
6.7796771613
 20
13.2523988277
 40
0.0196850394
100
AcDbArc
 50
135.0
 51
180.0010232871
  0
ARC
  5
494
100
AcDbEntity
  8
0
100
AcDbCircle
 62
7
  6
CONTINUOUS
 10
7.1139833829
 20
12.9180926061
 40
0.0196850394
100
AcDbArc
 50
135.0
 51
180.0024588136
  0
ARC
  5
495
100
AcDbEntity
  8
0
100
AcDbCircle
 62
7
  6
CONTINUOUS
 10
7.1139833829
 20
12.906561377
 40
0.0196850394
100
AcDbArc
 50
180.0011432902
 51
225.00183548
  0
ARC
  5
496
100
AcDbEntity
  8
0
100
AcDbCircle
 62
7
  6
CONTINUOUS
 10
7.0216791245
 20
13.0103968645
 40
0.0196850394
100
AcDbArc
 50
269.9975411863
 51
315.0
  0
ARC
  5
497
100
AcDbEntity
  8
0
100
AcDbCircle
 62
7
  6
CONTINUOUS
 10
6.9325948056
 20
13.0994811834
 40
0.0196850394
100
AcDbArc
 50
135.0
 51
180.0024588143
  0
ARC
  5
498
100
AcDbEntity
  8
0
100
AcDbCircle
 62
7
  6
CONTINUOUS
 10
6.9325948056
 20
13.0879499543
 40
0.0196850394
100
AcDbArc
 50
180.0011432902
 51
225.0141027316
  0
ARC
  5
499
100
AcDbEntity
  8
0
100
AcDbCircle
 62
7
  6
CONTINUOUS
 10
7.0101478954
 20
13.0103968645
 40
0.0196850394
100
AcDbArc
 50
224.9858972684
 51
269.9988567098
  0
ARC
  5
49A
100
AcDbEntity
  8
0
100
AcDbCircle
 62
7
  6
CONTINUOUS
 10
6.907653498
 20
13.124422491
 40
0.0196850394
100
AcDbArc
 50
269.9975411863
 51
288.7362451431
  0
ARC
  5
49B
100
AcDbEntity
  8
0
100
AcDbCircle
 62
7
  6
CONTINUOUS
 10
6.8185691791
 20
13.2135068099
 40
0.0196850394
100
AcDbArc
 50
135.0
 51
180.0024588147
  0
ARC
  5
49C
100
AcDbEntity
  8
0
100
AcDbCircle
 62
7
  6
CONTINUOUS
 10
6.8185691791
 20
13.2019755808
 40
0.0196850394
100
AcDbArc
 50
180.0011432896
 51
224.9839638501
  0
ARC
  5
49D
100
AcDbEntity
  8
0
100
AcDbCircle
 62
7
  6
CONTINUOUS
 10
6.8961222689
 20
13.124422491
 40
0.0196850394
100
AcDbArc
 50
225.0160361486
 51
269.9988567095
  0
ARC
  5
49E
100
AcDbEntity
  8
0
100
AcDbCircle
 62
7
  6
CONTINUOUS
 10
6.9188390359
 20
13.0544803842
 40
0.0196850394
100
AcDbArc
 50
135.0
 51
180.0012049649
  0
ARC
  5
49F
100
AcDbEntity
  8
0
100
AcDbCircle
 62
7
  6
CONTINUOUS
 10
6.9796888159
 20
12.9820993751
 40
0.0196850394
100
AcDbArc
 50
225.0247683211
 51
237.5229746018
  0
ARC
  5
4A0
100
AcDbEntity
  8
0
100
AcDbCircle
 62
7
  6
CONTINUOUS
 10
6.9188390359
 20
13.0429491551
 40
0.0196850394
100
AcDbArc
 50
180.0013272064
 51
224.9752316789
  0
ARC
  5
4A1
100
AcDbEntity
  8
0
100
AcDbCircle
 62
7
  6
CONTINUOUS
 10
7.0465562696
 20
12.9152319214
 40
0.0196850394
100
AcDbArc
 50
224.9942711131
 51
269.998672795
  0
ARC
  5
4A2
100
AcDbEntity
  8
0
100
AcDbCircle
 62
7
  6
CONTINUOUS
 10
7.0580874987
 20
12.9152319214
 40
0.0196850394
100
AcDbArc
 50
269.9987952045
 51
315.0
  0
ARC
  5
4A3
100
AcDbEntity
  8
0
100
AcDbCircle
 62
7
  6
CONTINUOUS
 10
6.9857064896
 20
12.9876129305
 40
0.0196850394
100
AcDbArc
 50
135.0
 51
180.0012047948
  0
ARC
  5
4A4
100
AcDbEntity
  8
0
100
AcDbCircle
 62
7
  6
CONTINUOUS
 10
6.9857064896
 20
12.9760817014
 40
0.0196850394
100
AcDbArc
 50
180.0013272052
 51
225.0057288872
  0
ARC
  5
4A5
100
AcDbEntity
  8
0
100
AcDbCircle
 62
7
  6
CONTINUOUS
 10
7.0269432595
 20
12.9108044103
 40
0.0078740157
100
AcDbArc
 50
155.0338927649
 51
214.8534612381
  0
ARC
  5
4A6
100
AcDbEntity
  8
0
100
AcDbCircle
 62
7
  6
CONTINUOUS
 10
6.746825181
 20
13.345770426
 40
0.0078740157
100
AcDbArc
 50
210.7100596427
 51
225.0
  0
ARC
  5
4A7
100
AcDbEntity
  8
0
100
AcDbCircle
 62
7
  6
CONTINUOUS
 10
7.3142265788
 20
12.4437069022
 40
0.0393700787
100
AcDbArc
 50
334.9999170305
 51
39.208519173
  0
ARC
  5
4A8
100
AcDbEntity
  8
0
100
AcDbCircle
 62
7
  6
CONTINUOUS
 10
7.6256557933
 20
12.4064201957
 40
0.0196850394
100
AcDbArc
 50
135.0
 51
180.0024588139
  0
ARC
  5
4A9
100
AcDbEntity
  8
0
100
AcDbCircle
 62
7
  6
CONTINUOUS
 10
7.6256557933
 20
12.3948889666
 40
0.0196850394
100
AcDbArc
 50
180.0011432895
 51
225.0041344961
  0
ARC
  5
4AA
100
AcDbEntity
  8
0
100
AcDbCircle
 62
7
  6
CONTINUOUS
 10
7.4394578981
 20
12.5926180909
 40
0.0196850394
100
AcDbArc
 50
269.9975411859
 51
315.0
  0
ARC
  5
4AB
100
AcDbEntity
  8
0
100
AcDbCircle
 62
7
  6
CONTINUOUS
 10
7.3503735792
 20
12.6817024098
 40
0.0196850394
100
AcDbArc
 50
135.0
 51
180.0024588141
  0
ARC
  5
4AC
100
AcDbEntity
  8
0
100
AcDbCircle
 62
7
  6
CONTINUOUS
 10
7.3503735792
 20
12.6701711807
 40
0.0196850394
100
AcDbArc
 50
180.00114329
 51
225.0027777387
  0
ARC
  5
4AD
100
AcDbEntity
  8
0
100
AcDbCircle
 62
7
  6
CONTINUOUS
 10
7.427926669
 20
12.5926180909
 40
0.0196850394
100
AcDbArc
 50
224.9972222613
 51
269.99885671
  0
ARC
  5
4AE
100
AcDbEntity
  8
0
100
AcDbCircle
 62
7
  6
CONTINUOUS
 10
7.2030677018
 20
12.8290082872
 40
0.0196850394
100
AcDbArc
 50
269.9975411859
 51
315.0
  0
ARC
  5
4AF
100
AcDbEntity
  8
0
100
AcDbCircle
 62
7
  6
CONTINUOUS
 10
7.1915364727
 20
12.8290082872
 40
0.0196850394
100
AcDbArc
 50
224.99816452
 51
269.9988567098
  0
ARC
  5
4B0
100
AcDbEntity
  8
0
100
AcDbCircle
 62
7
  6
CONTINUOUS
 10
7.1872654996
 20
12.7860539205
 40
0.0196850394
100
AcDbArc
 50
269.9987952046
 51
315.0
  0
ARC
  5
4B1
100
AcDbEntity
  8
0
100
AcDbCircle
 62
7
  6
CONTINUOUS
 10
7.5213126321
 20
12.452006788
 40
0.0196850394
100
AcDbArc
 50
135.0
 51
180.0012047948
  0
ARC
  5
4B2
100
AcDbEntity
  8
0
100
AcDbCircle
 62
7
  6
CONTINUOUS
 10
7.5213126321
 20
12.4404755589
 40
0.0196850394
100
AcDbArc
 50
180.0013272057
 51
225.0047338188
  0
ARC
  5
4B3
100
AcDbEntity
  8
0
100
AcDbCircle
 62
7
  6
CONTINUOUS
 10
7.3584195514
 20
12.6033686397
 40
0.0196850394
100
AcDbArc
 50
224.9973972148
 51
269.9986727948
  0
ARC
  5
4B4
100
AcDbEntity
  8
0
100
AcDbCircle
 62
7
  6
CONTINUOUS
 10
7.3699507804
 20
12.6033686397
 40
0.0196850394
100
AcDbArc
 50
269.9987952051
 51
315.0
  0
ARC
  5
4B5
100
AcDbEntity
  8
0
100
AcDbCircle
 62
7
  6
CONTINUOUS
 10
7.2975697713
 20
12.6757496488
 40
0.0196850394
100
AcDbArc
 50
135.0
 51
180.0012047956
  0
ARC
  5
4B6
100
AcDbEntity
  8
0
100
AcDbCircle
 62
7
  6
CONTINUOUS
 10
7.2975697713
 20
12.6642184197
 40
0.0196850394
100
AcDbArc
 50
180.0013272052
 51
225.0026027852
  0
ARC
  5
4B7
100
AcDbEntity
  8
0
100
AcDbCircle
 62
7
  6
CONTINUOUS
 10
7.3531465107
 20
12.4328397711
 40
0.0118110236
100
AcDbArc
 50
180.0002531639
 51
225.0004233584
  0
ARC
  5
4B8
100
AcDbEntity
  8
0
100
AcDbCircle
 62
7
  6
CONTINUOUS
 10
7.3531465107
 20
12.4508940484
 40
0.0118110236
100
AcDbArc
 50
135.0
 51
180.0002999894
  0
ARC
  5
4B9
100
AcDbEntity
  8
0
100
AcDbCircle
 62
7
  6
CONTINUOUS
 10
7.1872339866
 20
12.6168065724
 40
0.0118110236
100
AcDbArc
 50
135.0
 51
180.0002999879
  0
ARC
  5
4BA
100
AcDbEntity
  8
0
100
AcDbCircle
 62
7
  6
CONTINUOUS
 10
7.1872339866
 20
12.5987522951
 40
0.0118110236
100
AcDbArc
 50
180.0002531652
 51
224.9692948978
  0
ARC
  5
4BB
100
AcDbEntity
  8
0
100
AcDbCircle
 62
7
  6
CONTINUOUS
 10
7.3073511306
 20
12.4786351512
 40
0.0118110236
100
AcDbArc
 50
224.9818568019
 51
269.9997468346
  0
ARC
  5
4BC
100
AcDbEntity
  8
0
100
AcDbCircle
 62
7
  6
CONTINUOUS
 10
7.3254054079
 20
12.4786351512
 40
0.0118110236
100
AcDbArc
 50
269.9997000108
 51
315.0
  0
ARC
  5
4BD
100
AcDbEntity
  8
0
100
AcDbCircle
 62
7
  6
CONTINUOUS
 10
7.2418888589
 20
12.5621517001
 40
0.0118110236
100
AcDbArc
 50
135.0
 51
180.0002999885
  0
ARC
  5
4BE
100
AcDbEntity
  8
0
100
AcDbCircle
 62
7
  6
CONTINUOUS
 10
7.2418888589
 20
12.5440974228
 40
0.0118110236
100
AcDbArc
 50
180.0002531654
 51
225.0181431981
  0
ARC
  5
4BF
100
AcDbEntity
  8
0
100
AcDbCircle
 62
7
  6
CONTINUOUS
 10
7.2994010707
 20
14.1155427863
 40
0.08
100
AcDbArc
 50
45.0
 51
135.0
  0
ARC
  5
4C0
100
AcDbEntity
  8
0
100
AcDbCircle
 62
7
  6
CONTINUOUS
 10
7.9428682416
 20
13.6983497854
 40
0.08
100
AcDbArc
 50
225.0
 51
269.7682446275
  0
ARC
  5
4C1
100
AcDbEntity
  8
0
100
AcDbCircle
 62
7
  6
CONTINUOUS
 10
6.7025443744
 20
13.5186860901
 40
0.08
100
AcDbArc
 50
135.0
 51
222.0
  0
ARC
  5
4C2
100
AcDbEntity
  8
0
100
AcDbCircle
 62
7
  6
CONTINUOUS
 10
9.4341934334
 20
12.8603912595
 40
0.08
100
AcDbArc
 50
0.2317553725
 51
16.0449756281
  0
ARC
  5
4C3
100
AcDbEntity
  8
0
100
AcDbCircle
 62
7
  6
CONTINUOUS
 10
9.5672076915
 20
13.6680593674
 40
2.5590551181
100
AcDbArc
 50
222.3528405073
 51
227.6471594932
  0
ARC
  5
4C4
100
AcDbEntity
  8
0
100
AcDbCircle
 62
7
  6
CONTINUOUS
 10
9.6441671571
 20
13.745018833
 40
0.489
100
AcDbArc
 50
343.8676339185
 51
0.0258404644
  0
ARC
  5
4C5
100
AcDbEntity
  8
0
100
AcDbCircle
 62
7
  6
CONTINUOUS
 10
9.6441671571
 20
13.745018833
 40
0.489
100
AcDbArc
 50
89.9741595356
 51
106.1323660815
  0
ARC
  5
4C6
100
AcDbEntity
  8
0
100
AcDbCircle
 62
7
  6
CONTINUOUS
 10
10.286483264
 20
14.0132754527
 40
0.188
100
AcDbArc
 50
270.0
 51
315.0
  0
ARC
  5
4C7
100
AcDbEntity
  8
0
100
AcDbCircle
 62
7
  6
CONTINUOUS
 10
9.9124237768
 20
14.3873349399
 40
0.188
100
AcDbArc
 50
135.0
 51
180.0
  0
ARC
  5
4C8
100
AcDbEntity
  8
0
100
AcDbCircle
 62
7
  6
CONTINUOUS
 10
10.2131670992
 20
13.7452754527
 40
0.08
100
AcDbArc
 50
90.0
 51
180.0258404644
  0
ARC
  5
4C9
100
AcDbEntity
  8
0
100
AcDbCircle
 62
7
  6
CONTINUOUS
 10
9.6444237768
 20
14.3140187751
 40
0.08
100
AcDbArc
 50
269.9741595356
 51
360.0
  0
ARC
  5
4CA
100
AcDbEntity
  8
0
100
AcDbCircle
 62
7
  6
CONTINUOUS
 10
8.7595395836
 20
13.5350451093
 40
0.08
100
AcDbArc
 50
73.9550243719
 51
89.7682446275
  0
ARC
  5
4CB
100
AcDbEntity
  8
0
100
AcDbCircle
 62
9
  6
CONTINUOUS
 10
11.3435211572
 20
9.4503938714
 40
5.3852223504
100
AcDbArc
 50
302.3186461384
 51
305.3209098759
  0
ARC
  5
4CC
100
AcDbEntity
  8
0
100
AcDbCircle
 62
7
  6
CONTINUOUS
 10
11.3608363126
 20
9.4559751739
 40
5.3664502992
100
AcDbArc
 50
302.2267415987
 51
305.2363968909
  0
ARC
  5
4CD
100
AcDbEntity
  8
0
100
AcDbCircle
 62
9
  6
CONTINUOUS
 10
11.4349442167
 20
7.6679032948
 40
4.3543286382
100
AcDbArc
 50
265.9049381644
 51
266.1329274731
  0
ARC
  5
4CE
100
AcDbEntity
  8
0
100
AcDbCircle
 62
7
  6
CONTINUOUS
 10
12.8996979952
 20
17.0005301079
 40
7.1691060897
100
AcDbArc
 50
232.7966470947
 51
234.3230697234
  0
ARC
  5
4CF
100
AcDbEntity
  8
0
100
AcDbCircle
 62
7
  6
CONTINUOUS
 10
12.8996784321
 20
17.0005496711
 40
7.1691060897
100
AcDbArc
 50
219.1377473573
 51
219.2089918143
  0
ARC
  5
4D0
100
AcDbEntity
  8
0
100
AcDbCircle
 62
7
  6
CONTINUOUS
 10
12.8997033999
 20
17.0005746389
 40
7.1643816803
100
AcDbArc
 50
214.8532231336
 51
215.5750973652
  0
ARC
  5
4D1
100
AcDbEntity
  8
0
100
AcDbCircle
 62
7
  6
CONTINUOUS
 10
12.8997229631
 20
17.0005550758
 40
7.1643816803
100
AcDbArc
 50
234.4249026348
 51
235.1467768664
  0
ARC
  5
4D2
100
AcDbEntity
  8
0
100
AcDbCircle
 62
7
  6
CONTINUOUS
 10
12.8997033999
 20
17.0005746389
 40
7.1643816803
100
AcDbArc
 50
210.1944718958
 51
210.7102731828
  0
ARC
  5
4D3
100
AcDbEntity
  8
0
100
AcDbCircle
 62
7
  6
CONTINUOUS
 10
12.8993394012
 20
17.0003248721
 40
7.1633226513
100
AcDbArc
 50
239.270521551
 51
239.7914629001
  0
ARC
  5
4D4
100
AcDbEntity
  8
0
100
AcDbCircle
 62
9
  6
CONTINUOUS
 10
12.903221718
 20
17.006494826
 40
7.1507436037
100
AcDbArc
 50
238.2880417734
 51
238.6171785403
  0
ARC
  5
4D5
100
AcDbEntity
  8
0
100
AcDbCircle
 62
9
  6
CONTINUOUS
 10
12.7694229507
 20
16.7794451326
 40
6.9265790662
100
AcDbArc
 50
239.2610109886
 51
240.0308013472
  0
ARC
  5
4D6
100
AcDbEntity
  8
0
100
AcDbCircle
 62
7
  6
CONTINUOUS
 10
12.5474226038
 20
14.1734005456
 40
2.15625
100
AcDbArc
 50
90.0
 51
135.0
  0
ARC
  5
4D7
100
AcDbEntity
  8
0
100
AcDbCircle
 62
7
  6
CONTINUOUS
 10
12.5474226038
 20
14.1734005456
 40
1.34375
100
AcDbArc
 50
90.0
 51
135.0
  0
ARC
  5
4D8
100
AcDbEntity
  8
0
100
AcDbCircle
 62
7
  6
CONTINUOUS
 10
14.4874226038
 20
17.1084005456
 40
0.04
100
AcDbArc
 50
90.0
 51
180.0
  0
ARC
  5
4D9
100
AcDbEntity
  8
0
100
AcDbCircle
 62
7
  6
CONTINUOUS
 10
14.4874226038
 20
14.7384005456
 40
0.04
100
AcDbArc
 50
180.0
 51
270.0
  0
SPLINE
  5
4DA
100
AcDbEntity
  8
0
100
AcDbSpline
 62
7
  6
CONTINUOUS
 70
0
 71
3
 72
15
 73
11
 74
0
 42
0.0000001
 43
0.0000001
 44
0.0000000001
 40
0.0
 40
0.0
 40
0.0
 40
0.0
 40
0.1233979738
 40
0.2469953096
 40
0.3710022312
 40
0.4955590431
 40
0.6207520802
 40
0.7465995538
 40
0.873053684
 40
1.0
 40
1.0
 40
1.0
 40
1.0
 10
11.6415920756
 20
1.0145977413
 30
0.0
 10
11.6415643559
 20
1.0135474837
 30
0.0
 10
11.6413313351
 20
1.011445672
 30
0.0
 10
11.6404584747
 20
1.0083952012
 30
0.0
 10
11.6390858834
 20
1.0055228286
 30
0.0
 10
11.6372501569
 20
1.0029058196
 30
0.0
 10
11.6350004756
 20
1.0006131076
 30
0.0
 10
11.6323964528
 20
0.9987051137
 30
0.0
 10
11.6295082055
 20
0.9972322073
 30
0.0
 10
11.6274447375
 20
0.9965664425
 30
0.0
 10
11.6263931355
 20
0.996316771
 30
0.0
  0
SPLINE
  5
4DB
100
AcDbEntity
  8
0
100
AcDbSpline
 62
7
  6
CONTINUOUS
 70
0
 71
3
 72
14
 73
10
 74
0
 42
0.0000001
 43
0.0000001
 44
0.0000000001
 40
0.0
 40
0.0
 40
0.0
 40
0.0
 40
0.1251202121
 40
0.2502291786
 40
0.3752994713
 40
0.5003197768
 40
0.6252925048
 40
0.75022213
 40
1.0
 40
1.0
 40
1.0
 40
1.0
 10
11.1212691668
 20
3.3241148979
 30
0.0
 10
11.1179119069
 20
3.2747534916
 30
0.0
 10
11.111247487
 20
3.1760317357
 30
0.0
 10
11.1012466224
 20
3.027966951
 30
0.0
 10
11.0910843424
 20
2.879952689
 30
0.0
 10
11.0806214351
 20
2.7320133227
 30
0.0
 10
11.0697309134
 20
2.5841603483
 30
0.0
 10
11.0544696958
 20
2.3871653043
 30
0.0
 10
11.0419751319
 20
2.2395207439
 30
0.0
 10
11.032990445
 20
2.1411622658
 30
0.0
  0
SPLINE
  5
4DC
100
AcDbEntity
  8
0
100
AcDbSpline
 62
7
  6
CONTINUOUS
 70
0
 71
3
 72
12
 73
8
 74
0
 42
0.0000001
 43
0.0000001
 44
0.0000000001
 40
0.0
 40
0.0
 40
0.0
 40
0.0
 40
0.2498032133
 40
0.4997048813
 40
0.6247182813
 40
0.7497778067
 40
1.0
 40
1.0
 40
1.0
 40
1.0
 10
11.0326464987
 20
2.1374005001
 30
0.0
 10
11.0242691905
 20
2.0458632805
 30
0.0
 10
11.006373422
 20
1.8628537674
 30
0.0
 10
10.9803231069
 20
1.6344443928
 30
0.0
 10
10.9567768377
 20
1.4519789945
 30
0.0
 10
10.9312539863
 20
1.2696617335
 30
0.0
 10
10.9097261589
 20
1.1332393342
 30
0.0
 10
10.8941781203
 20
1.0424876568
 30
0.0
  0
LINE
  5
4DD
100
AcDbEntity
  8
0
100
AcDbLine
 62
7
  6
CONTINUOUS
 10
11.0326461419
 20
2.1374005456
 11
11.032983085
 21
2.141163354
  0
LINE
  5
4DE
100
AcDbEntity
  8
0
100
AcDbLine
 62
7
  6
CONTINUOUS
 10
11.032983085
 20
2.141163354
 11
11.0333590969
 21
2.1453711663
  0
LINE
  5
4DF
100
AcDbEntity
  8
0
100
AcDbLine
 62
7
  6
CONTINUOUS
 10
11.0333590969
 20
2.1453711663
 11
11.0334975841
 21
2.1469232414
  0
LINE
  5
4E0
100
AcDbEntity
  8
0
100
AcDbLine
 62
7
  6
CONTINUOUS
 10
11.0458739639
 20
2.2907240923
 11
11.0478634599
 21
2.3147868245
  0
SPLINE
  5
4E1
100
AcDbEntity
  8
0
100
AcDbSpline
 62
7
  6
CONTINUOUS
 70
0
 71
3
 72
11
 73
7
 74
0
 42
0.0000001
 43
0.0000001
 44
0.0000000001
 40
0.0
 40
0.0
 40
0.0
 40
0.0
 40
0.2496871766
 40
0.4997997624
 40
0.7500140238
 40
1.0
 40
1.0
 40
1.0
 40
1.0
 10
11.0478634599
 20
2.3147868245
 30
0.0
 10
11.0547663198
 20
2.3987312274
 30
0.0
 10
11.0678107959
 20
2.5668268169
 30
0.0
 10
11.0859173632
 20
2.8191830829
 30
0.0
 10
11.1034020324
 20
3.0716837174
 30
0.0
 10
11.1151966345
 20
3.2400052863
 30
0.0
 10
11.1212659238
 20
3.3241151288
 30
0.0
  0
LINE
  5
4E2
100
AcDbEntity
  8
0
100
AcDbLine
 62
7
  6
CONTINUOUS
 10
11.1212659238
 20
3.3241151288
 11
11.1213226038
 21
3.3249005456
  0
LINE
  5
4E3
100
AcDbEntity
  8
0
100
AcDbLine
 62
7
  6
CONTINUOUS
 10
14.1971362001
 20
4.8846528263
 11
14.1971573629
 21
4.8827383408
  0
SPLINE
  5
4E4
100
AcDbEntity
  8
0
100
AcDbSpline
 62
7
  6
CONTINUOUS
 70
0
 71
3
 72
17
 73
13
 74
0
 42
0.0000001
 43
0.0000001
 44
0.0000000001
 40
0.0
 40
0.0
 40
0.0
 40
0.0
 40
0.1214795068
 40
0.2441900917
 40
0.3680446867
 40
0.4929399161
 40
0.5557407631
 40
0.6187505957
 40
0.6819493219
 40
0.7453153003
 40
0.8724555683
 40
1.0
 40
1.0
 40
1.0
 40
1.0
 10
13.3184143137
 20
4.4696355593
 30
0.0
 10
13.2666051503
 20
4.4507099124
 30
0.0
 10
13.1617431703
 20
4.414602187
 30
0.0
 10
13.0017791967
 20
4.3661253462
 30
0.0
 10
12.8385977881
 20
4.3233238856
 30
0.0
 10
12.7004590837
 20
4.292677844
 30
0.0
 10
12.5886560263
 20
4.2712461202
 30
0.0
 10
12.5040696924
 20
4.2567170063
 30
0.0
 10
12.4189668466
 20
4.2437733186
 30
0.0
 10
12.3047664146
 20
4.2286265914
 30
0.0
 10
12.1610905251
 20
4.2137252933
 30
0.0
 10
12.0456698129
 20
4.2061277099
 30
0.0
 10
11.9878226089
 20
4.2034005458
 30
0.0
  0
LINE
  5
4E5
100
AcDbEntity
  8
0
100
AcDbLine
 62
7
  6
CONTINUOUS
 10
13.5372500587
 20
3.2898233318
 11
13.5429988501
 21
3.2873498724
  0
SPLINE
  5
4E6
100
AcDbEntity
  8
0
100
AcDbSpline
 62
7
  6
CONTINUOUS
 70
0
 71
3
 72
12
 73
8
 74
0
 42
0.0000001
 43
0.0000001
 44
0.0000000001
 40
0.0
 40
0.0
 40
0.0
 40
0.0
 40
0.2499712337
 40
0.4999804609
 40
0.6249936463
 40
0.7500020396
 40
1.0
 40
1.0
 40
1.0
 40
1.0
 10
13.5429988501
 20
3.2873498724
 30
0.0
 10
13.592968427
 20
3.2658100778
 30
0.0
 10
13.6921640143
 20
3.2209632155
 30
0.0
 10
13.8141774642
 20
3.1607186556
 30
0.0
 10
13.9105623589
 20
3.1101342701
 30
0.0
 10
14.0061134684
 20
3.0579990942
 30
0.0
 10
14.0768387933
 20
3.0171998791
 30
0.0
 10
14.1235605108
 20
2.989295835
 30
0.0
  0
LINE
  5
4E7
100
AcDbEntity
  8
0
100
AcDbLine
 62
7
  6
CONTINUOUS
 10
14.1235605108
 20
2.989295835
 11
14.1243284844
 21
2.9888370845
  0
SPLINE
  5
4E8
100
AcDbEntity
  8
0
100
AcDbSpline
 62
7
  6
CONTINUOUS
 70
0
 71
3
 72
17
 73
13
 74
0
 42
0.0000001
 43
0.0000001
 44
0.0000000001
 40
0.0
 40
0.0
 40
0.0
 40
0.0
 40
0.1214792885
 40
0.2441902213
 40
0.3680450758
 40
0.4929399354
 40
0.555740967
 40
0.6187511513
 40
0.681949897
 40
0.7453156288
 40
0.8724556873
 40
1.0
 40
1.0
 40
1.0
 40
1.0
 10
13.3183466902
 20
3.3771898655
 30
0.0
 10
13.2665400542
 20
3.3961136532
 30
0.0
 10
13.1616830246
 20
3.4322179377
 30
0.0
 10
13.0017266851
 20
3.4806901321
 30
0.0
 10
12.838553318
 20
3.5234875402
 30
0.0
 10
12.7004216106
 20
3.5541307592
 30
0.0
 10
12.5886242156
 20
3.5755604892
 30
0.0
 10
12.5040420031
 20
3.5900883102
 30
0.0
 10
12.4189435271
 20
3.6030308689
 30
0.0
 10
12.3047492594
 20
3.6181762817
 30
0.0
 10
12.1610811866
 20
3.6330764845
 30
0.0
 10
12.0456667053
 20
3.640673333
 30
0.0
 10
11.9878226193
 20
3.6434005449
 30
0.0
  0
SPLINE
  5
4E9
100
AcDbEntity
  8
0
100
AcDbSpline
 62
7
  6
CONTINUOUS
 70
0
 71
3
 72
13
 73
9
 74
0
 42
0.0000001
 43
0.0000001
 44
0.0000000001
 40
0.0
 40
0.0
 40
0.0
 40
0.0
 40
0.2442090909
 40
0.4922121156
 40
0.6176825538
 40
0.7441373105
 40
0.8715777486
 40
1.0
 40
1.0
 40
1.0
 40
1.0
 10
14.1244447027
 20
2.9908516337
 30
0.0
 10
14.061929093
 20
3.0282946146
 30
0.0
 10
13.9342840158
 20
3.1010583979
 30
0.0
 10
13.7701322348
 20
3.1850314217
 30
0.0
 10
13.6349938598
 20
3.2482364806
 30
0.0
 10
13.5313121539
 20
3.2937039268
 30
0.0
 10
13.4257206729
 20
3.3369206849
 30
0.0
 10
13.354341189
 20
3.3640418925
 30
0.0
 10
13.3183466902
 20
3.3771898655
 30
0.0
  0
SPLINE
  5
4EA
100
AcDbEntity
  8
0
100
AcDbSpline
 62
7
  6
CONTINUOUS
 70
0
 71
3
 72
13
 73
9
 74
0
 42
0.0000001
 43
0.0000001
 44
0.0000000001
 40
0.0
 40
0.0
 40
0.0
 40
0.0
 40
0.2442101874
 40
0.4922124422
 40
0.6176833563
 40
0.7441385566
 40
0.8715786778
 40
1.0
 40
1.0
 40
1.0
 40
1.0
 10
14.1244444544
 20
4.8559491056
 30
0.0
 10
14.0619337117
 20
4.8185087999
 30
0.0
 10
13.9342988418
 20
4.7457508451
 30
0.0
 10
13.7701606109
 20
4.6617835018
 30
0.0
 10
13.6350336322
 20
4.5985823726
 30
0.0
 10
13.5313605964
 20
4.5531174485
 30
0.0
 10
13.4257784025
 20
4.5099029305
 30
0.0
 10
13.3544054396
 20
4.4827829505
 30
0.0
 10
13.3184143137
 20
4.4696355593
 30
0.0
  0
SPLINE
  5
4EB
100
AcDbEntity
  8
0
100
AcDbSpline
 62
7
  6
CONTINUOUS
 70
0
 71
3
 72
13
 73
9
 74
0
 42
0.0000001
 43
0.0000001
 44
0.0000000001
 40
0.0
 40
0.0
 40
0.0
 40
0.0
 40
0.186746585
 40
0.4019229708
 40
0.5268321245
 40
0.6682043687
 40
0.8283470519
 40
1.0
 40
1.0
 40
1.0
 40
1.0
 10
14.194716248
 20
4.8775223359
 30
0.0
 10
14.1939943538
 20
4.8764292252
 30
0.0
 10
14.1922030011
 20
4.8742254577
 30
0.0
 10
14.1892913157
 20
4.8718948256
 30
0.0
 10
14.1863140184
 20
4.8702830467
 30
0.0
 10
14.1835002422
 20
4.869234838
 30
0.0
 10
14.1802320236
 20
4.8685766857
 30
0.0
 10
14.1778903446
 20
4.8685178985
 30
0.0
 10
14.1766887598
 20
4.8685955762
 30
0.0
  0
SPLINE
  5
4EC
100
AcDbEntity
  8
0
100
AcDbSpline
 62
7
  6
CONTINUOUS
 70
0
 71
3
 72
13
 73
9
 74
0
 42
0.0000001
 43
0.0000001
 44
0.0000000001
 40
0.0
 40
0.0
 40
0.0
 40
0.0
 40
0.1867428911
 40
0.4019167853
 40
0.5268248533
 40
0.6681963466
 40
0.82834146
 40
1.0
 40
1.0
 40
1.0
 40
1.0
 10
14.1947168871
 20
2.9692776244
 30
0.0
 10
14.1939950467
 20
2.9703708273
 30
0.0
 10
14.1922037043
 20
2.9725747572
 30
0.0
 10
14.1892920119
 20
2.9749056303
 30
0.0
 10
14.1863146283
 20
2.9765175863
 30
0.0
 10
14.1835007212
 20
2.9775659439
 30
0.0
 10
14.1802322815
 20
2.9782241849
 30
0.0
 10
14.1778904083
 20
2.9782830466
 30
0.0
 10
14.1766887203
 20
2.9782053128
 30
0.0
  0
LINE
  5
4ED
100
AcDbEntity
  8
0
100
AcDbLine
 62
7
  6
CONTINUOUS
 10
14.1971572748
 20
2.9640629238
 11
14.1971360347
 21
2.9621337102
  0
SPLINE
  5
4EE
100
AcDbEntity
  8
0
100
AcDbSpline
 62
7
  6
CONTINUOUS
 70
0
 71
3
 72
9
 73
5
 74
0
 42
0.0000001
 43
0.0000001
 44
0.0000000001
 40
0.0
 40
0.0
 40
0.0
 40
0.0
 40
0.617060397
 40
1.0
 40
1.0
 40
1.0
 40
1.0
 10
11.6343230398
 20
3.3249041916
 30
0.0
 10
11.6497120637
 20
3.4535918864
 30
0.0
 10
11.7255961933
 20
3.5999927144
 30
0.0
 10
11.8840409272
 20
3.6456760671
 30
0.0
 10
11.9568226039
 20
3.6484005456
 30
0.0
  0
SPLINE
  5
4EF
100
AcDbEntity
  8
0
100
AcDbSpline
 62
7
  6
CONTINUOUS
 70
0
 71
3
 72
9
 73
5
 74
0
 42
0.0000001
 43
0.0000001
 44
0.0000000001
 40
0.0
 40
0.0
 40
0.0
 40
0.0
 40
0.4259270535
 40
1.0
 40
1.0
 40
1.0
 40
1.0
 10
11.9568226044
 20
4.1984005455
 30
0.0
 10
11.8951104546
 20
4.2065058822
 30
0.0
 10
11.7748985635
 20
4.2510929386
 30
0.0
 10
11.7126241069
 20
4.3556836641
 30
0.0
 10
11.6959678723
 20
4.4355011641
 30
0.0
  0
LINE
  5
4F0
100
AcDbEntity
  8
0
100
AcDbLine
 62
7
  6
CONTINUOUS
 10
11.6926122881
 20
4.4533756297
 11
11.6925794061
 21
4.4535721726
  0
LINE
  5
4F1
100
AcDbEntity
  8
0
100
AcDbLine
 62
7
  6
CONTINUOUS
 10
11.6924097715
 20
4.4545942183
 11
11.6923477882
 21
4.4549711145
  0
LINE
  5
4F2
100
AcDbEntity
  8
0
100
AcDbLine
 62
7
  6
CONTINUOUS
 10
11.183432303
 20
4.4311746643
 11
11.1837019999
 21
4.4379090365
  0
LINE
  5
4F3
100
AcDbEntity
  8
0
100
AcDbLine
 62
7
  6
CONTINUOUS
 10
11.1214284528
 20
3.3263676564
 11
11.1213225971
 21
3.3249004522
  0
LINE
  5
4F4
100
AcDbEntity
  8
0
100
AcDbLine
 62
7
  6
CONTINUOUS
 10
11.1837019999
 20
4.4379090365
 11
11.1836872719
 21
4.4375404288
  0
LINE
  5
4F5
100
AcDbEntity
  8
0
100
AcDbLine
 62
7
  6
CONTINUOUS
 10
11.1836872719
 20
4.4375404288
 11
11.183639922
 21
4.4363560412
  0
LINE
  5
4F6
100
AcDbEntity
  8
0
100
AcDbLine
 62
7
  6
CONTINUOUS
 10
11.6340662632
 20
3.3226254741
 11
11.6343230166
 21
3.3249042005
  0
LINE
  5
4F7
100
AcDbEntity
  8
0
100
AcDbLine
 62
7
  6
CONTINUOUS
 10
7.2007566481
 20
12.6514032938
 11
7.1985098512
 21
12.6543105426
  0
LINE
  5
4F8
100
AcDbEntity
  8
0
100
AcDbLine
 62
7
  6
CONTINUOUS
 10
7.1985098512
 20
12.6543105426
 11
7.1980067188
 21
12.6549616661
  0
LINE
  5
4F9
100
AcDbEntity
  8
0
100
AcDbLine
 62
7
  6
CONTINUOUS
 10
7.1980067188
 20
12.6549616661
 11
7.1812287288
 21
12.6767301662
  0
LINE
  5
4FA
100
AcDbEntity
  8
0
100
AcDbLine
 62
7
  6
CONTINUOUS
 10
14.4574226038
 20
2.7737389394
 11
14.4570165542
 21
2.7740275518
  0
LINE
  5
4FB
100
AcDbEntity
  8
0
100
AcDbLine
 62
7
  6
CONTINUOUS
 10
14.4570168053
 20
5.0727735224
 11
14.4574226043
 21
5.0730621327
  0
LINE
  5
4FC
100
AcDbEntity
  8
0
100
AcDbLine
 62
7
  6
CONTINUOUS
 10
14.4568686702
 20
2.7738114282
 11
14.4574226038
 21
2.773425754
  0
SPLINE
  5
4FD
100
AcDbEntity
  8
0
100
AcDbSpline
 62
7
  6
CONTINUOUS
 70
0
 71
3
 72
20
 73
16
 74
0
 42
0.0000001
 43
0.0000001
 44
0.0000000001
 40
0.0
 40
0.0
 40
0.0
 40
0.0
 40
0.2077353552
 40
0.3947534968
 40
0.5590560884
 40
0.6321369022
 40
0.6989099118
 40
0.7592138393
 40
0.812920251
 40
0.859942465
 40
0.9002655345
 40
0.9339720826
 40
0.9484306276
 40
0.9613669379
 40
1.0
 40
1.0
 40
1.0
 40
1.0
 10
7.0402271755
 20
13.041226968
 30
0.0
 10
7.0412640629
 20
13.0392902526
 30
0.0
 10
7.0432002694
 20
13.0355914425
 30
0.0
 10
7.0458180804
 20
13.0302899126
 30
0.0
 10
7.0476858647
 20
13.0262077974
 30
0.0
 10
7.048932544
 20
13.0232424818
 30
0.0
 10
7.049705639
 20
13.0212717659
 30
0.0
 10
7.0503517338
 20
13.0194721075
 30
0.0
 10
7.0508687572
 20
13.0178490508
 30
0.0
 10
7.0512552249
 20
13.0164076978
 30
0.0
 10
7.051509881
 20
13.0151518595
 30
0.0
 10
7.0516177301
 20
13.0142212534
 30
0.0
 10
7.0516270125
 20
13.0135728679
 30
0.0
 10
7.0515819933
 20
13.0128825835
 30
0.0
 10
7.0514218658
 20
13.0123008769
 30
0.0
 10
7.0511330189
 20
13.0120119506
 30
0.0
  0
SPLINE
  5
4FE
100
AcDbEntity
  8
0
100
AcDbSpline
 62
7
  6
CONTINUOUS
 70
0
 71
3
 72
19
 73
15
 74
0
 42
0.0000001
 43
0.0000001
 44
0.0000000001
 40
0.0
 40
0.0
 40
0.0
 40
0.0
 40
0.1965419873
 40
0.3726414963
 40
0.5276848516
 40
0.6613399359
 40
0.7201661401
 40
0.7737300422
 40
0.8221577715
 40
0.8656604232
 40
0.9045734792
 40
0.9393974102
 40
0.9708645424
 40
1.0
 40
1.0
 40
1.0
 40
1.0
 10
7.2317161917
 20
12.8497379519
 30
0.0
 10
7.2321671986
 20
12.8486635557
 30
0.0
 10
7.232990596
 20
12.8466129105
 30
0.0
 10
7.2340391952
 20
12.8436642968
 30
0.0
 10
7.2348295123
 20
12.8410230992
 30
0.0
 10
7.2352884161
 20
12.8390119148
 30
0.0
 10
7.2355089845
 20
12.8375693567
 30
0.0
 10
7.2355995867
 20
12.8366196311
 30
0.0
 10
7.235622421
 20
12.8357565322
 30
0.0
 10
7.2355770475
 20
12.8349809899
 30
0.0
 10
7.2354631063
 20
12.8342937109
 30
0.0
 10
7.2352795327
 20
12.8336951621
 30
0.0
 10
7.235024775
 20
12.8331866577
 30
0.0
 10
7.2348001428
 20
12.8329019478
 30
0.0
 10
7.2346780085
 20
12.8327798015
 30
0.0
  0
SPLINE
  5
4FF
100
AcDbEntity
  8
0
100
AcDbSpline
 62
7
  6
CONTINUOUS
 70
0
 71
3
 72
14
 73
10
 74
0
 42
0.0000001
 43
0.0000001
 44
0.0000000001
 40
0.0
 40
0.0
 40
0.0
 40
0.0
 40
0.3231509365
 40
0.4638377819
 40
0.5914140144
 40
0.7069536941
 40
0.8120160262
 40
0.9087527723
 40
1.0
 40
1.0
 40
1.0
 40
1.0
 10
7.4749015248
 20
12.6065526187
 30
0.0
 10
7.4750436504
 20
12.6057377283
 30
0.0
 10
7.4751940985
 20
12.604555566
 30
0.0
 10
7.4752112204
 20
12.6030402824
 30
0.0
 10
7.4751331425
 20
12.6020592759
 30
0.0
 10
7.4749643802
 20
12.6011819279
 30
0.0
 10
7.4747038033
 20
12.6004093255
 30
0.0
 10
7.474349989
 20
12.5997436853
 30
0.0
 10
7.4740450855
 20
12.5993664855
 30
0.0
 10
7.4738799239
 20
12.5992013267
 30
0.0
  0
LINE
  5
500
100
AcDbEntity
  8
0
100
AcDbLine
 62
7
  6
CONTINUOUS
 10
7.7532104964
 20
12.3282436471
 11
7.7524384882
 21
12.3271954559
  0
SPLINE
  5
501
100
AcDbEntity
  8
0
100
AcDbSpline
 62
7
  6
CONTINUOUS
 70
0
 71
3
 72
23
 73
19
 74
0
 42
0.0000001
 43
0.0000001
 44
0.0000000001
 40
0.0
 40
0.0
 40
0.0
 40
0.0
 40
0.0103275348
 40
0.0208929403
 40
0.0440636153
 40
0.0572923375
 40
0.0718534369
 40
0.1054399263
 40
0.1455055897
 40
0.1923359937
 40
0.246000213
 40
0.3064362282
 40
0.3734747071
 40
0.4468771371
 40
0.5263330431
 40
0.6114785718
 40
0.797116254
 40
1.0
 40
1.0
 40
1.0
 40
1.0
 10
7.534983678
 20
12.4935166729
 30
0.0
 10
7.535096181
 20
12.4936291598
 30
0.0
 10
7.53534718
 20
12.4938346471
 30
0.0
 10
7.5359501181
 20
12.4941546584
 30
0.0
 10
7.5366726688
 20
12.49430545
 30
0.0
 10
7.5374580733
 20
12.4943164109
 30
0.0
 10
7.5384012045
 20
12.494226212
 30
0.0
 10
7.5397281157
 20
12.4939074215
 30
0.0
 10
7.5414692503
 20
12.4932567076
 30
0.0
 10
7.5434242861
 20
12.4923207732
 30
0.0
 10
7.5455850458
 20
12.4911027109
 30
0.0
 10
7.5479415715
 20
12.4896064761
 30
0.0
 10
7.5504822038
 20
12.4878386138
 30
0.0
 10
7.5531936224
 20
12.4858071523
 30
0.0
 10
7.5560615348
 20
12.4835222597
 30
0.0
 10
7.5601933889
 20
12.4800520385
 30
0.0
 10
7.5656159549
 20
12.4751663485
 30
0.0
 10
7.5699136133
 20
12.4709991514
 30
0.0
 10
7.5721235692
 20
12.4687891955
 30
0.0
  0
SPLINE
  5
502
100
AcDbEntity
  8
0
100
AcDbSpline
 62
9
  6
CONTINUOUS
 70
0
 71
3
 72
35
 73
31
 74
0
 42
0.0000001
 43
0.0000001
 44
0.0000000001
 40
0.0
 40
0.0
 40
0.0
 40
0.0
 40
0.0217655389
 40
0.0466332011
 40
0.0744208269
 40
0.1049379957
 40
0.1732712466
 40
0.2496908542
 40
0.3320403613
 40
0.418025529
 40
0.505287617
 40
0.5914667909
 40
0.6742578907
 40
0.7514592823
 40
0.8210172411
 40
0.8523395354
 40
0.8810710241
 40
0.9070168537
 40
0.9300007394
 40
0.9498689444
 40
0.966491243
 40
0.9735542315
 40
0.9797723683
 40
0.9851420775
 40
0.9896643937
 40
0.99334975
 40
0.9962298131
 40
0.9973906613
 40
0.9983862758
 40
1.0
 40
1.0
 40
1.0
 40
1.0
 10
7.2579277961
 20
12.5835701888
 30
0.0
 10
7.258624791
 20
12.5828739068
 30
0.0
 10
7.260096858
 20
12.5813607948
 30
0.0
 10
7.26239732
 20
12.5788998531
 30
0.0
 10
7.2649246896
 20
12.5761094225
 30
0.0
 10
7.2687189327
 20
12.5718126163
 30
0.0
 10
7.2738731862
 20
12.5657809467
 30
0.0
 10
7.2804276674
 20
12.5578616817
 30
0.0
 10
7.2873754598
 20
12.5492321141
 30
0.0
 10
7.2945244706
 20
12.5401355864
 30
0.0
 10
7.3016769607
 20
12.5308222558
 30
0.0
 10
7.3086394362
 20
12.5215461811
 30
0.0
 10
7.3152247061
 20
12.5125572611
 30
0.0
 10
7.3212570397
 20
12.5040969398
 30
0.0
 10
7.3258370964
 20
12.4974632931
 30
0.0
 10
7.3290970951
 20
12.4925855531
 30
0.0
 10
7.3312224023
 20
12.4893241233
 30
0.0
 10
7.3331002312
 20
12.4863523019
 30
0.0
 10
7.334717847
 20
12.4836910766
 30
0.0
 10
7.3360639012
 20
12.4813594385
 30
0.0
 10
7.3369972108
 20
12.4796223001
 30
0.0
 10
7.337593994
 20
12.4784072496
 30
0.0
 10
7.3379433089
 20
12.4776385091
 30
0.0
 10
7.3382189617
 20
12.4769631802
 30
0.0
 10
7.3384210183
 20
12.4763822717
 30
0.0
 10
7.3385491644
 20
12.4758965391
 30
0.0
 10
7.338599298
 20
12.4755487647
 30
0.0
 10
7.3385942119
 20
12.4753199624
 30
0.0
 10
7.3385667544
 20
12.4751517744
 30
0.0
 10
7.338512778
 20
12.4750392394
 30
0.0
 10
7.3384611181
 20
12.4749876
 30
0.0
  0
SPLINE
  5
503
100
AcDbEntity
  8
0
100
AcDbSpline
 62
9
  6
CONTINUOUS
 70
0
 71
3
 72
15
 73
11
 74
0
 42
0.0000001
 43
0.0000001
 44
0.0000000001
 40
0.0
 40
0.0
 40
0.0
 40
0.0
 40
0.1242553036
 40
0.2430432653
 40
0.3551414227
 40
0.4643717356
 40
0.5835680321
 40
0.7137712462
 40
0.8535219093
 40
1.0
 40
1.0
 40
1.0
 40
1.0
 10
7.2598098063
 20
12.5982296648
 30
0.0
 10
7.2602019572
 20
12.5976926654
 30
0.0
 10
7.2608590685
 20
12.5965568552
 30
0.0
 10
7.2614623243
 20
12.5947428458
 30
0.0
 10
7.2617169343
 20
12.5929314753
 30
0.0
 10
7.2616699591
 20
12.591102271
 30
0.0
 10
7.2613131896
 20
12.5892079187
 30
0.0
 10
7.2605923228
 20
12.58724341
 30
0.0
 10
7.2594741449
 20
12.5853035348
 30
0.0
 10
7.2584851368
 20
12.5841214027
 30
0.0
 10
7.2579306579
 20
12.5835673251
 30
0.0
  0
SPLINE
  5
504
100
AcDbEntity
  8
0
100
AcDbSpline
 62
7
  6
CONTINUOUS
 70
0
 71
3
 72
26
 73
22
 74
0
 42
0.0000001
 43
0.0000001
 44
0.0000000001
 40
0.0
 40
0.0
 40
0.0
 40
0.0
 40
0.0089376125
 40
0.0185022266
 40
0.0291563685
 40
0.0412270049
 40
0.0549292905
 40
0.0703968354
 40
0.0877062412
 40
0.1068989598
 40
0.1279864141
 40
0.1509620298
 40
0.2024703404
 40
0.2611162932
 40
0.3264327589
 40
0.3978335189
 40
0.4746287454
 40
0.5560365771
 40
0.6411953544
 40
0.8189765513
 40
1.0
 40
1.0
 40
1.0
 40
1.0
 10
8.0377387941
 20
11.9804542999
 30
0.0
 10
8.0379157136
 20
11.9806311909
 30
0.0
 10
8.0383340313
 20
11.9809482781
 30
0.0
 10
8.0390924129
 20
11.9812674963
 30
0.0
 10
8.0399842202
 20
11.9814425739
 30
0.0
 10
8.04100653
 20
11.9814777325
 30
0.0
 10
8.04215862
 20
11.9813751222
 30
0.0
 10
8.0434390117
 20
11.9811356129
 30
0.0
 10
8.0448455573
 20
11.9807599197
 30
0.0
 10
8.0463752011
 20
11.9802484959
 30
0.0
 10
8.0480245058
 20
11.9796025344
 30
0.0
 10
8.0504722464
 20
11.9785213598
 30
0.0
 10
8.053794497
 20
11.97682695
 30
0.0
 10
8.0580452933
 20
11.9743627032
 30
0.0
 10
8.0626550221
 20
11.9714178905
 30
0.0
 10
8.0675743238
 20
11.9680218019
 30
0.0
 10
8.0727494723
 20
11.9642091217
 30
0.0
 10
8.0781227438
 20
11.9600205179
 30
0.0
 10
8.0855765021
 20
11.9539076291
 30
0.0
 10
8.0949094197
 20
11.9456953029
 30
0.0
 10
8.1021661439
 20
11.9387466208
 30
0.0
 10
8.1057492036
 20
11.9351635611
 30
0.0
  0
SPLINE
  5
505
100
AcDbEntity
  8
0
100
AcDbSpline
 62
7
  6
CONTINUOUS
 70
0
 71
3
 72
30
 73
26
 74
0
 42
0.0000001
 43
0.0000001
 44
0.0000000001
 40
0.0
 40
0.0
 40
0.0
 40
0.0
 40
0.0017746597
 40
0.0038809937
 40
0.0064491176
 40
0.0095499999
 40
0.0132223226
 40
0.0174864903
 40
0.0223530715
 40
0.0278273545
 40
0.040602895
 40
0.0557982385
 40
0.0733742125
 40
0.0932746554
 40
0.1154321174
 40
0.1397695601
 40
0.1946337456
 40
0.2571041802
 40
0.3263238237
 40
0.4013596469
 40
0.481215039
 40
0.5648390446
 40
0.651135804
 40
0.8271834084
 40
1.0
 40
1.0
 40
1.0
 40
1.0
 10
8.8149413993
 20
11.187339179
 30
0.0
 10
8.8149815651
 20
11.1873793442
 30
0.0
 10
8.8150883244
 20
11.1874486384
 30
0.0
 10
8.8152887771
 20
11.1875049568
 30
0.0
 10
8.815537919
 20
11.1875247143
 30
0.0
 10
8.8158370615
 20
11.1875085926
 30
0.0
 10
8.816186901
 20
11.1874568846
 30
0.0
 10
8.8165875131
 20
11.1873695222
 30
0.0
 10
8.8170386869
 20
11.187246556
 30
0.0
 10
8.8177442625
 20
11.1870232956
 30
0.0
 10
8.818748084
 20
11.1866496961
 30
0.0
 10
8.8200918009
 20
11.1860835877
 30
0.0
 10
8.8216242697
 20
11.1853803378
 30
0.0
 10
8.8233395483
 20
11.1845427097
 30
0.0
 10
8.8252310836
 20
11.1835737689
 30
0.0
 10
8.8280950685
 20
11.1820494615
 30
0.0
 10
8.8320546446
 20
11.1798385247
 30
0.0
 10
8.8372119788
 20
11.1768286097
 30
0.0
 10
8.8428754028
 20
11.1734065258
 30
0.0
 10
8.8489674648
 20
11.1696190859
 30
0.0
 10
8.8554062193
 20
11.1655169932
 30
0.0
 10
8.8621060682
 20
11.1611546672
 30
0.0
 10
8.8713300526
 20
11.1550271725
 30
0.0
 10
8.8828301018
 20
11.1471677442
 30
0.0
 10
8.8919405595
 20
11.1407100328
 30
0.0
 10
8.89642151
 20
11.1374668854
 30
0.0
  0
SPLINE
  5
506
100
AcDbEntity
  8
0
100
AcDbSpline
 62
9
  6
CONTINUOUS
 70
0
 71
3
 72
18
 73
14
 74
0
 42
0.0000001
 43
0.0000001
 44
0.0000000001
 40
0.0
 40
0.0
 40
0.0
 40
0.0
 40
0.0231397219
 40
0.0534103493
 40
0.0905676399
 40
0.1343147694
 40
0.1842882976
 40
0.2400732562
 40
0.367195308
 40
0.51152782
 40
0.6684341311
 40
0.8329621073
 40
1.0
 40
1.0
 40
1.0
 40
1.0
 10
7.198995586
 20
12.6425023989
 30
0.0
 10
7.199409844
 20
12.6420887055
 30
0.0
 10
7.2003370901
 20
12.6411050548
 30
0.0
 10
7.2018617087
 20
12.6393943563
 30
0.0
 10
7.2036940199
 20
12.6372600403
 30
0.0
 10
7.2058195122
 20
12.6347208899
 30
0.0
 10
7.2082199878
 20
12.6317975222
 30
0.0
 10
7.2119248049
 20
12.6272159466
 30
0.0
 10
7.2170692655
 20
12.6207286092
 30
0.0
 10
7.2237278002
 20
12.6121773411
 30
0.0
 10
7.2308999861
 20
12.6028269677
 30
0.0
 10
7.2383595269
 20
12.5929733568
 30
0.0
 10
7.2433831229
 20
12.586254949
 30
0.0
 10
7.2459038009
 20
12.582862799
 30
0.0
  0
SPLINE
  5
507
100
AcDbEntity
  8
0
100
AcDbSpline
 62
9
  6
CONTINUOUS
 70
0
 71
3
 72
16
 73
12
 74
0
 42
0.0000001
 43
0.0000001
 44
0.0000000001
 40
0.0
 40
0.0
 40
0.0
 40
0.0
 40
0.1302554677
 40
0.2533692191
 40
0.3679048715
 40
0.4778700757
 40
0.5961283817
 40
0.7235574568
 40
0.8588626902
 40
0.9288776149
 40
1.0
 40
1.0
 40
1.0
 40
1.0
 10
7.2002627908
 20
12.6577766803
 30
0.0
 10
7.200698083
 20
12.6571970589
 30
0.0
 10
7.2014374346
 20
12.6559839708
 30
0.0
 10
7.2021587663
 20
12.6540563881
 30
0.0
 10
7.2025151963
 20
12.6521457702
 30
0.0
 10
7.2025562426
 20
12.6502308936
 30
0.0
 10
7.2022757593
 20
12.6482622234
 30
0.0
 10
7.201616798
 20
12.6462353123
 30
0.0
 10
7.2007256698
 20
12.6445985361
 30
0.0
 10
7.1998077563
 20
12.643361697
 30
0.0
 10
7.1992786943
 20
12.6427790296
 30
0.0
 10
7.1989987125
 20
12.6424992706
 30
0.0
  0
SPLINE
  5
508
100
AcDbEntity
  8
0
100
AcDbSpline
 62
9
  6
CONTINUOUS
 70
0
 71
3
 72
12
 73
8
 74
0
 42
0.0000001
 43
0.0000001
 44
0.0000000001
 40
0.0
 40
0.0
 40
0.0
 40
0.0
 40
0.3418218443
 40
0.6224516433
 40
0.8417286971
 40
0.9284259298
 40
1.0
 40
1.0
 40
1.0
 40
1.0
 10
8.5222864727
 20
11.3319350417
 30
0.0
 10
8.5227319667
 20
11.3316707379
 30
0.0
 10
8.5235485413
 20
11.3311981705
 30
0.0
 10
8.524673726
 20
11.330597006
 30
0.0
 10
8.5254782722
 20
11.3302167941
 30
0.0
 10
8.5260119309
 20
11.3300099439
 30
0.0
 10
8.5262410708
 20
11.3299379431
 30
0.0
 10
8.5263461749
 20
11.3299111577
 30
0.0
  0
SPLINE
  5
509
100
AcDbEntity
  8
0
100
AcDbSpline
 62
9
  6
CONTINUOUS
 70
0
 71
3
 72
18
 73
14
 74
0
 42
0.0000001
 43
0.0000001
 44
0.0000000001
 40
0.0
 40
0.0
 40
0.0
 40
0.0
 40
0.1564489586
 40
0.2737819981
 40
0.3200039569
 40
0.3600492947
 40
0.3966934219
 40
0.4335121466
 40
0.4740517793
 40
0.5210123091
 40
0.6402877208
 40
0.7990125225
 40
1.0
 40
1.0
 40
1.0
 40
1.0
 10
8.5263461749
 20
11.3299111577
 30
0.0
 10
8.5264321683
 20
11.3298892427
 30
0.0
 10
8.5265843488
 20
11.3298575273
 30
0.0
 10
8.5267678987
 20
11.3298499355
 30
0.0
 10
8.5268814202
 20
11.3298747672
 30
0.0
 10
8.526945053
 20
11.3299052216
 30
0.0
 10
8.5269930592
 20
11.3299498341
 30
0.0
 10
8.527023669
 20
11.3300080829
 30
0.0
 10
8.5270368878
 20
11.3300781607
 30
0.0
 10
8.5270323844
 20
11.3301960485
 30
0.0
 10
8.5269795837
 20
11.3303748381
 30
0.0
 10
8.5268622122
 20
11.330620145
 30
0.0
 10
8.5267562227
 20
11.3307949137
 30
0.0
 10
8.5266943054
 20
11.3308906397
 30
0.0
  0
SPLINE
  5
50A
100
AcDbEntity
  8
0
100
AcDbSpline
 62
9
  6
CONTINUOUS
 70
0
 71
3
 72
12
 73
8
 74
0
 42
0.0000001
 43
0.0000001
 44
0.0000000001
 40
0.0
 40
0.0
 40
0.0
 40
0.0
 40
0.0766000672
 40
0.1669964518
 40
0.3894503493
 40
0.6674232244
 40
1.0
 40
1.0
 40
1.0
 40
1.0
 10
8.5266943054
 20
11.3308906397
 30
0.0
 10
8.5266190917
 20
11.3310069222
 30
0.0
 10
8.5264460205
 20
11.3312545487
 30
0.0
 10
8.5260163795
 20
11.33181255
 30
0.0
 10
8.5253204081
 20
11.3326236855
 30
0.0
 10
8.5242953443
 20
11.3337272142
 30
0.0
 10
8.5235219763
 20
11.3345150302
 30
0.0
 10
8.52309684
 20
11.3349402242
 30
0.0
  0
LINE
  5
50B
100
AcDbEntity
  8
0
100
AcDbLine
 62
9
  6
CONTINUOUS
 10
8.5685363522
 20
11.289500712
 11
8.5646393869
 21
11.2929771741
  0
SPLINE
  5
50C
100
AcDbEntity
  8
0
100
AcDbSpline
 62
9
  6
CONTINUOUS
 70
0
 71
3
 72
13
 73
9
 74
0
 42
0.0000001
 43
0.0000001
 44
0.0000000001
 40
0.0
 40
0.0
 40
0.0
 40
0.0
 40
0.0745397393
 40
0.1666487143
 40
0.2748713226
 40
0.397601114
 40
0.6804021869
 40
1.0
 40
1.0
 40
1.0
 40
1.0
 10
8.5646393869
 20
11.2929771741
 30
0.0
 10
8.5635671495
 20
11.2938901243
 30
0.0
 10
8.5611533567
 20
11.2959117038
 30
0.0
 10
8.5571438459
 20
11.2992119692
 30
0.0
 10
8.5524079146
 20
11.3030621349
 30
0.0
 10
8.5448490439
 20
11.3091509161
 30
0.0
 10
8.5341308588
 20
11.3176833249
 30
0.0
 10
8.5251890444
 20
11.3247238981
 30
0.0
 10
8.5204371987
 20
11.3284492027
 30
0.0
  0
LINE
  5
50D
100
AcDbEntity
  8
0
100
AcDbLine
 62
9
  6
CONTINUOUS
 10
8.5204371987
 20
11.3284492027
 11
8.5161922654
 21
11.3317727434
  0
SPLINE
  5
50E
100
AcDbEntity
  8
0
100
AcDbSpline
 62
9
  6
CONTINUOUS
 70
0
 71
3
 72
28
 73
24
 74
0
 42
0.0000001
 43
0.0000001
 44
0.0000000001
 40
0.0
 40
0.0
 40
0.0
 40
0.0
 40
0.1349915855
 40
0.2561840388
 40
0.3635119843
 40
0.4569261659
 40
0.5363875315
 40
0.6018760606
 40
0.6534162554
 40
0.6739984784
 40
0.6911673755
 40
0.7049949132
 40
0.7156254659
 40
0.7288162966
 40
0.7344391772
 40
0.7419127044
 40
0.7522053621
 40
0.7656989836
 40
0.7825665468
 40
0.8029007391
 40
0.8541739505
 40
0.9198148638
 40
1.0
 40
1.0
 40
1.0
 40
1.0
 10
8.5669124396
 20
11.2900051234
 30
0.0
 10
8.5670431696
 20
11.2899182897
 30
0.0
 10
8.5672918559
 20
11.2897543827
 30
0.0
 10
8.5676468597
 20
11.2895250697
 30
0.0
 10
8.5679635823
 20
11.2893256196
 30
0.0
 10
8.5682418103
 20
11.2891561451
 30
0.0
 10
8.5684813094
 20
11.2890166843
 30
0.0
 10
8.5686819353
 20
11.2889073441
 30
0.0
 10
8.5688254745
 20
11.2888365722
 30
0.0
 10
8.5689212417
 20
11.288796197
 30
0.0
 10
8.5689774472
 20
11.2887757583
 30
0.0
 10
8.569024741
 20
11.2887628652
 30
0.0
 10
8.5690663948
 20
11.288756016
 30
0.0
 10
8.5691073618
 20
11.2887609441
 30
0.0
 10
8.5691183672
 20
11.2887921423
 30
0.0
 10
8.5691134741
 20
11.2888193449
 30
0.0
 10
8.5691000004
 20
11.2888531888
 30
0.0
 10
8.5690767246
 20
11.2888944529
 30
0.0
 10
8.5690438353
 20
11.2889433909
 30
0.0
 10
8.5689817907
 20
11.2890254865
 30
0.0
 10
8.568877973
 20
11.2891468023
 30
0.0
 10
8.5687216905
 20
11.2893144225
 30
0.0
 10
8.5686024955
 20
11.2894350187
 30
0.0
 10
8.5685363522
 20
11.289500712
 30
0.0
  0
SPLINE
  5
50F
100
AcDbEntity
  8
0
100
AcDbSpline
 62
7
  6
CONTINUOUS
 70
0
 71
3
 72
21
 73
17
 74
0
 42
0.0000001
 43
0.0000001
 44
0.0000000001
 40
0.0
 40
0.0
 40
0.0
 40
0.0
 40
0.0108362188
 40
0.0217858765
 40
0.0452561482
 40
0.0726724259
 40
0.1054058516
 40
0.1442339452
 40
0.1895703787
 40
0.2416107149
 40
0.3004248002
 40
0.3659796784
 40
0.4381885962
 40
0.6018944967
 40
0.7899167895
 40
1.0
 40
1.0
 40
1.0
 40
1.0
 10
7.3135127885
 20
12.719531511
 30
0.0
 10
7.313587811
 20
12.7196065242
 30
0.0
 10
7.3137526098
 20
12.7197441224
 30
0.0
 10
7.314140584
 20
12.7199626752
 30
0.0
 10
7.3147387446
 20
12.7201118433
 30
0.0
 10
7.3155634545
 20
12.7200901349
 30
0.0
 10
7.3165146734
 20
12.7198859903
 30
0.0
 10
7.3175947077
 20
12.7195004793
 30
0.0
 10
7.3188036966
 20
12.7189343565
 30
0.0
 10
7.3201395268
 20
12.7181880509
 30
0.0
 10
7.3215986889
 20
12.7172627369
 30
0.0
 10
7.3231771509
 20
12.7161607111
 30
0.0
 10
7.3255342293
 20
12.7143834344
 30
0.0
 10
7.3287292422
 20
12.7117307202
 30
0.0
 10
7.3328035281
 20
12.708033825
 30
0.0
 10
7.3355975746
 20
12.7053151901
 30
0.0
 10
7.337051956
 20
12.7038608087
 30
0.0
  0
LINE
  5
510
100
AcDbEntity
  8
0
100
AcDbLine
 62
9
  6
CONTINUOUS
 10
8.4357788156
 20
11.4065185323
 11
8.4367785917
 21
11.4057652449
  0
SPLINE
  5
511
100
AcDbEntity
  8
0
100
AcDbSpline
 62
9
  6
CONTINUOUS
 70
0
 71
3
 72
18
 73
14
 74
0
 42
0.0000001
 43
0.0000001
 44
0.0000000001
 40
0.0
 40
0.0
 40
0.0
 40
0.0
 40
0.1412565404
 40
0.2893803379
 40
0.4385088584
 40
0.5826657946
 40
0.7159768073
 40
0.7768984129
 40
0.8331393266
 40
0.8841173238
 40
0.929271824
 40
0.9680824909
 40
1.0
 40
1.0
 40
1.0
 40
1.0
 10
8.4367785917
 20
11.4057652449
 30
0.0
 10
8.4409778306
 20
11.4025981212
 30
0.0
 10
8.4495417889
 20
11.3960585409
 30
0.0
 10
8.4624201203
 20
11.3860208469
 30
0.0
 10
8.4752875679
 20
11.3757946564
 30
0.0
 10
8.4876259403
 20
11.36579045
 30
0.0
 10
8.4973253532
 20
11.3577475362
 30
0.0
 10
8.5044433236
 20
11.3517211636
 30
0.0
 10
8.5091896063
 20
11.3476382389
 30
0.0
 10
8.5134561256
 20
11.3438982123
 30
0.0
 10
8.5171960223
 20
11.3405423835
 30
0.0
 10
8.5203630871
 20
11.3376116582
 30
0.0
 10
8.5222582575
 20
11.3357823569
 30
0.0
 10
8.52309684
 20
11.3349402242
 30
0.0
  0
SPLINE
  5
512
100
AcDbEntity
  8
0
100
AcDbSpline
 62
9
  6
CONTINUOUS
 70
0
 71
3
 72
16
 73
12
 74
0
 42
0.0000001
 43
0.0000001
 44
0.0000000001
 40
0.0
 40
0.0
 40
0.0
 40
0.0
 40
0.1269081444
 40
0.247598044
 40
0.3607570751
 40
0.4702890172
 40
0.5890466441
 40
0.7180089143
 40
0.8557926805
 40
0.9272971833
 40
1.0
 40
1.0
 40
1.0
 40
1.0
 10
8.5230977385
 20
11.3349415595
 30
0.0
 10
8.5225423538
 20
11.3353523944
 30
0.0
 10
8.5213732539
 20
11.3360451793
 30
0.0
 10
8.5195100889
 20
11.3366996514
 30
0.0
 10
8.5176556984
 20
11.3369983468
 30
0.0
 10
8.5157893754
 20
11.3369894454
 30
0.0
 10
8.513862808
 20
11.3366655722
 30
0.0
 10
8.5118714451
 20
11.3359716024
 30
0.0
 10
8.5102573913
 20
11.3350633001
 30
0.0
 10
8.5090301189
 20
11.334138571
 30
0.0
 10
8.5084491707
 20
11.3336084977
 30
0.0
 10
8.5081694331
 20
11.3333285499
 30
0.0
  0
SPLINE
  5
513
100
AcDbEntity
  8
0
100
AcDbSpline
 62
7
  6
CONTINUOUS
 70
0
 71
3
 72
26
 73
22
 74
0
 42
0.0000001
 43
0.0000001
 44
0.0000000001
 40
0.0
 40
0.0
 40
0.0
 40
0.0
 40
0.0096979163
 40
0.0197997087
 40
0.0307107468
 40
0.042750934
 40
0.0561523308
 40
0.0710780262
 40
0.0876371585
 40
0.1058984887
 40
0.1259055123
 40
0.1476797881
 40
0.1965274669
 40
0.2523581658
 40
0.3149325379
 40
0.3839000775
 40
0.4588226074
 40
0.5391825134
 40
0.6243923776
 40
0.8066968712
 40
1.0
 40
1.0
 40
1.0
 40
1.0
 10
7.7820035929
 20
12.2414311093
 30
0.0
 10
7.7821518733
 20
12.2415793664
 30
0.0
 10
7.7824904046
 20
12.241848309
 30
0.0
 10
7.7830920018
 20
12.2421399183
 30
0.0
 10
7.7837865707
 20
12.2423234843
 30
0.0
 10
7.7845714432
 20
12.2424008003
 30
0.0
 10
7.7854457627
 20
12.2423736359
 30
0.0
 10
7.7864087947
 20
12.2422425558
 30
0.0
 10
7.7874595436
 20
12.2420079648
 30
0.0
 10
7.7885966804
 20
12.2416702556
 30
0.0
 10
7.7898185012
 20
12.2412297242
 30
0.0
 10
7.7916281233
 20
12.2404764227
 30
0.0
 10
7.7940831321
 20
12.2392669632
 30
0.0
 10
7.7972252865
 20
12.2374738416
 30
0.0
 10
7.8006441722
 20
12.235297882
 30
0.0
 10
7.8043137302
 20
12.232754128
 30
0.0
 10
7.808205304
 20
12.2298606475
 30
0.0
 10
7.8122878687
 20
12.2266392695
 30
0.0
 10
7.8180726916
 20
12.2218309497
 30
0.0
 10
7.8255104411
 20
12.2151964094
 30
0.0
 10
7.8313565278
 20
12.2095562369
 30
0.0
 10
7.8343118852
 20
12.2066008794
 30
0.0
  0
SPLINE
  5
514
100
AcDbEntity
  8
0
100
AcDbSpline
 62
9
  6
CONTINUOUS
 70
0
 71
3
 72
11
 73
7
 74
0
 42
0.0000001
 43
0.0000001
 44
0.0000000001
 40
0.0
 40
0.0
 40
0.0
 40
0.0
 40
0.3115701092
 40
0.5818659629
 40
0.8113754359
 40
1.0
 40
1.0
 40
1.0
 40
1.0
 10
7.2598083837
 20
12.5982286806
 30
0.0
 10
7.2592957185
 20
12.5987441276
 30
0.0
 10
7.2583302209
 20
12.5996987704
 30
0.0
 10
7.2569547789
 20
12.600999968
 30
0.0
 10
7.2557569908
 20
12.6020705796
 30
0.0
 10
7.2550043007
 20
12.6026921248
 30
0.0
 10
7.2546556853
 20
12.6029607724
 30
0.0
  0
SPLINE
  5
515
100
AcDbEntity
  8
0
100
AcDbSpline
 62
9
  6
CONTINUOUS
 70
0
 71
3
 72
22
 73
18
 74
0
 42
0.0000001
 43
0.0000001
 44
0.0000000001
 40
0.0
 40
0.0
 40
0.0
 40
0.0
 40
0.2250451956
 40
0.3200611623
 40
0.4035970814
 40
0.475893268
 40
0.5373243572
 40
0.5885119247
 40
0.630533221
 40
0.6653175761
 40
0.6961713496
 40
0.7276530955
 40
0.7640664602
 40
0.8082552237
 40
0.8617996567
 40
0.9255556751
 40
1.0
 40
1.0
 40
1.0
 40
1.0
 10
7.2546556853
 20
12.6029607724
 30
0.0
 10
7.2544356033
 20
12.6031303705
 30
0.0
 10
7.2541173464
 20
12.6033651782
 30
0.0
 10
7.2536999925
 20
12.6036376469
 30
0.0
 10
7.2534328941
 20
12.6037946991
 30
0.0
 10
7.2531936483
 20
12.603916478
 30
0.0
 10
7.252982086
 20
12.6040031848
 30
0.0
 10
7.2527977302
 20
12.6040550655
 30
0.0
 10
7.2526395968
 20
12.6040720762
 30
0.0
 10
7.2525059474
 20
12.6040526697
 30
0.0
 10
7.2523986553
 20
12.6039919635
 30
0.0
 10
7.2523249102
 20
12.6038909669
 30
0.0
 10
7.2522844893
 20
12.6037568105
 30
0.0
 10
7.2522729762
 20
12.6035907284
 30
0.0
 10
7.2522890784
 20
12.6033914956
 30
0.0
 10
7.2523325177
 20
12.6031584907
 30
0.0
 10
7.2523762993
 20
12.6029934352
 30
0.0
 10
7.2524021716
 20
12.6029052404
 30
0.0
  0
SPLINE
  5
516
100
AcDbEntity
  8
0
100
AcDbSpline
 62
9
  6
CONTINUOUS
 70
0
 71
3
 72
11
 73
7
 74
0
 42
0.0000001
 43
0.0000001
 44
0.0000000001
 40
0.0
 40
0.0
 40
0.0
 40
0.0
 40
0.173801298
 40
0.3980298826
 40
0.6734009797
 40
1.0
 40
1.0
 40
1.0
 40
1.0
 10
7.2524021716
 20
12.6029052404
 30
0.0
 10
7.2524792689
 20
12.6026424265
 30
0.0
 10
7.2526995823
 20
12.6020537135
 30
0.0
 10
7.2531412676
 20
12.6010884984
 30
0.0
 10
7.2537388731
 20
12.5999312832
 30
0.0
 10
7.2542019608
 20
12.5991032317
 30
0.0
 10
7.2544583145
 20
12.5986569389
 30
0.0
  0
SPLINE
  5
517
100
AcDbEntity
  8
0
100
AcDbSpline
 62
9
  6
CONTINUOUS
 70
0
 71
3
 72
12
 73
8
 74
0
 42
0.0000001
 43
0.0000001
 44
0.0000000001
 40
0.0
 40
0.0
 40
0.0
 40
0.0
 40
0.3404146921
 40
0.6209350262
 40
0.8402708028
 40
0.9273993238
 40
1.0
 40
1.0
 40
1.0
 40
1.0
 10
7.3511118996
 20
12.4773283502
 30
0.0
 10
7.3515366336
 20
12.4769335556
 30
0.0
 10
7.3523201075
 20
12.4762225637
 30
0.0
 10
7.3534153983
 20
12.4753007082
 30
0.0
 10
7.354216321
 20
12.4746999556
 30
0.0
 10
7.3547622772
 20
12.4743546029
 30
0.0
 10
7.3550022986
 20
12.4742255419
 30
0.0
 10
7.3551143669
 20
12.4741732406
 30
0.0
  0
SPLINE
  5
518
100
AcDbEntity
  8
0
100
AcDbSpline
 62
9
  6
CONTINUOUS
 70
0
 71
3
 72
19
 73
15
 74
0
 42
0.0000001
 43
0.0000001
 44
0.0000000001
 40
0.0
 40
0.0
 40
0.0
 40
0.0
 40
0.117177242
 40
0.1620218349
 40
0.1993367275
 40
0.2315532163
 40
0.2623457138
 40
0.2958651422
 40
0.3354068074
 40
0.383025226
 40
0.4399007821
 40
0.5838128757
 40
0.7701365991
 40
1.0
 40
1.0
 40
1.0
 40
1.0
 10
7.3551143669
 20
12.4741732406
 30
0.0
 10
7.355236163
 20
12.4741163995
 30
0.0
 10
7.3554103699
 20
12.4740459723
 30
0.0
 10
7.3556370321
 20
12.4740090001
 30
0.0
 10
7.3557694338
 20
12.4740150982
 30
0.0
 10
7.3558798564
 20
12.4740551799
 30
0.0
 10
7.355963843
 20
12.4741315922
 30
0.0
 10
7.3560179848
 20
12.47424001
 30
0.0
 10
7.3560449842
 20
12.4743768674
 30
0.0
 10
7.3560470803
 20
12.4745426845
 30
0.0
 10
7.3560144273
 20
12.474826264
 30
0.0
 10
7.3559019801
 20
12.4752575468
 30
0.0
 10
7.3556814277
 20
12.4758612772
 30
0.0
 10
7.3554893846
 20
12.4762986918
 30
0.0
 10
7.3553786644
 20
12.47653798
 30
0.0
  0
LINE
  5
519
100
AcDbEntity
  8
0
100
AcDbLine
 62
9
  6
CONTINUOUS
 10
7.3553786644
 20
12.47653798
 11
7.3540999246
 21
12.4789856413
  0
SPLINE
  5
51A
100
AcDbEntity
  8
0
100
AcDbSpline
 62
9
  6
CONTINUOUS
 70
0
 71
3
 72
25
 73
21
 74
0
 42
0.0000001
 43
0.0000001
 44
0.0000000001
 40
0.0
 40
0.0
 40
0.0
 40
0.0
 40
0.0150010719
 40
0.0325940247
 40
0.0526764782
 40
0.0751423078
 40
0.1267161006
 40
0.1862762145
 40
0.2526409487
 40
0.3244195858
 40
0.4001606249
 40
0.478304644
 40
0.6353770755
 40
0.7110352233
 40
0.7826334101
 40
0.8486849323
 40
0.9077877904
 40
0.9586203436
 40
0.9805737397
 40
1.0
 40
1.0
 40
1.0
 40
1.0
 10
7.3540999246
 20
12.4789856413
 30
0.0
 10
7.3537253441
 20
12.4796481391
 30
0.0
 10
7.3528843376
 20
12.481072264
 30
0.0
 10
7.3514707579
 20
12.4833404582
 30
0.0
 10
7.3498105294
 20
12.4859005898
 30
0.0
 10
7.3471555513
 20
12.4898697774
 30
0.0
 10
7.3432880917
 20
12.4954367324
 30
0.0
 10
7.3380319077
 20
12.5027490774
 30
0.0
 10
7.3320730607
 20
12.5108177049
 30
0.0
 10
7.3255346426
 20
12.5194779895
 30
0.0
 10
7.3185502671
 20
12.5285497429
 30
0.0
 10
7.3088186487
 20
12.5409668008
 30
0.0
 10
7.298937004
 20
12.5532604144
 30
0.0
 10
7.2891066466
 20
12.5651665135
 30
0.0
 10
7.2821364629
 20
12.5734450656
 30
0.0
 10
7.2756248166
 20
12.5810110248
 30
0.0
 10
7.2697122494
 20
12.5877016151
 30
0.0
 10
7.2651972816
 20
12.5926407473
 30
0.0
 10
7.2619755476
 20
12.5960330639
 30
0.0
 10
7.2605060955
 20
12.5975325903
 30
0.0
 10
7.2598083837
 20
12.5982286806
 30
0.0
  0
SPLINE
  5
51B
100
AcDbEntity
  8
0
100
AcDbSpline
 62
9
  6
CONTINUOUS
 70
0
 71
3
 72
39
 73
35
 74
0
 42
0.0000001
 43
0.0000001
 44
0.0000000001
 40
0.0
 40
0.0
 40
0.0
 40
0.0
 40
0.1029197004
 40
0.20630652
 40
0.3083760175
 40
0.4073856246
 40
0.5016466985
 40
0.5895725257
 40
0.6697198472
 40
0.706471269
 40
0.7408161822
 40
0.7726239882
 40
0.801774233
 40
0.8281681145
 40
0.8517207713
 40
0.8723674068
 40
0.8900711809
 40
0.9048458006
 40
0.9111616751
 40
0.9167910663
 40
0.921770313
 40
0.9261540625
 40
0.9300251235
 40
0.9335050359
 40
0.9367608674
 40
0.9399959733
 40
0.9434175528
 40
0.9472012525
 40
0.9514773398
 40
0.9563357573
 40
0.9618371649
 40
0.9680226502
 40
0.9825412439
 40
1.0
 40
1.0
 40
1.0
 40
1.0
 10
7.9937309374
 20
11.8643061269
 30
0.0
 10
7.9911863543
 20
11.866852189
 30
0.0
 10
7.9860403277
 20
11.871910766
 30
0.0
 10
7.9782251291
 20
11.8793444233
 30
0.0
 10
7.9703889111
 20
11.886555528
 30
0.0
 10
7.9626689412
 20
11.8934194138
 30
0.0
 10
7.9551985617
 20
11.8998171534
 30
0.0
 10
7.9481065826
 20
11.9056395627
 30
0.0
 10
7.9424608354
 20
11.9100508316
 30
0.0
 10
7.9382184922
 20
11.9132109532
 30
0.0
 10
7.935295775
 20
11.9153115686
 30
0.0
 10
7.9325513291
 20
11.9172036892
 30
0.0
 10
7.92999644
 20
11.918879514
 30
0.0
 10
7.9276418555
 20
11.9203325887
 30
0.0
 10
7.9254973308
 20
11.9215572364
 30
0.0
 10
7.9235717402
 20
11.9225490975
 30
0.0
 10
7.9218728741
 20
11.9233042247
 30
0.0
 10
7.9205911986
 20
11.9237573452
 30
0.0
 10
7.9196843532
 20
11.9239859208
 30
0.0
 10
7.9191004711
 20
11.9240873326
 30
0.0
 10
7.9185767097
 20
11.9241280618
 30
0.0
 10
7.9181128436
 20
11.9241076901
 30
0.0
 10
7.9177085895
 20
11.9240252709
 30
0.0
 10
7.9173643904
 20
11.9238788205
 30
0.0
 10
7.9170830323
 20
11.9236662026
 30
0.0
 10
7.9168690483
 20
11.9233883376
 30
0.0
 10
7.9167240245
 20
11.9230496499
 30
0.0
 10
7.9166460183
 20
11.9226533775
 30
0.0
 10
7.9166328361
 20
11.9222001865
 30
0.0
 10
7.9166834069
 20
11.9216897315
 30
0.0
 10
7.9167973768
 20
11.9211216362
 30
0.0
 10
7.9170479118
 20
11.9202392396
 30
0.0
 10
7.9175364366
 20
11.9189941693
 30
0.0
 10
7.9180283394
 20
11.9179888832
 30
0.0
 10
7.9183114887
 20
11.9174478785
 30
0.0
  0
LINE
  5
51C
100
AcDbEntity
  8
0
100
AcDbLine
 62
9
  6
CONTINUOUS
 10
7.9183114887
 20
11.9174478785
 11
7.9202095982
 21
11.9141868397
  0
SPLINE
  5
51D
100
AcDbEntity
  8
0
100
AcDbSpline
 62
9
  6
CONTINUOUS
 70
0
 71
3
 72
38
 73
34
 74
0
 42
0.0000001
 43
0.0000001
 44
0.0000000001
 40
0.0
 40
0.0
 40
0.0
 40
0.0
 40
0.0254069657
 40
0.0478193936
 40
0.0672140536
 40
0.0836339172
 40
0.0971896591
 40
0.1029618162
 40
0.1081182853
 40
0.1127277736
 40
0.1168904153
 40
0.1207444676
 40
0.1244629854
 40
0.1282377288
 40
0.1322522292
 40
0.1366586834
 40
0.1415711897
 40
0.1532015451
 40
0.1675583035
 40
0.1848321262
 40
0.205110177
 40
0.2284098777
 40
0.2547138175
 40
0.2839714406
 40
0.3161157627
 40
0.351059854
 40
0.3887056234
 40
0.4716191456
 40
0.5637883651
 40
0.6640333931
 40
0.7711009198
 40
0.8835885053
 40
1.0
 40
1.0
 40
1.0
 40
1.0
 10
8.0270821709
 20
11.8119190962
 30
0.0
 10
8.0276766048
 20
11.8115839557
 30
0.0
 10
8.0288059302
 20
11.8109714048
 30
0.0
 10
8.0304295395
 20
11.810180596
 30
0.0
 10
8.0318735509
 20
11.8095768113
 30
0.0
 10
8.0331340718
 20
11.8091607492
 30
0.0
 10
8.0340763881
 20
11.8089589599
 30
0.0
 10
8.0347328202
 20
11.808905938
 30
0.0
 10
8.035150989
 20
11.8089165245
 30
0.0
 10
8.0355217746
 20
11.808975705
 30
0.0
 10
8.0358449435
 20
11.8090846535
 30
0.0
 10
8.036119468
 20
11.8092445088
 30
0.0
 10
8.0363431191
 20
11.809455669
 30
0.0
 10
8.0365137633
 20
11.8097165743
 30
0.0
 10
8.036631094
 20
11.8100247012
 30
0.0
 10
8.0366965389
 20
11.8103783944
 30
0.0
 10
8.0367170598
 20
11.8109422629
 30
0.0
 10
8.0365974601
 20
11.8117692597
 30
0.0
 10
8.0362678432
 20
11.8128855039
 30
0.0
 10
8.0357429006
 20
11.8141790264
 30
0.0
 10
8.0350225823
 20
11.8156471436
 30
0.0
 10
8.034107811
 20
11.8172868591
 30
0.0
 10
8.0330005216
 20
11.8190930392
 30
0.0
 10
8.0317038939
 20
11.8210601659
 30
0.0
 10
8.030221704
 20
11.8231816875
 30
0.0
 10
8.0285586639
 20
11.825450747
 30
0.0
 10
8.0260242853
 20
11.828770837
 30
0.0
 10
8.0224403867
 20
11.8332219456
 30
0.0
 10
8.0176531926
 20
11.8388591174
 30
0.0
 10
8.0123134009
 20
11.8448755344
 30
0.0
 10
8.0064896513
 20
11.8511898506
 30
0.0
 10
8.0002586603
 20
11.8577173467
 30
0.0
 10
7.9959430473
 20
11.8620964532
 30
0.0
 10
7.9937309374
 20
11.8643061269
 30
0.0
  0
SPLINE
  5
51E
100
AcDbEntity
  8
0
100
AcDbSpline
 62
7
  6
CONTINUOUS
 70
0
 71
3
 72
13
 73
9
 74
0
 42
0.0000001
 43
0.0000001
 44
0.0000000001
 40
0.0
 40
0.0
 40
0.0
 40
0.0
 40
0.1161934859
 40
0.2380446424
 40
0.4926901948
 40
0.7511478712
 40
0.8776198058
 40
1.0
 40
1.0
 40
1.0
 40
1.0
 10
8.3198886811
 20
11.7131917717
 30
0.0
 10
8.3218882533
 20
11.711811406
 30
0.0
 10
8.3259459275
 20
11.7089268756
 30
0.0
 10
8.3341967018
 20
11.7027553547
 30
0.0
 10
8.3445566851
 20
11.6944436336
 30
0.0
 10
8.354637868
 20
11.6856485052
 30
0.0
 10
8.362401547
 20
11.6784179909
 30
0.0
 10
8.3661279453
 20
11.6747848194
 30
0.0
 10
8.3679375196
 20
11.6729752451
 30
0.0
  0
SPLINE
  5
51F
100
AcDbEntity
  8
0
100
AcDbSpline
 62
9
  6
CONTINUOUS
 70
0
 71
3
 72
49
 73
45
 74
0
 42
0.0000001
 43
0.0000001
 44
0.0000000001
 40
0.0
 40
0.0
 40
0.0
 40
0.0
 40
0.0299558704
 40
0.063319866
 40
0.0997041961
 40
0.1387791315
 40
0.2235748407
 40
0.3148177626
 40
0.4095451902
 40
0.5046528239
 40
0.551375003
 40
0.5970392852
 40
0.6412823145
 40
0.6837538103
 40
0.7241047315
 40
0.7620057388
 40
0.7971472399
 40
0.8292397433
 40
0.8580420884
 40
0.8833628963
 40
0.8946675192
 40
0.9050413686
 40
0.91446403
 40
0.9229100596
 40
0.9303538093
 40
0.9367758548
 40
0.9421670543
 40
0.9465334435
 40
0.9483475169
 40
0.9499292873
 40
0.9512952523
 40
0.9524700053
 40
0.9534908316
 40
0.9544127567
 40
0.9553081932
 40
0.9562546943
 40
0.9573178727
 40
0.9585442754
 40
0.9615932028
 40
0.9655418305
 40
0.9704457882
 40
0.9763282863
 40
0.983199768
 40
1.0
 40
1.0
 40
1.0
 40
1.0
 10
8.4393682727
 20
11.4186687916
 30
0.0
 10
8.4382543019
 20
11.4197867819
 30
0.0
 10
8.4358723702
 20
11.4221228305
 30
0.0
 10
8.4320640706
 20
11.4257411095
 30
0.0
 10
8.4278566772
 20
11.4296361529
 30
0.0
 10
8.4215980442
 20
11.4353033997
 30
0.0
 10
8.413086514
 20
11.4427875768
 30
0.0
 10
8.4022298283
 20
11.4520421896
 30
0.0
 10
8.3908261856
 20
11.4614903979
 30
0.0
 10
8.3811213894
 20
11.4693106721
 30
0.0
 10
8.3733660645
 20
11.4754291004
 30
0.0
 10
8.3676828099
 20
11.4798470499
 30
0.0
 10
8.3621442942
 20
11.4840859778
 30
0.0
 10
8.3567955032
 20
11.4881118648
 30
0.0
 10
8.3516798914
 20
11.4918915368
 30
0.0
 10
8.3468397466
 20
11.4953937025
 30
0.0
 10
8.3423153259
 20
11.498589413
 30
0.0
 10
8.3381433861
 20
11.5014525536
 30
0.0
 10
8.3343565446
 20
11.5039614135
 30
0.0
 10
8.3314446406
 20
11.5058068847
 30
0.0
 10
8.32932594
 20
11.5070886696
 30
0.0
 10
8.3279105283
 20
11.5079143897
 30
0.0
 10
8.3266111231
 20
11.5086395927
 30
0.0
 10
8.3254314482
 20
11.5092619077
 30
0.0
 10
8.324375454
 20
11.5097788129
 30
0.0
 10
8.3234467261
 20
11.5101882558
 30
0.0
 10
8.3226485401
 20
11.5104887264
 30
0.0
 10
8.322061341
 20
11.5106575416
 30
0.0
 10
8.3216584966
 20
11.5107300805
 30
0.0
 10
8.3214083301
 20
11.5107535131
 30
0.0
 10
8.3211905857
 20
11.5107496991
 30
0.0
 10
8.3210046355
 20
11.5107184516
 30
0.0
 10
8.3208500026
 20
11.5106588998
 30
0.0
 10
8.3207275808
 20
11.5105694352
 30
0.0
 10
8.3206401871
 20
11.510450086
 30
0.0
 10
8.3205891424
 20
11.510303817
 30
0.0
 10
8.3205726883
 20
11.5101328902
 30
0.0
 10
8.3205967794
 20
11.5098515477
 30
0.0
 10
8.3207228679
 20
11.5094332761
 30
0.0
 10
8.3209881519
 20
11.5088643217
 30
0.0
 10
8.3213803907
 20
11.5081933018
 30
0.0
 10
8.3218996198
 20
11.5074209344
 30
0.0
 10
8.3228267698
 20
11.5061694844
 30
0.0
 10
8.3236239783
 20
11.505209116
 30
0.0
 10
8.32420234
 20
11.5045390804
 30
0.0
  0
SPLINE
  5
520
100
AcDbEntity
  8
0
100
AcDbSpline
 62
9
  6
CONTINUOUS
 70
0
 71
3
 72
31
 73
27
 74
0
 42
0.0000001
 43
0.0000001
 44
0.0000000001
 40
0.0
 40
0.0
 40
0.0
 40
0.0
 40
0.0810856249
 40
0.1490440417
 40
0.1780681049
 40
0.2037871468
 40
0.2262292537
 40
0.2454522766
 40
0.261563549
 40
0.2747680429
 40
0.2854657458
 40
0.2944070267
 40
0.3028293752
 40
0.3121800234
 40
0.3235493411
 40
0.3375545172
 40
0.3545196817
 40
0.3746201501
 40
0.397956093
 40
0.4245869237
 40
0.487845163
 40
0.5644341758
 40
0.6542058946
 40
0.756920045
 40
0.8722884264
 40
1.0
 40
1.0
 40
1.0
 40
1.0
 10
8.4429192488
 20
11.4079794859
 30
0.0
 10
8.4434788207
 20
11.4076698269
 30
0.0
 10
8.4445155087
 20
11.4071151316
 30
0.0
 10
8.4457807968
 20
11.4065039103
 30
0.0
 10
8.4466718371
 20
11.40612575
 30
0.0
 10
8.4472414147
 20
11.4059102694
 30
0.0
 10
8.4477476857
 20
11.4057475836
 30
0.0
 10
8.448190398
 20
11.4056376716
 30
0.0
 10
8.4485697005
 20
11.4055803466
 30
0.0
 10
8.4488866405
 20
11.4055758359
 30
0.0
 10
8.4491436322
 20
11.4056252311
 30
0.0
 10
8.4493417424
 20
11.4057361313
 30
0.0
 10
8.4494673375
 20
11.4059139458
 30
0.0
 10
8.4495132687
 20
11.4061440355
 30
0.0
 10
8.4494905539
 20
11.406419044
 30
0.0
 10
8.4494036779
 20
11.4067427085
 30
0.0
 10
8.4492529163
 20
11.4071169322
 30
0.0
 10
8.4490379594
 20
11.4075425347
 30
0.0
 10
8.448758517
 20
11.4080196189
 30
0.0
 10
8.4482708531
 20
11.4087680429
 30
0.0
 10
8.4474912197
 20
11.4098257443
 30
0.0
 10
8.4463489839
 20
11.4112316266
 30
0.0
 10
8.4449548112
 20
11.4128321471
 30
0.0
 10
8.4433131955
 20
11.4146214902
 30
0.0
 10
8.4414288499
 20
11.4165934157
 30
0.0
 10
8.4400811669
 20
11.4179571678
 30
0.0
 10
8.4393682727
 20
11.4186687916
 30
0.0
  0
SPLINE
  5
521
100
AcDbEntity
  8
0
100
AcDbSpline
 62
9
  6
CONTINUOUS
 70
0
 71
3
 72
36
 73
32
 74
0
 42
0.0000001
 43
0.0000001
 44
0.0000000001
 40
0.0
 40
0.0
 40
0.0
 40
0.0
 40
0.1203179994
 40
0.235065695
 40
0.3431398807
 40
0.4435488805
 40
0.5353890239
 40
0.6178706296
 40
0.6903277511
 40
0.7225726158
 40
0.7520423229
 40
0.7786598747
 40
0.8023677529
 40
0.823173318
 40
0.8411232261
 40
0.8563041264
 40
0.8688754827
 40
0.8742746934
 40
0.8791528618
 40
0.8876641032
 40
0.8915708355
 40
0.8954365762
 40
0.8994230325
 40
0.9036774997
 40
0.908321168
 40
0.9134470929
 40
0.9253906485
 40
0.9398777012
 40
0.9570941089
 40
0.9771267802
 40
1.0
 40
1.0
 40
1.0
 40
1.0
 10
7.6572389792
 20
12.200798085
 30
0.0
 10
7.6554050997
 20
12.2026369351
 30
0.0
 10
7.6517951033
 20
12.206202557
 30
0.0
 10
7.6464472241
 20
12.2113271212
 30
0.0
 10
7.6413305311
 20
12.2160705702
 30
0.0
 10
7.6364953548
 20
12.2203888271
 30
0.0
 10
7.6319885076
 20
12.2242436143
 30
0.0
 10
7.6278519934
 20
12.2276005136
 30
0.0
 10
7.6246346611
 20
12.2300462187
 30
0.0
 10
7.6222712811
 20
12.2317204379
 30
0.0
 10
7.6206868707
 20
12.2327814837
 30
0.0
 10
7.6192257285
 20
12.2336940418
 30
0.0
 10
7.6178915777
 20
12.2344548871
 30
0.0
 10
7.61668756
 20
12.2350631357
 30
0.0
 10
7.615615192
 20
12.2355193697
 30
0.0
 10
7.6146754393
 20
12.2358240715
 30
0.0
 10
7.6139694258
 20
12.2359592818
 30
0.0
 10
7.6134755201
 20
12.2359797632
 30
0.0
 10
7.6130708427
 20
12.2359494087
 30
0.0
 10
7.6127038264
 20
12.2358431035
 30
0.0
 10
7.6124092716
 20
12.235646961
 30
0.0
 10
7.6122307625
 20
12.2354638838
 30
0.0
 10
7.612089574
 20
12.2352419912
 30
0.0
 10
7.611985496
 20
12.2349826349
 30
0.0
 10
7.6119178246
 20
12.2346865403
 30
0.0
 10
7.6118733257
 20
12.234218937
 30
0.0
 10
7.6119201415
 20
12.2335354319
 30
0.0
 10
7.6121124485
 20
12.2326115448
 30
0.0
 10
7.6124444748
 20
12.2315439237
 30
0.0
 10
7.6129159921
 20
12.2303341358
 30
0.0
 10
7.6132977032
 20
12.2294899141
 30
0.0
 10
7.6135098503
 20
12.229044109
 30
0.0
  0
LINE
  5
522
100
AcDbEntity
  8
0
100
AcDbLine
 62
9
  6
CONTINUOUS
 10
7.6135098503
 20
12.229044109
 11
7.6149006145
 21
12.2263571809
  0
SPLINE
  5
523
100
AcDbEntity
  8
0
100
AcDbSpline
 62
9
  6
CONTINUOUS
 70
0
 71
3
 72
40
 73
36
 74
0
 42
0.0000001
 43
0.0000001
 44
0.0000000001
 40
0.0
 40
0.0
 40
0.0
 40
0.0
 40
0.0196979996
 40
0.0361728177
 40
0.0432164592
 40
0.0494797825
 40
0.0549860211
 40
0.0597752654
 40
0.0639120813
 40
0.0674974192
 40
0.0706858629
 40
0.0736955614
 40
0.0767853542
 40
0.0801976561
 40
0.0841146929
 40
0.0886572776
 40
0.0939016152
 40
0.0998911726
 40
0.1066497572
 40
0.1141902366
 40
0.13163828
 40
0.1522554161
 40
0.1759957882
 40
0.2027664416
 40
0.232446609
 40
0.2649009762
 40
0.2999882434
 40
0.3375504601
 40
0.4193518145
 40
0.5086719598
 40
0.6036797608
 40
0.7023931812
 40
0.8027676877
 40
0.9026900982
 40
1.0
 40
1.0
 40
1.0
 40
1.0
 10
7.7163671064
 20
12.1166954876
 30
0.0
 10
7.7170306863
 20
12.1162741574
 30
0.0
 10
7.7182666223
 20
12.1155271997
 30
0.0
 10
7.7197987558
 20
12.1147309712
 30
0.0
 10
7.7208920305
 20
12.1142635774
 30
0.0
 10
7.7215995457
 20
12.114010815
 30
0.0
 10
7.7222379115
 20
12.1138369922
 30
0.0
 10
7.7228072357
 20
12.1137421202
 30
0.0
 10
7.7233082052
 20
12.1137263856
 30
0.0
 10
7.7237418524
 20
12.1137912548
 30
0.0
 10
7.7241076461
 20
12.113940674
 30
0.0
 10
7.7243996023
 20
12.1141784193
 30
0.0
 10
7.7246101468
 20
12.1145006929
 30
0.0
 10
7.7247393368
 20
12.1148998314
 30
0.0
 10
7.7247917354
 20
12.1153730311
 30
0.0
 10
7.7247698024
 20
12.1159209427
 30
0.0
 10
7.7246742437
 20
12.1165441851
 30
0.0
 10
7.7245056459
 20
12.117242756
 30
0.0
 10
7.7242644378
 20
12.118016074
 30
0.0
 10
7.723824375
 20
12.1192045159
 30
0.0
 10
7.7230815568
 20
12.1208678244
 30
0.0
 10
7.7219474792
 20
12.123058869
 30
0.0
 10
7.7205349255
 20
12.1255215735
 30
0.0
 10
7.7188510544
 20
12.1282432218
 30
0.0
 10
7.7169043766
 20
12.1312095711
 30
0.0
 10
7.7147045291
 20
12.1344054935
 30
0.0
 10
7.7122616598
 20
12.1378150173
 30
0.0
 10
7.7085899551
 20
12.1427655177
 30
0.0
 10
7.7034815304
 20
12.1493433457
 30
0.0
 10
7.6967729368
 20
12.1575768395
 30
0.0
 10
7.6894611775
 20
12.16618631
 30
0.0
 10
7.6817010191
 20
12.1749909666
 30
0.0
 10
7.6736559893
 20
12.1838035499
 30
0.0
 10
7.6654963973
 20
12.1924331805
 30
0.0
 10
7.6599863032
 20
12.1980538711
 30
0.0
 10
7.6572389792
 20
12.200798085
 30
0.0
  0
SPLINE
  5
524
100
AcDbEntity
  8
0
100
AcDbSpline
 62
9
  6
CONTINUOUS
 70
0
 71
3
 72
29
 73
25
 74
0
 42
0.0000001
 43
0.0000001
 44
0.0000000001
 40
0.0
 40
0.0
 40
0.0
 40
0.0
 40
0.1014398367
 40
0.1872768006
 40
0.2578564537
 40
0.3135736262
 40
0.3359962369
 40
0.3548679009
 40
0.3702867017
 40
0.3824326712
 40
0.3985503012
 40
0.4052966313
 40
0.413514152
 40
0.4243421205
 40
0.4382826433
 40
0.4555593574
 40
0.4762804471
 40
0.5005013934
 40
0.528250954
 40
0.5943780048
 40
0.6746838674
 40
0.7691154672
 40
0.8775898294
 40
1.0
 40
1.0
 40
1.0
 40
1.0
 10
7.2002613501
 20
12.6577757142
 30
0.0
 10
7.2001204599
 20
12.6579180903
 30
0.0
 10
7.199858125
 20
12.6581787632
 30
0.0
 10
7.1994884428
 20
12.6585289764
 30
0.0
 10
7.1991748453
 20
12.6588068166
 30
0.0
 10
7.1989459221
 20
12.6589910349
 30
0.0
 10
7.1987890334
 20
12.6591012583
 30
0.0
 10
7.1986940738
 20
12.6591603156
 30
0.0
 10
7.1986116303
 20
12.6592023355
 30
0.0
 10
7.19853257
 20
12.6592316934
 30
0.0
 10
7.198453606
 20
12.6592385567
 30
0.0
 10
7.1984099803
 20
12.659190151
 30
0.0
 10
7.198398453
 20
12.6591393347
 30
0.0
 10
7.1984001139
 20
12.6590739723
 30
0.0
 10
7.1984149782
 20
12.6589920411
 30
0.0
 10
7.1984428573
 20
12.6588932642
 30
0.0
 10
7.1984839545
 20
12.6587774117
 30
0.0
 10
7.1985382761
 20
12.6586445125
 30
0.0
 10
7.1986341632
 20
12.6584319025
 30
0.0
 10
7.1987888631
 20
12.6581245699
 30
0.0
 10
7.1990171875
 20
12.6577072947
 30
0.0
 10
7.1992977013
 20
12.657223456
 30
0.0
 10
7.199630047
 20
12.6566737171
 30
0.0
 10
7.1998714657
 20
12.6562869644
 30
0.0
 10
7.2000005548
 20
12.6560826123
 30
0.0
  0
LINE
  5
525
100
AcDbEntity
  8
0
100
AcDbLine
 62
9
  6
CONTINUOUS
 10
7.253856772
 20
12.5920741695
 11
7.2505295353
 21
12.5963446928
  0
SPLINE
  5
526
100
AcDbEntity
  8
0
100
AcDbSpline
 62
9
  6
CONTINUOUS
 70
0
 71
3
 72
15
 73
11
 74
0
 42
0.0000001
 43
0.0000001
 44
0.0000000001
 40
0.0
 40
0.0
 40
0.0
 40
0.0
 40
0.319099979
 40
0.4692714683
 40
0.6086488477
 40
0.7340616966
 40
0.8426626763
 40
0.9320232572
 40
0.9688025972
 40
1.0
 40
1.0
 40
1.0
 40
1.0
 10
7.2505295353
 20
12.5963446928
 30
0.0
 10
7.245522103
 20
12.6027592321
 30
0.0
 10
7.2381191031
 20
12.6121621964
 30
0.0
 10
7.2284300245
 20
12.6242883615
 30
0.0
 10
7.2217795739
 20
12.6325198141
 30
0.0
 10
7.2157478886
 20
12.6398880948
 30
0.0
 10
7.2104717211
 20
12.6462260811
 30
0.0
 10
7.2065913001
 20
12.6507847299
 30
0.0
 10
7.2039473933
 20
12.653802908
 30
0.0
 10
7.202789068
 20
12.6550927454
 30
0.0
 10
7.2022517502
 20
12.6556794742
 30
0.0
  0
LINE
  5
527
100
AcDbEntity
  8
0
100
AcDbLine
 62
9
  6
CONTINUOUS
 10
7.2022517502
 20
12.6556794742
 11
7.2002613501
 21
12.6577757142
  0
SPLINE
  5
528
100
AcDbEntity
  8
0
100
AcDbSpline
 62
7
  6
CONTINUOUS
 70
0
 71
3
 72
20
 73
16
 74
0
 42
0.0000001
 43
0.0000001
 44
0.0000000001
 40
0.0
 40
0.0
 40
0.0
 40
0.0
 40
0.0189691757
 40
0.0297506905
 40
0.0416823524
 40
0.0695563388
 40
0.1034056554
 40
0.1435984897
 40
0.1902987835
 40
0.2435423028
 40
0.3033006717
 40
0.4419807993
 40
0.6053186581
 40
0.7918904154
 40
1.0
 40
1.0
 40
1.0
 40
1.0
 10
8.6870715229
 20
11.3178252983
 30
0.0
 10
8.687179724
 20
11.3179334813
 30
0.0
 10
8.687388759
 20
11.3180652514
 30
0.0
 10
8.6877070936
 20
11.3181742632
 30
0.0
 10
8.6881080197
 20
11.3182561567
 30
0.0
 10
8.6887049703
 20
11.3182789367
 30
0.0
 10
8.6895245796
 20
11.3181998421
 30
0.0
 10
8.6904820006
 20
11.3180153592
 30
0.0
 10
8.6915752792
 20
11.3177258414
 30
0.0
 10
8.6928022232
 20
11.3173319338
 30
0.0
 10
8.6947085897
 20
11.316632831
 30
0.0
 10
8.6973956473
 20
11.3154905161
 30
0.0
 10
8.7009520618
 20
11.3137906901
 30
0.0
 10
8.7049469235
 20
11.3117155207
 30
0.0
 10
8.7077330069
 20
11.3101745267
 30
0.0
 10
8.7091934992
 20
11.3093470329
 30
0.0
  0
SPLINE
  5
529
100
AcDbEntity
  8
0
100
AcDbSpline
 62
9
  6
CONTINUOUS
 70
0
 71
3
 72
37
 73
33
 74
0
 42
0.0000001
 43
0.0000001
 44
0.0000000001
 40
0.0
 40
0.0
 40
0.0
 40
0.0
 40
0.1123817095
 40
0.2221243788
 40
0.327739953
 40
0.4278667378
 40
0.5212490655
 40
0.6067727638
 40
0.6832929384
 40
0.7178141915
 40
0.7496750409
 40
0.7788106575
 40
0.805169954
 40
0.8287137098
 40
0.8494167394
 40
0.8672805304
 40
0.8823447982
 40
0.8947252502
 40
0.9046747163
 40
0.9088997208
 40
0.9127526079
 40
0.9163770187
 40
0.9199467614
 40
0.9236444637
 40
0.9276341868
 40
0.9320463789
 40
0.9369770176
 40
0.9424935002
 40
0.9486420925
 40
0.9629479941
 40
0.9800520206
 40
1.0
 40
1.0
 40
1.0
 40
1.0
 10
7.8238591376
 20
12.0341779266
 30
0.0
 10
7.821612235
 20
12.0364305634
 30
0.0
 10
7.8171338529
 20
12.0408458404
 30
0.0
 10
7.8104247427
 20
12.0472559112
 30
0.0
 10
7.8038653454
 20
12.0533187756
 30
0.0
 10
7.7975453571
 20
12.0589563767
 30
0.0
 10
7.7915469336
 20
12.0640978207
 30
0.0
 10
7.7859506685
 20
12.0686787189
 30
0.0
 10
7.7815480515
 20
12.0720843384
 30
0.0
 10
7.7782790432
 20
12.0744683668
 30
0.0
 10
7.7760598259
 20
12.0760140741
 30
0.0
 10
7.7739951571
 20
12.0773760949
 30
0.0
 10
7.772090681
 20
12.0785516818
 30
0.0
 10
7.7703516889
 20
12.0795385282
 30
0.0
 10
7.7687828725
 20
12.0803346521
 30
0.0
 10
7.7673886727
 20
12.0809388332
 30
0.0
 10
7.7661713589
 20
12.0813504894
 30
0.0
 10
7.7651329743
 20
12.0815698317
 30
0.0
 10
7.7643735166
 20
12.0815926364
 30
0.0
 10
7.7638706673
 20
12.081493138
 30
0.0
 10
7.763560497
 20
12.0813707249
 30
0.0
 10
7.7632982792
 20
12.081195419
 30
0.0
 10
7.7630867779
 20
12.0809671497
 30
0.0
 10
7.762927534
 20
12.0806882146
 30
0.0
 10
7.7628199717
 20
12.0803609714
 30
0.0
 10
7.7627627719
 20
12.0799864745
 30
0.0
 10
7.7627549917
 20
12.0795648874
 30
0.0
 10
7.762796066
 20
12.0790961422
 30
0.0
 10
7.7629223996
 20
12.0783711061
 30
0.0
 10
7.7632157401
 20
12.0773462574
 30
0.0
 10
7.763741453
 20
12.0759894421
 30
0.0
 10
7.7641844178
 20
12.0750377754
 30
0.0
 10
7.7644345084
 20
12.0745314179
 30
0.0
  0
LINE
  5
52A
100
AcDbEntity
  8
0
100
AcDbLine
 62
9
  6
CONTINUOUS
 10
7.7644345084
 20
12.0745314179
 11
7.7660223512
 21
12.0716010702
  0
SPLINE
  5
52B
100
AcDbEntity
  8
0
100
AcDbSpline
 62
9
  6
CONTINUOUS
 70
0
 71
3
 72
39
 73
35
 74
0
 42
0.0000001
 43
0.0000001
 44
0.0000000001
 40
0.0
 40
0.0
 40
0.0
 40
0.0
 40
0.0221195132
 40
0.0412048071
 40
0.0572665829
 40
0.0641828923
 40
0.0703754456
 40
0.0758740935
 40
0.0807256124
 40
0.0850015062
 40
0.0888106224
 40
0.0923098733
 40
0.0956982689
 40
0.0991919414
 40
0.1029877259
 40
0.1072403222
 40
0.1120603857
 40
0.1175238217
 40
0.1236797782
 40
0.1381741252
 40
0.1556814149
 40
0.176227394
 40
0.1997894571
 40
0.226322118
 40
0.2557608465
 40
0.2880090426
 40
0.3229532999
 40
0.4003799776
 40
0.4868225069
 40
0.580850276
 40
0.6808823174
 40
0.785273506
 40
0.8922611502
 40
1.0
 40
1.0
 40
1.0
 40
1.0
 10
7.8700772241
 20
11.9657325321
 30
0.0
 10
7.8707157647
 20
11.9653560123
 30
0.0
 10
7.8719192189
 20
11.9646775276
 30
0.0
 10
7.8736404849
 20
11.9638265901
 30
0.0
 10
7.8749484192
 20
11.9632947716
 30
0.0
 10
7.8758824773
 20
11.9630043314
 30
0.0
 10
7.87648976
 20
11.9628600615
 30
0.0
 10
7.8770389376
 20
11.9627782669
 30
0.0
 10
7.877529967
 20
11.9627593048
 30
0.0
 10
7.877963056
 20
11.9628040001
 30
0.0
 10
7.8783381222
 20
11.9629142165
 30
0.0
 10
7.878653598
 20
11.9630919262
 30
0.0
 10
7.8789057065
 20
11.9633374684
 30
0.0
 10
7.8790914721
 20
11.9636475004
 30
0.0
 10
7.8792115181
 20
11.9640180217
 30
0.0
 10
7.8792679648
 20
11.9644474326
 30
0.0
 10
7.8792622368
 20
11.9649357988
 30
0.0
 10
7.8791948739
 20
11.965483473
 30
0.0
 10
7.8790127877
 20
11.966340322
 30
0.0
 10
7.8786147922
 20
11.9675588734
 30
0.0
 10
7.8779225359
 20
11.9691794495
 30
0.0
 10
7.8769926158
 20
11.9710243382
 30
0.0
 10
7.875828226
 20
11.9730862701
 30
0.0
 10
7.874432467
 20
11.9753575551
 30
0.0
 10
7.8728096942
 20
11.9778292815
 30
0.0
 10
7.8709659442
 20
11.9804918791
 30
0.0
 10
7.868123567
 20
11.9844178071
 30
0.0
 10
7.8640676988
 20
11.9897054807
 30
0.0
 10
7.8586188155
 20
11.9964153291
 30
0.0
 10
7.8525255807
 20
12.003574477
 30
0.0
 10
7.845892436
 20
12.0110611821
 30
0.0
 10
7.8388304594
 20
12.018745865
 30
0.0
 10
7.8314597018
 20
12.0264953149
 30
0.0
 10
7.8264135935
 20
12.0316262029
 30
0.0
 10
7.8238591376
 20
12.0341779266
 30
0.0
  0
SPLINE
  5
52C
100
AcDbEntity
  8
0
100
AcDbSpline
 62
7
  6
CONTINUOUS
 70
0
 71
3
 72
15
 73
11
 74
0
 42
0.0000001
 43
0.0000001
 44
0.0000000001
 40
0.0
 40
0.0
 40
0.0
 40
0.0
 40
0.0337040424
 40
0.0718943249
 40
0.1612973977
 40
0.2672282555
 40
0.3885294037
 40
0.5239056372
 40
0.6719523433
 40
1.0
 40
1.0
 40
1.0
 40
1.0
 10
9.0283364277
 20
11.0355031405
 30
0.0
 10
9.028794753
 20
11.035311859
 30
0.0
 10
9.0297664759
 20
11.034889582
 30
0.0
 10
9.0319261778
 20
11.0338969859
 30
0.0
 10
9.0350157456
 20
11.032380789
 30
0.0
 10
9.0391592018
 20
11.0302354234
 30
0.0
 10
9.043863851
 20
11.0277021357
 30
0.0
 10
9.0490787912
 20
11.0248086939
 30
0.0
 10
9.0569119247
 20
11.0203558371
 30
0.0
 10
9.0629640652
 20
11.016807206
 30
0.0
 10
9.0671183946
 20
11.0143357746
 30
0.0
  0
SPLINE
  5
52D
100
AcDbEntity
  8
0
100
AcDbSpline
 62
9
  6
CONTINUOUS
 70
0
 71
3
 72
33
 73
29
 74
0
 42
0.0000001
 43
0.0000001
 44
0.0000000001
 40
0.0
 40
0.0
 40
0.0
 40
0.0
 40
0.0019763383
 40
0.0043615926
 40
0.0073385853
 40
0.010999782
 40
0.0153911748
 40
0.0205343866
 40
0.0264392461
 40
0.0331086952
 40
0.048723336
 40
0.0673216178
 40
0.0888089082
 40
0.1130678924
 40
0.1399591139
 40
0.1693271253
 40
0.2010011695
 40
0.2347959702
 40
0.3079490758
 40
0.3870809004
 40
0.4703376855
 40
0.5557529094
 40
0.6412848619
 40
0.7248600798
 40
0.8044233873
 40
0.8779959615
 40
0.9437334484
 40
1.0
 40
1.0
 40
1.0
 40
1.0
 10
8.3215097816
 20
11.4931725881
 30
0.0
 10
8.321570374
 20
11.4932332026
 30
0.0
 10
8.3217375109
 20
11.4933341924
 30
0.0
 10
8.3220529255
 20
11.4933974178
 30
0.0
 10
8.3224459804
 20
11.4933931738
 30
0.0
 10
8.3229199902
 20
11.4933221795
 30
0.0
 10
8.3234761138
 20
11.4931848994
 30
0.0
 10
8.3241142922
 20
11.4929811489
 30
0.0
 10
8.324833861
 20
11.4927110699
 30
0.0
 10
8.3259609499
 20
11.4922371268
 30
0.0
 10
8.3275613964
 20
11.4914722972
 30
0.0
 10
8.3296970063
 20
11.4903428318
 30
0.0
 10
8.3321234683
 20
11.4889642722
 30
0.0
 10
8.3348256563
 20
11.4873449909
 30
0.0
 10
8.3377869797
 20
11.4854945399
 30
0.0
 10
8.3409893633
 20
11.4834239904
 30
0.0
 10
8.3444134733
 20
11.4811456765
 30
0.0
 10
8.3493799341
 20
11.4777583917
 30
0.0
 10
8.3559757645
 20
11.4731085342
 30
0.0
 10
8.3642257823
 20
11.4670850939
 30
0.0
 10
8.3728107788
 20
11.4606206758
 30
0.0
 10
8.3815257645
 20
11.453869262
 30
0.0
 10
8.3901601406
 20
11.4469928569
 30
0.0
 10
8.3985020833
 20
11.4401582292
 30
0.0
 10
8.406344926
 20
11.4335345052
 30
0.0
 10
8.4134924166
 20
11.4272881973
 30
0.0
 10
8.4197661774
 20
11.4215799563
 30
0.0
 10
8.4235840319
 20
11.4179153472
 30
0.0
 10
8.4253087207
 20
11.4161892643
 30
0.0
  0
SPLINE
  5
52E
100
AcDbEntity
  8
0
100
AcDbSpline
 62
9
  6
CONTINUOUS
 70
0
 71
3
 72
26
 73
22
 74
0
 42
0.0000001
 43
0.0000001
 44
0.0000000001
 40
0.0
 40
0.0
 40
0.0
 40
0.0
 40
0.1978417205
 40
0.3836198773
 40
0.4702078322
 40
0.5517165745
 40
0.6275534371
 40
0.6971847391
 40
0.7601425235
 40
0.8160304102
 40
0.8645435823
 40
0.8859729651
 40
0.9054986581
 40
0.9231219835
 40
0.9388638375
 40
0.9527658631
 40
0.9649048452
 40
0.9754145501
 40
0.9845114027
 40
0.9925391377
 40
1.0
 40
1.0
 40
1.0
 40
1.0
 10
7.9842725945
 20
11.8572253903
 30
0.0
 10
7.98712271
 20
11.8543766673
 30
0.0
 10
7.9925773477
 20
11.8487804708
 30
0.0
 10
7.9990625648
 20
11.8417307167
 30
0.0
 10
8.0038051141
 20
11.836302481
 30
0.0
 10
8.0070033183
 20
11.8324997513
 30
0.0
 10
8.0099032575
 20
11.8288987286
 30
0.0
 10
8.0124826941
 20
11.825526318
 30
0.0
 10
8.0147231826
 20
11.8224080933
 30
0.0
 10
8.0166092675
 20
11.8195676087
 30
0.0
 10
8.0179256951
 20
11.8173667823
 30
0.0
 10
8.0187814086
 20
11.8157574616
 30
0.0
 10
8.0193001612
 20
11.8146825913
 30
0.0
 10
8.0197222724
 20
11.813690911
 30
0.0
 10
8.0200473325
 20
11.812783981
 30
0.0
 10
8.0202750583
 20
11.8119629636
 30
0.0
 10
8.0204051408
 20
11.8112284641
 30
0.0
 10
8.0204372838
 20
11.8105804475
 30
0.0
 10
8.0203696835
 20
11.8100180169
 30
0.0
 10
8.0201982258
 20
11.8095419643
 30
0.0
 10
8.0200087954
 20
11.8092828456
 30
0.0
 10
8.0199013516
 20
11.809175379
 30
0.0
  0
SPLINE
  5
52F
100
AcDbEntity
  8
0
100
AcDbSpline
 62
9
  6
CONTINUOUS
 70
0
 71
3
 72
17
 73
13
 74
0
 42
0.0000001
 43
0.0000001
 44
0.0000000001
 40
0.0
 40
0.0
 40
0.0
 40
0.0
 40
0.0232903767
 40
0.0527215333
 40
0.08811112
 40
0.1288027498
 40
0.2220255675
 40
0.3299560884
 40
0.4631688447
 40
0.6224309681
 40
0.8039438465
 40
1.0
 40
1.0
 40
1.0
 40
1.0
 10
7.9937331032
 20
11.8643084216
 30
0.0
 10
7.9936406963
 20
11.8643164053
 30
0.0
 10
7.9934287979
 20
11.8642955486
 30
0.0
 10
7.9930912994
 20
11.8641974091
 30
0.0
 10
7.9927026997
 20
11.8640356477
 30
0.0
 10
7.9921014009
 20
11.8637298369
 30
0.0
 10
7.9912802646
 20
11.863223954
 30
0.0
 10
7.9901915744
 20
11.8624565562
 30
0.0
 10
7.9889327772
 20
11.8614768319
 30
0.0
 10
7.9874897767
 20
11.8602593174
 30
0.0
 10
7.9859053407
 20
11.8588234383
 30
0.0
 10
7.9848246921
 20
11.8577774691
 30
0.0
 10
7.9842726472
 20
11.8572253379
 30
0.0
  0
SPLINE
  5
530
100
AcDbEntity
  8
0
100
AcDbSpline
 62
9
  6
CONTINUOUS
 70
0
 71
3
 72
19
 73
15
 74
0
 42
0.0000001
 43
0.0000001
 44
0.0000000001
 40
0.0
 40
0.0
 40
0.0
 40
0.0
 40
0.1843245156
 40
0.3593417195
 40
0.5207872354
 40
0.664661425
 40
0.7873404181
 40
0.8397312283
 40
0.8856911556
 40
0.9249254545
 40
0.9571805411
 40
0.9822553149
 40
0.9920511522
 40
1.0
 40
1.0
 40
1.0
 40
1.0
 10
8.5068854448
 20
11.3243748771
 30
0.0
 10
8.5097681314
 20
11.3222135451
 30
0.0
 10
8.5153808799
 20
11.3179905794
 30
0.0
 10
8.5234929928
 20
11.3118407385
 30
0.0
 10
8.5309512135
 20
11.3061372676
 30
0.0
 10
8.5375705771
 20
11.3010211685
 30
0.0
 10
8.5424783384
 20
11.2971764775
 30
0.0
 10
8.5458593331
 20
11.2944866686
 30
0.0
 10
8.5479534994
 20
11.292799326
 30
0.0
 10
8.5497296041
 20
11.2913446265
 30
0.0
 10
8.5511760392
 20
11.2901319268
 30
0.0
 10
8.5521664911
 20
11.28927107
 30
0.0
 10
8.5527834788
 20
11.2887054468
 30
0.0
 10
8.5530334891
 20
11.2884649267
 30
0.0
 10
8.5531431396
 20
11.2883548453
 30
0.0
  0
SPLINE
  5
531
100
AcDbEntity
  8
0
100
AcDbSpline
 62
9
  6
CONTINUOUS
 70
0
 71
3
 72
28
 73
24
 74
0
 42
0.0000001
 43
0.0000001
 44
0.0000000001
 40
0.0
 40
0.0
 40
0.0
 40
0.0
 40
0.1720536757
 40
0.347642505
 40
0.4336789968
 40
0.5169417148
 40
0.5962950339
 40
0.6706759814
 40
0.7391093035
 40
0.8007218979
 40
0.8547578919
 40
0.8787373829
 40
0.9006052645
 40
0.9203110242
 40
0.9378222946
 40
0.9531262914
 40
0.9662411713
 40
0.9772348433
 40
0.9862597178
 40
0.9901315456
 40
0.9936512066
 40
0.996904212
 40
1.0
 40
1.0
 40
1.0
 40
1.0
 10
7.6512549183
 20
12.1902430667
 30
0.0
 10
7.6551427273
 20
12.1863572062
 30
0.0
 10
7.6628480356
 20
12.1783545051
 30
0.0
 10
7.6721254384
 20
12.1680603503
 30
0.0
 10
7.679294298
 20
12.1596921415
 30
0.0
 10
7.6843546239
 20
12.1535677784
 30
0.0
 10
7.6890647916
 20
12.1476388853
 30
0.0
 10
7.693361285
 20
12.1419883737
 30
0.0
 10
7.6971864879
 20
12.1366937147
 30
0.0
 10
7.7004897146
 20
12.1318268288
 30
0.0
 10
7.7028595547
 20
12.1280456444
 30
0.0
 10
7.704449538
 20
12.1252784378
 30
0.0
 10
7.7054388392
 20
12.1234321011
 30
0.0
 10
7.7062704039
 20
12.1217369336
 30
0.0
 10
7.7069418846
 20
12.1201984146
 30
0.0
 10
7.707451603
 20
12.1188213743
 30
0.0
 10
7.7077986371
 20
12.1176091253
 30
0.0
 10
7.7079826447
 20
12.1165645365
 30
0.0
 10
7.7080003915
 20
12.1157959834
 30
0.0
 10
7.7079171775
 20
12.1152766846
 30
0.0
 10
7.7078150745
 20
12.1149507778
 30
0.0
 10
7.7076695261
 20
12.1146691434
 30
0.0
 10
7.7075413843
 20
12.1145097078
 30
0.0
 10
7.7074715416
 20
12.1144396778
 30
0.0
  0
SPLINE
  5
532
100
AcDbEntity
  8
0
100
AcDbSpline
 62
9
  6
CONTINUOUS
 70
0
 71
3
 72
17
 73
13
 74
0
 42
0.0000001
 43
0.0000001
 44
0.0000000001
 40
0.0
 40
0.0
 40
0.0
 40
0.0
 40
0.0686898004
 40
0.1087667831
 40
0.1524889118
 40
0.1992823019
 40
0.2482164163
 40
0.3553923169
 40
0.485268725
 40
0.6388307073
 40
0.812725316
 40
1.0
 40
1.0
 40
1.0
 40
1.0
 10
7.6572402393
 20
12.2007991913
 30
0.0
 10
7.6573450399
 20
12.2005325176
 30
0.0
 10
7.6573914907
 20
12.2000647355
 30
0.0
 10
7.65732047
 20
12.1994336257
 30
0.0
 10
7.6571999344
 20
12.1989008566
 30
0.0
 10
7.657022564
 20
12.1983464637
 30
0.0
 10
7.656710578
 20
12.1975590832
 30
0.0
 10
7.6561760731
 20
12.1964902439
 30
0.0
 10
7.6553246037
 20
12.195099236
 30
0.0
 10
7.6542096769
 20
12.1935492329
 30
0.0
 10
7.6528405761
 20
12.1918934126
 30
0.0
 10
7.6518084386
 20
12.1907943049
 30
0.0
 10
7.6512559888
 20
12.1902419941
 30
0.0
  0
SPLINE
  5
533
100
AcDbEntity
  8
0
100
AcDbSpline
 62
7
  6
CONTINUOUS
 70
0
 71
3
 72
20
 73
16
 74
0
 42
0.0000001
 43
0.0000001
 44
0.0000000001
 40
0.0
 40
0.0
 40
0.0
 40
0.0
 40
0.0386330553
 40
0.0515693714
 40
0.0660279302
 40
0.099734492
 40
0.1400575753
 40
0.1870798174
 40
0.2407862448
 40
0.3010902133
 40
0.3678632364
 40
0.4409440756
 40
0.6052466802
 40
0.7922647756
 40
1.0
 40
1.0
 40
1.0
 40
1.0
 10
8.9111602744
 20
11.151984695
 30
0.0
 10
8.9114492013
 20
11.1522735424
 30
0.0
 10
8.9120309093
 20
11.1524336696
 30
0.0
 10
8.9127211951
 20
11.1524786886
 30
0.0
 10
8.9133695823
 20
11.1524694054
 30
0.0
 10
8.9143001906
 20
11.1523615559
 30
0.0
 10
8.9155560318
 20
11.1521068986
 30
0.0
 10
8.916997388
 20
11.1517204291
 30
0.0
 10
8.9186204487
 20
11.151203404
 30
0.0
 10
8.9204201111
 20
11.1505573068
 30
0.0
 10
8.9223908316
 20
11.1497842097
 30
0.0
 10
8.925356153
 20
11.1485375266
 30
0.0
 10
8.9294382758
 20
11.1466697378
 30
0.0
 10
8.9347398141
 20
11.1440519212
 30
0.0
 10
8.9384386294
 20
11.142115711
 30
0.0
 10
8.9403753473
 20
11.1410788219
 30
0.0
  0
SPLINE
  5
534
100
AcDbEntity
  8
0
100
AcDbSpline
 62
9
  6
CONTINUOUS
 70
0
 71
3
 72
18
 73
14
 74
0
 42
0.0000001
 43
0.0000001
 44
0.0000000001
 40
0.0
 40
0.0
 40
0.0
 40
0.0
 40
0.1339373564
 40
0.2785736839
 40
0.4273080559
 40
0.5732921257
 40
0.7096915024
 40
0.7722396396
 40
0.829992544
 40
0.8822449771
 40
0.9283553587
 40
0.9677657183
 40
1.0
 40
1.0
 40
1.0
 40
1.0
 10
8.4263864315
 20
11.3977038186
 30
0.0
 10
8.430186447
 20
11.3950239431
 30
0.0
 10
8.438042087
 20
11.3893820319
 30
0.0
 10
8.449976997
 20
11.3805704858
 30
0.0
 10
8.4621389537
 20
11.3713641055
 30
0.0
 10
8.4739643692
 20
11.3621887528
 30
0.0
 10
8.483329588
 20
11.3547250945
 30
0.0
 10
8.4902300851
 20
11.3490853029
 30
0.0
 10
8.4948332352
 20
11.3452513432
 30
0.0
 10
8.4989593936
 20
11.3417368788
 30
0.0
 10
8.5025583017
 20
11.3385860071
 30
0.0
 10
8.5055847906
 20
11.3358373839
 30
0.0
 10
8.5073821143
 20
11.3341171419
 30
0.0
 10
8.5081727903
 20
11.3333251947
 30
0.0
  0
SPLINE
  5
535
100
AcDbEntity
  8
0
100
AcDbSpline
 62
9
  6
CONTINUOUS
 70
0
 71
3
 72
27
 73
23
 74
0
 42
0.0000001
 43
0.0000001
 44
0.0000000001
 40
0.0
 40
0.0
 40
0.0
 40
0.0
 40
0.1862895644
 40
0.2780718929
 40
0.3676441049
 40
0.4540554475
 40
0.5364084096
 40
0.6138617629
 40
0.6856421319
 40
0.7510537021
 40
0.8094891133
 40
0.860444159
 40
0.882995567
 40
0.9035462
 40
0.9220773882
 40
0.9385832188
 40
0.9530826331
 40
0.9656272788
 40
0.9763195035
 40
0.9853523914
 40
0.9930625007
 40
1.0
 40
1.0
 40
1.0
 40
1.0
 10
7.8161547225
 20
12.0253432625
 30
0.0
 10
7.8196116099
 20
12.0218880132
 30
0.0
 10
7.8246923723
 20
12.0166501073
 30
0.0
 10
7.8312442772
 20
12.0095706734
 30
0.0
 10
7.8359332442
 20
12.004338749
 30
0.0
 10
7.8403708349
 20
11.9992150564
 30
0.0
 10
7.8445102407
 20
11.9942550926
 30
0.0
 10
7.8483070768
 20
11.9895107786
 30
0.0
 10
7.8517224858
 20
11.9850323673
 30
0.0
 10
7.8547226462
 20
11.9808669096
 30
0.0
 10
7.8572777535
 20
11.9770572712
 30
0.0
 10
7.8590838396
 20
11.9741021052
 30
0.0
 10
7.8602755868
 20
11.9719407531
 30
0.0
 10
7.8610070151
 20
11.9704981445
 30
0.0
 10
7.8616118376
 20
11.9691704655
 30
0.0
 10
7.8620887471
 20
11.9679606726
 30
0.0
 10
7.862437043
 20
11.9668713402
 30
0.0
 10
7.8626564247
 20
11.9659042126
 30
0.0
 10
7.8627463696
 20
11.9650597641
 30
0.0
 10
7.8627053324
 20
11.9643366931
 30
0.0
 10
7.8625276227
 20
11.9637337624
 30
0.0
 10
7.8623045655
 20
11.9634101682
 30
0.0
 10
7.8621758668
 20
11.9632814562
 30
0.0
  0
SPLINE
  5
536
100
AcDbEntity
  8
0
100
AcDbSpline
 62
9
  6
CONTINUOUS
 70
0
 71
3
 72
18
 73
14
 74
0
 42
0.0000001
 43
0.0000001
 44
0.0000000001
 40
0.0
 40
0.0
 40
0.0
 40
0.0
 40
0.019228855
 40
0.046095831
 40
0.0798661725
 40
0.1195847179
 40
0.1641357587
 40
0.2121707864
 40
0.3205371937
 40
0.45505845
 40
0.6164448815
 40
0.800746036
 40
1.0
 40
1.0
 40
1.0
 40
1.0
 10
7.8238603598
 20
12.0341791113
 30
0.0
 10
7.8238403123
 20
12.0341064756
 30
0.0
 10
7.823765045
 20
12.0339406825
 30
0.0
 10
7.8236068851
 20
12.0336708346
 30
0.0
 10
7.8233869885
 20
12.0333443884
 30
0.0
 10
7.8231138872
 20
12.0329710429
 30
0.0
 10
7.8227963486
 20
12.0325611175
 30
0.0
 10
7.8223017179
 20
12.0319483439
 30
0.0
 10
7.8215640542
 20
12.031078928
 30
0.0
 10
7.8205121001
 20
12.0298942632
 30
0.0
 10
7.8192360269
 20
12.0285111017
 30
0.0
 10
7.8177617088
 20
12.0269661472
 30
0.0
 10
7.8167071351
 20
12.0258950807
 30
0.0
 10
7.8161550032
 20
12.0253429798
 30
0.0
  0
SPLINE
  5
537
100
AcDbEntity
  8
0
100
AcDbSpline
 62
7
  6
CONTINUOUS
 70
0
 71
3
 72
21
 73
17
 74
0
 42
0.0000001
 43
0.0000001
 44
0.0000000001
 40
0.0
 40
0.0
 40
0.0
 40
0.0
 40
0.0454621946
 40
0.0912805906
 40
0.1377936718
 40
0.185375282
 40
0.2344236469
 40
0.2853665523
 40
0.3386697734
 40
0.3948460486
 40
0.4544484557
 40
0.5180592368
 40
0.6593703398
 40
0.7379946587
 40
0.8217729814
 40
1.0
 40
1.0
 40
1.0
 40
1.0
 10
9.7770636989
 20
14.4106793938
 30
0.0
 10
9.77586723
 20
14.4118758627
 30
0.0
 10
9.7735839405
 20
14.414400706
 30
0.0
 10
9.7705391998
 20
14.4185378442
 30
0.0
 10
9.7678832546
 20
14.4230273317
 30
0.0
 10
9.7656400514
 20
14.4278694885
 30
0.0
 10
9.7638360568
 20
14.4330669132
 30
0.0
 10
9.7625074057
 20
14.4386251545
 30
0.0
 10
9.7616984402
 20
14.4445506487
 30
0.0
 10
9.7614620838
 20
14.4508492287
 30
0.0
 10
9.7618644749
 20
14.4575248341
 30
0.0
 10
9.7634075462
 20
14.4672613222
 30
0.0
 10
9.7666206529
 20
14.4773953267
 30
0.0
 10
9.7715057605
 20
14.4876038024
 30
0.0
 10
9.7780601456
 20
14.4984737356
 30
0.0
 10
9.7843195605
 20
14.5060580391
 30
0.0
 10
9.789010119
 20
14.5107485976
 30
0.0
  0
SPLINE
  5
538
100
AcDbEntity
  8
0
100
AcDbSpline
 62
7
  6
CONTINUOUS
 70
0
 71
3
 72
21
 73
17
 74
0
 42
0.0000001
 43
0.0000001
 44
0.0000000001
 40
0.0
 40
0.0
 40
0.0
 40
0.0
 40
0.1782281523
 40
0.2620067723
 40
0.3406312391
 40
0.4819417773
 40
0.5455523504
 40
0.6051546057
 40
0.6613307224
 40
0.7146338363
 40
0.7655766674
 40
0.8146249843
 40
0.8622065046
 40
0.9087194528
 40
0.9545377962
 40
1.0
 40
1.0
 40
1.0
 40
1.0
 10
9.8771329027
 20
14.422625814
 30
0.0
 10
9.8724423144
 20
14.4179352257
 30
0.0
 10
9.8648579627
 20
14.4116757834
 30
0.0
 10
9.8539879708
 20
14.4051213819
 30
0.0
 10
9.8437794895
 20
14.4002362963
 30
0.0
 10
9.8336455039
 20
14.3970232105
 30
0.0
 10
9.8239090475
 20
14.3954801577
 30
0.0
 10
9.8172334607
 20
14.3950777837
 30
0.0
 10
9.8109348969
 20
14.3953141415
 30
0.0
 10
9.8050094148
 20
14.3961231055
 30
0.0
 10
9.7994511857
 20
14.3974517687
 30
0.0
 10
9.7942537648
 20
14.3992557505
 30
0.0
 10
9.7894116248
 20
14.4014989659
 30
0.0
 10
9.7849221416
 20
14.4041548973
 30
0.0
 10
9.7807850106
 20
14.4071996371
 30
0.0
 10
9.7782601681
 20
14.4094829247
 30
0.0
 10
9.7770636989
 20
14.4106793938
 30
0.0
  0
SPLINE
  5
539
100
AcDbEntity
  8
0
100
AcDbSpline
 62
9
  6
CONTINUOUS
 70
0
 71
3
 72
27
 73
23
 74
0
 42
0.0000001
 43
0.0000001
 44
0.0000000001
 40
0.0
 40
0.0
 40
0.0
 40
0.0
 40
0.0072841153
 40
0.0152023319
 40
0.0242720905
 40
0.0348361299
 40
0.0471050235
 40
0.0611998599
 40
0.0771899623
 40
0.0951110951
 40
0.1149727248
 40
0.1367707225
 40
0.1860900054
 40
0.2428216717
 40
0.306593545
 40
0.3769420579
 40
0.4533239123
 40
0.5351229767
 40
0.6216640843
 40
0.7122168901
 40
0.8059992115
 40
1.0
 40
1.0
 40
1.0
 40
1.0
 10
7.76312224
 20
12.0646674143
 30
0.0
 10
7.7632379154
 20
12.0647831029
 30
0.0
 10
7.7635205422
 20
12.0649860681
 30
0.0
 10
7.7640425115
 20
12.0651628104
 30
0.0
 10
7.7646621997
 20
12.0652243402
 30
0.0
 10
7.7653794157
 20
12.0651751984
 30
0.0
 10
7.7661951502
 20
12.0650170657
 30
0.0
 10
7.7671093521
 20
12.0647505235
 30
0.0
 10
7.7681210683
 20
12.0643757267
 30
0.0
 10
7.7692286782
 20
12.0638930162
 30
0.0
 10
7.7704302844
 20
12.0633032369
 30
0.0
 10
7.7722298379
 20
12.0623344804
 30
0.0
 10
7.7746907505
 20
12.0608517916
 30
0.0
 10
7.7778656652
 20
12.0587364793
 30
0.0
 10
7.7813462826
 20
12.056233317
 30
0.0
 10
7.7851032749
 20
12.0533623661
 30
0.0
 10
7.7891046214
 20
12.0501470294
 30
0.0
 10
7.7933159089
 20
12.0466144338
 30
0.0
 10
7.7977004765
 20
12.0427948331
 30
0.0
 10
7.8022196735
 20
12.0387213919
 30
0.0
 10
7.8084421709
 20
12.0329344262
 30
0.0
 10
7.8130746084
 20
12.0284251645
 30
0.0
 10
7.816154721
 20
12.025343264
 30
0.0
  0
SPLINE
  5
53A
100
AcDbEntity
  8
0
100
AcDbSpline
 62
9
  6
CONTINUOUS
 70
0
 71
3
 72
24
 73
20
 74
0
 42
0.0000001
 43
0.0000001
 44
0.0000000001
 40
0.0
 40
0.0
 40
0.0
 40
0.0
 40
0.058602875
 40
0.1177509226
 40
0.2377103768
 40
0.2985489969
 40
0.3599585793
 40
0.4219344978
 40
0.4844622238
 40
0.5475147241
 40
0.6110593073
 40
0.6430053409
 40
0.6750595073
 40
0.7072156941
 40
0.7394676021
 40
0.804226951
 40
0.8692778365
 40
0.9345576406
 40
1.0
 40
1.0
 40
1.0
 40
1.0
 10
14.1244443944
 20
3.007920295
 30
0.0
 10
14.0866360369
 20
3.0306498656
 30
0.0
 10
14.0100694253
 20
3.0753363953
 30
0.0
 10
13.8531468723
 20
3.1613645812
 30
0.0
 10
13.6911715352
 20
3.2415639307
 30
0.0
 10
13.5243774073
 20
3.3152564898
 30
0.0
 10
13.3958747659
 20
3.3674607351
 30
0.0
 10
13.2646232702
 20
3.4160974951
 30
0.0
 10
13.1307212442
 20
3.4609409159
 30
0.0
 10
12.9943222469
 20
3.501815987
 30
0.0
 10
12.8789314992
 20
3.532379808
 30
0.0
 10
12.7855431854
 20
3.554688293
 30
0.0
 10
12.7148697325
 20
3.5703468942
 30
0.0
 10
12.6437221453
 20
3.584884518
 30
0.0
 10
12.5481439322
 20
3.6027711923
 30
0.0
 10
12.4276870729
 20
3.622239673
 30
0.0
 10
12.2819949211
 20
3.6409158377
 30
0.0
 10
12.1352620516
 20
3.654896735
 30
0.0
 10
12.0370318801
 20
3.661071569
 30
0.0
 10
11.9878226202
 20
3.6633776504
 30
0.0
  0
SPLINE
  5
53B
100
AcDbEntity
  8
0
100
AcDbSpline
 62
9
  6
CONTINUOUS
 70
0
 71
3
 72
24
 73
20
 74
0
 42
0.0000001
 43
0.0000001
 44
0.0000000001
 40
0.0
 40
0.0
 40
0.0
 40
0.0
 40
0.0586031063
 40
0.1177514912
 40
0.177454889
 40
0.2377237404
 40
0.2985626193
 40
0.359972569
 40
0.3908915097
 40
0.4219507474
 40
0.4844787651
 40
0.5475316185
 40
0.6110765312
 40
0.6430227132
 40
0.6750770197
 40
0.7394832515
 40
0.8042428823
 40
0.8692941087
 40
1.0
 40
1.0
 40
1.0
 40
1.0
 10
14.1244451787
 20
4.8388806409
 30
0.0
 10
14.0866369814
 20
4.8161508708
 30
0.0
 10
14.0100706206
 20
4.7714659672
 30
0.0
 10
13.8929214931
 20
4.707242635
 30
0.0
 10
13.7729226467
 20
4.6457120494
 30
0.0
 10
13.6500698635
 20
4.5870769611
 30
0.0
 10
13.5243769302
 20
4.5315453959
 30
0.0
 10
13.4175374425
 20
4.4881409813
 30
0.0
 10
13.3306945718
 20
4.4551841311
 30
0.0
 10
13.2425529474
 20
4.4233099521
 30
0.0
 10
13.1307204126
 20
4.3858622811
 30
0.0
 10
12.9943227494
 20
4.3449845146
 30
0.0
 10
12.8789320946
 20
4.3144197127
 30
0.0
 10
12.7855432406
 20
4.2921127791
 30
0.0
 10
12.6911669213
 20
4.2712047761
 30
0.0
 10
12.5720416629
 20
4.2478913608
 30
0.0
 10
12.4276865799
 20
4.2245572923
 30
0.0
 10
12.2331445423
 20
4.1996260395
 30
0.0
 10
12.0861062243
 20
4.188028151
 30
0.0
 10
11.9878226088
 20
4.1834229403
 30
0.0
  0
SPLINE
  5
53C
100
AcDbEntity
  8
0
100
AcDbSpline
 62
9
  6
CONTINUOUS
 70
0
 71
3
 72
19
 73
15
 74
0
 42
0.0000001
 43
0.0000001
 44
0.0000000001
 40
0.0
 40
0.0
 40
0.0
 40
0.0
 40
0.2232264625
 40
0.4179964185
 40
0.5838824047
 40
0.7206907513
 40
0.7782511066
 40
0.8286526813
 40
0.8720061191
 40
0.9085134735
 40
0.9385423608
 40
0.9627669176
 40
0.9824766402
 40
1.0
 40
1.0
 40
1.0
 40
1.0
 10
8.5081727909
 20
11.333325194
 30
0.0
 10
8.5084679644
 20
11.3330303372
 30
0.0
 10
8.5090158579
 20
11.3324733363
 30
0.0
 10
8.5097623231
 20
11.3316770772
 30
0.0
 10
8.5103759786
 20
11.3309783535
 30
0.0
 10
8.5107973051
 20
11.3304525797
 30
0.0
 10
8.5110634345
 20
11.3300803278
 30
0.0
 10
8.5112173548
 20
11.3298429235
 30
0.0
 10
8.5113375154
 20
11.3296309603
 30
0.0
 10
8.5114240577
 20
11.3294443593
 30
0.0
 10
8.5114772243
 20
11.3292826885
 30
0.0
 10
8.5114970224
 20
11.3291448515
 30
0.0
 10
8.5114816066
 20
11.3290287419
 30
0.0
 10
8.5114435695
 20
11.3289672982
 30
0.0
 10
8.5114204648
 20
11.3289440854
 30
0.0
  0
SPLINE
  5
53D
100
AcDbEntity
  8
0
100
AcDbSpline
 62
9
  6
CONTINUOUS
 70
0
 71
3
 72
20
 73
16
 74
0
 42
0.0000001
 43
0.0000001
 44
0.0000000001
 40
0.0
 40
0.0
 40
0.0
 40
0.0
 40
0.1206953278
 40
0.2417556677
 40
0.3633622836
 40
0.4858173283
 40
0.6096232199
 40
0.672364016
 40
0.7358613631
 40
0.8003288233
 40
0.8659432527
 40
0.8992201688
 40
0.9327307241
 40
0.9663781105
 40
1.0
 40
1.0
 40
1.0
 40
1.0
 10
14.1971573001
 20
2.9697504949
 30
0.0
 10
14.1969301132
 20
2.9712675777
 30
0.0
 10
14.1963778937
 20
2.9742928877
 30
0.0
 10
14.1952312925
 20
2.9787706792
 30
0.0
 10
14.1937198955
 20
2.9831647869
 30
0.0
 10
14.1917737476
 20
2.9874249401
 30
0.0
 10
14.1897008574
 20
2.990779941
 30
0.0
 10
14.1876893454
 20
2.9932462777
 30
0.0
 10
14.1859587487
 20
2.9949518905
 30
0.0
 10
14.1839814098
 20
2.9964310261
 30
0.0
 10
14.1821151939
 20
2.9973745252
 30
0.0
 10
14.1805074479
 20
2.9978824286
 30
0.0
 10
14.1792500705
 20
2.9981211015
 30
0.0
 10
14.1779683073
 20
2.9982000299
 30
0.0
 10
14.1771125023
 20
2.9981435883
 30
0.0
 10
14.1766886999
 20
2.9980888434
 30
0.0
  0
LINE
  5
53E
100
AcDbEntity
  8
0
100
AcDbLine
 62
9
  6
CONTINUOUS
 10
14.1766886999
 20
2.9980888434
 11
14.1766886072
 21
4.8487118318
  0
SPLINE
  5
53F
100
AcDbEntity
  8
0
100
AcDbSpline
 62
9
  6
CONTINUOUS
 70
0
 71
3
 72
18
 73
14
 74
0
 42
0.0000001
 43
0.0000001
 44
0.0000000001
 40
0.0
 40
0.0
 40
0.0
 40
0.0
 40
0.1207308293
 40
0.2418216258
 40
0.3634576808
 40
0.4859428619
 40
0.6097791017
 40
0.6725352524
 40
0.7360481872
 40
0.8005313529
 40
0.8661620623
 40
0.932849026
 40
1.0
 40
1.0
 40
1.0
 40
1.0
 10
14.1971572104
 20
4.8770507919
 30
0.0
 10
14.1969300403
 20
4.8755336216
 30
0.0
 10
14.1963780044
 20
4.872508173
 30
0.0
 10
14.1952313512
 20
4.8680302774
 30
0.0
 10
14.1937199206
 20
4.8636361492
 30
0.0
 10
14.1917737753
 20
4.8593759651
 30
0.0
 10
14.1897008911
 20
4.8560209458
 30
0.0
 10
14.1876893191
 20
4.8535545953
 30
0.0
 10
14.1859588519
 20
4.8518489831
 30
0.0
 10
14.1839809597
 20
4.8503698102
 30
0.0
 10
14.1817352667
 20
4.8492335996
 30
0.0
 10
14.1792576043
 20
4.8485985312
 30
0.0
 10
14.1775348419
 20
4.848602538
 30
0.0
 10
14.1766886072
 20
4.8487118318
 30
0.0
  0
LINE
  5
540
100
AcDbEntity
  8
0
100
AcDbLine
 62
9
  6
CONTINUOUS
 10
14.1971572104
 20
4.8770507919
 11
14.1971573001
 21
2.9697504949
  0
LINE
  5
541
100
AcDbEntity
  8
0
100
AcDbLine
 62
9
  6
CONTINUOUS
 10
14.1766887598
 20
4.8685955762
 11
14.176626381
 21
4.8704804701
  0
LINE
  5
542
100
AcDbEntity
  8
0
100
AcDbLine
 62
9
  6
CONTINUOUS
 10
14.1766257216
 20
2.9763072004
 11
14.1766887203
 21
2.9782053128
  0
SPLINE
  5
543
100
AcDbEntity
  8
0
100
AcDbSpline
 62
9
  6
CONTINUOUS
 70
0
 71
3
 72
13
 73
9
 74
0
 42
0.0000001
 43
0.0000001
 44
0.0000000001
 40
0.0
 40
0.0
 40
0.0
 40
0.0
 40
0.2887700791
 40
0.5495242458
 40
0.670228259
 40
0.7850656336
 40
0.8947340323
 40
1.0
 40
1.0
 40
1.0
 40
1.0
 10
14.2226087157
 20
2.9473930226
 30
0.0
 10
14.2195352793
 20
2.9486861809
 30
0.0
 10
14.2138512482
 20
2.9515710185
 30
0.0
 10
14.2075813076
 20
2.9561803831
 30
0.0
 10
14.2034883145
 20
2.960202896
 30
0.0
 10
14.2009286849
 20
2.9632677974
 30
0.0
 10
14.1988026738
 20
2.9664352358
 30
0.0
 10
14.1976533293
 20
2.9686420886
 30
0.0
 10
14.1971567765
 20
2.9697515352
 30
0.0
  0
SPLINE
  5
544
100
AcDbEntity
  8
0
100
AcDbSpline
 62
9
  6
CONTINUOUS
 70
0
 71
3
 72
11
 73
7
 74
0
 42
0.0000001
 43
0.0000001
 44
0.0000000001
 40
0.0
 40
0.0
 40
0.0
 40
0.0
 40
0.2819531184
 40
0.5416142523
 40
0.7801333916
 40
1.0
 40
1.0
 40
1.0
 40
1.0
 10
14.2226089412
 20
4.899409033
 30
0.0
 10
14.2200769542
 20
4.89834471
 30
0.0
 10
14.2153281923
 20
4.8960078192
 30
0.0
 10
14.2089896314
 20
4.8917729063
 30
0.0
 10
14.203775903
 20
4.8870720494
 30
0.0
 10
14.2009619184
 20
4.8835728608
 30
0.0
 10
14.1997774512
 20
4.8817884061
 30
0.0
  0
LINE
  5
545
100
AcDbEntity
  8
0
100
AcDbLine
 62
9
  6
CONTINUOUS
 10
14.1995315653
 20
4.8814127626
 11
14.1971574711
 21
4.8770520083
  0
LINE
  5
546
100
AcDbEntity
  8
0
100
AcDbLine
 62
9
  6
CONTINUOUS
 10
8.5531431399
 20
11.2883548451
 11
8.5536128541
 21
11.2877237107
  0
SPLINE
  5
547
100
AcDbEntity
  8
0
100
AcDbSpline
 62
9
  6
CONTINUOUS
 70
0
 71
3
 72
16
 73
12
 74
0
 42
0.0000001
 43
0.0000001
 44
0.0000000001
 40
0.0
 40
0.0
 40
0.0
 40
0.0
 40
0.1313660918
 40
0.2552895073
 40
0.3702909873
 40
0.4804074225
 40
0.5985042254
 40
0.7254231205
 40
0.8598965276
 40
0.9294100457
 40
1.0
 40
1.0
 40
1.0
 40
1.0
 10
8.5685373039
 20
11.2895021512
 30
0.0
 10
8.5679493481
 20
11.2899458683
 30
0.0
 10
8.5667210914
 20
11.2907012313
 30
0.0
 10
8.5647713755
 20
11.291445517
 30
0.0
 10
8.5628414653
 20
11.2918217739
 30
0.0
 10
8.5609099477
 20
11.2918799799
 30
0.0
 10
8.5589268631
 20
11.2916144227
 30
0.0
 10
8.5568877605
 20
11.2909675389
 30
0.0
 10
8.5552431259
 20
11.2900823429
 30
0.0
 10
8.5540029726
 20
11.2891667621
 30
0.0
 10
8.5534197059
 20
11.2886380414
 30
0.0
 10
8.5531399374
 20
11.2883580456
 30
0.0
  0
SPLINE
  5
548
100
AcDbEntity
  8
0
100
AcDbSpline
 62
9
  6
CONTINUOUS
 70
0
 71
3
 72
17
 73
13
 74
0
 42
0.0000001
 43
0.0000001
 44
0.0000000001
 40
0.0
 40
0.0
 40
0.0
 40
0.0
 40
0.0406512241
 40
0.0823615838
 40
0.1720142008
 40
0.2214861459
 40
0.2745362101
 40
0.392019925
 40
0.5249239276
 40
0.6720976968
 40
0.8313982466
 40
1.0
 40
1.0
 40
1.0
 40
1.0
 10
14.1244446772
 20
2.9908513785
 30
0.0
 10
14.1242334481
 20
2.9909803941
 30
0.0
 10
14.1238281475
 20
2.9912809934
 30
0.0
 10
14.123104162
 20
2.9920438185
 30
0.0
 10
14.1225570294
 20
2.9930206758
 30
0.0
 10
14.1221827583
 20
2.9941304962
 30
0.0
 10
14.1218959236
 20
2.9954417355
 30
0.0
 10
14.1217703044
 20
2.9972947343
 30
0.0
 10
14.1219570729
 20
2.9997142251
 30
0.0
 10
14.1224712525
 20
3.0023448337
 30
0.0
 10
14.1232997331
 20
3.0051201325
 30
0.0
 10
14.1240321541
 20
3.0069802064
 30
0.0
 10
14.1244444195
 20
3.0079203521
 30
0.0
  0
SPLINE
  5
549
100
AcDbEntity
  8
0
100
AcDbSpline
 62
9
  6
CONTINUOUS
 70
0
 71
3
 72
17
 73
13
 74
0
 42
0.0000001
 43
0.0000001
 44
0.0000000001
 40
0.0
 40
0.0
 40
0.0
 40
0.0
 40
0.0416874149
 40
0.0843625167
 40
0.1754990949
 40
0.2254195672
 40
0.2787278942
 40
0.3961803311
 40
0.5284569234
 40
0.6745814407
 40
0.8326518294
 40
1.0
 40
1.0
 40
1.0
 40
1.0
 10
14.2226090134
 20
2.9305444583
 30
0.0
 10
14.2223978034
 20
2.9306795557
 30
0.0
 10
14.2219931393
 20
2.9309904364
 30
0.0
 10
14.2212712165
 20
2.9317659393
 30
0.0
 10
14.2207235985
 20
2.9327460896
 30
0.0
 10
14.2203485426
 20
2.9338545503
 30
0.0
 10
14.2200624542
 20
2.9351532792
 30
0.0
 10
14.2199360699
 20
2.9369812163
 30
0.0
 10
14.2201223569
 20
2.9393609524
 30
0.0
 10
14.2206359013
 20
2.9419406741
 30
0.0
 10
14.2214642619
 20
2.9446570213
 30
0.0
 10
14.2221966634
 20
2.9464748324
 30
0.0
 10
14.2226088906
 20
2.9473930245
 30
0.0
  0
SPLINE
  5
54A
100
AcDbEntity
  8
0
100
AcDbSpline
 62
9
  6
CONTINUOUS
 70
0
 71
3
 72
11
 73
7
 74
0
 42
0.0000001
 43
0.0000001
 44
0.0000000001
 40
0.0
 40
0.0
 40
0.0
 40
0.0
 40
0.2435253695
 40
0.4897980157
 40
0.7412628097
 40
1.0
 40
1.0
 40
1.0
 40
1.0
 10
14.1971573533
 20
2.9640631371
 30
0.0
 10
14.1970244437
 20
2.9645111998
 30
0.0
 10
14.1968232104
 20
2.9654334443
 30
0.0
 10
14.196723942
 20
2.9668572545
 30
0.0
 10
14.196827303
 20
2.9683098093
 30
0.0
 10
14.1970267351
 20
2.9692716852
 30
0.0
 10
14.1971572569
 20
2.9697507774
 30
0.0
  0
SPLINE
  5
54B
100
AcDbEntity
  8
0
100
AcDbSpline
 62
7
  6
CONTINUOUS
 70
0
 71
3
 72
17
 73
13
 74
0
 42
0.0000001
 43
0.0000001
 44
0.0000000001
 40
0.0
 40
0.0
 40
0.0
 40
0.0
 40
0.1791802554
 40
0.349581834
 40
0.506851817
 40
0.647084285
 40
0.76711243
 40
0.8189518788
 40
0.865208029
 40
0.9060003007
 40
0.9416586877
 40
1.0
 40
1.0
 40
1.0
 40
1.0
 10
14.457016546
 20
2.7903534992
 30
0.0
 10
14.456779886
 20
2.789377038
 30
0.0
 10
14.4563580611
 20
2.787461936
 30
0.0
 10
14.4558780751
 20
2.7846595056
 30
0.0
 10
14.4555775396
 20
2.7820513447
 30
0.0
 10
14.4554667208
 20
2.7797108295
 30
0.0
 10
14.4555366234
 20
2.7779583481
 30
0.0
 10
14.4557052728
 20
2.7767458434
 30
0.0
 10
14.4558727942
 20
2.7759845283
 30
0.0
 10
14.4560870066
 20
2.7753283105
 30
0.0
 10
14.4564086671
 20
2.7746452281
 30
0.0
 10
14.4567496375
 20
2.7742167004
 30
0.0
 10
14.4570165542
 20
2.7740275518
 30
0.0
  0
SPLINE
  5
54C
100
AcDbEntity
  8
0
100
AcDbSpline
 62
9
  6
CONTINUOUS
 70
0
 71
3
 72
17
 73
13
 74
0
 42
0.0000001
 43
0.0000001
 44
0.0000000001
 40
0.0
 40
0.0
 40
0.0
 40
0.0
 40
0.1686060234
 40
0.3279099702
 40
0.4750860149
 40
0.6079909285
 40
0.7254740226
 40
0.778523172
 40
0.8279938025
 40
0.9176427636
 40
0.9593509928
 40
1.0
 40
1.0
 40
1.0
 40
1.0
 10
14.1244452267
 20
4.8388805313
 30
0.0
 10
14.1240329532
 20
4.8398206282
 30
0.0
 10
14.1233005092
 20
4.8416806016
 30
0.0
 10
14.1224719674
 20
4.8444557462
 30
0.0
 10
14.1219577048
 20
4.8470861994
 30
0.0
 10
14.1217708334
 20
4.8495055374
 30
0.0
 10
14.1218963485
 20
4.8513584168
 30
0.0
 10
14.1221830939
 20
4.8526695677
 30
0.0
 10
14.1225572745
 20
4.8537792993
 30
0.0
 10
14.1231043089
 20
4.8547560794
 30
0.0
 10
14.1238281963
 20
4.8555188361
 30
0.0
 10
14.1242334466
 20
4.8558194036
 30
0.0
 10
14.1244446503
 20
4.8559484037
 30
0.0
  0
SPLINE
  5
54D
100
AcDbEntity
  8
0
100
AcDbSpline
 62
9
  6
CONTINUOUS
 70
0
 71
3
 72
17
 73
13
 74
0
 42
0.0000001
 43
0.0000001
 44
0.0000000001
 40
0.0
 40
0.0
 40
0.0
 40
0.0
 40
0.1673486231
 40
0.3254193808
 40
0.4715441963
 40
0.6038209085
 40
0.7212732861
 40
0.7745815087
 40
0.8245018194
 40
0.9156379798
 40
0.9583128451
 40
1.0
 40
1.0
 40
1.0
 40
1.0
 10
14.2226090238
 20
4.8994090713
 30
0.0
 10
14.2221967936
 20
4.9003272524
 30
0.0
 10
14.2214643847
 20
4.9021450415
 30
0.0
 10
14.2206360086
 20
4.9048613568
 30
0.0
 10
14.2201224445
 20
4.9074410484
 30
0.0
 10
14.219936135
 20
4.9098207573
 30
0.0
 10
14.2200624978
 20
4.9116486744
 30
0.0
 10
14.220348568
 20
4.9129473897
 30
0.0
 10
14.2207236063
 20
4.9140558378
 30
0.0
 10
14.221271206
 20
4.915035978
 30
0.0
 10
14.2219931109
 20
4.9158114735
 30
0.0
 10
14.2223977662
 20
4.9161223513
 30
0.0
 10
14.2226089718
 20
4.9162574473
 30
0.0
  0
SPLINE
  5
54E
100
AcDbEntity
  8
0
100
AcDbSpline
 62
9
  6
CONTINUOUS
 70
0
 71
3
 72
11
 73
7
 74
0
 42
0.0000001
 43
0.0000001
 44
0.0000000001
 40
0.0
 40
0.0
 40
0.0
 40
0.0
 40
0.2587380144
 40
0.5102031105
 40
0.7564753348
 40
1.0
 40
1.0
 40
1.0
 40
1.0
 10
14.1971571838
 20
4.8770506176
 30
0.0
 10
14.197026648
 20
4.8775297165
 30
0.0
 10
14.1968271888
 20
4.8784916065
 30
0.0
 10
14.196723792
 20
4.8799441855
 30
0.0
 10
14.1968230307
 20
4.8813680212
 30
0.0
 10
14.1970242488
 20
4.8822902836
 30
0.0
 10
14.1971571519
 20
4.8827383553
 30
0.0
  0
LINE
  5
54F
100
AcDbEntity
  8
0
100
AcDbLine
 62
7
  6
CONTINUOUS
 10
14.4570168053
 20
5.0727735224
 11
14.4562769796
 21
5.0718609156
  0
SPLINE
  5
550
100
AcDbEntity
  8
0
100
AcDbSpline
 62
7
  6
CONTINUOUS
 70
0
 71
3
 72
15
 73
11
 74
0
 42
0.0000001
 43
0.0000001
 44
0.0000000001
 40
0.0
 40
0.0
 40
0.0
 40
0.0
 40
0.0719250094
 40
0.1609417244
 40
0.2673018399
 40
0.3900113714
 40
0.5272204926
 40
0.6764664003
 40
0.8350655772
 40
1.0
 40
1.0
 40
1.0
 40
1.0
 10
14.4562769796
 20
5.0718609156
 30
0.0
 10
14.4561057386
 20
5.0715272732
 30
0.0
 10
14.4558271693
 20
5.0707278295
 30
0.0
 10
14.4555847564
 20
5.0693524384
 30
0.0
 10
14.4554792937
 20
5.0676944754
 30
0.0
 10
14.4555150962
 20
5.0657834961
 30
0.0
 10
14.4556916875
 20
5.0636561989
 30
0.0
 10
14.4560048408
 20
5.0613559878
 30
0.0
 10
14.4564465174
 20
5.0589300734
 30
0.0
 10
14.4568142201
 20
5.0572832281
 30
0.0
 10
14.4570167761
 20
5.056447446
 30
0.0
  0
SPLINE
  5
551
100
AcDbEntity
  8
0
100
AcDbSpline
 62
9
  6
CONTINUOUS
 70
0
 71
3
 72
25
 73
21
 74
0
 42
0.0000001
 43
0.0000001
 44
0.0000000001
 40
0.0
 40
0.0
 40
0.0
 40
0.0
 40
0.0077503005
 40
0.0159676122
 40
0.0251262
 40
0.0355680962
 40
0.0475210806
 40
0.0611327301
 40
0.0764933903
 40
0.0936574141
 40
0.1334996371
 40
0.1807397604
 40
0.2352864164
 40
0.2969351157
 40
0.365405842
 40
0.4403499693
 40
0.5213619485
 40
0.6079889368
 40
0.7960181494
 40
1.0
 40
1.0
 40
1.0
 40
1.0
 10
7.6119684544
 20
12.2193761578
 30
0.0
 10
7.6120600443
 20
12.2194673746
 30
0.0
 10
7.6122765255
 20
12.2196293053
 30
0.0
 10
7.6126705784
 20
12.2197834423
 30
0.0
 10
7.6131321897
 20
12.2198537498
 30
0.0
 10
7.613660245
 20
12.2198432725
 30
0.0
 10
7.6142553263
 20
12.2197535113
 30
0.0
 10
7.6149176141
 20
12.2195848109
 30
0.0
 10
7.6156469096
 20
12.219337472
 30
0.0
 10
7.6167642926
 20
12.218879538
 30
0.0
 10
7.6183193236
 20
12.2180965524
 30
0.0
 10
7.6203539157
 20
12.2168943508
 30
0.0
 10
7.6226288829
 20
12.215391008
 30
0.0
 10
7.6251313151
 20
12.2135944507
 30
0.0
 10
7.6278465821
 20
12.211514057
 30
0.0
 10
7.6307585578
 20
12.2091616256
 30
0.0
 10
7.6338498311
 20
12.206550881
 30
0.0
 10
7.6383084286
 20
12.2026376361
 30
0.0
 10
7.6441731438
 20
12.1972195698
 30
0.0
 10
7.6488499865
 20
12.1926494768
 30
0.0
 10
7.6512549168
 20
12.1902430682
 30
0.0
  0
SPLINE
  5
552
100
AcDbEntity
  8
0
100
AcDbSpline
 62
9
  6
CONTINUOUS
 70
0
 71
3
 72
12
 73
8
 74
0
 42
0.0000001
 43
0.0000001
 44
0.0000000001
 40
0.0
 40
0.0
 40
0.0
 40
0.0
 40
0.1301333346
 40
0.2601606403
 40
0.5166951741
 40
0.764474259
 40
1.0
 40
1.0
 40
1.0
 40
1.0
 10
14.1766886401
 20
2.9980888616
 30
0.0
 10
14.1743641867
 20
2.9979711265
 30
0.0
 10
14.1697086581
 20
2.9978775348
 30
0.0
 10
14.1604706258
 20
2.9982417843
 30
0.0
 10
14.1491898781
 20
2.9997091612
 30
0.0
 10
14.1363396888
 20
3.0029886985
 30
0.0
 10
14.1282631084
 20
3.0061412615
 30
0.0
 10
14.1244448707
 20
3.0079203528
 30
0.0
  0
SPLINE
  5
553
100
AcDbEntity
  8
0
100
AcDbSpline
 62
9
  6
CONTINUOUS
 70
0
 71
3
 72
12
 73
8
 74
0
 42
0.0000001
 43
0.0000001
 44
0.0000000001
 40
0.0
 40
0.0
 40
0.0
 40
0.0
 40
0.1301338507
 40
0.2601615787
 40
0.5166953533
 40
0.7644738763
 40
1.0
 40
1.0
 40
1.0
 40
1.0
 10
14.176688727
 20
4.8487114253
 30
0.0
 10
14.1743642228
 20
4.8488289796
 30
0.0
 10
14.1697086186
 20
4.8489227278
 30
0.0
 10
14.1604704743
 20
4.8485580232
 30
0.0
 10
14.1491895139
 20
4.8470910542
 30
0.0
 10
14.1363394102
 20
4.843810677
 30
0.0
 10
14.128262361
 20
4.8406589447
 30
0.0
 10
14.1244442088
 20
4.8388795153
 30
0.0
  0
SPLINE
  5
554
100
AcDbEntity
  8
0
100
AcDbSpline
 62
9
  6
CONTINUOUS
 70
0
 71
3
 72
24
 73
20
 74
0
 42
0.0000001
 43
0.0000001
 44
0.0000000001
 40
0.0
 40
0.0
 40
0.0
 40
0.0
 40
0.0034334665
 40
0.0056590088
 40
0.0083344361
 40
0.0151913295
 40
0.0241952421
 40
0.0354067737
 40
0.048837027
 40
0.0644788344
 40
0.0823140482
 40
0.1244150774
 40
0.1747945547
 40
0.2329998001
 40
0.2985025805
 40
0.4488829863
 40
0.6203200107
 40
0.8063535243
 40
1.0
 40
1.0
 40
1.0
 40
1.0
 10
14.1766887208
 20
2.9782055416
 30
0.0
 10
14.1767114251
 20
2.9782083282
 30
0.0
 10
14.1767462635
 20
2.9782296253
 30
0.0
 10
14.1767817383
 20
2.9782720557
 30
0.0
 10
14.1768230146
 20
2.9783390742
 30
0.0
 10
14.1768694708
 20
2.9784540677
 30
0.0
 10
14.1769189299
 20
2.9786276546
 30
0.0
 10
14.1769650309
 20
2.9788471722
 30
0.0
 10
14.1770077849
 20
2.9791121826
 30
0.0
 10
14.1770469041
 20
2.979422284
 30
0.0
 10
14.1770967777
 20
2.9799233706
 30
0.0
 10
14.1771463359
 20
2.9806568139
 30
0.0
 10
14.1771873953
 20
2.9816599486
 30
0.0
 10
14.1772119654
 20
2.9828195689
 30
0.0
 10
14.1772226259
 20
2.9846456394
 30
0.0
 10
14.1771885099
 20
2.987226065
 30
0.0
 10
14.1770845516
 20
2.9906080254
 30
0.0
 10
14.1769185268
 20
2.9942760714
 30
0.0
 10
14.1767715724
 20
2.9968014057
 30
0.0
 10
14.1766886408
 20
2.9980888616
 30
0.0
  0
SPLINE
  5
555
100
AcDbEntity
  8
0
100
AcDbSpline
 62
9
  6
CONTINUOUS
 70
0
 71
3
 72
24
 73
20
 74
0
 42
0.0000001
 43
0.0000001
 44
0.0000000001
 40
0.0
 40
0.0
 40
0.0
 40
0.0
 40
0.1936466984
 40
0.3796802781
 40
0.5511172582
 40
0.7014975341
 40
0.7670002304
 40
0.8252053819
 40
0.8755847694
 40
0.9176857111
 40
0.9355208913
 40
0.9511626704
 40
0.9645929012
 40
0.9758044244
 40
0.9848083505
 40
0.9916652843
 40
0.9943407498
 40
0.9965663483
 40
1.0
 40
1.0
 40
1.0
 40
1.0
 10
14.1766886994
 20
4.8487114224
 30
0.0
 10
14.1767716307
 20
4.8499988753
 30
0.0
 10
14.176918583
 20
4.8525242029
 30
0.0
 10
14.1770845997
 20
4.8561922382
 30
0.0
 10
14.1771885471
 20
4.8595741864
 30
0.0
 10
14.1772226514
 20
4.8621546016
 30
0.0
 10
14.1772119799
 20
4.8639806637
 30
0.0
 10
14.1771874015
 20
4.865140278
 30
0.0
 10
14.1771463334
 20
4.866143407
 30
0.0
 10
14.1770967672
 20
4.8668768459
 30
0.0
 10
14.1770468869
 20
4.8673779291
 30
0.0
 10
14.177007763
 20
4.8676880282
 30
0.0
 10
14.1769650043
 20
4.8679530366
 30
0.0
 10
14.1769188985
 20
4.8681725523
 30
0.0
 10
14.1768694349
 20
4.8683461376
 30
0.0
 10
14.1768229745
 20
4.8684611297
 30
0.0
 10
14.176781695
 20
4.8685281469
 30
0.0
 10
14.1767462169
 20
4.8685705768
 30
0.0
 10
14.1767113761
 20
4.8685918726
 30
0.0
 10
14.1766886706
 20
4.8685946588
 30
0.0
  0
SPLINE
  5
556
100
AcDbEntity
  8
0
100
AcDbSpline
 62
9
  6
CONTINUOUS
 70
0
 71
3
 72
22
 73
18
 74
0
 42
0.0000001
 43
0.0000001
 44
0.0000000001
 40
0.0
 40
0.0
 40
0.0
 40
0.0
 40
0.2200238059
 40
0.4137436046
 40
0.5799492425
 40
0.652497143
 40
0.7179151062
 40
0.776172701
 40
0.8272673973
 40
0.8712551274
 40
0.8906340357
 40
0.9083072886
 40
0.9387119772
 40
0.9630934736
 40
0.9827038428
 40
0.9914557756
 40
1.0
 40
1.0
 40
1.0
 40
1.0
 10
8.4253087216
 20
11.4161892633
 30
0.0
 10
8.4260576651
 20
11.4154409146
 30
0.0
 10
8.4274530592
 20
11.4140205547
 30
0.0
 10
8.4293587889
 20
11.4119814718
 30
0.0
 10
8.4307299945
 20
11.4104152336
 30
0.0
 10
8.4316545065
 20
11.409280323
 30
0.0
 10
8.432230225
 20
11.4085317413
 30
0.0
 10
8.432719766
 20
11.4078476527
 30
0.0
 10
8.4331224889
 20
11.4072290575
 30
0.0
 10
8.4333961299
 20
11.4067504976
 30
0.0
 10
8.4335683032
 20
11.4064004331
 30
0.0
 10
8.4336972431
 20
11.4061024849
 30
0.0
 10
8.4338095451
 20
11.4057711378
 30
0.0
 10
8.433866251
 20
11.405415407
 30
0.0
 10
8.4338355647
 20
11.4051575436
 30
0.0
 10
8.4337590931
 20
11.4049956953
 30
0.0
 10
8.4337067513
 20
11.4049298768
 30
0.0
 10
8.4336776839
 20
11.4049007996
 30
0.0
  0
SPLINE
  5
557
100
AcDbEntity
  8
0
100
AcDbSpline
 62
9
  6
CONTINUOUS
 70
0
 71
3
 72
14
 73
10
 74
0
 42
0.0000001
 43
0.0000001
 44
0.0000000001
 40
0.0
 40
0.0
 40
0.0
 40
0.0
 40
0.1179267611
 40
0.2322575441
 40
0.3419556787
 40
0.4505934469
 40
0.7033767661
 40
0.8478016706
 40
1.0
 40
1.0
 40
1.0
 40
1.0
 10
8.4393692579
 20
11.4186701713
 30
0.0
 10
8.4388735502
 20
11.4190203768
 30
0.0
 10
8.4378120493
 20
11.4195969652
 30
0.0
 10
8.4361090582
 20
11.4200844752
 30
0.0
 10
8.4343947369
 20
11.4202395704
 30
0.0
 10
8.4319688305
 20
11.4200556272
 30
0.0
 10
8.4294494848
 20
11.4192165471
 30
0.0
 10
8.4270290228
 20
11.4177407754
 30
0.0
 10
8.4258598048
 20
11.4167459608
 30
0.0
 10
8.425306097
 20
11.4161918859
 30
0.0
  0
SPLINE
  5
558
100
AcDbEntity
  8
0
100
AcDbSpline
 62
9
  6
CONTINUOUS
 70
0
 71
3
 72
9
 73
5
 74
0
 42
0.0000001
 43
0.0000001
 44
0.0000000001
 40
0.0
 40
0.0
 40
0.0
 40
0.0
 40
0.2501007463
 40
1.0
 40
1.0
 40
1.0
 40
1.0
 10
11.2151975366
 20
4.4314155927
 30
0.0
 10
11.2142108291
 20
4.4314155922
 30
0.0
 10
11.2102658021
 20
4.4313209315
 30
0.0
 10
11.206332098
 20
4.4308728975
 30
0.0
 10
11.2034162058
 20
4.4303724095
 30
0.0
  0
SPLINE
  5
559
100
AcDbEntity
  8
0
100
AcDbSpline
 62
9
  6
CONTINUOUS
 70
0
 71
3
 72
23
 73
19
 74
0
 42
0.0000001
 43
0.0000001
 44
0.0000000001
 40
0.0
 40
0.0
 40
0.0
 40
0.0
 40
0.0625032756
 40
0.1250112697
 40
0.187513026
 40
0.2500147765
 40
0.312514821
 40
0.3750129353
 40
0.4375093318
 40
0.5000045468
 40
0.5624993947
 40
0.6249947474
 40
0.6874913521
 40
0.7499895612
 40
0.812489824
 40
0.8749904887
 40
0.9374971379
 40
1.0
 40
1.0
 40
1.0
 40
1.0
 10
11.9568226038
 20
4.1782357375
 30
0.0
 10
11.9484014175
 20
4.1792969163
 30
0.0
 10
11.9316081002
 20
4.1818453382
 30
0.0
 10
11.9066736055
 20
4.1870809267
 30
0.0
 10
11.8821124071
 20
4.1938698874
 30
0.0
 10
11.8580788997
 20
4.2023478323
 30
0.0
 10
11.834758333
 20
4.2126356251
 30
0.0
 10
11.8123665717
 20
4.2248209726
 30
0.0
 10
11.7911382601
 20
4.2389416503
 30
0.0
 10
11.7713083514
 20
4.2549703255
 30
0.0
 10
11.7530875878
 20
4.2728079987
 30
0.0
 10
11.7366380249
 20
4.2922898934
 30
0.0
 10
11.7220559539
 20
4.3132034281
 30
0.0
 10
11.7093667921
 20
4.3353129744
 30
0.0
 10
11.6985327824
 20
4.3583839542
 30
0.0
 10
11.6894669735
 20
4.3822020802
 30
0.0
 10
11.6820532747
 20
4.4065804141
 30
0.0
 10
11.6781234309
 20
4.423106854
 30
0.0
 10
11.6763895999
 20
4.4314156058
 30
0.0
  0
SPLINE
  5
55A
100
AcDbEntity
  8
0
100
AcDbSpline
 62
7
  6
CONTINUOUS
 70
0
 71
3
 72
19
 73
15
 74
0
 42
0.0000001
 43
0.0000001
 44
0.0000000001
 40
0.0
 40
0.0
 40
0.0
 40
0.0
 40
0.0291354409
 40
0.0606025532
 40
0.0954264706
 40
0.1343395409
 40
0.1778422028
 40
0.2262699255
 40
0.2798338517
 40
0.3386600835
 40
0.4723151948
 40
0.6273585854
 40
0.8034580754
 40
1.0
 40
1.0
 40
1.0
 40
1.0
 10
8.7319281255
 20
11.3355296845
 30
0.0
 10
8.7320502721
 20
11.335651819
 30
0.0
 10
8.7323349828
 20
11.3358764513
 30
0.0
 10
8.7328434884
 20
11.3361312095
 30
0.0
 10
8.7334420387
 20
11.3363147834
 30
0.0
 10
8.7341293198
 20
11.3364287239
 30
0.0
 10
8.7349048643
 20
11.3364740968
 30
0.0
 10
8.7357679657
 20
11.3364512622
 30
0.0
 10
8.736717694
 20
11.3363606587
 30
0.0
 10
8.7381602563
 20
11.3361400885
 30
0.0
 10
8.7401714464
 20
11.3356811823
 30
0.0
 10
8.7428126508
 20
11.3348908612
 30
0.0
 10
8.7457612717
 20
11.3338422579
 30
0.0
 10
8.7478119215
 20
11.3330188575
 30
0.0
 10
8.7488863201
 20
11.3325678491
 30
0.0
  0
SPLINE
  5
55B
100
AcDbEntity
  8
0
100
AcDbSpline
 62
9
  6
CONTINUOUS
 70
0
 71
3
 72
32
 73
28
 74
0
 42
0.0000001
 43
0.0000001
 44
0.0000000001
 40
0.0
 40
0.0
 40
0.0
 40
0.0
 40
0.0624975598
 40
0.0937515953
 40
0.1250054704
 40
0.1875011553
 40
0.2187542675
 40
0.2500066946
 40
0.3124986569
 40
0.3749869616
 40
0.4062400251
 40
0.4374925422
 40
0.4687452282
 40
0.4999977844
 40
0.5312501946
 40
0.5625027187
 40
0.5937550764
 40
0.6250076581
 40
0.6562600344
 40
0.6875127682
 40
0.7187653612
 40
0.7500180651
 40
0.8125057731
 40
0.8749966748
 40
0.9062493558
 40
0.9375041417
 40
1.0
 40
1.0
 40
1.0
 40
1.0
 10
11.6144562316
 20
3.3272095513
 30
0.0
 10
11.6157816809
 20
3.3383019005
 30
0.0
 10
11.6181538883
 20
3.354900049
 30
0.0
 10
11.6221889538
 20
3.376879494
 30
0.0
 10
11.6268404953
 20
3.3987362037
 30
0.0
 10
11.6324806499
 20
3.4203756162
 30
0.0
 10
11.6392274553
 20
3.4416807242
 30
0.0
 10
11.6467564934
 20
3.4627215774
 30
0.0
 10
11.6577144107
 20
3.4884445638
 30
0.0
 10
11.6709299284
 20
3.5130978112
 30
0.0
 10
11.682932715
 20
3.5319523092
 30
0.0
 10
11.6926634049
 20
3.5456071019
 30
0.0
 10
11.7031229543
 20
3.5587122736
 30
0.0
 10
11.7143039433
 20
3.5712083501
 30
0.0
 10
11.7261865973
 20
3.5830396788
 30
0.0
 10
11.7387427626
 20
3.5941539455
 30
0.0
 10
11.7519319796
 20
3.6045091303
 30
0.0
 10
11.7657065662
 20
3.6140715888
 30
0.0
 10
11.7800126006
 20
3.6228184903
 30
0.0
 10
11.7947906933
 20
3.6307406282
 30
0.0
 10
11.8099822548
 20
3.6378372174
 30
0.0
 10
11.8307041859
 20
3.6462135483
 30
0.0
 10
11.8573588618
 20
3.6547000666
 30
0.0
 10
11.8846616217
 20
3.6607301146
 30
0.0
 10
11.9067339887
 20
3.6642276425
 30
0.0
 10
11.9289225711
 20
3.6668927284
 30
0.0
 10
11.9456589042
 20
3.6680114941
 30
0.0
 10
11.9568226038
 20
3.6684140375
 30
0.0
  0
LINE
  5
55C
100
AcDbEntity
  8
0
100
AcDbLine
 62
9
  6
CONTINUOUS
 10
11.6141960544
 20
3.3249006519
 11
11.6144562316
 21
3.3272095513
  0
SPLINE
  5
55D
100
AcDbEntity
  8
0
100
AcDbSpline
 62
9
  6
CONTINUOUS
 70
0
 71
3
 72
28
 73
24
 74
0
 42
0.0000001
 43
0.0000001
 44
0.0000000001
 40
0.0
 40
0.0
 40
0.0
 40
0.0
 40
0.0033162795
 40
0.0067543327
 40
0.0143447679
 40
0.0233652032
 40
0.0341490514
 40
0.0468744102
 40
0.0616338173
 40
0.0784675806
 40
0.0973826128
 40
0.1183667086
 40
0.141388141
 40
0.1933624822
 40
0.2528532147
 40
0.3192728256
 40
0.3919261226
 40
0.4700242544
 40
0.5526963882
 40
0.6390007522
 40
0.7279400823
 40
0.8184663873
 40
1.0
 40
1.0
 40
1.0
 40
1.0
 10
7.9172282259
 20
11.9069418856
 30
0.0
 10
7.9172946133
 20
11.9070082871
 30
0.0
 10
7.9174428735
 20
11.9071310908
 30
0.0
 10
7.9177985098
 20
11.9073310867
 30
0.0
 10
7.918354837
 20
11.9074806595
 30
0.0
 10
7.9191342682
 20
11.9075039605
 30
0.0
 10
7.9200504209
 20
11.9073851907
 30
0.0
 10
7.9211039312
 20
11.9071252074
 30
0.0
 10
7.9222941682
 20
11.9067244509
 30
0.0
 10
7.9236187119
 20
11.906183386
 30
0.0
 10
7.9250744189
 20
11.9055030723
 30
0.0
 10
7.9266573903
 20
11.9046849296
 30
0.0
 10
7.9290295507
 20
11.9033582823
 30
0.0
 10
7.932272366
 20
11.9013592588
 30
0.0
 10
7.9364508672
 20
11.8985456455
 30
0.0
 10
7.9410120127
 20
11.8952573733
 30
0.0
 10
7.9459036268
 20
11.891530659
 30
0.0
 10
7.9510689707
 20
11.8874068634
 30
0.0
 10
7.9564473955
 20
11.8829328672
 30
0.0
 10
7.9619762042
 20
11.8781616411
 30
0.0
 10
7.9675894759
 20
11.8731495426
 30
0.0
 10
7.9751029758
 20
11.866219461
 30
0.0
 10
7.9806392698
 20
11.8608609502
 30
0.0
 10
7.9842725945
 20
11.8572253903
 30
0.0
  0
LINE
  5
55E
100
AcDbEntity
  8
0
100
AcDbLine
 62
9
  6
CONTINUOUS
 10
10.8936160609
 20
1.0394043759
 11
10.8941781203
 21
1.0424876568
  0
SPLINE
  5
55F
100
AcDbEntity
  8
0
100
AcDbSpline
 62
9
  6
CONTINUOUS
 70
0
 71
3
 72
9
 73
5
 74
0
 42
0.0000001
 43
0.0000001
 44
0.0000000001
 40
0.0
 40
0.0
 40
0.0
 40
0.0
 40
0.5000132806
 40
1.0
 40
1.0
 40
1.0
 40
1.0
 10
11.6014274952
 20
1.0148217089
 30
0.0
 10
11.6048338056
 20
1.0147112731
 30
0.0
 10
11.6116706595
 20
1.0150228964
 30
0.0
 10
11.6183948044
 20
1.0162579452
 30
0.0
 10
11.6217017263
 20
1.0170814623
 30
0.0
  0
SPLINE
  5
560
100
AcDbEntity
  8
0
100
AcDbSpline
 62
9
  6
CONTINUOUS
 70
0
 71
3
 72
11
 73
7
 74
0
 42
0.0000001
 43
0.0000001
 44
0.0000000001
 40
0.0
 40
0.0
 40
0.0
 40
0.0
 40
0.2500002398
 40
0.5000003269
 40
0.750000216
 40
1.0
 40
1.0
 40
1.0
 40
1.0
 10
10.931128046
 20
1.0365145234
 30
0.0
 10
10.9869849017
 20
1.0346613649
 30
0.0
 10
11.0986998849
 20
1.0309944227
 30
0.0
 10
11.2662744056
 20
1.0255588092
 30
0.0
 10
11.4338505365
 20
1.0201763018
 30
0.0
 10
11.5455693677
 20
1.0166329847
 30
0.0
 10
11.6014274952
 20
1.0148217089
 30
0.0
  0
SPLINE
  5
561
100
AcDbEntity
  8
0
100
AcDbSpline
 62
9
  6
CONTINUOUS
 70
0
 71
3
 72
9
 73
5
 74
0
 42
0.0000001
 43
0.0000001
 44
0.0000000001
 40
0.0
 40
0.0
 40
0.0
 40
0.0
 40
0.5000373144
 40
1.0
 40
1.0
 40
1.0
 40
1.0
 10
10.9139140406
 20
1.0392970483
 30
0.0
 10
10.9167151593
 20
1.0385018764
 30
0.0
 10
10.9224070459
 20
1.0372110695
 30
0.0
 10
10.9282182841
 20
1.0366110613
 30
0.0
 10
10.931128046
 20
1.0365145234
 30
0.0
  0
SPLINE
  5
562
100
AcDbEntity
  8
0
100
AcDbSpline
 62
9
  6
CONTINUOUS
 70
0
 71
3
 72
20
 73
16
 74
0
 42
0.0000001
 43
0.0000001
 44
0.0000000001
 40
0.0
 40
0.0
 40
0.0
 40
0.0
 40
0.0625617139
 40
0.1251169336
 40
0.1876549964
 40
0.2501703582
 40
0.3126642064
 40
0.3751386505
 40
0.4375976463
 40
0.5000474194
 40
0.5624951467
 40
0.6249474795
 40
0.7498873943
 40
0.8749052589
 40
1.0
 40
1.0
 40
1.0
 40
1.0
 10
11.1412643826
 20
3.3232633534
 30
0.0
 10
11.1381244108
 20
3.275478338
 30
0.0
 10
11.1318738905
 20
3.1799113607
 30
0.0
 10
11.1224431802
 20
3.0365801342
 30
0.0
 10
11.1128117809
 20
2.8932977445
 30
0.0
 10
11.1028488177
 20
2.7500850272
 30
0.0
 10
11.0924466058
 20
2.6069522574
 30
0.0
 10
11.0814937366
 20
2.4639037007
 30
0.0
 10
11.0698744313
 20
2.3209413806
 30
0.0
 10
11.0574646639
 20
2.1780658518
 30
0.0
 10
11.0441432142
 20
2.0352771337
 30
0.0
 10
11.0249952843
 20
1.8449960682
 30
0.0
 10
10.9981171308
 20
1.6073614728
 30
0.0
 10
10.9600841664
 20
1.3227852239
 30
0.0
 10
10.9301712164
 20
1.1336610616
 30
0.0
 10
10.9139140406
 20
1.0392970483
 30
0.0
  0
LINE
  5
563
100
AcDbEntity
  8
0
100
AcDbLine
 62
9
  6
CONTINUOUS
 10
11.1413775478
 20
3.3249006265
 11
11.1412656345
 21
3.3232632678
  0
SPLINE
  5
564
100
AcDbEntity
  8
0
100
AcDbSpline
 62
9
  6
CONTINUOUS
 70
0
 71
3
 72
20
 73
16
 74
0
 42
0.0000001
 43
0.0000001
 44
0.0000000001
 40
0.0
 40
0.0
 40
0.0
 40
0.0
 40
0.1246593138
 40
0.2494922951
 40
0.3744442419
 40
0.499479719
 40
0.562019693
 40
0.6245716571
 40
0.6871318645
 40
0.7496995016
 40
0.8122707761
 40
0.8748453823
 40
0.9061341559
 40
0.9374240358
 40
1.0
 40
1.0
 40
1.0
 40
1.0
 10
11.6217017263
 20
1.0170814623
 30
0.0
 10
11.6232052708
 20
1.1130465347
 30
0.0
 10
11.622463884
 20
1.3051742152
 30
0.0
 10
11.6139389369
 20
1.5933507825
 30
0.0
 10
11.601621607
 20
1.8816684334
 30
0.0
 10
11.5912913413
 20
2.1220671606
 30
0.0
 10
11.5848139782
 20
2.314536726
 30
0.0
 10
11.5813029902
 20
2.4589726935
 30
0.0
 10
11.5795863019
 20
2.6034643026
 30
0.0
 10
11.5801109658
 20
2.74798244
 30
0.0
 10
11.5833251561
 20
2.8924792097
 30
0.0
 10
11.5886164042
 20
3.0128159445
 30
0.0
 10
11.5946297082
 20
3.1089878482
 30
0.0
 10
11.6019009999
 20
3.2050730588
 30
0.0
 10
11.608842376
 20
3.2770207766
 30
0.0
 10
11.6141942946
 20
3.3249006519
 30
0.0
  0
LINE
  5
565
100
AcDbEntity
  8
0
100
AcDbLine
 62
9
  6
CONTINUOUS
 10
10.9305091002
 20
1.0187986031
 11
11.6007332635
 21
0.9953974093
  0
SPLINE
  5
566
100
AcDbEntity
  8
0
100
AcDbSpline
 62
7
  6
CONTINUOUS
 70
0
 71
3
 72
14
 73
10
 74
0
 42
0.0000001
 43
0.0000001
 44
0.0000000001
 40
0.0
 40
0.0
 40
0.0
 40
0.0
 40
0.0912471569
 40
0.1879838287
 40
0.2930461489
 40
0.4085858432
 40
0.5361620622
 40
0.6768489528
 40
1.0
 40
1.0
 40
1.0
 40
1.0
 10
8.4983496507
 20
11.5747315998
 30
0.0
 10
8.4985148102
 20
11.5748967618
 30
0.0
 10
8.4988920116
 20
11.575201666
 30
0.0
 10
8.4995576541
 20
11.5755554817
 30
0.0
 10
8.50033026
 20
11.5758160582
 30
0.0
 10
8.5012076118
 20
11.5759848198
 30
0.0
 10
8.5021886224
 20
11.5760628972
 30
0.0
 10
8.5037039126
 20
11.5760457727
 30
0.0
 10
8.50488608
 20
11.5758953226
 30
0.0
 10
8.5057009738
 20
11.5757531954
 30
0.0
  0
LINE
  5
567
100
AcDbEntity
  8
0
100
AcDbLine
 62
9
  6
CONTINUOUS
 10
9.2290543608
 20
10.8260171258
 11
9.2389906607
 21
10.8428140533
  0
LINE
  5
568
100
AcDbEntity
  8
0
100
AcDbLine
 62
7
  6
CONTINUOUS
 10
9.3175528162
 20
10.787414674
 11
9.3093521457
 21
10.7789843944
  0
SPLINE
  5
569
100
AcDbEntity
  8
0
100
AcDbSpline
 62
9
  6
CONTINUOUS
 70
0
 71
3
 72
15
 73
11
 74
0
 42
0.0000001
 43
0.0000001
 44
0.0000000001
 40
0.0
 40
0.0
 40
0.0
 40
0.0
 40
0.1249905254
 40
0.2499956734
 40
0.3749960092
 40
0.4999971089
 40
0.6249989733
 40
0.7500076629
 40
0.8750023069
 40
1.0
 40
1.0
 40
1.0
 40
1.0
 10
9.2187447345
 20
10.862682687
 30
0.0
 10
9.2179280355
 20
10.8611369356
 30
0.0
 10
9.2165877675
 20
10.8578804381
 30
0.0
 10
9.2155308915
 20
10.8527125165
 30
0.0
 10
9.2154689958
 20
10.8474354494
 30
0.0
 10
9.2164082395
 20
10.8422426858
 30
0.0
 10
9.2183148602
 20
10.8373222047
 30
0.0
 10
9.2211154125
 20
10.8328496258
 30
0.0
 10
9.224704306
 20
10.8289841818
 30
0.0
 10
9.2275473228
 20
10.8269033719
 30
0.0
 10
9.2290548872
 20
10.8260179653
 30
0.0
  0
LINE
  5
56A
100
AcDbEntity
  8
0
100
AcDbLine
 62
9
  6
CONTINUOUS
 10
11.141378732
 20
3.3249005456
 11
11.1214503546
 21
3.3263927547
  0
LINE
  5
56B
100
AcDbEntity
  8
0
100
AcDbLine
 62
9
  6
CONTINUOUS
 10
10.8941780783
 20
1.0424876213
 11
10.9139140449
 21
1.0392970728
  0
LINE
  5
56C
100
AcDbEntity
  8
0
100
AcDbLine
 62
9
  6
CONTINUOUS
 10
11.1239951755
 20
3.3246915128
 11
11.1213245098
 21
3.3248996544
  0
SPLINE
  5
56D
100
AcDbEntity
  8
0
100
AcDbSpline
 62
9
  6
CONTINUOUS
 70
0
 71
3
 72
13
 73
9
 74
0
 42
0.0000001
 43
0.0000001
 44
0.0000000001
 40
0.0
 40
0.0
 40
0.0
 40
0.0
 40
0.2986217706
 40
0.5767963041
 40
0.702299285
 40
0.8158770334
 40
0.9156506585
 40
1.0
 40
1.0
 40
1.0
 40
1.0
 10
11.6217017263
 20
1.0170814625
 30
0.0
 10
11.6234257568
 20
1.0170576297
 30
0.0
 10
11.6267553246
 20
1.0169699862
 30
0.0
 10
11.630805316
 20
1.0167561373
 30
0.0
 10
11.6337828306
 20
1.0165220783
 30
0.0
 10
11.6357300202
 20
1.0163297095
 30
0.0
 10
11.6374360054
 20
1.0161181657
 30
0.0
 10
11.638486526
 20
1.0159527539
 30
0.0
 10
11.6389654348
 20
1.0158642403
 30
0.0
  0
SPLINE
  5
56E
100
AcDbEntity
  8
0
100
AcDbSpline
 62
9
  6
CONTINUOUS
 70
0
 71
3
 72
17
 73
13
 74
0
 42
0.0000001
 43
0.0000001
 44
0.0000000001
 40
0.0
 40
0.0
 40
0.0
 40
0.0
 40
0.2129452738
 40
0.4005679489
 40
0.562307018
 40
0.6978532014
 40
0.8073521416
 40
0.8916073102
 40
0.9250292658
 40
0.9534096948
 40
0.9778348426
 40
1.0
 40
1.0
 40
1.0
 40
1.0
 10
11.6389654348
 20
1.0158642403
 30
0.0
 10
11.6391684595
 20
1.0158267166
 30
0.0
 10
11.63954957
 20
1.0157516736
 30
0.0
 10
11.6400810856
 20
1.0156297999
 30
0.0
 10
11.6405348455
 20
1.0155062299
 30
0.0
 10
11.6409094234
 20
1.0153815895
 30
0.0
 10
11.6412034892
 20
1.0152565856
 30
0.0
 10
11.6413951934
 20
1.0151452823
 30
0.0
 10
11.6415029439
 20
1.0150527139
 30
0.0
 10
11.641556894
 20
1.0149881715
 30
0.0
 10
11.6415900927
 20
1.0149225896
 30
0.0
 10
11.6415974899
 20
1.0148770602
 30
0.0
 10
11.6415972112
 20
1.0148555715
 30
0.0
  0
LINE
  5
56F
100
AcDbEntity
  8
0
100
AcDbLine
 62
9
  6
CONTINUOUS
 10
11.6343226038
 20
3.3249005456
 11
11.6144562316
 21
3.3272095513
  0
LINE
  5
570
100
AcDbEntity
  8
0
100
AcDbLine
 62
7
  6
CONTINUOUS
 10
9.3093586571
 20
10.77899073
 11
9.2463968854
 21
10.7160060903
  0
SPLINE
  5
571
100
AcDbEntity
  8
0
100
AcDbSpline
 62
9
  6
CONTINUOUS
 70
0
 71
3
 72
13
 73
9
 74
0
 42
0.0000001
 43
0.0000001
 44
0.0000000001
 40
0.0
 40
0.0
 40
0.0
 40
0.0
 40
0.2499554179
 40
0.3749762022
 40
0.4999988507
 40
0.6250211825
 40
0.7500420867
 40
1.0
 40
1.0
 40
1.0
 40
1.0
 10
9.2463968854
 20
10.7160060903
 30
0.0
 10
9.2587961602
 20
10.7085789051
 30
0.0
 10
9.2767989567
 20
10.6963924494
 30
0.0
 10
9.2993650717
 20
10.6783036223
 30
0.0
 10
9.3155456185
 20
10.663845429
 30
0.0
 10
9.3309304875
 20
10.6485433354
 30
0.0
 10
9.3503163792
 20
10.6270809454
 30
0.0
 10
9.3635526555
 20
10.6098371522
 30
0.0
 10
9.3717182271
 20
10.5979110168
 30
0.0
  0
SPLINE
  5
572
100
AcDbEntity
  8
0
100
AcDbSpline
 62
9
  6
CONTINUOUS
 70
0
 71
3
 72
9
 73
5
 74
0
 42
0.0000001
 43
0.0000001
 44
0.0000000001
 40
0.0
 40
0.0
 40
0.0
 40
0.0
 40
0.501270116
 40
1.0
 40
1.0
 40
1.0
 40
1.0
 10
11.6007332635
 20
0.9953974093
 30
0.0
 10
11.6050023282
 20
0.9948495113
 30
0.0
 10
11.6136255196
 20
0.9944827726
 30
0.0
 10
11.6221910109
 20
0.9954921499
 30
0.0
 10
11.6263931327
 20
0.9963167702
 30
0.0
  0
SPLINE
  5
573
100
AcDbEntity
  8
0
100
AcDbSpline
 62
9
  6
CONTINUOUS
 70
0
 71
3
 72
14
 73
10
 74
0
 42
0.0000001
 43
0.0000001
 44
0.0000000001
 40
0.0
 40
0.0
 40
0.0
 40
0.0
 40
0.3049757746
 40
0.4395339444
 40
0.5635824577
 40
0.6789161482
 40
0.7879719318
 40
0.8938267003
 40
1.0
 40
1.0
 40
1.0
 40
1.0
 10
11.6263931327
 20
0.9963167702
 30
0.0
 10
11.6266895966
 20
0.9959982345
 30
0.0
 10
11.6271472629
 20
0.9955635639
 30
0.0
 10
11.6278086899
 20
0.9951038046
 30
0.0
 10
11.628281048
 20
0.994852471
 30
0.0
 10
11.6287502138
 20
0.9946822872
 30
0.0
 10
11.6292159382
 20
0.9945960076
 30
0.0
 10
11.6296767241
 20
0.9945965049
 30
0.0
 10
11.6299756714
 20
0.994655548
 30
0.0
 10
11.6301209205
 20
0.9946985884
 30
0.0
  0
LINE
  5
574
100
AcDbEntity
  8
0
100
AcDbLine
 62
9
  6
CONTINUOUS
 10
11.6301209205
 20
0.9946985884
 11
11.6305602208
 21
0.9948743951
  0
SPLINE
  5
575
100
AcDbEntity
  8
0
100
AcDbSpline
 62
9
  6
CONTINUOUS
 70
0
 71
3
 72
16
 73
12
 74
0
 42
0.0000001
 43
0.0000001
 44
0.0000000001
 40
0.0
 40
0.0
 40
0.0
 40
0.0
 40
0.0554799585
 40
0.1283907087
 40
0.2208133953
 40
0.3342715145
 40
0.3991757284
 40
0.4695467363
 40
0.6265030883
 40
0.803993031
 40
1.0
 40
1.0
 40
1.0
 40
1.0
 10
11.3911809964
 20
0.8735324617
 30
0.0
 10
11.3909606919
 20
0.8734207904
 30
0.0
 10
11.3904203263
 20
0.8732240309
 30
0.0
 10
11.3894600627
 20
0.873008553
 30
0.0
 10
11.3882287821
 20
0.8728424687
 30
0.0
 10
11.3870259881
 20
0.8727546077
 30
0.0
 10
11.3859194956
 20
0.8727099699
 30
0.0
 10
11.3846186914
 20
0.8726838392
 30
0.0
 10
11.3828162004
 20
0.8726968174
 30
0.0
 10
11.3804558696
 20
0.8727780132
 30
0.0
 10
11.3787956092
 20
0.8728717073
 30
0.0
 10
11.3779248513
 20
0.8729284181
 30
0.0
  0
SPLINE
  5
576
100
AcDbEntity
  8
0
100
AcDbSpline
 62
9
  6
CONTINUOUS
 70
0
 71
3
 72
10
 73
6
 74
0
 42
0.0000001
 43
0.0000001
 44
0.0000000001
 40
0.0
 40
0.0
 40
0.0
 40
0.0
 40
0.2301251981
 40
0.476639643
 40
1.0
 40
1.0
 40
1.0
 40
1.0
 10
11.3779248513
 20
0.8729284181
 30
0.0
 10
11.3767197984
 20
0.8730069008
 30
0.0
 10
11.3742257748
 20
0.8731992888
 30
0.0
 10
11.3690016447
 20
0.8736969474
 30
0.0
 10
11.3649888363
 20
0.8741697591
 30
0.0
 10
11.3622644865
 20
0.874516984
 30
0.0
  0
SPLINE
  5
577
100
AcDbEntity
  8
0
100
AcDbSpline
 62
9
  6
CONTINUOUS
 70
0
 71
3
 72
23
 73
19
 74
0
 42
0.0000001
 43
0.0000001
 44
0.0000000001
 40
0.0
 40
0.0
 40
0.0
 40
0.0
 40
0.0625000622
 40
0.1249986376
 40
0.1875006799
 40
0.2500017607
 40
0.3125022737
 40
0.3750021404
 40
0.4375018209
 40
0.5000016773
 40
0.5625014421
 40
0.6250008588
 40
0.6875003139
 40
0.7500003097
 40
0.8125008167
 40
0.875002287
 40
0.9375003436
 40
1.0
 40
1.0
 40
1.0
 40
1.0
 10
9.3717182271
 20
10.5979110168
 30
0.0
 10
9.3738347215
 20
10.5948444039
 30
0.0
 10
9.377566659
 20
10.5883497143
 30
0.0
 10
9.3815505689
 20
10.5778585879
 30
0.0
 10
9.3838430944
 20
10.5668703538
 30
0.0
 10
9.3843907694
 20
10.5556588668
 30
0.0
 10
9.3831589464
 20
10.5445014964
 30
0.0
 10
9.3801913516
 20
10.5336761865
 30
0.0
 10
9.3755556958
 20
10.5234534612
 30
0.0
 10
9.369374198
 20
10.5140841373
 30
0.0
 10
9.3617924679
 20
10.5058069297
 30
0.0
 10
9.3530065695
 20
10.4988212019
 30
0.0
 10
9.3432300019
 20
10.4933065763
 30
0.0
 10
9.3327086556
 20
10.4893945989
 30
0.0
 10
9.3217014522
 20
10.48719536
 30
0.0
 10
9.3104858365
 20
10.4867428351
 30
0.0
 10
9.2993404487
 20
10.4880519079
 30
0.0
 10
9.2921325171
 20
10.4900898664
 30
0.0
 10
9.2886428343
 20
10.4913958515
 30
0.0
  0
SPLINE
  5
578
100
AcDbEntity
  8
0
100
AcDbSpline
 62
9
  6
CONTINUOUS
 70
0
 71
3
 72
15
 73
11
 74
0
 42
0.0000001
 43
0.0000001
 44
0.0000000001
 40
0.0
 40
0.0
 40
0.0
 40
0.0
 40
0.1015580025
 40
0.2017721649
 40
0.3057538236
 40
0.4178694728
 40
0.5414430105
 40
0.6787669707
 40
0.8313163907
 40
1.0
 40
1.0
 40
1.0
 40
1.0
 10
10.9031006776
 20
1.0188848182
 30
0.0
 10
10.9032816426
 20
1.0187770261
 30
0.0
 10
10.903666457
 20
1.018601505
 30
0.0
 10
10.9042950848
 20
1.0184820931
 30
0.0
 10
10.9049556687
 20
1.0185091251
 30
0.0
 10
10.905643779
 20
1.0186767828
 30
0.0
 10
10.906358611
 20
1.0189795567
 30
0.0
 10
10.9071002717
 20
1.0194136948
 30
0.0
 10
10.9078684557
 20
1.0199766212
 30
0.0
 10
10.9083719507
 20
1.0204140465
 30
0.0
 10
10.908628529
 20
1.0206518862
 30
0.0
  0
SPLINE
  5
579
100
AcDbEntity
  8
0
100
AcDbSpline
 62
9
  6
CONTINUOUS
 70
0
 71
3
 72
9
 73
5
 74
0
 42
0.0000001
 43
0.0000001
 44
0.0000000001
 40
0.0
 40
0.0
 40
0.0
 40
0.0
 40
0.4994326061
 40
1.0
 40
1.0
 40
1.0
 40
1.0
 10
10.908628529
 20
1.0206518862
 30
0.0
 10
10.9122042521
 20
1.0198499506
 30
0.0
 10
10.9194766678
 20
1.0187081367
 30
0.0
 10
10.926842493
 20
1.0185841679
 30
0.0
 10
10.9305091002
 20
1.0187986031
 30
0.0
  0
SPLINE
  5
57A
100
AcDbEntity
  8
0
100
AcDbSpline
 62
9
  6
CONTINUOUS
 70
0
 71
3
 72
10
 73
6
 74
0
 42
0.0000001
 43
0.0000001
 44
0.0000000001
 40
0.0
 40
0.0
 40
0.0
 40
0.0
 40
0.5233608482
 40
0.7698752177
 40
1.0
 40
1.0
 40
1.0
 40
1.0
 10
11.1612402813
 20
0.8813612686
 30
0.0
 10
11.1584985879
 20
0.8812001396
 30
0.0
 10
11.1544628618
 20
0.8810013562
 30
0.0
 10
11.1492169168
 20
0.8808601706
 30
0.0
 10
11.1467155552
 20
0.8808378642
 30
0.0
 10
11.1455079423
 20
0.8808415271
 30
0.0
  0
SPLINE
  5
57B
100
AcDbEntity
  8
0
100
AcDbSpline
 62
9
  6
CONTINUOUS
 70
0
 71
3
 72
16
 73
12
 74
0
 42
0.0000001
 43
0.0000001
 44
0.0000000001
 40
0.0
 40
0.0
 40
0.0
 40
0.0
 40
0.1960069612
 40
0.3734966646
 40
0.5304527885
 40
0.6008238257
 40
0.6657281211
 40
0.7791863214
 40
0.8716090431
 40
0.9445200418
 40
1.0
 40
1.0
 40
1.0
 40
1.0
 10
11.1455079423
 20
0.8808415271
 30
0.0
 10
11.1446353562
 20
0.8808441738
 30
0.0
 10
11.142972593
 20
0.8808636213
 30
0.0
 10
11.1406122418
 20
0.8809431528
 30
0.0
 10
11.1388130701
 20
0.8810528022
 30
0.0
 10
11.137517075
 20
0.8811673482
 30
0.0
 10
11.1364161961
 20
0.8812871421
 30
0.0
 10
11.1352221802
 20
0.8814566081
 30
0.0
 10
11.1340050633
 20
0.8817060519
 30
0.0
 10
11.1330616923
 20
0.881986342
 30
0.0
 10
11.1325359673
 20
0.882219396
 30
0.0
 10
11.1323237714
 20
0.882345791
 30
0.0
  0
SPLINE
  5
57C
100
AcDbEntity
  8
0
100
AcDbSpline
 62
9
  6
CONTINUOUS
 70
0
 71
3
 72
9
 73
5
 74
0
 42
0.0000001
 43
0.0000001
 44
0.0000000001
 40
0.0
 40
0.0
 40
0.0
 40
0.0
 40
0.5004125803
 40
1.0
 40
1.0
 40
1.0
 40
1.0
 10
11.2151975366
 20
4.4483755588
 30
0.0
 10
11.2127252192
 20
4.4486311155
 30
0.0
 10
11.207755546
 20
4.4488875644
 30
0.0
 10
11.2027857283
 20
4.4486663864
 30
0.0
 10
11.20031427
 20
4.4484445768
 30
0.0
  0
SPLINE
  5
57D
100
AcDbEntity
  8
0
100
AcDbSpline
 62
9
  6
CONTINUOUS
 70
0
 71
3
 72
18
 73
14
 74
0
 42
0.0000001
 43
0.0000001
 44
0.0000000001
 40
0.0
 40
0.0
 40
0.0
 40
0.0
 40
0.1914780791
 40
0.3612281224
 40
0.5090978862
 40
0.6355332421
 40
0.6912022358
 40
0.7422622109
 40
0.8327687844
 40
0.8743740666
 40
0.9151413725
 40
0.9565241981
 40
1.0
 40
1.0
 40
1.0
 40
1.0
 10
11.20031427
 20
4.4484445768
 30
0.0
 10
11.2000381079
 20
4.4490124158
 30
0.0
 10
11.1994912236
 20
4.4500714773
 30
0.0
 10
11.1986255839
 20
4.4515117501
 30
0.0
 10
11.1977662954
 20
4.4526999768
 30
0.0
 10
11.1970282232
 20
4.4535051045
 30
0.0
 10
11.1964377989
 20
4.4539998612
 30
0.0
 10
11.1958986845
 20
4.4543642547
 30
0.0
 10
11.195334984
 20
4.4546108362
 30
0.0
 10
11.1947672194
 20
4.4546903512
 30
0.0
 10
11.1943570047
 20
4.454667353
 30
0.0
 10
11.1939537728
 20
4.4545616189
 30
0.0
 10
11.193699889
 20
4.4544397275
 30
0.0
 10
11.1935761804
 20
4.4543672648
 30
0.0
  0
SPLINE
  5
57E
100
AcDbEntity
  8
0
100
AcDbSpline
 62
9
  6
CONTINUOUS
 70
0
 71
3
 72
14
 73
10
 74
0
 42
0.0000001
 43
0.0000001
 44
0.0000000001
 40
0.0
 40
0.0
 40
0.0
 40
0.0
 40
0.0632655798
 40
0.1419117993
 40
0.2375392534
 40
0.3513428734
 40
0.4842508972
 40
0.6367035277
 40
1.0
 40
1.0
 40
1.0
 40
1.0
 10
11.3393286171
 20
4.5397571491
 30
0.0
 10
11.3394843549
 20
4.539848387
 30
0.0
 10
11.3398538691
 20
4.5400183794
 30
0.0
 10
11.3404998178
 20
4.5402261878
 30
0.0
 10
11.341301686
 20
4.5404101203
 30
0.0
 10
11.3422660095
 20
4.5405678643
 30
0.0
 10
11.3433978338
 20
4.5406970221
 30
0.0
 10
11.3452434889
 20
4.5408365461
 30
0.0
 10
11.3467152693
 20
4.5408771139
 30
0.0
 10
11.3477516994
 20
4.5408871155
 30
0.0
  0
LINE
  5
57F
100
AcDbEntity
  8
0
100
AcDbLine
 62
9
  6
CONTINUOUS
 10
11.3477516994
 20
4.5408871155
 11
11.3510755555
 21
4.5408606039
  0
SPLINE
  5
580
100
AcDbEntity
  8
0
100
AcDbSpline
 62
9
  6
CONTINUOUS
 70
0
 71
3
 72
10
 73
6
 74
0
 42
0.0000001
 43
0.0000001
 44
0.0000000001
 40
0.0
 40
0.0
 40
0.0
 40
0.0
 40
0.223223133
 40
0.4688829356
 40
1.0
 40
1.0
 40
1.0
 40
1.0
 10
11.3510755555
 20
4.5408606039
 30
0.0
 10
11.3525372389
 20
4.5408266668
 30
0.0
 10
11.3556063602
 20
4.5407030368
 30
0.0
 10
11.3621431813
 20
4.5402846297
 30
0.0
 10
11.3672105731
 20
4.539817769
 30
0.0
 10
11.3706709153
 20
4.5394605117
 30
0.0
  0
SPLINE
  5
581
100
AcDbEntity
  8
0
100
AcDbSpline
 62
9
  6
CONTINUOUS
 70
0
 71
3
 72
20
 73
16
 74
0
 42
0.0000001
 43
0.0000001
 44
0.0000000001
 40
0.0
 40
0.0
 40
0.0
 40
0.0
 40
0.0329639236
 40
0.0640618172
 40
0.0958098029
 40
0.130443025
 40
0.1696010619
 40
0.2142680321
 40
0.2649621326
 40
0.3219215946
 40
0.3852248585
 40
0.4548562432
 40
0.6128091064
 40
0.7949489397
 40
1.0
 40
1.0
 40
1.0
 40
1.0
 10
11.6813915771
 20
4.4697031573
 30
0.0
 10
11.6812381445
 20
4.4697780916
 30
0.0
 10
11.680920306
 20
4.4698893093
 30
0.0
 10
11.6804168896
 20
4.4699088822
 30
0.0
 10
11.679922737
 20
4.469775455
 30
0.0
 10
11.6794451512
 20
4.4694998964
 30
0.0
 10
11.6789819344
 20
4.4690930925
 30
0.0
 10
11.6785296003
 20
4.4685607008
 30
0.0
 10
11.6780863817
 20
4.4679065103
 30
0.0
 10
11.6776528587
 20
4.4671333864
 30
0.0
 10
11.6772299584
 20
4.4662446259
 30
0.0
 10
11.6766576906
 20
4.4648500888
 30
0.0
 10
11.6759889737
 20
4.46283332
 30
0.0
 10
11.6752700278
 20
4.4601013207
 30
0.0
 10
11.6748560305
 20
4.4581380131
 30
0.0
 10
11.6746570154
 20
4.4570946585
 30
0.0
  0
SPLINE
  5
582
100
AcDbEntity
  8
0
100
AcDbSpline
 62
9
  6
CONTINUOUS
 70
0
 71
3
 72
11
 73
7
 74
0
 42
0.0000001
 43
0.0000001
 44
0.0000000001
 40
0.0
 40
0.0
 40
0.0
 40
0.0
 40
0.2736530712
 40
0.5370225484
 40
0.7824465566
 40
1.0
 40
1.0
 40
1.0
 40
1.0
 10
11.5060810218
 20
4.5394605117
 30
0.0
 10
11.5080237503
 20
4.5396685176
 30
0.0
 10
11.5118381858
 20
4.5400585899
 30
0.0
 10
11.517402946
 20
4.5405538215
 30
0.0
 10
11.5225759622
 20
4.5409239875
 30
0.0
 10
11.5258783856
 20
4.5410817274
 30
0.0
 10
11.5274310524
 20
4.5411257665
 30
0.0
  0
SPLINE
  5
583
100
AcDbEntity
  8
0
100
AcDbSpline
 62
9
  6
CONTINUOUS
 70
0
 71
3
 72
14
 73
10
 74
0
 42
0.0000001
 43
0.0000001
 44
0.0000000001
 40
0.0
 40
0.0
 40
0.0
 40
0.0
 40
0.3691268064
 40
0.5245515238
 40
0.6594595803
 40
0.7736707896
 40
0.8677538574
 40
0.9426681925
 40
1.0
 40
1.0
 40
1.0
 40
1.0
 10
11.5274310524
 20
4.5411257665
 30
0.0
 10
11.5285619724
 20
4.5411578433
 30
0.0
 10
11.5301701606
 20
4.5411815451
 30
0.0
 10
11.5321910835
 20
4.5411349671
 30
0.0
 10
11.5334294904
 20
4.5410682497
 30
0.0
 10
11.5344770554
 20
4.5409692637
 30
0.0
 10
11.5353362459
 20
4.5408405607
 30
0.0
 10
11.5360127528
 20
4.5406844242
 30
0.0
 10
11.536396477
 20
4.5405474375
 30
0.0
 10
11.5365543616
 20
4.5404702965
 30
0.0
  0
SPLINE
  5
584
100
AcDbEntity
  8
0
100
AcDbSpline
 62
9
  6
CONTINUOUS
 70
0
 71
3
 72
15
 73
11
 74
0
 42
0.0000001
 43
0.0000001
 44
0.0000000001
 40
0.0
 40
0.0
 40
0.0
 40
0.0
 40
0.115491522
 40
0.2323693401
 40
0.3518099416
 40
0.4746173631
 40
0.6011438884
 40
0.7312825274
 40
0.8645161696
 40
1.0
 40
1.0
 40
1.0
 40
1.0
 10
11.6959678698
 20
4.435501132
 30
0.0
 10
11.6957674172
 20
4.4364617145
 30
0.0
 10
11.6951605958
 20
4.4383580236
 30
0.0
 10
11.6936773991
 20
4.4409756616
 30
0.0
 10
11.6916673544
 20
4.443296975
 30
0.0
 10
11.6891956426
 20
4.4452508215
 30
0.0
 10
11.6863396021
 20
4.4467808566
 30
0.0
 10
11.6831863091
 20
4.4478433347
 30
0.0
 10
11.6798317519
 20
4.4484084643
 30
0.0
 10
11.6775387702
 20
4.44844292
 30
0.0
 10
11.6763896033
 20
4.4483755584
 30
0.0
  0
SPLINE
  5
585
100
AcDbEntity
  8
0
100
AcDbSpline
 62
9
  6
CONTINUOUS
 70
0
 71
3
 72
15
 73
11
 74
0
 42
0.0000001
 43
0.0000001
 44
0.0000000001
 40
0.0
 40
0.0
 40
0.0
 40
0.0
 40
0.1154411555
 40
0.2322882271
 40
0.3517289189
 40
0.4745683655
 40
0.6011461622
 40
0.7313314276
 40
0.8645754889
 40
1.0
 40
1.0
 40
1.0
 40
1.0
 10
11.6943094223
 20
4.4438472254
 30
0.0
 10
11.6941249785
 20
4.4448235847
 30
0.0
 10
11.6935448839
 20
4.4467549792
 30
0.0
 10
11.6920846256
 20
4.4494298899
 30
0.0
 10
11.6900809935
 20
4.451809795
 30
0.0
 10
11.6876005521
 20
4.4538200919
 30
0.0
 10
11.6847227346
 20
4.4554014559
 30
0.0
 10
11.6815372891
 20
4.4565076014
 30
0.0
 10
11.6781433896
 20
4.4571067322
 30
0.0
 10
11.6758210072
 20
4.4571564252
 30
0.0
 10
11.6746570154
 20
4.4570946585
 30
0.0
  0
SPLINE
  5
586
100
AcDbEntity
  8
0
100
AcDbSpline
 62
9
  6
CONTINUOUS
 70
0
 71
3
 72
15
 73
11
 74
0
 42
0.0000001
 43
0.0000001
 44
0.0000000001
 40
0.0
 40
0.0
 40
0.0
 40
0.0
 40
0.1201096214
 40
0.2409062339
 40
0.362986814
 40
0.4867796375
 40
0.6124992361
 40
0.7401295741
 40
0.8694359668
 40
1.0
 40
1.0
 40
1.0
 40
1.0
 10
11.1834323026
 20
4.4311746644
 30
0.0
 10
11.1834743717
 20
4.4322225918
 30
0.0
 10
11.1837585557
 20
4.4343217501
 30
0.0
 10
11.1847692321
 20
4.4373443349
 30
0.0
 10
11.1863334847
 20
4.4401585384
 30
0.0
 10
11.1884031831
 20
4.4426794324
 30
0.0
 10
11.1909154885
 20
4.444833516
 30
0.0
 10
11.193795461
 20
4.4465582817
 30
0.0
 10
11.196956695
 20
4.4478038389
 30
0.0
 10
11.1991847391
 20
4.4482900107
 30
0.0
 10
11.2003142697
 20
4.4484445767
 30
0.0
  0
LINE
  5
587
100
AcDbEntity
  8
0
100
AcDbLine
 62
9
  6
CONTINUOUS
 10
10.9139140449
 20
1.0392970728
 11
10.9086285072
 21
1.020651891
  0
SPLINE
  5
588
100
AcDbEntity
  8
0
100
AcDbSpline
 62
9
  6
CONTINUOUS
 70
0
 71
3
 72
17
 73
13
 74
0
 42
0.0000001
 43
0.0000001
 44
0.0000000001
 40
0.0
 40
0.0
 40
0.0
 40
0.0
 40
0.1225641689
 40
0.2454816359
 40
0.3690617199
 40
0.4312319973
 40
0.4936332353
 40
0.6190161803
 40
0.7453066764
 40
0.8088036768
 40
0.872464756
 40
1.0
 40
1.0
 40
1.0
 40
1.0
 10
10.8941780783
 20
1.0424876213
 30
0.0
 10
10.8939810323
 20
1.0413330993
 30
0.0
 10
10.8938076016
 20
1.0389766668
 30
0.0
 10
10.8942229774
 20
1.0354545122
 30
0.0
 10
10.8951185455
 20
1.0326241387
 30
0.0
 10
10.896143084
 20
1.0304823798
 30
0.0
 10
10.8973700081
 20
1.0284295059
 30
0.0
 10
10.8992606634
 20
1.0260757098
 30
0.0
 10
10.9015522185
 20
1.0240950305
 30
0.0
 10
10.9035816863
 20
1.0227679769
 30
0.0
 10
10.9057306857
 20
1.0216205555
 30
0.0
 10
10.90745386
 20
1.0209766711
 30
0.0
 10
10.9086285072
 20
1.020651891
 30
0.0
  0
SPLINE
  5
589
100
AcDbEntity
  8
0
100
AcDbSpline
 62
7
  6
CONTINUOUS
 70
0
 71
3
 72
37
 73
33
 74
0
 42
0.0000001
 43
0.0000001
 44
0.0000000001
 40
0.0
 40
0.0
 40
0.0
 40
0.0
 40
0.1917060812
 40
0.2855296879
 40
0.3768714065
 40
0.4648813137
 40
0.5487264574
 40
0.627594015
 40
0.7006952115
 40
0.767275247
 40
0.7978967903
 40
0.8266253556
 40
0.8533825088
 40
0.8780915053
 40
0.9006816292
 40
0.9210902127
 40
0.9392558257
 40
0.9551225786
 40
0.9686373483
 40
0.9744983171
 40
0.979758775
 40
0.9844175945
 40
0.9884736675
 40
0.9919259153
 40
0.9947719378
 40
0.9970060392
 40
0.9978917855
 40
0.9986224376
 40
0.999197491
 40
0.9996167965
 40
0.9998814049
 40
1.0
 40
1.0
 40
1.0
 40
1.0
 10
9.2464333261
 20
10.7160195053
 30
0.0
 10
9.2495785568
 20
10.7191670934
 30
0.0
 10
9.2542815348
 20
10.7238367962
 30
0.0
 10
9.2605249652
 20
10.7299637739
 30
0.0
 10
9.2650676165
 20
10.7343874297
 30
0.0
 10
9.2694604611
 20
10.7386328735
 30
0.0
 10
9.273660106
 20
10.7426615282
 30
0.0
 10
9.2776237836
 20
10.7464362342
 30
0.0
 10
9.2813097137
 20
10.7499214508
 30
0.0
 10
9.2841914732
 20
10.7526271801
 30
0.0
 10
9.2863278161
 20
10.7546221209
 30
0.0
 10
9.2877910274
 20
10.7559835802
 30
0.0
 10
9.2891560918
 20
10.7572490523
 30
0.0
 10
9.2904188914
 20
10.7584152574
 30
0.0
 10
9.2915755828
 20
10.7594791589
 30
0.0
 10
9.292622596
 20
10.7604379484
 30
0.0
 10
9.2935566008
 20
10.7612890656
 30
0.0
 10
9.2943744771
 20
10.7620300477
 30
0.0
 10
9.2949826528
 20
10.7625771075
 30
0.0
 10
9.2954092402
 20
10.7629579162
 30
0.0
 10
9.295683194
 20
10.7632010365
 30
0.0
 10
9.2959265767
 20
10.7634154887
 30
0.0
 10
9.2961393007
 20
10.763601242
 30
0.0
 10
9.2963212549
 20
10.7637582696
 30
0.0
 10
9.2964722233
 20
10.7638864265
 30
0.0
 10
9.296578887
 20
10.7639748078
 30
0.0
 10
9.296648637
 20
10.7640305931
 30
0.0
 10
9.2966889591
 20
10.7640618217
 30
0.0
 10
9.2967209309
 20
10.7640853541
 30
0.0
 10
9.2967457343
 20
10.7641022997
 30
0.0
 10
9.2967607547
 20
10.7641105668
 30
0.0
 10
9.2967706897
 20
10.764114799
 30
0.0
 10
9.2967729917
 20
10.7641132896
 30
0.0
  0
LINE
  5
58A
100
AcDbEntity
  8
0
100
AcDbLine
 62
9
  6
CONTINUOUS
 10
9.37171811
 20
10.5979109366
 11
9.4273381945
 21
10.636160289
  0
LINE
  5
58B
100
AcDbEntity
  8
0
100
AcDbLine
 62
9
  6
CONTINUOUS
 10
9.0026388852
 20
11.0142343476
 11
9.004420758
 21
11.0128415423
  0
SPLINE
  5
58C
100
AcDbEntity
  8
0
100
AcDbSpline
 62
9
  6
CONTINUOUS
 70
0
 71
3
 72
38
 73
34
 74
0
 42
0.0000001
 43
0.0000001
 44
0.0000000001
 40
0.0
 40
0.0
 40
0.0
 40
0.0
 40
0.1955079634
 40
0.2908085144
 40
0.3832665155
 40
0.4719932155
 40
0.556143501
 40
0.6349162833
 40
0.7075599574
 40
0.7733813601
 40
0.8035354782
 40
0.8317536066
 40
0.8579701614
 40
0.8821208166
 40
0.9041488636
 40
0.9240025078
 40
0.9416324009
 40
0.9569986316
 40
0.970063754
 40
0.975722934
 40
0.9807958338
 40
0.9852796243
 40
0.9891714864
 40
0.9924686308
 40
0.9951690032
 40
0.9962951133
 40
0.9972717179
 40
0.998098747
 40
0.9987761639
 40
0.9993040017
 40
0.9996824757
 40
0.9999124549
 40
1.0
 40
1.0
 40
1.0
 40
1.0
 10
9.2886429909
 20
10.4913962742
 30
0.0
 10
9.2871397714
 20
10.4873384838
 30
0.0
 10
9.284905913
 20
10.4813019385
 30
0.0
 10
9.2819662515
 20
10.4733445362
 30
0.0
 10
9.2798478344
 20
10.4676033094
 30
0.0
 10
9.2778171445
 20
10.4620927722
 30
0.0
 10
9.2758935797
 20
10.4568655734
 30
0.0
 10
9.2740954614
 20
10.4519715234
 30
0.0
 10
9.2724399272
 20
10.447457285
 30
0.0
 10
9.2711573772
 20
10.4439524456
 30
0.0
 10
9.2702144878
 20
10.4413703748
 30
0.0
 10
9.2695731684
 20
10.4396113924
 30
0.0
 10
9.2689783064
 20
10.437976906
 30
0.0
 10
9.2684313153
 20
10.4364707976
 30
0.0
 10
9.2679334976
 20
10.4350966647
 30
0.0
 10
9.2674860386
 20
10.4338577952
 30
0.0
 10
9.2670899947
 20
10.4327571284
 30
0.0
 10
9.2667463076
 20
10.4317973084
 30
0.0
 10
9.2664933954
 20
10.431086413
 30
0.0
 10
9.2663180007
 20
10.430589758
 30
0.0
 10
9.2662064412
 20
10.4302719909
 30
0.0
 10
9.2661084897
 20
10.4299909053
 30
0.0
 10
9.2660242013
 20
10.4297466795
 30
0.0
 10
9.2659536325
 20
10.4295394833
 30
0.0
 10
9.2659036401
 20
10.4293899378
 30
0.0
 10
9.2658706569
 20
10.4292888876
 30
0.0
 10
9.2658508911
 20
10.4292270962
 30
0.0
 10
9.2658346178
 20
10.4291747389
 30
0.0
 10
9.2658216454
 20
10.4291314152
 30
0.0
 10
9.2658124531
 20
10.429098227
 30
0.0
 10
9.2658057878
 20
10.4290725194
 30
0.0
 10
9.2658039833
 20
10.4290597026
 30
0.0
 10
9.2658025109
 20
10.4290500283
 30
0.0
 10
9.265804328
 20
10.4290493555
 30
0.0
  0
SPLINE
  5
58D
100
AcDbEntity
  8
0
100
AcDbSpline
 62
9
  6
CONTINUOUS
 70
0
 71
3
 72
15
 73
11
 74
0
 42
0.0000001
 43
0.0000001
 44
0.0000000001
 40
0.0
 40
0.0
 40
0.0
 40
0.0
 40
0.3307384383
 40
0.4872485737
 40
0.6312116872
 40
0.7581032475
 40
0.8639407722
 40
0.945412536
 40
0.976195982
 40
1.0
 40
1.0
 40
1.0
 40
1.0
 10
11.6217017263
 20
1.0170814625
 30
0.0
 10
11.6222714839
 20
1.0148042077
 30
0.0
 10
11.6230943637
 20
1.0114451562
 30
0.0
 10
11.6241254285
 20
1.007085311
 30
0.0
 10
11.6248054889
 20
1.0041292468
 30
0.0
 10
11.625385798
 20
1.0015193294
 30
0.0
 10
11.6258480502
 20
0.9993376801
 30
0.0
 10
11.6261476964
 20
0.9978188635
 30
0.0
 10
11.6263133535
 20
0.996867462
 30
0.0
 10
11.6263715735
 20
0.9964843407
 30
0.0
 10
11.6263931355
 20
0.996316771
 30
0.0
  0
LINE
  5
58E
100
AcDbEntity
  8
0
100
AcDbLine
 62
7
  6
CONTINUOUS
 10
8.22634378
 20
11.8532901641
 11
8.2273919878
 21
11.8540621814
  0
SPLINE
  5
58F
100
AcDbEntity
  8
0
100
AcDbSpline
 62
7
  6
CONTINUOUS
 70
0
 71
3
 72
32
 73
28
 74
0
 42
0.0000001
 43
0.0000001
 44
0.0000000001
 40
0.0
 40
0.0
 40
0.0
 40
0.0
 40
0.2231985787
 40
0.3256322542
 40
0.4215960615
 40
0.5108472954
 40
0.5931518597
 40
0.6682994198
 40
0.7360970328
 40
0.7963741222
 40
0.8489795149
 40
0.8723649348
 40
0.8937862068
 40
0.9132324816
 40
0.9306938842
 40
0.946162098
 40
0.9596334485
 40
0.9711083627
 40
0.980592814
 40
0.9845943287
 40
0.9881074509
 40
0.9911393342
 40
0.9937014336
 40
0.9958131885
 40
0.9975099954
 40
0.998860834
 40
1.0
 40
1.0
 40
1.0
 40
1.0
 10
10.3049560993
 20
14.799597838
 30
0.0
 10
10.2979446122
 20
14.8060981349
 30
0.0
 10
10.2876993969
 20
14.8155645409
 30
0.0
 10
10.2743890127
 20
14.8277707448
 30
0.0
 10
10.2652833905
 20
14.8360724622
 30
0.0
 10
10.2567884097
 20
14.843764027
 30
0.0
 10
10.2489250514
 20
14.8508245191
 30
0.0
 10
10.2417129157
 20
14.8572345699
 30
0.0
 10
10.2351697584
 20
14.8629767126
 30
0.0
 10
10.2293116581
 20
14.8680351581
 30
0.0
 10
10.2248539513
 20
14.8718040697
 30
0.0
 10
10.2216375019
 20
14.874462496
 30
0.0
 10
10.219500801
 20
14.8761975438
 30
0.0
 10
10.2175447695
 20
14.877752322
 30
0.0
 10
10.2157705713
 20
14.8791257777
 30
0.0
 10
10.2141792628
 20
14.8803169817
 30
0.0
 10
10.2127718085
 20
14.8813253763
 30
0.0
 10
10.2115489957
 20
14.8821503916
 30
0.0
 10
10.2106395084
 20
14.8827136329
 30
0.0
 10
10.2100026712
 20
14.8830670489
 30
0.0
 10
10.2095991418
 20
14.8832705255
 30
0.0
 10
10.2092419823
 20
14.883428042
 30
0.0
 10
10.2089309928
 20
14.8835397638
 30
0.0
 10
10.2086655812
 20
14.8836060871
 30
0.0
 10
10.2084443815
 20
14.8836269328
 30
0.0
 10
10.2082641712
 20
14.8836012458
 30
0.0
 10
10.2081688956
 20
14.8835447882
 30
0.0
 10
10.2081343964
 20
14.8835102764
 30
0.0
  0
SPLINE
  5
590
100
AcDbEntity
  8
0
100
AcDbSpline
 62
7
  6
CONTINUOUS
 70
0
 71
3
 72
45
 73
41
 74
0
 42
0.0000001
 43
0.0000001
 44
0.0000000001
 40
0.0
 40
0.0
 40
0.0
 40
0.0
 40
0.0292395303
 40
0.0608108606
 40
0.1301997436
 40
0.2065621464
 40
0.2881307768
 40
0.3730179658
 40
0.4592597136
 40
0.5448613311
 40
0.6278436267
 40
0.6677496587
 40
0.7062890289
 40
0.7432389783
 40
0.7783860138
 40
0.8115271304
 40
0.8424711144
 40
0.8710395912
 40
0.8970681756
 40
0.9204074724
 40
0.9409240491
 40
0.9500867677
 40
0.9585016026
 40
0.9661567608
 40
0.9730420654
 40
0.9791481469
 40
0.9844677845
 40
0.9889949908
 40
0.9909603596
 40
0.9927267113
 40
0.9942941899
 40
0.9956633116
 40
0.9968353804
 40
0.9978128911
 40
0.998600441
 40
0.9992072831
 40
0.9994492549
 40
0.9996560742
 40
0.99983568
 40
1.0
 40
1.0
 40
1.0
 40
1.0
 10
10.1243748617
 20
14.6309414297
 30
0.0
 10
10.129171868
 20
14.6265706127
 30
0.0
 10
10.1391290104
 20
14.6174590877
 30
0.0
 10
10.1603843411
 20
14.5978816414
 30
0.0
 10
10.1892270223
 20
14.5711043138
 30
0.0
 10
10.2260893333
 20
14.536656079
 30
0.0
 10
10.2653869846
 20
14.4997760946
 30
0.0
 10
10.3062368881
 20
14.4613460243
 30
0.0
 10
10.3477202795
 20
14.4222830071
 30
0.0
 10
10.3889042836
 20
14.3835187644
 30
0.0
 10
10.422629016
 20
14.3518343165
 30
0.0
 10
10.4487740354
 20
14.3273370895
 30
0.0
 10
10.4674836543
 20
14.3098468566
 30
0.0
 10
10.485445725
 20
14.2931036947
 30
0.0
 10
10.5025597719
 20
14.277207987
 30
0.0
 10
10.5187302161
 20
14.2622551569
 30
0.0
 10
10.5338669304
 20
14.2483351172
 30
0.0
 10
10.5478857732
 20
14.2355317388
 30
0.0
 10
10.560708988
 20
14.2239222595
 30
0.0
 10
10.5722658035
 20
14.2135770511
 30
0.0
 10
10.5810914332
 20
14.2057935788
 30
0.0
 10
10.587477249
 20
14.2002521739
 30
0.0
 10
10.5917299571
 20
14.1966081863
 30
0.0
 10
10.5956238128
 20
14.1933224394
 30
0.0
 10
10.5991535348
 20
14.1904000149
 30
0.0
 10
10.6023144248
 20
14.1878452976
 30
0.0
 10
10.6051022215
 20
14.1856622127
 30
0.0
 10
10.607199439
 20
14.1840884796
 30
0.0
 10
10.6086910013
 20
14.1830228352
 30
0.0
 10
10.6096606477
 20
14.1823570288
 30
0.0
 10
10.6105347306
 20
14.1817862875
 30
0.0
 10
10.6113130349
 20
14.1813107113
 30
0.0
 10
10.6119953312
 20
14.1809302856
 30
0.0
 10
10.6125818666
 20
14.1806443998
 30
0.0
 10
10.6130726807
 20
14.180452823
 30
0.0
 10
10.6134271629
 20
14.1803635826
 30
0.0
 10
10.6136617374
 20
14.1803489833
 30
0.0
 10
10.6138013294
 20
14.1803632968
 30
0.0
 10
10.6139183602
 20
14.1804028516
 30
0.0
 10
10.6139816285
 20
14.1804481236
 30
0.0
 10
10.6140074152
 20
14.1804739138
 30
0.0
  0
SPLINE
  5
591
100
AcDbEntity
  8
0
100
AcDbSpline
 62
9
  6
CONTINUOUS
 70
0
 71
3
 72
17
 73
13
 74
0
 42
0.0000001
 43
0.0000001
 44
0.0000000001
 40
0.0
 40
0.0
 40
0.0
 40
0.0
 40
0.0177172363
 40
0.037523256
 40
0.0617326862
 40
0.0916546229
 40
0.1710382211
 40
0.2784782514
 40
0.4148937558
 40
0.5805864591
 40
0.7756318381
 40
1.0
 40
1.0
 40
1.0
 40
1.0
 10
7.1974063183
 20
12.6436822175
 30
0.0
 10
7.1974148706
 20
12.6436906676
 30
0.0
 10
7.1974372961
 20
12.6437046132
 30
0.0
 10
7.1974795903
 20
12.6437105421
 30
0.0
 10
7.1975296749
 20
12.6437036657
 30
0.0
 10
7.1976161007
 20
12.6436754796
 30
0.0
 10
7.1977460061
 20
12.643604662
 30
0.0
 10
7.1979260822
 20
12.6434793116
 30
0.0
 10
7.1981427914
 20
12.6433049801
 30
0.0
 10
7.1983959447
 20
12.6430819118
 30
0.0
 10
7.1986853241
 20
12.6428099727
 30
0.0
 10
7.1988880597
 20
12.6426101921
 30
0.0
 10
7.1989955857
 20
12.6425023993
 30
0.0
  0
LINE
  5
592
100
AcDbEntity
  8
0
100
AcDbLine
 62
9
  6
CONTINUOUS
 10
7.1799438809
 20
12.6615537282
 11
7.1945755311
 21
12.641703497
  0
LINE
  5
593
100
AcDbEntity
  8
0
100
AcDbLine
 62
9
  6
CONTINUOUS
 10
7.1945755311
 20
12.641703497
 11
7.1948892317
 21
12.6412794553
  0
SPLINE
  5
594
100
AcDbEntity
  8
0
100
AcDbSpline
 62
7
  6
CONTINUOUS
 70
0
 71
3
 72
23
 73
19
 74
0
 42
0.0000001
 43
0.0000001
 44
0.0000000001
 40
0.0
 40
0.0
 40
0.0
 40
0.0
 40
0.2028837465
 40
0.3885214089
 40
0.4736669684
 40
0.5531228541
 40
0.6265252884
 40
0.6935637647
 40
0.7539997661
 40
0.8076640076
 40
0.8544943809
 40
0.8945600891
 40
0.9281465512
 40
0.9427076756
 40
0.955936412
 40
0.9791070624
 40
0.989672472
 40
1.0
 40
1.0
 40
1.0
 40
1.0
 10
8.3679375196
 20
11.6729752451
 30
0.0
 10
8.3701474755
 20
11.6707652892
 30
0.0
 10
8.3743146725
 20
11.6664676311
 30
0.0
 10
8.3792003623
 20
11.6610450645
 30
0.0
 10
8.3826705841
 20
11.656913211
 30
0.0
 10
8.3849554763
 20
11.654045298
 30
0.0
 10
8.386986938
 20
11.6513338799
 30
0.0
 10
8.3887548003
 20
11.6487932477
 30
0.0
 10
8.3902510344
 20
11.6464367216
 30
0.0
 10
8.391469098
 20
11.6442759628
 30
0.0
 10
8.3924050304
 20
11.6423209257
 30
0.0
 10
8.3930557474
 20
11.6405797922
 30
0.0
 10
8.3933745347
 20
11.6392528797
 30
0.0
 10
8.3934647352
 20
11.6383097485
 30
0.0
 10
8.393453776
 20
11.6375243436
 30
0.0
 10
8.3933029801
 20
11.6368017942
 30
0.0
 10
8.3929829722
 20
11.636198855
 30
0.0
 10
8.3927774851
 20
11.6359478557
 30
0.0
 10
8.3926649978
 20
11.6358353533
 30
0.0
  0
SPLINE
  5
595
100
AcDbEntity
  8
0
100
AcDbSpline
 62
9
  6
CONTINUOUS
 70
0
 71
3
 72
16
 73
12
 74
0
 42
0.0000001
 43
0.0000001
 44
0.0000000001
 40
0.0
 40
0.0
 40
0.0
 40
0.0
 40
0.1249553893
 40
0.2499337417
 40
0.3749266409
 40
0.499932278
 40
0.6249431481
 40
0.7499591747
 40
0.8124697264
 40
0.8749823758
 40
1.0
 40
1.0
 40
1.0
 40
1.0
 10
11.6100475138
 20
2.1374006201
 30
0.0
 10
11.6082032329
 20
2.1867900715
 30
0.0
 10
11.6047982138
 20
2.285589209
 30
0.0
 10
11.6010158756
 20
2.4338391898
 30
0.0
 10
11.5990438376
 20
2.5821461691
 30
0.0
 10
11.5993673334
 20
2.7304813997
 30
0.0
 10
11.6024797677
 20
2.878796113
 30
0.0
 10
11.6078072377
 20
3.0023126355
 30
0.0
 10
11.6139375387
 20
3.1010237789
 30
0.0
 10
11.6213900742
 20
3.199643676
 30
0.0
 10
11.6285411399
 20
3.2734866352
 30
0.0
 10
11.6340662596
 20
3.322625481
 30
0.0
  0
SPLINE
  5
596
100
AcDbEntity
  8
0
100
AcDbSpline
 62
7
  6
CONTINUOUS
 70
0
 71
3
 72
62
 73
58
 74
0
 42
0.0000001
 43
0.0000001
 44
0.0000000001
 40
0.0
 40
0.0
 40
0.0
 40
0.0
 40
0.00017321
 40
0.0003735802
 40
0.0006193801
 40
0.0009207007
 40
0.0012830014
 40
0.0017093874
 40
0.0022017369
 40
0.0027612464
 40
0.0040843787
 40
0.0056823637
 40
0.0075566505
 40
0.0097077503
 40
0.0121353439
 40
0.0148386119
 40
0.0178165484
 40
0.0210679231
 40
0.0283840235
 40
0.0367719619
 40
0.0462135179
 40
0.0566881245
 40
0.0681722108
 40
0.080640274
 40
0.1084131944
 40
0.1397559796
 40
0.1743845183
 40
0.2119845595
 40
0.2522144924
 40
0.294708707
 40
0.3390808443
 40
0.3849273799
 40
0.4318313858
 40
0.4793662086
 40
0.5270995188
 40
0.5745970859
 40
0.6214269335
 40
0.6671630529
 40
0.7113895592
 40
0.7537042129
 40
0.7937223487
 40
0.8310802545
 40
0.8654385736
 40
0.8964855115
 40
0.923939703
 40
0.9362407307
 40
0.9475532038
 40
0.9578519759
 40
0.967114005
 40
0.9753190465
 40
0.9824495111
 40
0.9884907692
 40
0.9934320074
 40
0.9954880182
 40
0.997267305
 40
0.9987706542
 40
1.0
 40
1.0
 40
1.0
 40
1.0
 10
10.7763016711
 20
14.3026290872
 30
0.0
 10
10.7762685058
 20
14.302595922
 30
0.0
 10
10.7761800445
 20
14.302540412
 30
0.0
 10
10.7760130932
 20
14.3025079529
 30
0.0
 10
10.7758097254
 20
14.3025170196
 30
0.0
 10
10.7755677573
 20
14.3025661686
 30
0.0
 10
10.7752859607
 20
14.3026552093
 30
0.0
 10
10.7749637758
 20
14.3027844004
 30
0.0
 10
10.7746009715
 20
14.3029538904
 30
0.0
 10
10.7740303869
 20
14.3032509071
 30
0.0
 10
10.7732176414
 20
14.3037292299
 30
0.0
 10
10.7721274807
 20
14.3044351099
 30
0.0
 10
10.7708752771
 20
14.3053018727
 30
0.0
 10
10.7694616179
 20
14.3063291288
 30
0.0
 10
10.7678872275
 20
14.307516482
 30
0.0
 10
10.766152937
 20
14.3088632474
 30
0.0
 10
10.7642596294
 20
14.3103686531
 30
0.0
 10
10.7614105556
 20
14.312678757
 30
0.0
 10
10.7574635663
 20
14.3159604176
 30
0.0
 10
10.7522781162
 20
14.3203735457
 30
0.0
 10
10.7464855534
 20
14.325392459
 30
0.0
 10
10.7400983365
 20
14.3310050071
 30
0.0
 10
10.7331301495
 20
14.3371977155
 30
0.0
 10
10.7227038261
 20
14.3465503503
 30
0.0
 10
10.708350832
 20
14.3595784192
 30
0.0
 10
10.689646511
 20
14.376740244
 30
0.0
 10
10.6690577317
 20
14.3957839117
 30
0.0
 10
10.646765129
 20
14.4165293436
 30
0.0
 10
10.6229648798
 20
14.4387810311
 30
0.0
 10
10.5978667662
 20
14.4623295583
 30
0.0
 10
10.571692346
 20
14.4869536616
 30
0.0
 10
10.5446729371
 20
14.5124222384
 30
0.0
 10
10.5170475339
 20
14.5384964691
 30
0.0
 10
10.4890606206
 20
14.5649320167
 30
0.0
 10
10.4609599811
 20
14.5914812311
 30
0.0
 10
10.4329944142
 20
14.6178954423
 30
0.0
 10
10.4054115136
 20
14.6439271914
 30
0.0
 10
10.3784553742
 20
14.6693325322
 30
0.0
 10
10.3523644244
 20
14.6938732147
 30
0.0
 10
10.3273692157
 20
14.7173189062
 30
0.0
 10
10.3036903796
 20
14.7394492784
 30
0.0
 10
10.2815365881
 20
14.7600560353
 30
0.0
 10
10.2611027717
 20
14.7789449407
 30
0.0
 10
10.2425681564
 20
14.7959373403
 30
0.0
 10
10.228364834
 20
14.8088154047
 30
0.0
 10
10.218064271
 20
14.8180416513
 30
0.0
 10
10.2111948173
 20
14.824135735
 30
0.0
 10
10.204908781
 20
14.8296472471
 30
0.0
 10
10.199219639
 20
14.8345629386
 30
0.0
 10
10.1941396183
 20
14.8388709679
 30
0.0
 10
10.1896797252
 20
14.8425613296
 30
0.0
 10
10.1858493187
 20
14.8456250554
 30
0.0
 10
10.1830407482
 20
14.8477656283
 30
0.0
 10
10.1811081959
 20
14.8491491309
 30
0.0
 10
10.1799115529
 20
14.8499606538
 30
0.0
 10
10.1788772191
 20
14.8506113847
 30
0.0
 10
10.1782319015
 20
14.8509747548
 30
0.0
 10
10.1779351292
 20
14.8511255565
 30
0.0
  0
LINE
  5
597
100
AcDbEntity
  8
0
100
AcDbLine
 62
7
  6
CONTINUOUS
 10
10.1779351292
 20
14.8511255565
 11
10.1768790292
 21
14.8515600889
  0
SPLINE
  5
598
100
AcDbEntity
  8
0
100
AcDbSpline
 62
7
  6
CONTINUOUS
 70
0
 71
3
 72
63
 73
59
 74
0
 42
0.0000001
 43
0.0000001
 44
0.0000000001
 40
0.0
 40
0.0
 40
0.0
 40
0.0
 40
0.0001684698
 40
0.0003647613
 40
0.0006072555
 40
0.0009058949
 40
0.0012659795
 40
0.0016904953
 40
0.0021812377
 40
0.0027393455
 40
0.0040601435
 40
0.0056562434
 40
0.0075289711
 40
0.009678761
 40
0.0121052424
 40
0.0148075602
 40
0.0177846829
 40
0.0210353608
 40
0.0283503652
 40
0.0367375335
 40
0.0461785896
 40
0.0566529272
 40
0.0681369464
 40
0.0806051224
 40
0.0940291077
 40
0.1083787783
 40
0.1397228064
 40
0.1743530483
 40
0.2119551865
 40
0.2521875486
 40
0.294684473
 40
0.339059545
 40
0.3849091905
 40
0.4318164301
 40
0.4793545612
 40
0.5270912027
 40
0.5745920757
 40
0.6214251522
 40
0.667164372
 40
0.7113938001
 40
0.7537111428
 40
0.7937316819
 40
0.8310916481
 40
0.865451621
 40
0.8964997375
 40
0.9239545451
 40
0.936255634
 40
0.9475679806
 40
0.9578664146
 40
0.9671278622
 40
0.9753320367
 40
0.9824612871
 40
0.9885008896
 40
0.9934398743
 40
0.9954944457
 40
0.9972720131
 40
0.9987732705
 40
1.0
 40
1.0
 40
1.0
 40
1.0
 10
10.158356818
 20
14.8337327536
 30
0.0
 10
10.1583890726
 20
14.8337650082
 30
0.0
 10
10.1584759825
 20
14.8338186445
 30
0.0
 10
10.1586401549
 20
14.8338480171
 30
0.0
 10
10.1588405858
 20
14.8338360822
 30
0.0
 10
10.1590796554
 20
14.8337841434
 30
0.0
 10
10.1593585909
 20
14.8336923465
 30
0.0
 10
10.1596779446
 20
14.8335604009
 30
0.0
 10
10.1600379345
 20
14.8333881534
 30
0.0
 10
10.1606047121
 20
14.8330871488
 30
0.0
 10
10.1614126904
 20
14.8326039992
 30
0.0
 10
10.1624972684
 20
14.8318926604
 30
0.0
 10
10.1637439005
 20
14.8310204106
 30
0.0
 10
10.1651519956
 20
14.8299876462
 30
0.0
 10
10.1667208242
 20
14.8287947712
 30
0.0
 10
10.1684495539
 20
14.8274424743
 30
0.0
 10
10.1703373009
 20
14.8259315302
 30
0.0
 10
10.1731787202
 20
14.8236136759
 30
0.0
 10
10.1771162241
 20
14.8203224803
 30
0.0
 10
10.1822906039
 20
14.8158983429
 30
0.0
 10
10.188072088
 20
14.8108683964
 30
0.0
 10
10.1944482253
 20
14.8052448028
 30
0.0
 10
10.2014053066
 20
14.7990410141
 30
0.0
 10
10.2089282085
 20
14.7922719282
 30
0.0
 10
10.2170006879
 20
14.7849537413
 30
0.0
 10
10.2288257323
 20
14.7741656038
 30
0.0
 10
10.2448326482
 20
14.7594421269
 30
0.0
 10
10.2653993907
 20
14.7403764985
 30
0.0
 10
10.2876698311
 20
14.7196089425
 30
0.0
 10
10.311447911
 20
14.6973351233
 30
0.0
 10
10.3365238126
 20
14.6737644132
 30
0.0
 10
10.3626759871
 20
14.6491180885
 30
0.0
 10
10.3896731111
 20
14.6236272469
 30
0.0
 10
10.4172761887
 20
14.5975307062
 30
0.0
 10
10.4452407319
 20
14.5710728004
 30
0.0
 10
10.4733189577
 20
14.5445011804
 30
0.0
 10
10.5012620709
 20
14.5180645203
 30
0.0
 10
10.5288224804
 20
14.4920102826
 30
0.0
 10
10.5557560941
 20
14.4665824176
 30
0.0
 10
10.5818244869
 20
14.4420191799
 30
0.0
 10
10.6067971109
 20
14.4185509073
 30
0.0
 10
10.630453339
 20
14.3963979355
 30
0.0
 10
10.6525845041
 20
14.3757685688
 30
0.0
 10
10.6729956843
 20
14.3568570579
 30
0.0
 10
10.69150766
 20
14.3398420695
 30
0.0
 10
10.7056915535
 20
14.3269445192
 30
0.0
 10
10.7159763806
 20
14.3177024333
 30
0.0
 10
10.7228344197
 20
14.3115969555
 30
0.0
 10
10.7291090416
 20
14.3060740589
 30
0.0
 10
10.73478677
 20
14.301146998
 30
0.0
 10
10.7398553802
 20
14.2968276229
 30
0.0
 10
10.7443038688
 20
14.2931259618
 30
0.0
 10
10.7481228759
 20
14.2900509946
 30
0.0
 10
10.7509215989
 20
14.2879005374
 30
0.0
 10
10.7528461632
 20
14.286508836
 30
0.0
 10
10.7540370526
 20
14.2856916622
 30
0.0
 10
10.7550656192
 20
14.2850353173
 30
0.0
 10
10.755706924
 20
14.2846676679
 30
0.0
 10
10.7560017114
 20
14.2845146198
 30
0.0
  0
LINE
  5
599
100
AcDbEntity
  8
0
100
AcDbLine
 62
7
  6
CONTINUOUS
 10
10.7560017114
 20
14.2845146198
 11
10.7570803191
 21
14.2840622044
  0
SPLINE
  5
59A
100
AcDbEntity
  8
0
100
AcDbSpline
 62
7
  6
CONTINUOUS
 70
0
 71
3
 72
62
 73
58
 74
0
 42
0.0000001
 43
0.0000001
 44
0.0000000001
 40
0.0
 40
0.0
 40
0.0
 40
0.0
 40
0.00017306
 40
0.0003732997
 40
0.0006189929
 40
0.0009202262
 40
0.0012824544
 40
0.001708779
 40
0.0022010755
 40
0.0027605387
 40
0.004083594
 40
0.0056815168
 40
0.0075557525
 40
0.0097068099
 40
0.012134368
 40
0.0148376064
 40
0.0178155184
 40
0.0210668731
 40
0.0283829458
 40
0.0367708709
 40
0.0462124247
 40
0.0566870365
 40
0.0681711384
 40
0.0806392298
 40
0.1084122225
 40
0.1397551068
 40
0.1743837729
 40
0.2119839551
 40
0.2522140615
 40
0.294708445
 40
0.3390807808
 40
0.3849275098
 40
0.4318317265
 40
0.4793667506
 40
0.527100261
 40
0.5745980175
 40
0.6214280387
 40
0.6671643262
 40
0.711390969
 40
0.7537057536
 40
0.7937239703
 40
0.8310819412
 40
0.8654402776
 40
0.8964871971
 40
0.9239413197
 40
0.9362422902
 40
0.9475546957
 40
0.9578533848
 40
0.9671153098
 40
0.9753202272
 40
0.9824505446
 40
0.9884916266
 40
0.9934326495
 40
0.9954885328
 40
0.9972676743
 40
0.998770855
 40
1.0
 40
1.0
 40
1.0
 40
1.0
 10
10.7250186981
 20
14.2513461143
 30
0.0
 10
10.7249855618
 20
14.2513129779
 30
0.0
 10
10.7248971502
 20
14.2512575272
 30
0.0
 10
10.7247302872
 20
14.2512251664
 30
0.0
 10
10.7245270136
 20
14.2512343257
 30
0.0
 10
10.7242851393
 20
14.2512835655
 30
0.0
 10
10.7240034361
 20
14.2513726966
 30
0.0
 10
10.7236813444
 20
14.2515019787
 30
0.0
 10
10.7233186333
 20
14.2516715606
 30
0.0
 10
10.7227481757
 20
14.251968711
 30
0.0
 10
10.7219355911
 20
14.252447198
 30
0.0
 10
10.7208456215
 20
14.2531532664
 30
0.0
 10
10.7195936112
 20
14.2540202216
 30
0.0
 10
10.7181801477
 20
14.2550476735
 30
0.0
 10
10.7166059555
 20
14.2562352259
 30
0.0
 10
10.7148718659
 20
14.2575821938
 30
0.0
 10
10.7129787617
 20
14.2590878052
 30
0.0
 10
10.7101299715
 20
14.261398201
 30
0.0
 10
10.7061833405
 20
14.2646802291
 30
0.0
 10
10.7009983183
 20
14.2690937935
 30
0.0
 10
10.6952061946
 20
14.2741131552
 30
0.0
 10
10.6888194275
 20
14.2797261637
 30
0.0
 10
10.6818517004
 20
14.285919345
 30
0.0
 10
10.6714260252
 20
14.2952726531
 30
0.0
 10
10.6570738604
 20
14.3083015832
 30
0.0
 10
10.6383705475
 20
14.3254644538
 30
0.0
 10
10.6177828191
 20
14.3445092145
 30
0.0
 10
10.595491307
 20
14.3652557888
 30
0.0
 10
10.5716921929
 20
14.387508663
 30
0.0
 10
10.546595254
 20
14.4110584255
 30
0.0
 10
10.5204220542
 20
14.4356838069
 30
0.0
 10
10.4934039052
 20
14.4611537097
 30
0.0
 10
10.4657798075
 20
14.4872293084
 30
0.0
 10
10.4377942431
 20
14.5136662682
 30
0.0
 10
10.4096949996
 20
14.5402169346
 30
0.0
 10
10.3817308758
 20
14.5666326387
 30
0.0
 10
10.3541494621
 20
14.5926659192
 30
0.0
 10
10.327194849
 20
14.6180728201
 30
0.0
 10
10.301105455
 20
14.6426150888
 30
0.0
 10
10.2761118323
 20
14.666062379
 30
0.0
 10
10.2524346012
 20
14.6881943601
 30
0.0
 10
10.2302824335
 20
14.7088027234
 30
0.0
 10
10.2098502481
 20
14.7276932302
 30
0.0
 10
10.1913172688
 20
14.744687215
 30
0.0
 10
10.1771153459
 20
14.7575666324
 30
0.0
 10
10.1668159111
 20
14.7667939645
 30
0.0
 10
10.1599472741
 20
14.7728888202
 30
0.0
 10
10.1536620505
 20
14.7784010959
 30
0.0
 10
10.1479737169
 20
14.7833175407
 30
0.0
 10
10.1428944994
 20
14.787626312
 30
0.0
 10
10.1384354025
 20
14.7913174028
 30
0.0
 10
10.1346057845
 20
14.7943818435
 30
0.0
 10
10.1317978871
 20
14.7965230369
 30
0.0
 10
10.1298658752
 20
14.7979070474
 30
0.0
 10
10.1286696201
 20
14.7987189159
 30
0.0
 10
10.1276356726
 20
14.7993699871
 30
0.0
 10
10.1269906213
 20
14.7997336154
 30
0.0
 10
10.1266939803
 20
14.7998845519
 30
0.0
  0
LINE
  5
59B
100
AcDbEntity
  8
0
100
AcDbLine
 62
7
  6
CONTINUOUS
 10
10.1266939803
 20
14.7998845519
 11
10.125636543
 21
14.8003201485
  0
SPLINE
  5
59C
100
AcDbEntity
  8
0
100
AcDbSpline
 62
7
  6
CONTINUOUS
 70
0
 71
3
 72
63
 73
59
 74
0
 42
0.0000001
 43
0.0000001
 44
0.0000000001
 40
0.0
 40
0.0
 40
0.0
 40
0.0
 40
0.0001689139
 40
0.0003655716
 40
0.0006083502
 40
0.0009072106
 40
0.0012674702
 40
0.0016921274
 40
0.0021829862
 40
0.0027411911
 40
0.0040621401
 40
0.0056583506
 40
0.0075311605
 40
0.0096810118
 40
0.012107539
 40
0.0148098905
 40
0.0177870373
 40
0.0210377318
 40
0.0283527525
 40
0.0367399225
 40
0.0461809699
 40
0.0566552902
 40
0.068139291
 40
0.0806074529
 40
0.094031424
 40
0.1083810795
 40
0.1397250956
 40
0.1743553556
 40
0.2119575319
 40
0.2521899795
 40
0.2946869989
 40
0.3390622134
 40
0.3849120137
 40
0.4318194414
 40
0.4793577644
 40
0.5270946086
 40
0.5745956788
 40
0.6214289394
 40
0.6671683363
 40
0.7113979028
 40
0.7537153668
 40
0.7937359621
 40
0.8310959456
 40
0.8654558626
 40
0.8965038526
 40
0.9239584417
 40
0.9362593799
 40
0.9475715502
 40
0.9578697753
 40
0.9671309735
 40
0.9753348542
 40
0.9824637578
 40
0.9885029453
 40
0.9934414217
 40
0.9954956898
 40
0.9972729096
 40
0.9987737603
 40
1.0
 40
1.0
 40
1.0
 40
1.0
 10
10.108709327
 20
14.7840852626
 30
0.0
 10
10.1087416665
 20
14.7841176021
 30
0.0
 10
10.1088287158
 20
14.7841714131
 30
0.0
 10
10.1089931394
 20
14.784201065
 30
0.0
 10
10.1091938241
 20
14.7841893764
 30
0.0
 10
10.1094331323
 20
14.7841376672
 30
0.0
 10
10.1097122922
 20
14.7840460873
 30
0.0
 10
10.1100318569
 20
14.7839143494
 30
0.0
 10
10.110392046
 20
14.7837423002
 30
0.0
 10
10.1109590769
 20
14.78344157
 30
0.0
 10
10.1117673459
 20
14.7829587243
 30
0.0
 10
10.112852227
 20
14.782247692
 30
0.0
 10
10.1140991221
 20
14.781375714
 30
0.0
 10
10.1155074409
 20
14.7803431866
 30
0.0
 10
10.1170764548
 20
14.7791505134
 30
0.0
 10
10.1188053321
 20
14.777798383
 30
0.0
 10
10.1206931897
 20
14.7762875703
 30
0.0
 10
10.1235347088
 20
14.7739698523
 30
0.0
 10
10.1274722399
 20
14.7706787265
 30
0.0
 10
10.1326465171
 20
14.7662545345
 30
0.0
 10
10.138427764
 20
14.7612244025
 30
0.0
 10
10.1448035336
 20
14.7556004956
 30
0.0
 10
10.151760122
 20
14.7493962677
 30
0.0
 10
10.1592824102
 20
14.7426266194
 30
0.0
 10
10.1673541581
 20
14.7353077512
 30
0.0
 10
10.1791780425
 20
14.7245185173
 30
0.0
 10
10.195183232
 20
14.7097933809
 30
0.0
 10
10.2157475571
 20
14.6907254023
 30
0.0
 10
10.238015215
 20
14.6699551042
 30
0.0
 10
10.261790174
 20
14.6476781851
 30
0.0
 10
10.2868626532
 20
14.6241040419
 30
0.0
 10
10.3130111285
 20
14.5994539872
 30
0.0
 10
10.3400043136
 20
14.5739591438
 30
0.0
 10
10.3676032364
 20
14.5478583673
 30
0.0
 10
10.3955634418
 20
14.5213960216
 30
0.0
 10
10.4236371685
 20
14.4948197902
 30
0.0
 10
10.4515756441
 20
14.4683783727
 30
0.0
 10
10.4791313017
 20
14.4423192576
 30
0.0
 10
10.50606007
 20
14.4168864242
 30
0.0
 10
10.5321235509
 20
14.3923181507
 30
0.0
 10
10.5570912128
 20
14.3688448084
 30
0.0
 10
10.5807424573
 20
14.3466867556
 30
0.0
 10
10.6028686351
 20
14.3260523296
 30
0.0
 10
10.6232748536
 20
14.3071358048
 30
0.0
 10
10.6417819136
 20
14.2901158793
 30
0.0
 10
10.6559616501
 20
14.2772141508
 30
0.0
 10
10.6662431627
 20
14.2679687373
 30
0.0
 10
10.6730988239
 20
14.2618609004
 30
0.0
 10
10.6793710981
 20
14.2563356829
 30
0.0
 10
10.6850465117
 20
14.2514063441
 30
0.0
 10
10.6901128436
 20
14.2470847383
 30
0.0
 10
10.6945590945
 20
14.2433808998
 30
0.0
 10
10.6983759078
 20
14.2403038132
 30
0.0
 10
10.7011727741
 20
14.2381515349
 30
0.0
 10
10.7030958596
 20
14.2367583554
 30
0.0
 10
10.7042856971
 20
14.2359401769
 30
0.0
 10
10.7053132229
 20
14.2352828476
 30
0.0
 10
10.7059538115
 20
14.2349144583
 30
0.0
 10
10.7062482466
 20
14.2347610253
 30
0.0
  0
LINE
  5
59D
100
AcDbEntity
  8
0
100
AcDbLine
 62
7
  6
CONTINUOUS
 10
10.7062482466
 20
14.2347610253
 11
10.7073304429
 21
14.2343055864
  0
SPLINE
  5
59E
100
AcDbEntity
  8
0
100
AcDbSpline
 62
7
  6
CONTINUOUS
 70
0
 71
3
 72
63
 73
59
 74
0
 42
0.0000001
 43
0.0000001
 44
0.0000000001
 40
0.0
 40
0.0
 40
0.0
 40
0.0
 40
0.0001681859
 40
0.0003642327
 40
0.0006065282
 40
0.0009050061
 40
0.0012649566
 40
0.0016893588
 40
0.0021800031
 40
0.0027380249
 40
0.0040586788
 40
0.0056546611
 40
0.0075272906
 40
0.009676997
 40
0.0121034067
 40
0.0148056625
 40
0.0177827315
 40
0.0210333627
 40
0.0283482918
 40
0.0367354049
 40
0.0461764224
 40
0.0566507357
 40
0.0681347432
 40
0.0806029188
 40
0.0940269142
 40
0.1083766046
 40
0.1397206973
 40
0.1743510333
 40
0.2119532913
 40
0.252185793
 40
0.2946828758
 40
0.3390581182
 40
0.3849079443
 40
0.4318153702
 40
0.47935369
 40
0.5270905188
 40
0.574591576
 40
0.6214248297
 40
0.667164217
 40
0.7113938007
 40
0.7537112839
 40
0.7937319468
 40
0.8310920176
 40
0.8654520724
 40
0.8965002473
 40
0.9239550861
 40
0.9362561794
 40
0.9475685225
 40
0.9578669441
 40
0.9671283693
 40
0.9753325103
 40
0.982461714
 40
0.9885012539
 40
0.993440155
 40
0.9954946738
 40
0.9972721793
 40
0.9987733622
 40
1.0
 40
1.0
 40
1.0
 40
1.0
 10
10.0589006671
 20
14.7342766027
 30
0.0
 10
10.0589328672
 20
14.7343088028
 30
0.0
 10
10.0590196844
 20
14.7343623266
 30
0.0
 10
10.0591836891
 20
14.7343915128
 30
0.0
 10
10.059383942
 20
14.7343794045
 30
0.0
 10
10.0596228353
 20
14.7343272959
 30
0.0
 10
10.0599015959
 20
14.7342353302
 30
0.0
 10
10.0602207757
 20
14.7341032152
 30
0.0
 10
10.0605805917
 20
14.7339307971
 30
0.0
 10
10.0611471328
 20
14.7336295446
 30
0.0
 10
10.0619548129
 20
14.7331460927
 30
0.0
 10
10.0630390389
 20
14.7324344087
 30
0.0
 10
10.0642853168
 20
14.7315618088
 30
0.0
 10
10.0656930552
 20
14.73052869
 30
0.0
 10
10.0672615244
 20
14.7293354569
 30
0.0
 10
10.0689898922
 20
14.7279827985
 30
0.0
 10
10.0708772748
 20
14.7264714896
 30
0.0
 10
10.0737181889
 20
14.7241531214
 30
0.0
 10
10.0776550604
 20
14.7208612865
 30
0.0
 10
10.0828286941
 20
14.7164364016
 30
0.0
 10
10.0886094241
 20
14.7114056976
 30
0.0
 10
10.0949848
 20
14.7057813378
 30
0.0
 10
10.1019411136
 20
14.6995767755
 30
0.0
 10
10.1094632423
 20
14.6928069093
 30
0.0
 10
10.1175349439
 20
14.6854879363
 30
0.0
 10
10.1293589173
 20
14.6746987095
 30
0.0
 10
10.1453644987
 20
14.6599738764
 30
0.0
 10
10.1659296723
 20
14.6409066577
 30
0.0
 10
10.1881985433
 20
14.6201375086
 30
0.0
 10
10.2119750596
 20
14.5978621005
 30
0.0
 10
10.2370494092
 20
14.5742898132
 30
0.0
 10
10.2632000497
 20
14.5496419296
 30
0.0
 10
10.2901956631
 20
14.524149555
 30
0.0
 10
10.3177972598
 20
14.4980515138
 30
0.0
 10
10.3457603577
 20
14.4715921475
 30
0.0
 10
10.3738371763
 20
14.4450191096
 30
0.0
 10
10.4017789196
 20
14.4185810738
 30
0.0
 10
10.4293379969
 20
14.3925255028
 30
0.0
 10
10.456270316
 20
14.3670963472
 30
0.0
 10
10.4823374519
 20
14.3425318616
 30
0.0
 10
10.507308857
 20
14.3190623838
 30
0.0
 10
10.5309639045
 20
14.2969082495
 30
0.0
 10
10.5530939276
 20
14.2762777633
 30
0.0
 10
10.5735040051
 20
14.2573651757
 30
0.0
 10
10.5920149176
 20
14.2403491536
 30
0.0
 10
10.606197933
 20
14.2274507472
 30
0.0
 10
10.6164820714
 20
14.2182079885
 30
0.0
 10
10.6233396213
 20
14.2121020371
 30
0.0
 10
10.6296137642
 20
14.2065786774
 30
0.0
 10
10.6352910239
 20
14.2016511641
 30
0.0
 10
10.6403591762
 20
14.1973313476
 30
0.0
 10
10.6448072173
 20
14.1936292566
 30
0.0
 10
10.6486257879
 20
14.1905538713
 30
0.0
 10
10.6514241424
 20
14.1884030548
 30
0.0
 10
10.6533484137
 20
14.1870110612
 30
0.0
 10
10.6545390949
 20
14.1861936885
 30
0.0
 10
10.6555674557
 20
14.1855371483
 30
0.0
 10
10.6562086187
 20
14.1851693519
 30
0.0
 10
10.6565033363
 20
14.1850162271
 30
0.0
  0
LINE
  5
59F
100
AcDbEntity
  8
0
100
AcDbLine
 62
7
  6
CONTINUOUS
 10
10.6565033363
 20
14.1850162271
 11
10.6575826666
 21
14.1845632081
  0
SPLINE
  5
5A0
100
AcDbEntity
  8
0
100
AcDbSpline
 62
7
  6
CONTINUOUS
 70
0
 71
3
 72
62
 73
58
 74
0
 42
0.0000001
 43
0.0000001
 44
0.0000000001
 40
0.0
 40
0.0
 40
0.0
 40
0.0
 40
0.0001738679
 40
0.0003748115
 40
0.0006210822
 40
0.0009227889
 40
0.0012854123
 40
0.0017120735
 40
0.0022046619
 40
0.0027643818
 40
0.0040878702
 40
0.0056861489
 40
0.0075606843
 40
0.0097119984
 40
0.0121397787
 40
0.0148432109
 40
0.0178212929
 40
0.0210727968
 40
0.0283891145
 40
0.0367772251
 40
0.046218916
 40
0.0566936253
 40
0.0681777863
 40
0.0806458992
 40
0.1084188536
 40
0.1397615987
 40
0.1743900352
 40
0.2119899234
 40
0.2522196616
 40
0.2947136497
 40
0.3390855372
 40
0.3849318082
 40
0.4318355426
 40
0.4793700949
 40
0.5271031419
 40
0.5746004595
 40
0.6214300762
 40
0.6671659869
 40
0.7113923093
 40
0.7537068046
 40
0.7937248068
 40
0.8310826009
 40
0.8654408245
 40
0.8964876753
 40
0.9239417754
 40
0.9362427501
 40
0.9475551614
 40
0.9578538591
 40
0.9671157955
 40
0.9753207193
 40
0.9824510308
 40
0.9884920851
 40
0.9934330435
 40
0.9954888719
 40
0.9972679366
 40
0.9987710092
 40
1.0
 40
1.0
 40
1.0
 40
1.0
 10
10.6737585339
 20
14.2000859501
 30
0.0
 10
10.6737252425
 20
14.2000526586
 30
0.0
 10
10.6736365637
 20
14.1999968895
 30
0.0
 10
10.6734692261
 20
14.1999640008
 30
0.0
 10
10.6732654462
 20
14.1999726624
 30
0.0
 10
10.6730230674
 20
14.2000214143
 30
0.0
 10
10.672740862
 20
14.2001100595
 30
0.0
 10
10.6724182693
 20
14.2002388525
 30
0.0
 10
10.6720550567
 20
14.200407941
 30
0.0
 10
10.6714839156
 20
14.2007043731
 30
0.0
 10
10.6706704655
 20
14.2011819795
 30
0.0
 10
10.6695794694
 20
14.2018870378
 30
0.0
 10
10.6683264216
 20
14.2027529638
 30
0.0
 10
10.6669119094
 20
14.2037793692
 30
0.0
 10
10.6653366566
 20
14.2049658594
 30
0.0
 10
10.6636014949
 20
14.2063117504
 30
0.0
 10
10.6617073073
 20
14.207816271
 30
0.0
 10
10.6588570102
 20
14.2101251237
 30
0.0
 10
10.6549084838
 20
14.2134052199
 30
0.0
 10
10.649721212
 20
14.2178165098
 30
0.0
 10
10.6439268012
 20
14.2228335522
 30
0.0
 10
10.6375377133
 20
14.2284442006
 30
0.0
 10
10.6305676355
 20
14.2346349844
 30
0.0
 10
10.6201386835
 20
14.2439849178
 30
0.0
 10
10.6057824055
 20
14.2570096149
 30
0.0
 10
10.5870742257
 20
14.2741674864
 30
0.0
 10
10.5664815793
 20
14.2932071807
 30
0.0
 10
10.5441851251
 20
14.3139486466
 30
0.0
 10
10.5203810635
 20
14.336196404
 30
0.0
 10
10.4952791997
 20
14.3597410644
 30
0.0
 10
10.4691011147
 20
14.3843613919
 30
0.0
 10
10.4420781492
 20
14.4098263109
 30
0.0
 10
10.4144493203
 20
14.4358970291
 30
0.0
 10
10.3864591352
 20
14.4623292363
 30
0.0
 10
10.3583554009
 20
14.4888753089
 30
0.0
 10
10.3303869395
 20
14.515286603
 30
0.0
 10
10.3028013684
 20
14.5413156853
 30
0.0
 10
10.2758428068
 20
14.5667186345
 30
0.0
 10
10.2497497076
 20
14.5912572252
 30
0.0
 10
10.2247526474
 20
14.6147011484
 30
0.0
 10
10.2010722831
 20
14.6368300986
 30
0.0
 10
10.1789173127
 20
14.6574358016
 30
0.0
 10
10.1584826926
 20
14.676324042
 30
0.0
 10
10.1399476758
 20
14.6933161858
 30
0.0
 10
10.1257443706
 20
14.7061943982
 30
0.0
 10
10.1154440733
 20
14.7154210204
 30
0.0
 10
10.1085749335
 20
14.7215154891
 30
0.0
 10
10.1022893335
 20
14.7270275038
 30
0.0
 10
10.0966007535
 20
14.7319438171
 30
0.0
 10
10.091521424
 20
14.7362525886
 30
0.0
 10
10.0870623543
 20
14.7399438122
 30
0.0
 10
10.0832329074
 20
14.7430085201
 30
0.0
 10
10.0804252802
 20
14.7451500688
 30
0.0
 10
10.0784935728
 20
14.7465344624
 30
0.0
 10
10.0772975791
 20
14.7473466302
 30
0.0
 10
10.0762639335
 20
14.7479980345
 30
0.0
 10
10.0756191162
 20
14.7483619456
 30
0.0
 10
10.0753225978
 20
14.7485130399
 30
0.0
  0
LINE
  5
5A1
100
AcDbEntity
  8
0
100
AcDbLine
 62
7
  6
CONTINUOUS
 10
10.0753225978
 20
14.7485130399
 11
10.0742632305
 21
14.7489500173
  0
SPLINE
  5
5A2
100
AcDbEntity
  8
0
100
AcDbSpline
 62
9
  6
CONTINUOUS
 70
0
 71
3
 72
19
 73
15
 74
0
 42
0.0000001
 43
0.0000001
 44
0.0000000001
 40
0.0
 40
0.0
 40
0.0
 40
0.0
 40
0.0174162939
 40
0.0371062591
 40
0.0613978921
 40
0.0915694153
 40
0.1282681429
 40
0.1718331838
 40
0.2224518844
 40
0.2802295031
 40
0.4173884782
 40
0.5833457052
 40
0.7777834355
 40
1.0
 40
1.0
 40
1.0
 40
1.0
 10
7.2514255633
 20
12.5883916574
 30
0.0
 10
7.2514598786
 20
12.5884256441
 30
0.0
 10
7.2515511038
 20
12.5884813982
 30
0.0
 10
7.2517233567
 20
12.5885030273
 30
0.0
 10
7.2519282028
 20
12.5884724749
 30
0.0
 10
7.2521688078
 20
12.5883922879
 30
0.0
 10
7.2524467065
 20
12.5882625457
 30
0.0
 10
7.2527624268
 20
12.5880829453
 30
0.0
 10
7.2531159975
 20
12.5878533321
 30
0.0
 10
7.2536700024
 20
12.5874570888
 30
0.0
 10
7.2544517373
 20
12.5868311755
 30
0.0
 10
7.2554892681
 20
12.5859212259
 30
0.0
 10
7.2566684862
 20
12.5848164619
 30
0.0
 10
7.2574923271
 20
12.5840062038
 30
0.0
 10
7.2579277955
 20
12.5835701895
 30
0.0
  0
SPLINE
  5
5A3
100
AcDbEntity
  8
0
100
AcDbSpline
 62
7
  6
CONTINUOUS
 70
0
 71
3
 72
26
 73
22
 74
0
 42
0.0000001
 43
0.0000001
 44
0.0000000001
 40
0.0
 40
0.0
 40
0.0
 40
0.0
 40
0.1810232424
 40
0.3588042972
 40
0.4439629988
 40
0.525370779
 40
0.6021659644
 40
0.6735666946
 40
0.7388831582
 40
0.7975291271
 40
0.8490374615
 40
0.8720130539
 40
0.8931005402
 40
0.9122932545
 40
0.9296027027
 40
0.9450703247
 40
0.9587726542
 40
0.9708433929
 40
0.9814976154
 40
0.9910623049
 40
1.0
 40
1.0
 40
1.0
 40
1.0
 10
7.8343118852
 20
12.2066008795
 30
0.0
 10
7.8378949408
 20
12.2030178239
 30
0.0
 10
7.8448436163
 20
12.195761107
 30
0.0
 10
7.8530559352
 20
12.1864281989
 30
0.0
 10
7.8591688199
 20
12.178974447
 30
0.0
 10
7.8633574218
 20
12.1736011801
 30
0.0
 10
7.867170101
 20
12.1684260351
 30
0.0
 10
7.8705661894
 20
12.1635067358
 30
0.0
 10
7.8735110032
 20
12.1588970082
 30
0.0
 10
7.8759752517
 20
12.1546462119
 30
0.0
 10
7.8776696661
 20
12.151323963
 30
0.0
 10
7.8787508405
 20
12.1488762214
 30
0.0
 10
7.8793968065
 20
12.1472269183
 30
0.0
 10
7.8799082313
 20
12.1456972727
 30
0.0
 10
7.8802839276
 20
12.1442907248
 30
0.0
 10
7.8805234442
 20
12.1430103296
 30
0.0
 10
7.880626053
 20
12.1418582333
 30
0.0
 10
7.8805909015
 20
12.1408359171
 30
0.0
 10
7.8804158249
 20
12.1399441018
 30
0.0
 10
7.8800966041
 20
12.1391857143
 30
0.0
 10
7.8797795165
 20
12.1387673912
 30
0.0
 10
7.8796026241
 20
12.1385904698
 30
0.0
  0
SPLINE
  5
5A4
100
AcDbEntity
  8
0
100
AcDbSpline
 62
7
  6
CONTINUOUS
 70
0
 71
3
 72
33
 73
29
 74
0
 42
0.0000001
 43
0.0000001
 44
0.0000000001
 40
0.0
 40
0.0
 40
0.0
 40
0.0
 40
0.2188949704
 40
0.3202608098
 40
0.4157329054
 40
0.5049526538
 40
0.5875879311
 40
0.6633322578
 40
0.7319042034
 40
0.7930511964
 40
0.8465497164
 40
0.8703690087
 40
0.8922068596
 40
0.9120437029
 40
0.929863556
 40
0.9456531893
 40
0.9594013725
 40
0.9711026668
 40
0.9807571222
 40
0.9848196511
 40
0.9883760129
 40
0.9914315463
 40
0.9939951295
 40
0.99608243
 40
0.9977234792
 40
0.9983959091
 40
0.9989859251
 40
1.0
 40
1.0
 40
1.0
 40
1.0
 10
10.4875894104
 20
14.267726881
 30
0.0
 10
10.4972025482
 20
14.2587505128
 30
0.0
 10
10.5112845343
 20
14.2456357394
 30
0.0
 10
10.5296157152
 20
14.228666624
 30
0.0
 10
10.5422566839
 20
14.2170204271
 30
0.0
 10
10.5541008645
 20
14.2061704498
 30
0.0
 10
10.5651056665
 20
14.1961591308
 30
0.0
 10
10.5752316933
 20
14.1870256367
 30
0.0
 10
10.5844427882
 20
14.1788057185
 30
0.0
 10
10.5927062398
 20
14.1715317708
 30
0.0
 10
10.5989998327
 20
14.1660900626
 30
0.0
 10
10.6035436564
 20
14.1622364791
 30
0.0
 10
10.6065637359
 20
14.1597134427
 30
0.0
 10
10.6093275848
 20
14.1574461598
 30
0.0
 10
10.6118328126
 20
14.1554368737
 30
0.0
 10
10.6140772279
 20
14.1536875278
 30
0.0
 10
10.6160588939
 20
14.1521996098
 30
0.0
 10
10.6177761371
 20
14.1509745034
 30
0.0
 10
10.619049233
 20
14.1501297805
 30
0.0
 10
10.6199374235
 20
14.1495925352
 30
0.0
 10
10.6204975845
 20
14.1492797796
 30
0.0
 10
10.6209909332
 20
14.1490332039
 30
0.0
 10
10.6214177762
 20
14.1488523945
 30
0.0
 10
10.6217783753
 20
14.1487371728
 30
0.0
 10
10.6220407453
 20
14.1486918562
 30
0.0
 10
10.6222158931
 20
14.1486955366
 30
0.0
 10
10.6223506994
 20
14.1487198404
 30
0.0
 10
10.6224401399
 20
14.1487676323
 30
0.0
 10
10.6224832237
 20
14.1488107186
 30
0.0
  0
SPLINE
  5
5A5
100
AcDbEntity
  8
0
100
AcDbSpline
 62
7
  6
CONTINUOUS
 70
0
 71
3
 72
30
 73
26
 74
0
 42
0.0000001
 43
0.0000001
 44
0.0000000001
 40
0.0
 40
0.0
 40
0.0
 40
0.0
 40
0.172815989
 40
0.3488628039
 40
0.4351593545
 40
0.518783482
 40
0.5986392855
 40
0.6736757166
 40
0.7428960029
 40
0.8053669167
 40
0.8602312977
 40
0.8845686952
 40
0.9067261743
 40
0.9266264731
 40
0.9442024047
 40
0.9593975594
 40
0.9721730333
 40
0.9776472568
 40
0.982513734
 40
0.9867778186
 40
0.9904501379
 40
0.9935510028
 40
0.996119065
 40
0.9982253503
 40
1.0
 40
1.0
 40
1.0
 40
1.0
 10
7.0366152522
 20
12.997273127
 30
0.0
 10
7.0398583856
 20
12.9927921954
 30
0.0
 10
7.0463160656
 20
12.9836817804
 30
0.0
 10
7.0541754595
 20
12.9721817828
 30
0.0
 10
7.0603029352
 20
12.9629578296
 30
0.0
 10
7.0646652644
 20
12.9562579776
 30
0.0
 10
7.0687673743
 20
12.9498191977
 30
0.0
 10
7.0725548397
 20
12.9437270953
 30
0.0
 10
7.0759769498
 20
12.9380636283
 30
0.0
 10
7.0789868825
 20
12.9329062609
 30
0.0
 10
7.081197828
 20
12.9289466705
 30
0.0
 10
7.0827221324
 20
12.9260826807
 30
0.0
 10
7.0836910716
 20
12.9241911527
 30
0.0
 10
7.0845286917
 20
12.9224758779
 30
0.0
 10
7.0852319384
 20
12.9209434221
 30
0.0
 10
7.085798037
 20
12.9195997126
 30
0.0
 10
7.0861716334
 20
12.9185959017
 30
0.0
 10
7.0863948905
 20
12.9178903333
 30
0.0
 10
7.0865178517
 20
12.9174391666
 30
0.0
 10
7.0866052091
 20
12.91703856
 30
0.0
 10
7.0866569183
 20
12.9166887245
 30
0.0
 10
7.0866730415
 20
12.9163895848
 30
0.0
 10
7.0866532808
 20
12.9161404473
 30
0.0
 10
7.0865969585
 20
12.9159399997
 30
0.0
 10
7.0865276659
 20
12.915833243
 30
0.0
 10
7.0864875028
 20
12.9157930756
 30
0.0
  0
SPLINE
  5
5A6
100
AcDbEntity
  8
0
100
AcDbSpline
 62
7
  6
CONTINUOUS
 70
0
 71
3
 72
63
 73
59
 74
0
 42
0.0000001
 43
0.0000001
 44
0.0000000001
 40
0.0
 40
0.0
 40
0.0
 40
0.0
 40
0.0001853606
 40
0.0003973874
 40
0.0006545979
 40
0.0009675732
 40
0.0013421477
 40
0.0017816744
 40
0.0022881885
 40
0.0028629883
 40
0.0042204841
 40
0.0058584434
 40
0.0077784208
 40
0.0099808436
 40
0.0124655854
 40
0.0152320033
 40
0.0182788725
 40
0.0216047883
 40
0.0290873006
 40
0.0376636361
 40
0.0473151702
 40
0.0580198376
 40
0.0824888118
 40
0.1108453652
 40
0.1428267123
 40
0.178135742
 40
0.216443997
 40
0.2573949007
 40
0.3006071977
 40
0.3456785063
 40
0.3921892077
 40
0.4397062235
 40
0.4877873108
 40
0.535984897
 40
0.583850594
 40
0.6309390653
 40
0.6768124368
 40
0.7210442512
 40
0.7632234569
 40
0.8029583573
 40
0.8398801162
 40
0.8736464302
 40
0.903944619
 40
0.9177044199
 40
0.9304949269
 40
0.9422868549
 40
0.9530532119
 40
0.9627695648
 40
0.9714142389
 40
0.9789681233
 40
0.9854155986
 40
0.9907441956
 40
0.9929865871
 40
0.9949470799
 40
0.9966259266
 40
0.9980246952
 40
0.999146856
 40
1.0
 40
1.0
 40
1.0
 40
1.0
 10
10.067676963
 20
14.7015534908
 30
0.0
 10
10.0677099793
 20
14.7015865159
 30
0.0
 10
10.0677966461
 20
14.7016423471
 30
0.0
 10
10.0679599151
 20
14.7016781837
 30
0.0
 10
10.0681581036
 20
14.7016741559
 30
0.0
 10
10.0683929849
 20
14.7016318185
 30
0.0
 10
10.0686657173
 20
14.7015514515
 30
0.0
 10
10.0689768319
 20
14.7014328725
 30
0.0
 10
10.0693265554
 20
14.7012759682
 30
0.0
 10
10.0698755348
 20
14.7009997146
 30
0.0
 10
10.0706564868
 20
14.700552309
 30
0.0
 10
10.0717027019
 20
14.6998893533
 30
0.0
 10
10.0729030555
 20
14.6990733973
 30
0.0
 10
10.0742569553
 20
14.6981048579
 30
0.0
 10
10.0757637051
 20
14.6969840719
 30
0.0
 10
10.0774225062
 20
14.6957116732
 30
0.0
 10
10.0792324871
 20
14.6942884689
 30
0.0
 10
10.0819547744
 20
14.6921035764
 30
0.0
 10
10.0857238644
 20
14.6889977925
 30
0.0
 10
10.0906728737
 20
14.6848188244
 30
0.0
 10
10.0961982811
 20
14.6800647419
 30
0.0
 10
10.104704637
 20
14.6726368509
 30
0.0
 10
10.1166650454
 20
14.6620006749
 30
0.0
 10
10.1325201216
 20
14.6476789852
 30
0.0
 10
10.1503102039
 20
14.6314259145
 30
0.0
 10
10.1698760886
 20
14.6133999048
 30
0.0
 10
10.1910419244
 20
14.5937757386
 30
0.0
 10
10.2136172235
 20
14.572743396
 30
0.0
 10
10.2373984453
 20
14.5505060054
 30
0.0
 10
10.2621709247
 20
14.5272779521
 30
0.0
 10
10.2877108238
 20
14.5032828542
 30
0.0
 10
10.3137872455
 20
14.4787514353
 30
0.0
 10
10.3401643364
 20
14.4539193982
 30
0.0
 10
10.3666035297
 20
14.4290251746
 30
0.0
 10
10.3928657093
 20
14.4043077464
 30
0.0
 10
10.4187134804
 20
14.3800043685
 30
0.0
 10
10.4439133365
 20
14.3563483873
 30
0.0
 10
10.4682378486
 20
14.333567042
 30
0.0
 10
10.4914677617
 20
14.3118793376
 30
0.0
 10
10.5133940205
 20
14.2914940208
 30
0.0
 10
10.5338196622
 20
14.2726075241
 30
0.0
 10
10.5525617409
 20
14.2554023349
 30
0.0
 10
10.5670682946
 20
14.2422122538
 30
0.0
 10
10.5777139129
 20
14.2326315024
 30
0.0
 10
10.5849195844
 20
14.2261981691
 30
0.0
 10
10.5915907842
 20
14.220298688
 30
0.0
 10
10.5977128795
 20
14.2149475708
 30
0.0
 10
10.6032724591
 20
14.2101579513
 30
0.0
 10
10.6082573689
 20
14.20594163
 30
0.0
 10
10.6126567177
 20
14.2023087103
 30
0.0
 10
10.6164610066
 20
14.1992681876
 30
0.0
 10
10.619268767
 20
14.1971249331
 30
0.0
 10
10.6212171719
 20
14.1957211445
 30
0.0
 10
10.6224392614
 20
14.1948828151
 30
0.0
 10
10.6235075499
 20
14.1941970452
 30
0.0
 10
10.6244218835
 20
14.1936633546
 30
0.0
 10
10.6251817014
 20
14.1932815739
 30
0.0
 10
10.6256481027
 20
14.1931018421
 30
0.0
 10
10.6258557471
 20
14.1930463378
 30
0.0
  0
LINE
  5
5A7
100
AcDbEntity
  8
0
100
AcDbLine
 62
7
  6
CONTINUOUS
 10
10.105121683
 20
14.7407000151
 11
10.1073030048
 21
14.7396407764
  0
SPLINE
  5
5A8
100
AcDbEntity
  8
0
100
AcDbSpline
 62
7
  6
CONTINUOUS
 70
0
 71
3
 72
58
 73
54
 74
0
 42
0.0000001
 43
0.0000001
 44
0.0000000001
 40
0.0
 40
0.0
 40
0.0
 40
0.0
 40
0.0016130376
 40
0.0034964564
 40
0.0056506413
 40
0.0080754739
 40
0.0137341233
 40
0.0204632636
 40
0.028250252
 40
0.0370787983
 40
0.0469303156
 40
0.0577833232
 40
0.0823967983
 40
0.1107024466
 40
0.142449599
 40
0.1773563613
 40
0.2151124514
 40
0.2553820373
 40
0.2978068181
 40
0.3420093085
 40
0.4341617538
 40
0.5285672255
 40
0.575567473
 40
0.6218747664
 40
0.667077522
 40
0.7107741022
 40
0.7525764962
 40
0.7921135722
 40
0.8290346915
 40
0.8630125595
 40
0.8937464723
 40
0.9209649241
 40
0.9444283575
 40
0.9546865785
 40
0.9639319573
 40
0.9721450031
 40
0.9793084178
 40
0.982492107
 40
0.9854084173
 40
0.9880559982
 40
0.9904339984
 40
0.9925419221
 40
0.9943795969
 40
0.9959474951
 40
0.9972474657
 40
0.9977981939
 40
0.9982837351
 40
0.9987053569
 40
0.9990650491
 40
0.9993661109
 40
0.9996142601
 40
0.9998196908
 40
1.0
 40
1.0
 40
1.0
 40
1.0
 10
10.1073030048
 20
14.7396407764
 30
0.0
 10
10.1076514643
 20
14.7394304823
 30
0.0
 10
10.1083959737
 20
14.7389567034
 30
0.0
 10
10.1095745867
 20
14.7381541785
 30
0.0
 10
10.110900635
 20
14.7372050627
 30
0.0
 10
10.1129733949
 20
14.7356633553
 30
0.0
 10
10.1159217105
 20
14.7333656588
 30
0.0
 10
10.1198767445
 20
14.7301606262
 30
0.0
 10
10.124400914
 20
14.7263884752
 30
0.0
 10
10.1294849217
 20
14.7220582069
 30
0.0
 10
10.1351180218
 20
14.7171799512
 30
0.0
 10
10.1437124693
 20
14.7096376888
 30
0.0
 10
10.1557192564
 20
14.6989250533
 30
0.0
 10
10.1715568761
 20
14.6845882284
 30
0.0
 10
10.1892345043
 20
14.6684145657
 30
0.0
 10
10.2086009186
 20
14.6505546066
 30
0.0
 10
10.2294897711
 20
14.6311737939
 30
0.0
 10
10.2517213706
 20
14.6104513578
 30
0.0
 10
10.2751041659
 20
14.5885785297
 30
0.0
 10
10.3080060764
 20
14.5577189005
 30
0.0
 10
10.3504165191
 20
14.5178252152
 30
0.0
 10
10.3933126273
 20
14.4774175904
 30
0.0
 10
10.4277969147
 20
14.4449503475
 30
0.0
 10
10.4532529324
 20
14.4210046137
 30
0.0
 10
10.4781190044
 20
14.3976483316
 30
0.0
 10
10.5021806102
 20
14.3750958612
 30
0.0
 10
10.5252304016
 20
14.3535543384
 30
0.0
 10
10.5470700716
 20
14.3332218008
 30
0.0
 10
10.5675120404
 20
14.3142854277
 30
0.0
 10
10.5863811792
 20
14.2969198557
 30
0.0
 10
10.6035161328
 20
14.2812854019
 30
0.0
 10
10.6187711319
 20
14.2675270879
 30
0.0
 10
10.6302710704
 20
14.2573197123
 30
0.0
 10
10.6384452672
 20
14.2501979794
 30
0.0
 10
10.6437523492
 20
14.2456434412
 30
0.0
 10
10.6485048362
 20
14.2416421065
 30
0.0
 10
10.6521240931
 20
14.2386699326
 30
0.0
 10
10.6547380515
 20
14.236580138
 30
0.0
 10
10.6564759595
 20
14.2352194457
 30
0.0
 10
10.6580688078
 20
14.2340034626
 30
0.0
 10
10.6595158106
 20
14.232932868
 30
0.0
 10
10.6608162592
 20
14.2320082094
 30
0.0
 10
10.6619694997
 20
14.2312298094
 30
0.0
 10
10.6629750232
 20
14.2305980585
 30
0.0
 10
10.663725905
 20
14.230172407
 30
0.0
 10
10.6642540101
 20
14.2299101776
 30
0.0
 10
10.6645906657
 20
14.2297615369
 30
0.0
 10
10.6648903341
 20
14.2296496151
 30
0.0
 10
10.6651532398
 20
14.2295743138
 30
0.0
 10
10.6653799043
 20
14.2295354768
 30
0.0
 10
10.6655714362
 20
14.2295333683
 30
0.0
 10
10.6657294361
 20
14.229569508
 30
0.0
 10
10.6658133967
 20
14.2296240708
 30
0.0
 10
10.665845569
 20
14.2296562384
 30
0.0
  0
LINE
  5
5A9
100
AcDbEntity
  8
0
100
AcDbLine
 62
7
  6
CONTINUOUS
 10
10.1541351745
 20
14.7927010439
 11
10.1567853706
 21
14.7913503256
  0
SPLINE
  5
5AA
100
AcDbEntity
  8
0
100
AcDbSpline
 62
7
  6
CONTINUOUS
 70
0
 71
3
 72
57
 73
53
 74
0
 42
0.0000001
 43
0.0000001
 44
0.0000000001
 40
0.0
 40
0.0
 40
0.0
 40
0.0
 40
0.0017304569
 40
0.0037299219
 40
0.0085354899
 40
0.0144124886
 40
0.0213506653
 40
0.0293367642
 40
0.0383540486
 40
0.0483835721
 40
0.0594035169
 40
0.0843168046
 40
0.1128758996
 40
0.1448295147
 40
0.1798959565
 40
0.2177657091
 40
0.2581043629
 40
0.3005556187
 40
0.3447444607
 40
0.436761725
 40
0.5309125428
 40
0.5777509327
 40
0.6238791574
 40
0.6688901949
 40
0.7123869931
 40
0.7539859371
 40
0.7933204386
 40
0.8300439263
 40
0.8638332491
 40
0.8943913226
 40
0.9214500797
 40
0.9447729831
 40
0.9549689007
 40
0.9641577717
 40
0.9723202485
 40
0.9794393308
 40
0.9826031981
 40
0.9855013254
 40
0.9881323856
 40
0.9904954724
 40
0.9925901305
 40
0.9944162328
 40
0.9959742301
 40
0.9972659041
 40
0.9978130884
 40
0.9982954875
 40
0.9987143631
 40
0.9990716925
 40
0.9993707318
 40
0.9996171467
 40
0.9998210691
 40
1.0
 40
1.0
 40
1.0
 40
1.0
 10
10.1567853706
 20
14.7913503256
 30
0.0
 10
10.1571562313
 20
14.7911161935
 30
0.0
 10
10.1579455405
 20
14.7905955678
 30
0.0
 10
10.159718571
 20
14.7893558047
 30
0.0
 10
10.1622930274
 20
14.7874301474
 30
0.0
 10
10.1658013237
 20
14.7846663232
 30
0.0
 10
10.1698842818
 20
14.7813306624
 30
0.0
 10
10.1745334702
 20
14.7774310734
 30
0.0
 10
10.1797391902
 20
14.7729763603
 30
0.0
 10
10.1854905737
 20
14.7679770519
 30
0.0
 10
10.1942347466
 20
14.7602799316
 30
0.0
 10
10.2064193098
 20
14.749384013
 30
0.0
 10
10.2224585001
 20
14.7348401949
 30
0.0
 10
10.2403206772
 20
14.7184764261
 30
0.0
 10
10.2598540484
 20
14.7004438504
 30
0.0
 10
10.2808919934
 20
14.6809082418
 30
0.0
 10
10.3032547892
 20
14.6600488845
 30
0.0
 10
10.3267510994
 20
14.638056814
 30
0.0
 10
10.3597700734
 20
14.6070715893
 30
0.0
 10
10.4022880502
 20
14.5670603416
 30
0.0
 10
10.4452681482
 20
14.5265603349
 30
0.0
 10
10.4797925704
 20
14.4940460376
 30
0.0
 10
10.5052612998
 20
14.470082077
 30
0.0
 10
10.5301306629
 20
14.4467170338
 30
0.0
 10
10.5541876073
 20
14.4241638022
 30
0.0
 10
10.5772262822
 20
14.402628023
 30
0.0
 10
10.5990498248
 20
14.38230629
 30
0.0
 10
10.6194721047
 20
14.3633843366
 30
0.0
 10
10.6383193317
 20
14.3460354608
 30
0.0
 10
10.6554314421
 20
14.3304186917
 30
0.0
 10
10.6706638281
 20
14.3166778943
 30
0.0
 10
10.6821454891
 20
14.3064844543
 30
0.0
 10
10.6903059318
 20
14.2993729758
 30
0.0
 10
10.6956036471
 20
14.2948252797
 30
0.0
 10
10.7003475343
 20
14.2908300516
 30
0.0
 10
10.703960085
 20
14.2878624332
 30
0.0
 10
10.7065691094
 20
14.2857758496
 30
0.0
 10
10.7083036785
 20
14.2844172523
 30
0.0
 10
10.7098934266
 20
14.2832031218
 30
0.0
 10
10.7113375759
 20
14.282134146
 30
0.0
 10
10.7126354204
 20
14.281210863
 30
0.0
 10
10.7137863178
 20
14.2804335786
 30
0.0
 10
10.714789755
 20
14.2798026822
 30
0.0
 10
10.715539049
 20
14.2793775634
 30
0.0
 10
10.7160660077
 20
14.2791156203
 30
0.0
 10
10.7164019136
 20
14.2789671174
 30
0.0
 10
10.7167009042
 20
14.2788552633
 30
0.0
 10
10.7169631999
 20
14.2787799545
 30
0.0
 10
10.7171893193
 20
14.2787410418
 30
0.0
 10
10.7173803661
 20
14.2787387961
 30
0.0
 10
10.7175379451
 20
14.2787747287
 30
0.0
 10
10.717621671
 20
14.2788291092
 30
0.0
 10
10.7176537382
 20
14.2788611765
 30
0.0
  0
SPLINE
  5
5AB
100
AcDbEntity
  8
0
100
AcDbSpline
 62
7
  6
CONTINUOUS
 70
0
 71
3
 72
11
 73
7
 74
0
 42
0.0000001
 43
0.0000001
 44
0.0000000001
 40
0.0
 40
0.0
 40
0.0
 40
0.0
 40
0.174829789
 40
0.3989433883
 40
0.6737634963
 40
1.0
 40
1.0
 40
1.0
 40
1.0
 10
10.2033746363
 20
14.8444764834
 30
0.0
 10
10.2035523419
 20
14.8444289751
 30
0.0
 10
10.20394729
 20
14.8442823835
 30
0.0
 10
10.2045861227
 20
14.8439743088
 30
0.0
 10
10.2053437115
 20
14.8435492761
 30
0.0
 10
10.2058815483
 20
14.8432163727
 30
0.0
 10
10.20617075
 20
14.8430314892
 30
0.0
  0
SPLINE
  5
5AC
100
AcDbEntity
  8
0
100
AcDbSpline
 62
7
  6
CONTINUOUS
 70
0
 71
3
 72
57
 73
53
 74
0
 42
0.0000001
 43
0.0000001
 44
0.0000000001
 40
0.0
 40
0.0
 40
0.0
 40
0.0
 40
0.0017625579
 40
0.0037937727
 40
0.0086614649
 40
0.0145984079
 40
0.0215941158
 40
0.0296351579
 40
0.0387046427
 40
0.0487835112
 40
0.0598498881
 40
0.0848469988
 40
0.113477467
 40
0.1454898589
 40
0.1806023837
 40
0.2185057016
 40
0.258865697
 40
0.3013265204
 40
0.3455138057
 40
0.4374975688
 40
0.5315806907
 40
0.5783750914
 40
0.6244542025
 40
0.6694122086
 40
0.7128532916
 40
0.7543952134
 40
0.7936724974
 40
0.8303399556
 40
0.8640754655
 40
0.8945831459
 40
0.9215958947
 40
0.9448780741
 40
0.9550558903
 40
0.9642282487
 40
0.9723758858
 40
0.979481877
 40
0.9826398772
 40
0.9855325886
 40
0.9881586835
 40
0.9905172633
 40
0.9926078698
 40
0.9944303683
 40
0.995985202
 40
0.9972741397
 40
0.9978201035
 40
0.9983013708
 40
0.9987191928
 40
0.9990755312
 40
0.9993736209
 40
0.9996190994
 40
0.9998220634
 40
1.0
 40
1.0
 40
1.0
 40
1.0
 10
10.20617075
 20
14.8430314892
 30
0.0
 10
10.2065488683
 20
14.8427897623
 30
0.0
 10
10.2073528499
 20
14.8422539707
 30
0.0
 10
10.209155707
 20
14.8409834999
 30
0.0
 10
10.2117684557
 20
14.8390189494
 30
0.0
 10
10.2153238114
 20
14.8362076647
 30
0.0
 10
10.2194550435
 20
14.8328232519
 30
0.0
 10
10.2241536249
 20
14.8288737195
 30
0.0
 10
10.2294097664
 20
14.8243679991
 30
0.0
 10
10.2352125084
 20
14.8193167176
 30
0.0
 10
10.244026629
 20
14.8115484545
 30
0.0
 10
10.2563003924
 20
14.8005620651
 30
0.0
 10
10.2724483348
 20
14.7859082642
 30
0.0
 10
10.290420817
 20
14.7694329045
 30
0.0
 10
10.3100653491
 20
14.7512878355
 30
0.0
 10
10.3312146227
 20
14.7316395317
 30
0.0
 10
10.3536882595
 20
14.7106679395
 30
0.0
 10
10.3772942958
 20
14.6885647243
 30
0.0
 10
10.4104555293
 20
14.6574350684
 30
0.0
 10
10.453144426
 20
14.6172502909
 30
0.0
 10
10.4962901769
 20
14.5765824059
 30
0.0
 10
10.5309396196
 20
14.5439412043
 30
0.0
 10
10.556495504
 20
14.5198885552
 30
0.0
 10
10.5814471399
 20
14.4964396929
 30
0.0
 10
10.6055811811
 20
14.4738078071
 30
0.0
 10
10.6286914984
 20
14.4521988167
 30
0.0
 10
10.6505810206
 20
14.4318095262
 30
0.0
 10
10.6710633948
 20
14.4128258904
 30
0.0
 10
10.6899646847
 20
14.3954213566
 30
0.0
 10
10.7071246688
 20
14.3797551116
 30
0.0
 10
10.722398632
 20
14.3659711292
 30
0.0
 10
10.7339109454
 20
14.3557456521
 30
0.0
 10
10.7420926857
 20
14.3486117438
 30
0.0
 10
10.7474039519
 20
14.3440496769
 30
0.0
 10
10.7521597537
 20
14.3400417122
 30
0.0
 10
10.755781207
 20
14.3370644862
 30
0.0
 10
10.7583965351
 20
14.3349710266
 30
0.0
 10
10.7601352208
 20
14.3336078983
 30
0.0
 10
10.7617286735
 20
14.332389649
 30
0.0
 10
10.7631761143
 20
14.3313169663
 30
0.0
 10
10.7644768374
 20
14.3303903884
 30
0.0
 10
10.7656301993
 20
14.3296102225
 30
0.0
 10
10.7666356877
 20
14.3289768579
 30
0.0
 10
10.7673864346
 20
14.3285499243
 30
0.0
 10
10.7679143569
 20
14.3282867303
 30
0.0
 10
10.7682508244
 20
14.3281374529
 30
0.0
 10
10.7685502715
 20
14.3280249268
 30
0.0
 10
10.7688129177
 20
14.3279490473
 30
0.0
 10
10.7690392831
 20
14.3279096607
 30
0.0
 10
10.7692304765
 20
14.3279070306
 30
0.0
 10
10.7693881316
 20
14.3279426627
 30
0.0
 10
10.7694718809
 20
14.32799695
 30
0.0
 10
10.7695039174
 20
14.3280289862
 30
0.0
  0
SPLINE
  5
5AD
100
AcDbEntity
  8
0
100
AcDbSpline
 62
7
  6
CONTINUOUS
 70
0
 71
3
 72
62
 73
58
 74
0
 42
0.0000001
 43
0.0000001
 44
0.0000000001
 40
0.0
 40
0.0
 40
0.0
 40
0.0
 40
0.0001836084
 40
0.0003935792
 40
0.0006482323
 40
0.0009580285
 40
0.0013287468
 40
0.0017637135
 40
0.0022649507
 40
0.0028337504
 40
0.0041770708
 40
0.0057979034
 40
0.0076977836
 40
0.0098771795
 40
0.0123360055
 40
0.0150736008
 40
0.018088781
 40
0.0213802064
 40
0.0287854832
 40
0.0372738392
 40
0.04682709
 40
0.0574236699
 40
0.0816492546
 40
0.1097301448
 40
0.1414091233
 40
0.1763951416
 40
0.2143663646
 40
0.2549732491
 40
0.2978418601
 40
0.3425774087
 40
0.388767864
 40
0.435987909
 40
0.4838026864
 40
0.5317720973
 40
0.5794545478
 40
0.6264113615
 40
0.6722105454
 40
0.7164309717
 40
0.7586662096
 40
0.7985282253
 40
0.83565112
 40
0.8696943665
 40
0.9003462006
 40
0.927326472
 40
0.939361684
 40
0.9503897518
 40
0.9603859352
 40
0.9693279541
 40
0.9771962285
 40
0.9839742476
 40
0.9896485456
 40
0.9920689079
 40
0.9942104468
 40
0.9960729054
 40
0.9976569741
 40
0.9989646126
 40
1.0
 40
1.0
 40
1.0
 40
1.0
 10
10.1169713372
 20
14.7532725288
 30
0.0
 10
10.1170041766
 20
14.753305379
 30
0.0
 10
10.1170903493
 20
14.7533609278
 30
0.0
 10
10.1172526828
 20
14.7533966533
 30
0.0
 10
10.1174497168
 20
14.7533927585
 30
0.0
 10
10.1176832054
 20
14.7533508077
 30
0.0
 10
10.1179542972
 20
14.753271073
 30
0.0
 10
10.1182635218
 20
14.7531533739
 30
0.0
 10
10.1186111073
 20
14.7529975949
 30
0.0
 10
10.1191567174
 20
14.7527232783
 30
0.0
 10
10.1199328588
 20
14.7522789273
 30
0.0
 10
10.120972608
 20
14.7516204262
 30
0.0
 10
10.1221655261
 20
14.750809894
 30
0.0
 10
10.1235110348
 20
14.7498477279
 30
0.0
 10
10.1250084499
 20
14.7487342506
 30
0.0
 10
10.1266569896
 20
14.7474700919
 30
0.0
 10
10.1284557948
 20
14.7460560418
 30
0.0
 10
10.1311613691
 20
14.7438850613
 30
0.0
 10
10.1349074583
 20
14.7407988231
 30
0.0
 10
10.1398264725
 20
14.7366458376
 30
0.0
 10
10.145318747
 20
14.7319208687
 30
0.0
 10
10.1537752102
 20
14.7245373131
 30
0.0
 10
10.1656672534
 20
14.7139626866
 30
0.0
 10
10.1814344369
 20
14.6997209396
 30
0.0
 10
10.199130412
 20
14.6835540072
 30
0.0
 10
10.218598584
 20
14.6656177235
 30
0.0
 10
10.2396659028
 20
14.6460840714
 30
0.0
 10
10.2621448433
 20
14.6251400686
 30
0.0
 10
10.2858349455
 20
14.6029857616
 30
0.0
 10
10.3105246776
 20
14.5798324017
 30
0.0
 10
10.3359933756
 20
14.555900433
 30
0.0
 10
10.362013249
 20
14.5314174708
 30
0.0
 10
10.3883515119
 20
14.5066161523
 30
0.0
 10
10.4147724793
 20
14.4817320264
 30
0.0
 10
10.4410397876
 20
14.4570013258
 30
0.0
 10
10.4669185165
 20
14.4326588329
 30
0.0
 10
10.4921773913
 20
14.4089356691
 30
0.0
 10
10.5165908763
 20
14.3860571858
 30
0.0
 10
10.5399412558
 20
14.3642408697
 30
0.0
 10
10.5620206185
 20
14.3436943144
 30
0.0
 10
10.5826327533
 20
14.3246133344
 30
0.0
 10
10.6015948598
 20
14.3071799835
 30
0.0
 10
10.618739407
 20
14.2915611908
 30
0.0
 10
10.6318408339
 20
14.279772017
 30
0.0
 10
10.6413093523
 20
14.2713680449
 30
0.0
 10
10.6475942926
 20
14.2658501172
 30
0.0
 10
10.6533241805
 20
14.2608862658
 30
0.0
 10
10.6584866739
 20
14.2564886125
 30
0.0
 10
10.6630705926
 20
14.2526676586
 30
0.0
 10
10.6670661561
 20
14.2494327626
 30
0.0
 10
10.6700366094
 20
14.247122704
 30
0.0
 10
10.6721175857
 20
14.245581267
 30
0.0
 10
10.6734420146
 20
14.2446390606
 30
0.0
 10
10.6746140433
 20
14.2438483063
 30
0.0
 10
10.6756332245
 20
14.2432090013
 30
0.0
 10
10.6764990272
 20
14.2427211609
 30
0.0
 10
10.6770354756
 20
14.2424663796
 30
0.0
 10
10.6772790993
 20
14.2423701663
 30
0.0
  0
LINE
  5
5AE
100
AcDbEntity
  8
0
100
AcDbLine
 62
7
  6
CONTINUOUS
 10
10.6772790993
 20
14.2423701663
 11
10.6776978299
 21
14.2422289684
  0
SPLINE
  5
5AF
100
AcDbEntity
  8
0
100
AcDbSpline
 62
7
  6
CONTINUOUS
 70
0
 71
3
 72
61
 73
57
 74
0
 42
0.0000001
 43
0.0000001
 44
0.0000000001
 40
0.0
 40
0.0
 40
0.0
 40
0.0
 40
0.0001815751
 40
0.000389204
 40
0.0006409623
 40
0.000947174
 40
0.0013135603
 40
0.0017434228
 40
0.0022387744
 40
0.0028009067
 40
0.0041285247
 40
0.0057303048
 40
0.007607814
 40
0.0097616274
 40
0.0121916756
 40
0.0148971751
 40
0.0178770469
 40
0.0211300777
 40
0.028449177
 40
0.0368392962
 40
0.0462826285
 40
0.0567582273
 40
0.0807107045
 40
0.1084815966
 40
0.1398196972
 40
0.1744408236
 40
0.2120305228
 40
0.2522472408
 40
0.2947253585
 40
0.3390787292
 40
0.3849040983
 40
0.4317848779
 40
0.4792949719
 40
0.5270025351
 40
0.5744741618
 40
0.6212785069
 40
0.6669905727
 40
0.7111952627
 40
0.753491406
 40
0.7934952947
 40
0.8308442228
 40
0.8651998694
 40
0.8962513593
 40
0.9237183226
 40
0.9360290373
 40
0.9473536586
 40
0.9576670024
 40
0.9669462966
 40
0.9751712475
 40
0.9823245385
 40
0.9883916152
 40
0.9933619966
 40
0.995433908
 40
0.9972300912
 40
0.99875143
 40
1.0
 40
1.0
 40
1.0
 40
1.0
 10
10.1659895002
 20
14.8052739041
 30
0.0
 10
10.1660221174
 20
14.8053065325
 30
0.0
 10
10.1661076986
 20
14.8053617095
 30
0.0
 10
10.1662689049
 20
14.8053972107
 30
0.0
 10
10.1664645433
 20
14.8053934109
 30
0.0
 10
10.1666963555
 20
14.8053518519
 30
0.0
 10
10.1669654795
 20
14.8052727981
 30
0.0
 10
10.167272448
 20
14.805156065
 30
0.0
 10
10.1676174943
 20
14.8050015316
 30
0.0
 10
10.168159128
 20
14.8047293616
 30
0.0
 10
10.1689295864
 20
14.8042884276
 30
0.0
 10
10.1699617115
 20
14.8036349879
 30
0.0
 10
10.1711458585
 20
14.8028306501
 30
0.0
 10
10.1724814821
 20
14.8018757757
 30
0.0
 10
10.1739679005
 20
14.8007706845
 30
0.0
 10
10.1756043478
 20
14.7995160268
 30
0.0
 10
10.1773899731
 20
14.7981125593
 30
0.0
 10
10.1800758014
 20
14.7959577034
 30
0.0
 10
10.1837947039
 20
14.7928942059
 30
0.0
 10
10.1886782002
 20
14.7887715507
 30
0.0
 10
10.1941311876
 20
14.7840806899
 30
0.0
 10
10.2025282386
 20
14.7767493442
 30
0.0
 10
10.2143385818
 20
14.7662476025
 30
0.0
 10
10.2300002917
 20
14.7521010685
 30
0.0
 10
10.247582688
 20
14.7360374522
 30
0.0
 10
10.2669321445
 20
14.7182096268
 30
0.0
 10
10.2878788643
 20
14.698786335
 30
0.0
 10
10.3102387675
 20
14.6779511553
 30
0.0
 10
10.3338150098
 20
14.6559005272
 30
0.0
 10
10.3583997656
 20
14.6328420003
 30
0.0
 10
10.3837761117
 20
14.6089922836
 30
0.0
 10
10.4097199887
 20
14.5845752669
 30
0.0
 10
10.436002225
 20
14.5598199767
 30
0.0
 10
10.4623906419
 20
14.5349584621
 30
0.0
 10
10.4886521212
 20
14.5102237147
 30
0.0
 10
10.514554771
 20
14.4858474965
 30
0.0
 10
10.5398699737
 20
14.4620582789
 30
0.0
 10
10.5643745071
 20
14.4390791114
 30
0.0
 10
10.5878525268
 20
14.4171256243
 30
0.0
 10
10.6100975323
 20
14.3964040226
 30
0.0
 10
10.6309142345
 20
14.3771092301
 30
0.0
 10
10.6501202196
 20
14.3594229819
 30
0.0
 10
10.6675478026
 20
14.3435124108
 30
0.0
 10
10.6809084912
 20
14.3314551475
 30
0.0
 10
10.690602884
 20
14.3228172626
 30
0.0
 10
10.6970716774
 20
14.3171110422
 30
0.0
 10
10.7029942821
 20
14.3119501838
 30
0.0
 10
10.7083580422
 20
14.3073470846
 30
0.0
 10
10.7131515568
 20
14.3033128153
 30
0.0
 10
10.7173644846
 20
14.2998567178
 30
0.0
 10
10.7209881042
 20
14.2969871655
 30
0.0
 10
10.7236492971
 20
14.2949828136
 30
0.0
 10
10.7254841171
 20
14.2936876291
 30
0.0
 10
10.7266232823
 20
14.2929272752
 30
0.0
 10
10.7276105101
 20
14.2923174192
 30
0.0
 10
10.728227424
 20
14.2919774373
 30
0.0
 10
10.7285115979
 20
14.2918364108
 30
0.0
  0
LINE
  5
5B0
100
AcDbEntity
  8
0
100
AcDbLine
 62
7
  6
CONTINUOUS
 10
10.7285115979
 20
14.2918364108
 11
10.7295096048
 21
14.2914341895
  0
SPLINE
  5
5B1
100
AcDbEntity
  8
0
100
AcDbSpline
 62
7
  6
CONTINUOUS
 70
0
 71
3
 72
62
 73
58
 74
0
 42
0.0000001
 43
0.0000001
 44
0.0000000001
 40
0.0
 40
0.0
 40
0.0
 40
0.0
 40
0.0001793591
 40
0.0003842549
 40
0.0006324337
 40
0.0009340779
 40
0.001294855
 40
0.0017180496
 40
0.0022056735
 40
0.0027589947
 40
0.0040655567
 40
0.0056417152
 40
0.0074891887
 40
0.0096086354
 40
0.0119997947
 40
0.014661975
 40
0.0175942847
 40
0.0207955511
 40
0.0279982753
 40
0.0362558847
 40
0.0455508065
 40
0.0558631983
 40
0.079447246
 40
0.1067999607
 40
0.1376783219
 40
0.1718072
 40
0.2088821383
 40
0.2485720953
 40
0.2905226951
 40
0.334359193
 40
0.3796901439
 40
0.426110673
 40
0.4732062862
 40
0.5205565491
 40
0.567738759
 40
0.6143319472
 40
0.6599203626
 40
0.7040974945
 40
0.7464694379
 40
0.7866586432
 40
0.8243071657
 40
0.8590799818
 40
0.8906679449
 40
0.9187909207
 40
0.9314736681
 40
0.9431995628
 40
0.9539439267
 40
0.9636813218
 40
0.9723869624
 40
0.9800522626
 40
0.9866729088
 40
0.9895756792
 40
0.9921933324
 40
0.9945191132
 40
0.9965728956
 40
0.9983880739
 40
1.0
 40
1.0
 40
1.0
 40
1.0
 10
10.2152325628
 20
14.8570496023
 30
0.0
 10
10.2152649016
 20
14.85708193
 30
0.0
 10
10.2153496225
 20
14.8571366315
 30
0.0
 10
10.2155091352
 20
14.857172108
 30
0.0
 10
10.2157026544
 20
14.8571687822
 30
0.0
 10
10.2159318726
 20
14.8571281757
 30
0.0
 10
10.2161979209
 20
14.857050547
 30
0.0
 10
10.2165013354
 20
14.856935709
 30
0.0
 10
10.2168423507
 20
14.8567835352
 30
0.0
 10
10.2173775664
 20
14.8565153924
 30
0.0
 10
10.2181387971
 20
14.8560808021
 30
0.0
 10
10.2191584514
 20
14.8554365311
 30
0.0
 10
10.2203282028
 20
14.8546432606
 30
0.0
 10
10.2216475132
 20
14.8537013313
 30
0.0
 10
10.2231157282
 20
14.8526111038
 30
0.0
 10
10.2247320848
 20
14.8513731917
 30
0.0
 10
10.2264957846
 20
14.8499882887
 30
0.0
 10
10.2291486692
 20
14.847861697
 30
0.0
 10
10.2328220767
 20
14.8448379774
 30
0.0
 10
10.2376459078
 20
14.8407682632
 30
0.0
 10
10.2430327121
 20
14.8361369057
 30
0.0
 10
10.2513291754
 20
14.8288968206
 30
0.0
 10
10.2630003686
 20
14.8185228194
 30
0.0
 10
10.2784811557
 20
14.8045438744
 30
0.0
 10
10.2958667464
 20
14.788663693
 30
0.0
 10
10.3150079118
 20
14.7710307497
 30
0.0
 10
10.3357396226
 20
14.7518090314
 30
0.0
 10
10.3578829093
 20
14.7311770124
 30
0.0
 10
10.3812462457
 20
14.709325817
 30
0.0
 10
10.4056273223
 20
14.6864574843
 30
0.0
 10
10.4308147843
 20
14.6627831574
 30
0.0
 10
10.4565901535
 20
14.6385211489
 30
0.0
 10
10.4827297508
 20
14.6138949975
 30
0.0
 10
10.5090066979
 20
14.5891314559
 30
0.0
 10
10.5351929548
 20
14.5644584443
 30
0.0
 10
10.5610613223
 20
14.5401030382
 30
0.0
 10
10.5863875081
 20
14.5162893946
 30
0.0
 10
10.6109520757
 20
14.4932367907
 30
0.0
 10
10.6345424384
 20
14.4711576153
 30
0.0
 10
10.6569547091
 20
14.4502554984
 30
0.0
 10
10.6779955275
 20
14.4307234463
 30
0.0
 10
10.697483732
 20
14.4127421032
 30
0.0
 10
10.7152519984
 20
14.396478103
 30
0.0
 10
10.7289321031
 20
14.3840889605
 30
0.0
 10
10.7389101011
 20
14.3751558828
 30
0.0
 10
10.7456138296
 20
14.3692079692
 30
0.0
 10
10.7517856932
 20
14.3637921792
 30
0.0
 10
10.7574114283
 20
14.3589216633
 30
0.0
 10
10.7624782941
 20
14.3546052055
 30
0.0
 10
10.766980913
 20
14.3508521008
 30
0.0
 10
10.7703923436
 20
14.3481011944
 30
0.0
 10
10.7728302257
 20
14.3461939181
 30
0.0
 10
10.7744181601
 20
14.3449774046
 30
0.0
 10
10.7758454901
 20
14.3439073027
 30
0.0
 10
10.7771260624
 20
14.3429827358
 30
0.0
 10
10.7782836503
 20
14.3421996612
 30
0.0
 10
10.7790297512
 20
14.3417439243
 30
0.0
 10
10.779387666
 20
14.3415419963
 30
0.0
  0
LINE
  5
5B2
100
AcDbEntity
  8
0
100
AcDbLine
 62
7
  6
CONTINUOUS
 10
10.779387666
 20
14.3415419963
 11
10.7817073487
 21
14.3405102887
  0
SPLINE
  5
5B3
100
AcDbEntity
  8
0
100
AcDbSpline
 62
7
  6
CONTINUOUS
 70
0
 71
3
 72
21
 73
17
 74
0
 42
0.0000001
 43
0.0000001
 44
0.0000000001
 40
0.0
 40
0.0
 40
0.0
 40
0.0
 40
0.2100832774
 40
0.3981054503
 40
0.5618114149
 40
0.6340203062
 40
0.6995751908
 40
0.7583892793
 40
0.8104295939
 40
0.855766065
 40
0.8945941087
 40
0.92732758
 40
0.9547438257
 40
0.9782141132
 40
0.9891637785
 40
1.0
 40
1.0
 40
1.0
 40
1.0
 10
8.6030091328
 20
11.4379036318
 30
0.0
 10
8.6044635147
 20
11.43644925
 30
0.0
 10
8.6071821494
 20
11.4336552041
 30
0.0
 10
8.6108790444
 20
11.4295809178
 30
0.0
 10
8.6135317586
 20
11.4263859058
 30
0.0
 10
8.6153090351
 20
11.4240288267
 30
0.0
 10
8.6164110609
 20
11.4224503649
 30
0.0
 10
8.6173363753
 20
11.4209912032
 30
0.0
 10
8.6180826799
 20
11.4196553723
 30
0.0
 10
8.6186488045
 20
11.4184463844
 30
0.0
 10
8.6190343129
 20
11.417366349
 30
0.0
 10
8.6192384606
 20
11.416415131
 30
0.0
 10
8.6192601664
 20
11.4155904206
 30
0.0
 10
8.6191109991
 20
11.4149922603
 30
0.0
 10
8.6188924477
 20
11.4146042849
 30
0.0
 10
8.6187548492
 20
11.4144394862
 30
0.0
 10
8.6186798356
 20
11.414364464
 30
0.0
  0
SPLINE
  5
5B4
100
AcDbEntity
  8
0
100
AcDbSpline
 62
7
  6
CONTINUOUS
 70
0
 71
3
 72
41
 73
37
 74
0
 42
0.0000001
 43
0.0000001
 44
0.0000000001
 40
0.0
 40
0.0
 40
0.0
 40
0.0
 40
0.0001758165
 40
0.0003962273
 40
0.0009754298
 40
0.0017429478
 40
0.0027006183
 40
0.0038490892
 40
0.0051884213
 40
0.0084387978
 40
0.0124489607
 40
0.0172135793
 40
0.0227262675
 40
0.0289794838
 40
0.0359642964
 40
0.0436713073
 40
0.0520895785
 40
0.0612076508
 40
0.0814921583
 40
0.1044143869
 40
0.1298505099
 40
0.1576642909
 40
0.1877078618
 40
0.2198226631
 40
0.2538403949
 40
0.2895837167
 40
0.3268674952
 40
0.3654997625
 40
0.4460137011
 40
0.5294920919
 40
0.6142589852
 40
0.6986300174
 40
0.7809458089
 40
0.8596037867
 40
0.9330881159
 40
1.0
 40
1.0
 40
1.0
 40
1.0
 10
10.7821767667
 20
14.3403848305
 30
0.0
 10
10.7821392668
 20
14.3403948611
 30
0.0
 10
10.7820566869
 20
14.3404245336
 30
0.0
 10
10.7818613212
 20
14.340515456
 30
0.0
 10
10.7815622655
 20
14.3406906681
 30
0.0
 10
10.7811389916
 20
14.3409730536
 30
0.0
 10
10.7806250295
 20
14.3413453269
 30
0.0
 10
10.7800205555
 20
14.3418072417
 30
0.0
 10
10.7790285128
 20
14.3425953405
 30
0.0
 10
10.7775677782
 20
14.3438086785
 30
0.0
 10
10.7755540473
 20
14.3455390816
 30
0.0
 10
10.7731858404
 20
14.347623034
 30
0.0
 10
10.7704665061
 20
14.3500573837
 30
0.0
 10
10.7673999461
 20
14.3528386538
 30
0.0
 10
10.7639903569
 20
14.3559627631
 30
0.0
 10
10.7602424575
 20
14.3594251604
 30
0.0
 10
10.7561612755
 20
14.363220841
 30
0.0
 10
10.7500625924
 20
14.3689248112
 30
0.0
 10
10.7416536996
 20
14.3768466859
 30
0.0
 10
10.7306578555
 20
14.3872765439
 30
0.0
 10
10.7184862386
 20
14.3988823179
 30
0.0
 10
10.7052026997
 20
14.4116003229
 30
0.0
 10
10.6908765073
 20
14.425361498
 30
0.0
 10
10.6755818748
 20
14.4400917391
 30
0.0
 10
10.6593975949
 20
14.4557123391
 30
0.0
 10
10.6424065899
 20
14.4721404358
 30
0.0
 10
10.6246954581
 20
14.4892894631
 30
0.0
 10
10.5998970383
 20
14.5133290838
 30
0.0
 10
10.567797717
 20
14.5444906268
 30
0.0
 10
10.5284113771
 20
14.5827693428
 30
0.0
 10
10.488424455
 20
14.6216519875
 30
0.0
 10
10.4486208829
 20
14.660354987
 30
0.0
 10
10.409773159
 20
14.6981062463
 30
0.0
 10
10.3726275182
 20
14.7341600186
 30
0.0
 10
10.3378895598
 20
14.7678112475
 30
0.0
 10
10.3155938798
 20
14.7893465263
 30
0.0
 10
10.3049560993
 20
14.799597838
 30
0.0
  0
LINE
  5
5B5
100
AcDbEntity
  8
0
100
AcDbLine
 62
9
  6
CONTINUOUS
 10
10.7826501116
 20
14.3405058474
 11
10.782458297
 21
14.3404083882
  0
SPLINE
  5
5B6
100
AcDbEntity
  8
0
100
AcDbSpline
 62
9
  6
CONTINUOUS
 70
0
 71
3
 72
9
 73
5
 74
0
 42
0.0000001
 43
0.0000001
 44
0.0000000001
 40
0.0
 40
0.0
 40
0.0
 40
0.0
 40
0.239042751
 40
1.0
 40
1.0
 40
1.0
 40
1.0
 10
10.782458297
 20
14.3404083882
 30
0.0
 10
10.7824506044
 20
14.3404067803
 30
0.0
 10
10.7824182745
 20
14.3404007707
 30
0.0
 10
10.7823854597
 20
14.3403975181
 30
0.0
 10
10.7823604731
 20
14.3403962749
 30
0.0
  0
SPLINE
  5
5B7
100
AcDbEntity
  8
0
100
AcDbSpline
 62
7
  6
CONTINUOUS
 70
0
 71
3
 72
26
 73
22
 74
0
 42
0.0000001
 43
0.0000001
 44
0.0000000001
 40
0.0
 40
0.0
 40
0.0
 40
0.0
 40
0.193303111
 40
0.3756076394
 40
0.4608174946
 40
0.5411773903
 40
0.6160999375
 40
0.6850674691
 40
0.7476418264
 40
0.8034725634
 40
0.8523202452
 40
0.8740945351
 40
0.8941015247
 40
0.9123628668
 40
0.9289219996
 40
0.9438476526
 40
0.9572490572
 40
0.969289245
 40
0.9802002581
 40
0.9903020658
 40
1.0
 40
1.0
 40
1.0
 40
1.0
 10
8.1057492036
 20
11.9351635611
 30
0.0
 10
8.1087045608
 20
11.9322082039
 30
0.0
 10
8.1143447335
 20
11.9263621169
 30
0.0
 10
8.1209792742
 20
11.9189243675
 30
0.0
 10
8.125787594
 20
11.9131395441
 30
0.0
 10
8.1290089717
 20
11.9090569793
 30
0.0
 10
8.1319024527
 20
11.9051654058
 30
0.0
 10
8.1344462065
 20
11.9014958478
 30
0.0
 10
8.1366221654
 20
11.8980769613
 30
0.0
 10
8.138415289
 20
11.8949348072
 30
0.0
 10
8.1396247473
 20
11.8924797966
 30
0.0
 10
8.1403780502
 20
11.8906701755
 30
0.0
 10
8.1408185793
 20
11.889448354
 30
0.0
 10
8.1411562894
 20
11.888311218
 30
0.0
 10
8.1413908817
 20
11.88726047
 30
0.0
 10
8.1415219583
 20
11.8862974382
 30
0.0
 10
8.1415491247
 20
11.8854231198
 30
0.0
 10
8.1414718114
 20
11.884638247
 30
0.0
 10
8.14128824
 20
11.8839436797
 30
0.0
 10
8.140996634
 20
11.8833420813
 30
0.0
 10
8.1407276923
 20
11.8830035479
 30
0.0
 10
8.1405794346
 20
11.8828552677
 30
0.0
  0
SPLINE
  5
5B8
100
AcDbEntity
  8
0
100
AcDbSpline
 62
7
  6
CONTINUOUS
 70
0
 71
3
 72
13
 73
9
 74
0
 42
0.0000001
 43
0.0000001
 44
0.0000000001
 40
0.0
 40
0.0
 40
0.0
 40
0.0
 40
0.122379777
 40
0.2488511021
 40
0.5073079133
 40
0.7619535236
 40
0.8838053229
 40
1.0
 40
1.0
 40
1.0
 40
1.0
 10
7.5721235692
 20
12.4687891955
 30
0.0
 10
7.5739330856
 20
12.4669796791
 30
0.0
 10
7.5775661398
 20
12.4632534043
 30
0.0
 10
7.5847964285
 20
12.4554899839
 30
0.0
 10
7.5935913059
 20
12.4454091294
 30
0.0
 10
7.6019028208
 20
12.4350494724
 30
0.0
 10
7.6080742278
 20
12.4267989316
 30
0.0
 10
7.6109587229
 20
12.4227413599
 30
0.0
 10
7.6123390766
 20
12.4207418337
 30
0.0
  0
SPLINE
  5
5B9
100
AcDbEntity
  8
0
100
AcDbSpline
 62
7
  6
CONTINUOUS
 70
0
 71
3
 72
20
 73
16
 74
0
 42
0.0000001
 43
0.0000001
 44
0.0000000001
 40
0.0
 40
0.0
 40
0.0
 40
0.0
 40
0.2081101159
 40
0.3946826043
 40
0.558020862
 40
0.6967008332
 40
0.7564592109
 40
0.8097023269
 40
0.8564023195
 40
0.896595041
 40
0.9304438918
 40
0.958317914
 40
0.9702495045
 40
0.9810308876
 40
1.0
 40
1.0
 40
1.0
 40
1.0
 10
7.208495554
 20
12.8100448274
 30
0.0
 10
7.209323034
 20
12.8085843542
 30
0.0
 10
7.2108640021
 20
12.8057983051
 30
0.0
 10
7.2129391359
 20
12.8018034936
 30
0.0
 10
7.2146389297
 20
12.7982471272
 30
0.0
 10
7.215781215
 20
12.7955601073
 30
0.0
 10
7.2164803022
 20
12.7936537756
 30
0.0
 10
7.2168741944
 20
12.7924268549
 30
0.0
 10
7.2171636981
 20
12.791333599
 30
0.0
 10
7.2173481783
 20
12.7903762006
 30
0.0
 10
7.2174272561
 20
12.7895566082
 30
0.0
 10
7.2174044807
 20
12.7889596715
 30
0.0
 10
7.2173225865
 20
12.7885587536
 30
0.0
 10
7.2172135703
 20
12.7882404281
 30
0.0
 10
7.2170817992
 20
12.7880314025
 30
0.0
 10
7.2169736207
 20
12.7879232012
 30
0.0
  0
SPLINE
  5
5BA
100
AcDbEntity
  8
0
100
AcDbSpline
 62
7
  6
CONTINUOUS
 70
0
 71
3
 72
15
 73
11
 74
0
 42
0.0000001
 43
0.0000001
 44
0.0000000001
 40
0.0
 40
0.0
 40
0.0
 40
0.0
 40
0.3280456282
 40
0.4760916659
 40
0.6114675638
 40
0.7327687557
 40
0.8387001203
 40
0.9281041796
 40
0.9662951388
 40
1.0
 40
1.0
 40
1.0
 40
1.0
 10
6.9134841364
 20
13.1679700072
 30
0.0
 10
6.9159555292
 20
13.163815742
 30
0.0
 10
6.9195041073
 20
13.1577636922
 30
0.0
 10
6.9239569026
 20
13.1499306717
 30
0.0
 10
6.9268503133
 20
13.1447157938
 30
0.0
 10
6.929383583
 20
13.1400111879
 30
0.0
 10
6.9315289449
 20
13.1358677532
 30
0.0
 10
6.9330451492
 20
13.1327781891
 30
0.0
 10
6.9340377598
 20
13.1306184781
 30
0.0
 10
6.9344600471
 20
13.1296467463
 30
0.0
 10
6.9346513345
 20
13.1291884154
 30
0.0
  0
ELLIPSE
  5
5BB
100
AcDbEntity
  8
0
100
AcDbEllipse
 62
7
  6
CONTINUOUS
 10
9.9312525103
 20
14.0321041862
 30
0.0
 11
-0.0
 21
0.6181264952
 31
0.0
 40
0.2679491924
 41
-0.5408188012
 42
0.0172200256
  0
ENDSEC
  0
SECTION
  2
OBJECTS
  0
DICTIONARY
  5
C
100
AcDbDictionary
280
0
281
1
  3
ACAD_GROUP
350
D
  3
ACAD_MLINESTYLE
350
17
  3
ACAD_LAYOUT
350
1A
  3
ACAD_PLOTSETTINGS
350
19
  3
ACAD_PLOTSTYLENAME
350
E
  0
DICTIONARY
  5
D
102
{ACAD_REACTORS
330
C
102
}
100
AcDbDictionary
280
0
281
1
  0
ACDBDICTIONARYWDFLT
  5
E
102
{ACAD_REACTORS
330
C
102
}
100
AcDbDictionary
281
1
  3
Normal
350
F
100
AcDbDictionaryWithDefault
340
F
  0
DICTIONARY
  5
17
102
{ACAD_REACTORS
330
C
102
}
100
AcDbDictionary
280
0
281
1
  3
Standard
350
18
  0
DICTIONARY
  5
19
102
{ACAD_REACTORS
330
C
102
}
100
AcDbDictionary
281
1
  0
DICTIONARY
  5
1A
102
{ACAD_REACTORS
330
C
102
}
100
AcDbDictionary
281
1
  3
Model
350
5BC
  3
Layout1
350
5BD
  0
ACDBPLACEHOLDER
  5
F
102
{ACAD_REACTORS
330
E
102
}
  0
MLINESTYLE
  5
18
102
{ACAD_REACTORS
330
17
102
}
100
AcDbMlineStyle
  2
STANDARD
 70
0
  3

 62
256
 51
90.0
 52
90.0
 71
2
 49
0.5
 62
256
  6
BYLAYER
 49
-0.5
 62
256
  6
BYLAYER
  0
LAYOUT
  5
5BC
102
{ACAD_REACTORS
330
1A
102
}
100
AcDbPlotSettings
  1

  2
none_device
  4
ANSI_C_(22.00_x_17.00_Inches)
  6

 40
0.0
 41
0.0
 42
0.0
 43
0.0
 44
558.8
 45
431.8
 46
0.0
 47
0.0
 48
0.0
 49
0.0
140
0.0
141
0.0
142
1.0
143
1.0
 70
1024
 72
0
 73
0
 74
0
  7

 75
0
147
1.0
148
0.0
149
0.0
100
AcDbLayout
  1
Model
 70
0
 71
0
 10
0.0
 20
0.0
 11
22.0
 21
17.0
 12
0.0
 22
0.0
 32
0.0
 14
0.0
 24
0.0
 34
0.0
 15
0.0
 25
0.0
 35
0.0
146
0.0
 13
0.0
 23
0.0
 33
0.0
 16
1.0
 26
0.0
 36
0.0
 17
0.0
 27
1.0
 37
0.0
 76
0
330
205
345
0
346
0
  0
LAYOUT
  5
5BD
102
{ACAD_REACTORS
330
1A
102
}
100
AcDbPlotSettings
  1

  2
none_device
  4
ANSI_C_(22.00_x_17.00_Inches)
  6

 40
0.0
 41
0.0
 42
0.0
 43
0.0
 44
558.8
 45
431.8
 46
0.0
 47
0.0
 48
0.0
 49
0.0
140
0.0
141
0.0
142
1.0
143
1.0
 70
0
 72
0
 73
0
 74
0
  7

 75
0
147
1.0
148
0.0
149
0.0
100
AcDbLayout
  1
Layout1
 70
0
 71
1
 10
0.0
 20
0.0
 11
22.0
 21
17.0
 12
0.0
 22
0.0
 32
0.0
 14
0.0
 24
0.0
 34
0.0
 15
0.0
 25
0.0
 35
0.0
146
0.0
 13
0.0
 23
0.0
 33
0.0
 16
1.0
 26
0.0
 36
0.0
 17
0.0
 27
1.0
 37
0.0
 76
0
330
206
345
0
346
0
  0
ENDSEC
  0
EOF
