999
DXF file: 3-2574ts_RIGHT.dxf
999
Pro/ENGINEER 2018400 by Parametric Technology Corporation
  0
SECTION
  2
HEADER
  9
$ACADVER
  1
AC1027
  9
$DWGCODEPAGE
  3
ANSI_1252
  9
$EXTMAX
 10
11.0
 20
8.5
 30
0.0
  9
$EXTMIN
 10
0.0
 20
0.0
 30
0.0
  9
$LIMMIN
 10
0.0
 20
0.0
  9
$LIMMAX
 10
11.0
 20
8.5
  9
$VIEWCTR
 10
5.5
 20
4.25
  9
$VIEWSIZE
 40
8.5
  9
$CLAYER
  8
0
  9
$LTSCALE
 40
0.605
  9
$CELTYPE
  6
BYLAYER
  9
$DIMSCALE
 40
1.0
  9
$DIMASZ
 40
0.1
  9
$DIMEXO
 40
0.0625
  9
$DIMDLI
 40
0.418
  9
$DIMEXE
 40
0.125
  9
$DIMCEN
 40
0.099
  9
$DIMLFAC
 40
1.0
  9
$DIMBLK
  1
_FILLED
  9
$DIMALT
 70
1
  9
$DIMALTD
 70
2
  9
$DIMALTTD
 70
2
  9
$DIMALTF
 40
25.4
  9
$DIMTXT
 40
0.08
  9
$DIMTOL
 70
1
  9
$DIMLIM
 70
0
  9
$DIMTFAC
 40
1.0
  9
$DIMTP
 40
0.001
  9
$DIMTM
 40
0.001
  9
$DIMGAP
 40
0.09
  9
$DIMDSEP
 70
46
  9
$AUNITS
 70
0
  9
$PDMODE
 70
3
  9
$PDSIZE
 40
0.3125
  9
$HANDSEED
  5
30E
  9
$TILEMODE
 70
1
  9
$MEASUREMENT
 70
0
  9
$INSUNITS
 70
1
  0
ENDSEC
  0
SECTION
  2
CLASSES
  0
CLASS
  1
ACDBDICTIONARYWDFLT
  2
AcDbDictionaryWithDefault
  3
AutoCAD 2000
 90
0
 91
1
280
0
281
0
  0
CLASS
  1
ACDBPLACEHOLDER
  2
AcDbPlaceHolder
  3
AutoCAD 2000
 90
0
 91
1
280
0
281
0
  0
CLASS
  1
LAYOUT
  2
AcDbLayout
  3
AutoCAD 2000
 90
0
 91
0
280
0
281
0
  0
ENDSEC
  0
SECTION
  2
TABLES
  0
TABLE
  2
VPORT
  5
8
100
AcDbSymbolTable
 70
2
  0
VPORT
  5
1F4
100
AcDbSymbolTableRecord
100
AcDbViewportTableRecord
  2
*ACTIVE
 70
0
 10
0.0
 20
0.0
 11
1.0
 21
1.0
 12
5.5
 22
4.25
 13
0.0
 23
0.0
 14
1.0
 24
1.0
 15
0.0
 25
0.0
 16
0.0
 26
0.0
 36
1.0
 17
0.0
 27
0.0
 37
0.0
 40
8.5
 41
1.2941176471
 42
50.0
 43
0.0
 44
0.0
 50
0.0
 51
0.0
 71
0
 72
100
 73
1
 74
1
 75
0
 76
0
 77
0
 78
0
  0
ENDTAB
  0
TABLE
  2
LTYPE
  5
5
100
AcDbSymbolTable
 70
6
  0
LTYPE
  5
14
100
AcDbSymbolTableRecord
100
AcDbLinetypeTableRecord
  2
BYBLOCK
 70
0
  3

 72
65
 73
0
 40
0.0
  0
LTYPE
  5
15
100
AcDbSymbolTableRecord
100
AcDbLinetypeTableRecord
  2
BYLAYER
 70
0
  3

 72
65
 73
0
 40
0.0
  0
LTYPE
  5
16
100
AcDbSymbolTableRecord
100
AcDbLinetypeTableRecord
  2
CONTINUOUS
 70
64
  3
Solid line
 72
65
 73
0
 40
0.0
  0
LTYPE
  5
1F5
100
AcDbSymbolTableRecord
100
AcDbLinetypeTableRecord
  2
CENTER
 70
64
  3
____ _ ____ _ ____ _ ____ _ ____ _ ____ _ ____
 72
65
 73
4
 40
0.6
 49
0.375
 74
0
 49
-0.075
 74
0
 49
0.075
 74
0
 49
-0.075
 74
0
  0
LTYPE
  5
1F6
100
AcDbSymbolTableRecord
100
AcDbLinetypeTableRecord
  2
HIDDEN
 70
64
  3
- - - - - - - - - - - - - - - - - - - -
 72
65
 73
2
 40
0.2
 49
0.1
 74
0
 49
-0.1
 74
0
  0
LTYPE
  5
1F7
100
AcDbSymbolTableRecord
100
AcDbLinetypeTableRecord
  2
PHANTOM
 70
64
  3
_____ _ _ _____ _ _ _____ _ _ _____
 72
65
 73
6
 40
0.8
 49
0.45
 74
0
 49
-0.05
 74
0
 49
0.1
 74
0
 49
-0.05
 74
0
 49
0.1
 74
0
 49
-0.05
 74
0
  0
LTYPE
  5
1F8
100
AcDbSymbolTableRecord
100
AcDbLinetypeTableRecord
  2
DOT
 70
64
  3
. . . . . . . . . . . . . . . . . . . .
 72
65
 73
2
 40
0.2
 49
0.1
 74
0
 49
-0.1
 74
0
  0
LTYPE
  5
1F9
100
AcDbSymbolTableRecord
100
AcDbLinetypeTableRecord
  2
DASHED
 70
64
  3
- - - - - - - - - - - - - - - - - - - -
 72
65
 73
2
 40
0.2
 49
0.1
 74
0
 49
-0.1
 74
0
  0
ENDTAB
  0
TABLE
  2
LAYER
  5
2
100
AcDbSymbolTable
 70
36
  0
LAYER
  5
10
100
AcDbSymbolTableRecord
100
AcDbLayerTableRecord
  2
0
 70
0
 62
7
  6
CONTINUOUS
370
-3
390
F
  0
LAYER
  5
1FA
100
AcDbSymbolTableRecord
100
AcDbLayerTableRecord
  2
DEFAULT_1
 70
0
 62
7
  6
CENTER
370
-3
390
F
  0
LAYER
  5
1FB
100
AcDbSymbolTableRecord
100
AcDbLayerTableRecord
  2
DEFAULT_2
 70
0
 62
8
  6
HIDDEN
370
-3
390
F
  0
LAYER
  5
1FC
100
AcDbSymbolTableRecord
100
AcDbLayerTableRecord
  2
DEFAULT_3
 70
0
 62
7
  6
PHANTOM
370
-3
390
F
  0
LAYER
  5
1FD
100
AcDbSymbolTableRecord
100
AcDbLayerTableRecord
  2
01___PRT_ALL_DTM_PLN
 70
0
 62
7
  6
CONTINUOUS
370
-3
390
F
  0
LAYER
  5
1FE
100
AcDbSymbolTableRecord
100
AcDbLayerTableRecord
  2
01___PRT_DEF_DTM_PLN
 70
0
 62
7
  6
CONTINUOUS
370
-3
390
F
  0
LAYER
  5
1FF
100
AcDbSymbolTableRecord
100
AcDbLayerTableRecord
  2
02___PRT_ALL_AXES
 70
0
 62
7
  6
CONTINUOUS
370
-3
390
F
  0
LAYER
  5
200
100
AcDbSymbolTableRecord
100
AcDbLayerTableRecord
  2
03___PRT_ALL_CURVES
 70
0
 62
7
  6
CONTINUOUS
370
-3
390
F
  0
LAYER
  5
201
100
AcDbSymbolTableRecord
100
AcDbLayerTableRecord
  2
04___PRT_ALL_DTM_PNT
 70
0
 62
7
  6
CONTINUOUS
370
-3
390
F
  0
LAYER
  5
202
100
AcDbSymbolTableRecord
100
AcDbLayerTableRecord
  2
05___PRT_ALL_DTM_CSYS
 70
0
 62
7
  6
CONTINUOUS
370
-3
390
F
  0
LAYER
  5
203
100
AcDbSymbolTableRecord
100
AcDbLayerTableRecord
  2
05___PRT_DEF_DTM_CSYS
 70
0
 62
7
  6
CONTINUOUS
370
-3
390
F
  0
LAYER
  5
204
100
AcDbSymbolTableRecord
100
AcDbLayerTableRecord
  2
06___PRT_ALL_SURFS
 70
0
 62
7
  6
CONTINUOUS
370
-3
390
F
  0
LAYER
  5
205
100
AcDbSymbolTableRecord
100
AcDbLayerTableRecord
  2
ALL_ASSEMBLY_MEMBERS
 70
0
 62
7
  6
CONTINUOUS
370
-3
390
F
  0
LAYER
  5
206
100
AcDbSymbolTableRecord
100
AcDbLayerTableRecord
  2
ALL_FEATURES
 70
0
 62
7
  6
CONTINUOUS
370
-3
390
F
  0
LAYER
  5
207
100
AcDbSymbolTableRecord
100
AcDbLayerTableRecord
  2
AXES_FEATURES
 70
0
 62
7
  6
CONTINUOUS
370
-3
390
F
  0
LAYER
  5
208
100
AcDbSymbolTableRecord
100
AcDbLayerTableRecord
  2
CHAMFER_FEATURES
 70
0
 62
7
  6
CONTINUOUS
370
-3
390
F
  0
LAYER
  5
209
100
AcDbSymbolTableRecord
100
AcDbLayerTableRecord
  2
COSMETIC_SKETCHES
 70
0
 62
7
  6
CONTINUOUS
370
-3
390
F
  0
LAYER
  5
20A
100
AcDbSymbolTableRecord
100
AcDbLayerTableRecord
  2
CUT_FEATURES
 70
0
 62
7
  6
CONTINUOUS
370
-3
390
F
  0
LAYER
  5
20B
100
AcDbSymbolTableRecord
100
AcDbLayerTableRecord
  2
DATUM_CURVES
 70
0
 62
7
  6
CONTINUOUS
370
-3
390
F
  0
LAYER
  5
20C
100
AcDbSymbolTableRecord
100
AcDbLayerTableRecord
  2
DATUM_PLANES
 70
0
 62
7
  6
CONTINUOUS
370
-3
390
F
  0
LAYER
  5
20D
100
AcDbSymbolTableRecord
100
AcDbLayerTableRecord
  2
DATUM_POINTS
 70
0
 62
7
  6
CONTINUOUS
370
-3
390
F
  0
LAYER
  5
20E
100
AcDbSymbolTableRecord
100
AcDbLayerTableRecord
  2
DEFAULT_COORDINATE_SYSTEM
 70
0
 62
7
  6
CONTINUOUS
370
-3
390
F
  0
LAYER
  5
20F
100
AcDbSymbolTableRecord
100
AcDbLayerTableRecord
  2
DEFAULT_DATUM_AXES
 70
0
 62
7
  6
CONTINUOUS
370
-3
390
F
  0
LAYER
  5
210
100
AcDbSymbolTableRecord
100
AcDbLayerTableRecord
  2
DEFAULT_DATUM_CURVES
 70
0
 62
7
  6
CONTINUOUS
370
-3
390
F
  0
LAYER
  5
211
100
AcDbSymbolTableRecord
100
AcDbLayerTableRecord
  2
DEFAULT_DATUM_PLANES
 70
0
 62
7
  6
CONTINUOUS
370
-3
390
F
  0
LAYER
  5
212
100
AcDbSymbolTableRecord
100
AcDbLayerTableRecord
  2
DEFAULT_SURFACES
 70
0
 62
7
  6
CONTINUOUS
370
-3
390
F
  0
LAYER
  5
213
100
AcDbSymbolTableRecord
100
AcDbLayerTableRecord
  2
DIMENSIONS
 70
0
 62
7
  6
CONTINUOUS
370
-3
390
F
  0
LAYER
  5
214
100
AcDbSymbolTableRecord
100
AcDbLayerTableRecord
  2
HOLE_FEATURES
 70
0
 62
7
  6
CONTINUOUS
370
-3
390
F
  0
LAYER
  5
215
100
AcDbSymbolTableRecord
100
AcDbLayerTableRecord
  2
NOTES
 70
0
 62
7
  6
CONTINUOUS
370
-3
390
F
  0
LAYER
  5
216
100
AcDbSymbolTableRecord
100
AcDbLayerTableRecord
  2
PART_REFERENCE_DIMENSIONS
 70
0
 62
7
  6
CONTINUOUS
370
-3
390
F
  0
LAYER
  5
217
100
AcDbSymbolTableRecord
100
AcDbLayerTableRecord
  2
PLATED_SURFACE_AREA
 70
0
 62
7
  6
CONTINUOUS
370
-3
390
F
  0
LAYER
  5
218
100
AcDbSymbolTableRecord
100
AcDbLayerTableRecord
  2
POINTS
 70
0
 62
7
  6
CONTINUOUS
370
-3
390
F
  0
LAYER
  5
219
100
AcDbSymbolTableRecord
100
AcDbLayerTableRecord
  2
PROTRUSION
 70
0
 62
7
  6
CONTINUOUS
370
-3
390
F
  0
LAYER
  5
21A
100
AcDbSymbolTableRecord
100
AcDbLayerTableRecord
  2
PROTRUSION_FEATURES
 70
0
 62
7
  6
CONTINUOUS
370
-3
390
F
  0
LAYER
  5
21B
100
AcDbSymbolTableRecord
100
AcDbLayerTableRecord
  2
QUILT
 70
0
 62
7
  6
CONTINUOUS
370
-3
390
F
  0
LAYER
  5
21C
100
AcDbSymbolTableRecord
100
AcDbLayerTableRecord
  2
QUILTS
 70
0
 62
7
  6
CONTINUOUS
370
-3
390
F
  0
LAYER
  5
21D
100
AcDbSymbolTableRecord
100
AcDbLayerTableRecord
  2
REFERENCE_DIMENSIONS
 70
0
 62
7
  6
CONTINUOUS
370
-3
390
F
  0
LAYER
  5
21E
100
AcDbSymbolTableRecord
100
AcDbLayerTableRecord
  2
ROUND_FEATURES
 70
0
 62
7
  6
CONTINUOUS
370
-3
390
F
  0
LAYER
  5
21F
100
AcDbSymbolTableRecord
100
AcDbLayerTableRecord
  2
XSEC_DATUMS
 70
0
 62
7
  6
CONTINUOUS
370
-3
390
F
  0
ENDTAB
  0
TABLE
  2
STYLE
  5
3
100
AcDbSymbolTable
 70
1
  0
STYLE
  5
11
100
AcDbSymbolTableRecord
100
AcDbTextStyleTableRecord
  2
STANDARD
 70
0
 40
0.0
 41
0.8
 50
0.0
 71
0
 42
0.2
  3
txt
  4

  0
STYLE
  5
220
100
AcDbSymbolTableRecord
100
AcDbTextStyleTableRecord
  2
TEXTSTYLE_1
 70
0
 40
0.0
 41
0.8
 50
0.0
 71
0
 42
0.2
  3
gdt
  4

  0
ENDTAB
  0
TABLE
  2
VIEW
  5
6
100
AcDbSymbolTable
 70
0
  0
ENDTAB
  0
TABLE
  2
UCS
  5
7
100
AcDbSymbolTable
 70
0
  0
ENDTAB
  0
TABLE
  2
APPID
  5
9
100
AcDbSymbolTable
 70
1
  0
APPID
  5
221
100
AcDbSymbolTableRecord
100
AcDbRegAppTableRecord
  2
ACAD
 70
0
  0
ENDTAB
  0
TABLE
  2
BLOCK_RECORD
  5
1
100
AcDbSymbolTable
 70
0
  0
BLOCK_RECORD
  5
222
100
AcDbSymbolTableRecord
100
AcDbBlockTableRecord
  2
*Model_Space
  0
BLOCK_RECORD
  5
223
100
AcDbSymbolTableRecord
100
AcDbBlockTableRecord
  2
*Paper_Space
  0
BLOCK_RECORD
  5
224
100
AcDbSymbolTableRecord
100
AcDbBlockTableRecord
  2
_FILLED
  0
ENDTAB
  0
TABLE
  2
DIMSTYLE
  5
A
100
AcDbSymbolTable
 70
1
100
AcDbDimStyleTable
 71
0
  0
DIMSTYLE
105
225
100
AcDbSymbolTableRecord
100
AcDbDimStyleTableRecord
  2
STANDARD
 70
0
  3

  4

 40
1.0
 41
0.1
 42
0.0625
 43
0.38
 44
0.125
 45
0.0
 46
0.0
 47
0.001
 48
0.001
140
0.08
141
0.09
142
0.0
143
25.4
144
1.0
145
0.0
146
1.0
147
0.09
 71
1.0
 72
0.0
 73
1
 74
1
 75
0
 76
0
 77
0
 78
4
 79
1
170
1
171
2
172
0
173
0
174
0
175
0
176
0
177
0
178
0
270
2
179
3
271
3
272
3
273
2
274
2
275
0
280
0
281
0
282
0
283
1
284
4
285
0
286
0
287
3
288
0
340
11
278
46
341
224
342
224
343
224
344
224
  0
ENDTAB
  0
ENDSEC
  0
SECTION
  2
BLOCKS
  0
BLOCK
  5
20
100
AcDbEntity
  8
0
100
AcDbBlockBegin
  2
*Model_Space
 70
0
 10
0.0
 20
0.0
 30
0.0
  3
*Model_Space
  1

  0
ENDBLK
  5
21
100
AcDbEntity
  8
0
100
AcDbBlockEnd
  0
BLOCK
  5
1C
100
AcDbEntity
  8
0
100
AcDbBlockBegin
  2
*Paper_Space
 70
0
 10
0.0
 20
0.0
 30
0.0
  3
*Paper_Space
  1

  0
ENDBLK
  5
1D
100
AcDbEntity
  8
0
100
AcDbBlockEnd
  0
BLOCK
  5
226
100
AcDbEntity
  8
0
100
AcDbBlockBegin
  2
_FILLED
 70
64
 10
0.0
 20
0.0
  3
_FILLED
  1

  0
SOLID
  5
227
100
AcDbEntity
  8
0
  6
BYBLOCK
 62
0
100
AcDbTrace
 10
0.0
 20
0.0
 11
-1.0
 21
0.2
 12
-1.0
 22
-0.2
 13
-1.0
 23
-0.2
  0
ENDBLK
  5
228
100
AcDbEntity
  8
0
  6
BYBLOCK
 62
0
100
AcDbBlockEnd
  0
ENDSEC
  0
SECTION
  2
ENTITIES
  0
MTEXT
  5
229
100
AcDbEntity
  8
0
100
AcDbMText
 62
2
  6
CONTINUOUS
  7
STANDARD
 71
3
 72
1
 10
4.6583462733
 20
2.7165877329
 30
0.0
 11
1.0
 21
0.0
 31
0.0
 73
2
 44
0.9
  1
SCALE  .500
 40
0.08
 41
0.704
  0
LINE
  5
22A
100
AcDbEntity
  8
0
100
AcDbLine
 62
7
  6
CONTINUOUS
 10
0.0
 20
0.0
 11
0.0
 21
8.5
  0
LINE
  5
22B
100
AcDbEntity
  8
0
100
AcDbLine
 62
7
  6
CONTINUOUS
 10
0.0
 20
0.0
 11
11.0
 21
0.0
  0
LINE
  5
22C
100
AcDbEntity
  8
0
100
AcDbLine
 62
7
  6
CONTINUOUS
 10
0.0
 20
8.5
 11
11.0
 21
8.5
  0
LINE
  5
22D
100
AcDbEntity
  8
0
100
AcDbLine
 62
7
  6
CONTINUOUS
 10
11.0
 20
0.0
 11
11.0
 21
8.5
  0
LINE
  5
22E
100
AcDbEntity
  8
0
100
AcDbLine
 62
7
  6
CONTINUOUS
 10
5.1498344623
 20
2.8115877329
 11
5.3223344623
 21
2.8115877329
  0
LINE
  5
22F
100
AcDbEntity
  8
0
100
AcDbLine
 62
7
  6
CONTINUOUS
 10
5.1348344623
 20
2.8265877329
 11
5.3223344623
 21
2.8265877329
  0
LINE
  5
230
100
AcDbEntity
  8
0
100
AcDbLine
 62
7
  6
CONTINUOUS
 10
3.5521503389
 20
3.5432429171
 11
3.5531327702
 21
3.5427474709
  0
LINE
  5
231
100
AcDbEntity
  8
0
100
AcDbLine
 62
7
  6
CONTINUOUS
 10
3.647849791
 20
4.4506150753
 11
3.647849791
 21
4.4590377893
  0
LINE
  5
232
100
AcDbEntity
  8
0
100
AcDbLine
 62
7
  6
CONTINUOUS
 10
3.7033958573
 20
4.4960877329
 11
3.7033958573
 21
4.4945104469
  0
LINE
  5
233
100
AcDbEntity
  8
0
100
AcDbLine
 62
7
  6
CONTINUOUS
 10
3.6378592385
 20
4.4510496414
 11
3.6379617162
 21
4.4534069595
  0
LINE
  5
234
100
AcDbEntity
  8
0
100
AcDbLine
 62
7
  6
CONTINUOUS
 10
3.6478497915
 20
4.4590377893
 11
3.6479522915
 21
4.4613956177
  0
LINE
  5
235
100
AcDbEntity
  8
0
100
AcDbLine
 62
7
  6
CONTINUOUS
 10
3.6163591692
 20
3.824587822
 11
3.6163293923
 21
3.8240325146
  0
LINE
  5
236
100
AcDbEntity
  8
0
100
AcDbLine
 62
7
  6
CONTINUOUS
 10
3.6163608387
 20
3.8245877329
 11
3.6163275147
 21
3.8240326159
  0
LINE
  5
237
100
AcDbEntity
  8
0
100
AcDbLine
 62
7
  6
CONTINUOUS
 10
3.6063462733
 20
3.8245877329
 11
3.6061829983
 21
3.8219428869
  0
LWPOLYLINE
  5
238
100
AcDbEntity
  8
0
100
AcDbPolyline
 62
7
  6
CONTINUOUS
 90
3
 70
0
 10
3.6063462733
 20
3.8245877329
 10
3.6045349879
 20
3.8015077164
 10
3.6021534163
 20
3.7784669655
  0
LWPOLYLINE
  5
239
100
AcDbEntity
  8
06___PRT_ALL_SURFS
100
AcDbPolyline
 62
7
  6
CONTINUOUS
 90
13
 70
0
 10
3.6063462733
 20
3.8245877329
 10
3.6045349879
 20
3.8015077164
 10
3.6021534163
 20
3.7784669655
 10
3.5992019832
 20
3.7554804793
 10
3.5956808409
 20
3.7325616851
 10
3.5915906387
 20
3.7097275847
 10
3.5869329422
 20
3.6869986652
 10
3.5817087248
 20
3.6643908917
 10
3.5759187411
 20
3.6419193107
 10
3.5695648767
 20
3.6196030394
 10
3.5626486223
 20
3.59745891
 10
3.5551707849
 20
3.5755015626
 10
3.5477955903
 20
3.5554779754
  0
LWPOLYLINE
  5
23A
100
AcDbEntity
  8
0
100
AcDbPolyline
 62
7
  6
CONTINUOUS
 90
3
 70
0
 10
3.6021534163
 20
3.7784669655
 10
3.5992019832
 20
3.7554804793
 10
3.5956808409
 20
3.7325616851
  0
LWPOLYLINE
  5
23B
100
AcDbEntity
  8
0
100
AcDbPolyline
 62
7
  6
CONTINUOUS
 90
4
 70
0
 10
3.5956808409
 20
3.7325616851
 10
3.5915906387
 20
3.7097275847
 10
3.5869329422
 20
3.6869986652
 10
3.5817087248
 20
3.6643908917
  0
LINE
  5
23C
100
AcDbEntity
  8
0
100
AcDbLine
 62
7
  6
CONTINUOUS
 10
3.5531838473
 20
3.5427251469
 11
3.6314928744
 21
3.508499085
  0
LINE
  5
23D
100
AcDbEntity
  8
0
100
AcDbLine
 62
7
  6
CONTINUOUS
 10
3.5572123959
 20
3.5423859218
 11
3.6355214364
 21
3.5081598541
  0
LINE
  5
23E
100
AcDbEntity
  8
0
100
AcDbLine
 62
7
  6
CONTINUOUS
 10
3.8275985359
 20
4.4960877329
 11
3.8275985359
 21
4.4945104469
  0
LWPOLYLINE
  5
23F
100
AcDbEntity
  8
0
100
AcDbPolyline
 62
7
  6
CONTINUOUS
 90
4
 70
0
 10
3.5817087248
 20
3.6643908917
 10
3.5759187411
 20
3.6419193107
 10
3.5695648767
 20
3.6196030394
 10
3.5658514446
 20
3.6077135517
  0
LWPOLYLINE
  5
240
100
AcDbEntity
  8
0
100
AcDbPolyline
 62
7
  6
CONTINUOUS
 90
14
 70
0
 10
3.5477955915
 20
3.5554779742
 10
3.5476929643
 20
3.5551966595
 10
3.5473711503
 20
3.5540590855
 10
3.547186365
 20
3.5528968338
 10
3.5471393011
 20
3.5517263116
 10
3.5472287147
 20
3.5505636985
 10
3.547451478
 20
3.5494247607
 10
3.5478027454
 20
3.5483243701
 10
3.5482761748
 20
3.5472763912
 10
3.5488642414
 20
3.546293442
 10
3.5495574948
 20
3.5453880928
 10
3.5503443693
 20
3.5445721217
 10
3.551212689
 20
3.5438547442
 10
3.5521503389
 20
3.5432429171
  0
LINE
  5
241
100
AcDbEntity
  8
0
100
AcDbLine
 62
7
  6
CONTINUOUS
 10
3.8887698514
 20
3.5560750402
 11
3.8888067745
 21
3.5560556482
  0
LINE
  5
242
100
AcDbEntity
  8
0
100
AcDbLine
 62
7
  6
CONTINUOUS
 10
3.8759929542
 20
4.4506147522
 11
3.8759929495
 21
4.4590376303
  0
LINE
  5
243
100
AcDbEntity
  8
0
100
AcDbLine
 62
7
  6
CONTINUOUS
 10
3.698268138
 20
4.4946729816
 11
3.6428245722
 21
4.4615581523
  0
LINE
  5
244
100
AcDbEntity
  8
0
100
AcDbLine
 62
7
  6
CONTINUOUS
 10
3.7033958573
 20
4.4945104469
 11
3.6479522915
 21
4.4613956177
  0
LINE
  5
245
100
AcDbEntity
  8
0
100
AcDbLine
 62
7
  6
CONTINUOUS
 10
4.0243462733
 20
4.2303378918
 11
4.0243462733
 21
4.1428377187
  0
LINE
  5
246
100
AcDbEntity
  8
ALL_FEATURES
100
AcDbLine
 62
7
  6
CONTINUOUS
 10
4.0823462733
 20
4.3278942113
 11
4.0823462733
 21
4.3175525454
  0
LINE
  5
247
100
AcDbEntity
  8
0
100
AcDbLine
 62
7
  6
CONTINUOUS
 10
3.7874945479
 20
3.5071944641
 11
3.6395524614
 21
3.5068252264
  0
LINE
  5
248
100
AcDbEntity
  8
0
100
AcDbLine
 62
7
  6
CONTINUOUS
 10
3.7890619133
 20
3.5081937883
 11
3.636434479
 21
3.5078128568
  0
LINE
  5
249
100
AcDbEntity
  8
ALL_FEATURES
100
AcDbLine
 62
7
  6
CONTINUOUS
 10
4.1023462733
 20
4.333667714
 11
4.1023462733
 21
4.3151116292
  0
LINE
  5
24A
100
AcDbEntity
  8
ALL_FEATURES
100
AcDbLine
 62
7
  6
CONTINUOUS
 10
4.1223462733
 20
4.3163472059
 11
4.1223462733
 21
4.3278942113
  0
LINE
  5
24B
100
AcDbEntity
  8
0
100
AcDbLine
 62
7
  6
CONTINUOUS
 10
4.1803462733
 20
4.3490877329
 11
4.1803462733
 21
4.0240877329
  0
LINE
  5
24C
100
AcDbEntity
  8
0
100
AcDbLine
 62
7
  6
CONTINUOUS
 10
4.1953462733
 20
3.7870924139
 11
4.1953462733
 21
4.5860830519
  0
LINE
  5
24D
100
AcDbEntity
  8
0
100
AcDbLine
 62
7
  6
CONTINUOUS
 10
5.1348344623
 20
3.7015877329
 11
4.3203462733
 21
3.7015877329
  0
LINE
  5
24E
100
AcDbEntity
  8
ALL_FEATURES
100
AcDbLine
 62
7
  6
CONTINUOUS
 10
4.0770348793
 20
4.3310696378
 11
4.0738798362
 21
4.3288386854
  0
LINE
  5
24F
100
AcDbEntity
  8
0
100
AcDbLine
 62
7
  6
CONTINUOUS
 10
4.3203462733
 20
3.7870877329
 11
4.1953462733
 21
3.7870877329
  0
LINE
  5
250
100
AcDbEntity
  8
0
100
AcDbLine
 62
7
  6
CONTINUOUS
 10
3.6163621024
 20
3.8245877329
 11
3.8520772612
 21
3.8245881797
  0
LINE
  5
251
100
AcDbEntity
  8
0
100
AcDbLine
 62
7
  6
CONTINUOUS
 10
4.3203462733
 20
3.7015877329
 11
4.3203462733
 21
4.6715877329
  0
LINE
  5
252
100
AcDbEntity
  8
ALL_FEATURES
100
AcDbLine
 62
7
  6
CONTINUOUS
 10
4.1023462733
 20
4.333667714
 11
4.0823462733
 21
4.3278942113
  0
LINE
  5
253
100
AcDbEntity
  8
ALL_FEATURES
100
AcDbLine
 62
7
  6
CONTINUOUS
 10
4.1109807894
 20
4.3130662733
 11
4.1223462733
 21
4.3163472059
  0
LINE
  5
254
100
AcDbEntity
  8
0
100
AcDbLine
 62
7
  6
CONTINUOUS
 10
4.5523462733
 20
4.6685764068
 11
4.5523462733
 21
4.782371001
  0
LINE
  5
255
100
AcDbEntity
  8
ALL_FEATURES
100
AcDbLine
 62
7
  6
CONTINUOUS
 10
4.1276576673
 20
4.3310696378
 11
4.1332721941
 21
4.3270995678
  0
LINE
  5
256
100
AcDbEntity
  8
ALL_FEATURES
100
AcDbLine
 62
7
  6
CONTINUOUS
 10
4.1953462733
 20
4.0947131694
 11
4.1803462733
 21
4.0947131694
  0
LINE
  5
257
100
AcDbEntity
  8
0
100
AcDbLine
 62
7
  6
CONTINUOUS
 10
4.1953462733
 20
4.0975972723
 11
4.1803462733
 21
4.0975972723
  0
LINE
  5
258
100
AcDbEntity
  8
0
100
AcDbLine
 62
7
  6
CONTINUOUS
 10
4.1953462733
 20
4.105816136
 11
4.1803462733
 21
4.105816136
  0
LINE
  5
259
100
AcDbEntity
  8
0
100
AcDbLine
 62
7
  6
CONTINUOUS
 10
4.1953462733
 20
4.1140293661
 11
4.1803462733
 21
4.1140293661
  0
LINE
  5
25A
100
AcDbEntity
  8
0
100
AcDbLine
 62
7
  6
CONTINUOUS
 10
4.1803462733
 20
4.1254798957
 11
4.1953462733
 21
4.1254798957
  0
LINE
  5
25B
100
AcDbEntity
  8
0
100
AcDbLine
 62
7
  6
CONTINUOUS
 10
4.1953462733
 20
4.1292158461
 11
4.1803462733
 21
4.1292158461
  0
LINE
  5
25C
100
AcDbEntity
  8
0
100
AcDbLine
 62
7
  6
CONTINUOUS
 10
4.1953462733
 20
4.1415078135
 11
4.1803462733
 21
4.1415078135
  0
LINE
  5
25D
100
AcDbEntity
  8
0
100
AcDbLine
 62
7
  6
CONTINUOUS
 10
4.1803462733
 20
4.1509125894
 11
4.1953462733
 21
4.1509125894
  0
LINE
  5
25E
100
AcDbEntity
  8
0
100
AcDbLine
 62
7
  6
CONTINUOUS
 10
4.1803462733
 20
4.1598025882
 11
4.1953462733
 21
4.1598025882
  0
LINE
  5
25F
100
AcDbEntity
  8
0
100
AcDbLine
 62
7
  6
CONTINUOUS
 10
4.1953462733
 20
4.1613499058
 11
4.1803462733
 21
4.1613499058
  0
LINE
  5
260
100
AcDbEntity
  8
0
100
AcDbLine
 62
7
  6
CONTINUOUS
 10
4.1953462733
 20
4.1758492699
 11
4.1803462733
 21
4.1758492699
  0
LINE
  5
261
100
AcDbEntity
  8
0
100
AcDbLine
 62
7
  6
CONTINUOUS
 10
4.1803462733
 20
4.1817765002
 11
4.1953462733
 21
4.1817765002
  0
LINE
  5
262
100
AcDbEntity
  8
0
100
AcDbLine
 62
7
  6
CONTINUOUS
 10
4.1803462733
 20
4.1913989656
 11
4.1953462733
 21
4.1913989656
  0
LINE
  5
263
100
AcDbEntity
  8
0
100
AcDbLine
 62
7
  6
CONTINUOUS
 10
4.1953462733
 20
4.1973261959
 11
4.1803462733
 21
4.1973261959
  0
LINE
  5
264
100
AcDbEntity
  8
ALL_FEATURES
100
AcDbLine
 62
7
  6
CONTINUOUS
 10
4.1223462733
 20
4.3278942113
 11
4.1023462733
 21
4.333667714
  0
LINE
  5
265
100
AcDbEntity
  8
0
100
AcDbLine
 62
7
  6
CONTINUOUS
 10
3.8275985359
 20
4.4945104469
 11
3.8823436608
 21
4.469727597
  0
LINE
  5
266
100
AcDbEntity
  8
0
100
AcDbLine
 62
7
  6
CONTINUOUS
 10
3.8317225902
 20
4.4951977371
 11
3.8864677151
 21
4.4704148872
  0
LINE
  5
267
100
AcDbEntity
  8
ALL_FEATURES
100
AcDbLine
 62
7
  6
CONTINUOUS
 10
4.6823462733
 20
4.6685769108
 11
4.6823462733
 21
4.782371001
  0
LINE
  5
268
100
AcDbEntity
  8
0
100
AcDbLine
 62
7
  6
CONTINUOUS
 10
3.5477955936
 20
3.5554779841
 11
3.5478681184
 21
3.5555112745
  0
LINE
  5
269
100
AcDbEntity
  8
0
100
AcDbLine
 62
7
  6
CONTINUOUS
 10
4.1953462733
 20
4.2118255601
 11
4.1803462733
 21
4.2118255601
  0
LINE
  5
26A
100
AcDbEntity
  8
0
100
AcDbLine
 62
7
  6
CONTINUOUS
 10
4.1803462733
 20
4.2133728777
 11
4.1953462733
 21
4.2133728777
  0
LINE
  5
26B
100
AcDbEntity
  8
0
100
AcDbLine
 62
7
  6
CONTINUOUS
 10
4.1803462733
 20
4.2222628765
 11
4.1953462733
 21
4.2222628765
  0
LINE
  5
26C
100
AcDbEntity
  8
0
100
AcDbLine
 62
7
  6
CONTINUOUS
 10
4.1953462733
 20
4.2316676524
 11
4.1803462733
 21
4.2316676524
  0
LINE
  5
26D
100
AcDbEntity
  8
0
100
AcDbLine
 62
7
  6
CONTINUOUS
 10
4.1953462733
 20
4.2439596198
 11
4.1803462733
 21
4.2439596198
  0
LINE
  5
26E
100
AcDbEntity
  8
0
100
AcDbLine
 62
7
  6
CONTINUOUS
 10
4.1803462733
 20
4.2476955701
 11
4.1953462733
 21
4.2476955701
  0
LINE
  5
26F
100
AcDbEntity
  8
0
100
AcDbLine
 62
7
  6
CONTINUOUS
 10
4.1953462733
 20
4.2591460998
 11
4.1803462733
 21
4.2591460998
  0
LINE
  5
270
100
AcDbEntity
  8
0
100
AcDbLine
 62
7
  6
CONTINUOUS
 10
4.1953462733
 20
4.2673593298
 11
4.1803462733
 21
4.2673593298
  0
LINE
  5
271
100
AcDbEntity
  8
0
100
AcDbLine
 62
7
  6
CONTINUOUS
 10
4.1953462733
 20
4.2755781935
 11
4.1803462733
 21
4.2755781935
  0
LINE
  5
272
100
AcDbEntity
  8
0
100
AcDbLine
 62
7
  6
CONTINUOUS
 10
4.1953462733
 20
4.2784622964
 11
4.1803462733
 21
4.2784622964
  0
LINE
  5
273
100
AcDbEntity
  8
0
100
AcDbLine
 62
7
  6
CONTINUOUS
 10
3.6478497898
 20
4.4506150756
 11
3.6378592378
 21
4.4510496415
  0
LINE
  5
274
100
AcDbEntity
  8
0
100
AcDbLine
 62
7
  6
CONTINUOUS
 10
3.882882591
 20
3.5440839172
 11
3.7949187681
 21
3.5086434643
  0
LINE
  5
275
100
AcDbEntity
  8
0
100
AcDbLine
 62
7
  6
CONTINUOUS
 10
3.7942606665
 20
3.5102784257
 11
3.7893545356
 21
3.508303619
  0
LINE
  5
276
100
AcDbEntity
  8
0
100
AcDbLine
 62
7
  6
CONTINUOUS
 10
3.7942610212
 20
3.5102783404
 11
3.7893545356
 21
3.508303619
  0
LINE
  5
277
100
AcDbEntity
  8
0
100
AcDbLine
 62
7
  6
CONTINUOUS
 10
3.87599295
 20
4.4506147522
 11
3.647849791
 21
4.4506150753
  0
LINE
  5
278
100
AcDbEntity
  8
0
100
AcDbLine
 62
7
  6
CONTINUOUS
 10
3.8759929495
 20
4.4590376303
 11
3.6478497915
 21
4.4590377893
  0
LINE
  5
279
100
AcDbEntity
  8
0
100
AcDbLine
 62
7
  6
CONTINUOUS
 10
3.7033958573
 20
4.4945104469
 11
3.8275985359
 21
4.4945104469
  0
LINE
  5
27A
100
AcDbEntity
  8
0
100
AcDbLine
 62
7
  6
CONTINUOUS
 10
3.7033958573
 20
4.4960877329
 11
3.8275985359
 21
4.4960877329
  0
LINE
  5
27B
100
AcDbEntity
  8
0
100
AcDbLine
 62
7
  6
CONTINUOUS
 10
5.1348344623
 20
2.8265877329
 11
5.1348344623
 21
5.5465877329
  0
LINE
  5
27C
100
AcDbEntity
  8
0
100
AcDbLine
 62
7
  6
CONTINUOUS
 10
4.3203462733
 20
4.5860877329
 11
4.1953462733
 21
4.5860877329
  0
LINE
  5
27D
100
AcDbEntity
  8
0
100
AcDbLine
 62
7
  6
CONTINUOUS
 10
4.5298462733
 20
4.6715877329
 11
4.3203462733
 21
4.6715877329
  0
LINE
  5
27E
100
AcDbEntity
  8
0
100
AcDbLine
 62
7
  6
CONTINUOUS
 10
4.7048462733
 20
4.6715877329
 11
5.1348344623
 21
4.6715877329
  0
LINE
  5
27F
100
AcDbEntity
  8
0
100
AcDbLine
 62
7
  6
CONTINUOUS
 10
5.1498344623
 20
2.8115877329
 11
5.1498344623
 21
5.5615877329
  0
LINE
  5
280
100
AcDbEntity
  8
ALL_FEATURES
100
AcDbLine
 62
7
  6
CONTINUOUS
 10
4.5523462733
 20
4.782371001
 11
4.6823462733
 21
4.782371001
  0
LINE
  5
281
100
AcDbEntity
  8
0
100
AcDbLine
 62
7
  6
CONTINUOUS
 10
5.3223344623
 20
2.8115877329
 11
5.3223344623
 21
5.5615877329
  0
LINE
  5
282
100
AcDbEntity
  8
ALL_FEATURES
100
AcDbLine
 62
7
  6
CONTINUOUS
 10
4.6618917278
 20
4.8108118923
 11
4.5728008187
 21
4.8108118923
  0
LINE
  5
283
100
AcDbEntity
  8
0
100
AcDbLine
 62
7
  6
CONTINUOUS
 10
5.1348344623
 20
5.5465877329
 11
5.3223344623
 21
5.5465877329
  0
LINE
  5
284
100
AcDbEntity
  8
0
100
AcDbLine
 62
7
  6
CONTINUOUS
 10
5.1498344623
 20
5.5615877329
 11
5.3223344623
 21
5.5615877329
  0
ARC
  5
285
100
AcDbEntity
  8
0
100
AcDbCircle
 62
7
  6
CONTINUOUS
 10
-42.505333605
 20
6.4581709427
 40
46.1868247633
100
AcDbArc
 50
356.731898701
 51
357.5093372074
  0
ARC
  5
286
100
AcDbEntity
  8
0
100
AcDbCircle
 62
7
  6
CONTINUOUS
 10
-42.4929955139
 20
6.4575844669
 40
46.1844728409
100
AcDbArc
 50
356.731770849
 51
357.5093989267
  0
ARC
  5
287
100
AcDbEntity
  8
0
100
AcDbCircle
 62
7
  6
CONTINUOUS
 10
3.4724689875
 20
1.4402190028
 40
2.3881380349
100
AcDbArc
 50
86.546500272
 51
86.7160942169
  0
ARC
  5
288
100
AcDbEntity
  8
0
100
AcDbCircle
 62
7
  6
CONTINUOUS
 10
4.8683975653
 20
3.8245844866
 40
1.0163203041
100
AcDbArc
 50
179.9998169841
 51
181.176071176
  0
ARC
  5
289
100
AcDbEntity
  8
0
100
AcDbCircle
 62
7
  6
CONTINUOUS
 10
4.8469783021
 20
3.8245926319
 40
0.994901041
100
AcDbArc
 50
180.000282127
 51
181.2018921543
  0
ARC
  5
28A
100
AcDbEntity
  8
0
100
AcDbCircle
 62
7
  6
CONTINUOUS
 10
4.0562667332
 20
3.8245877329
 40
0.204189472
100
AcDbArc
 50
127.8342364389
 51
180.0
  0
ARC
  5
28B
100
AcDbEntity
  8
0
100
AcDbCircle
 62
7
  6
CONTINUOUS
 10
4.0243462733
 20
3.8656886064
 40
0.1521491265
100
AcDbArc
 50
90.0
 51
127.8342364389
  0
ARC
  5
28C
100
AcDbEntity
  8
0
100
AcDbCircle
 62
7
  6
CONTINUOUS
 10
3.8713677896
 20
3.6033124339
 40
0.0592898865
100
AcDbArc
 50
277.8592002164
 51
283.9441274425
  0
ARC
  5
28D
100
AcDbEntity
  8
0
100
AcDbCircle
 62
7
  6
CONTINUOUS
 10
3.7874446315
 20
3.5271944018
 40
0.02
100
AcDbArc
 50
270.143
 51
291.9444094864
  0
ARC
  5
28E
100
AcDbEntity
  8
0
100
AcDbCircle
 62
7
  6
CONTINUOUS
 10
3.639502545
 20
3.5268251641
 40
0.02
100
AcDbArc
 50
246.3915900209
 51
270.143
  0
ARC
  5
28F
100
AcDbEntity
  8
0
100
AcDbCircle
 62
7
  6
CONTINUOUS
 10
5.1498344623
 20
2.8265877329
 40
0.015
100
AcDbArc
 50
180.0
 51
270.0
  0
ARC
  5
290
100
AcDbEntity
  8
0
100
AcDbCircle
 62
7
  6
CONTINUOUS
 10
3.5576093361
 20
3.5529541276
 40
0.0105758785
100
AcDbArc
 50
240.0202900569
 51
257.1768504996
  0
ARC
  5
291
100
AcDbEntity
  8
0
100
AcDbCircle
 62
7
  6
CONTINUOUS
 10
3.5575953633
 20
3.5528567843
 40
0.0104778648
100
AcDbArc
 50
257.1332124416
 51
267.9053763064
  0
ARC
  5
292
100
AcDbEntity
  8
0
100
AcDbCircle
 62
7
  6
CONTINUOUS
 10
3.8791394107
 20
3.553363157
 40
0.0100049645
100
AcDbArc
 50
324.1949929999
 51
15.7269496579
  0
ARC
  5
293
100
AcDbEntity
  8
0
100
AcDbCircle
 62
7
  6
CONTINUOUS
 10
3.6395262822
 20
3.5173229444
 40
0.0100000507
100
AcDbArc
 50
246.3916516797
 51
251.9902548756
  0
ARC
  5
294
100
AcDbEntity
  8
0
100
AcDbCircle
 62
7
  6
CONTINUOUS
 10
3.5571886151
 20
3.5518881413
 40
0.0099997859
100
AcDbArc
 50
158.7575288398
 51
246.3918410967
  0
ARC
  5
295
100
AcDbEntity
  8
0
100
AcDbCircle
 62
7
  6
CONTINUOUS
 10
3.8791431074
 20
3.5533552839
 40
0.0099973861
100
AcDbArc
 50
310.6457291419
 51
324.2191926749
  0
ARC
  5
296
100
AcDbEntity
  8
0
100
AcDbCircle
 62
7
  6
CONTINUOUS
 10
3.8791526227
 20
3.5533413399
 40
0.0099806082
100
AcDbArc
 50
291.9453096438
 51
310.6564243537
  0
ARC
  5
297
100
AcDbEntity
  8
0
100
AcDbCircle
 62
7
  6
CONTINUOUS
 10
3.633920244
 20
3.5153244063
 40
0.007341289
100
AcDbArc
 50
278.8831105563
 51
282.5978339293
  0
ARC
  5
298
100
AcDbEntity
  8
0
100
AcDbCircle
 62
7
  6
CONTINUOUS
 10
4.0297717026
 20
4.5045084195
 40
0.1514751897
100
AcDbArc
 50
193.274346719
 51
195.4322385413
  0
ARC
  5
299
100
AcDbEntity
  8
0
100
AcDbCircle
 62
7
  6
CONTINUOUS
 10
4.0297801603
 20
4.4960877329
 40
0.141483887
100
AcDbArc
 50
193.2743585243
 51
254.6166366642
  0
ARC
  5
29A
100
AcDbEntity
  8
ALL_FEATURES
100
AcDbCircle
 62
7
  6
CONTINUOUS
 10
4.6173462733
 20
4.6780877329
 40
0.14
100
AcDbArc
 50
71.446995465
 51
108.553004535
  0
ARC
  5
29B
100
AcDbEntity
  8
0
100
AcDbCircle
 62
7
  6
CONTINUOUS
 10
4.0243462733
 20
4.4763377329
 40
0.121
100
AcDbArc
 50
254.6166366642
 51
269.9999963747
  0
ARC
  5
29C
100
AcDbEntity
  8
0
100
AcDbCircle
 62
7
  6
CONTINUOUS
 10
4.0980407862
 20
4.2528867429
 40
0.0850331238
100
AcDbArc
 50
84.1144553357
 51
87.0917480229
  0
ARC
  5
29D
100
AcDbEntity
  8
0
100
AcDbCircle
 62
7
  6
CONTINUOUS
 10
4.1159401844
 20
4.3780604127
 40
0.0701248589
100
AcDbArc
 50
237.2435068812
 51
239.7382354868
  0
ARC
  5
29E
100
AcDbEntity
  8
0
100
AcDbCircle
 62
7
  6
CONTINUOUS
 10
4.1151670564
 20
4.3768537663
 40
0.06869178
100
AcDbArc
 50
234.7882996315
 51
237.2412577009
  0
ARC
  5
29F
100
AcDbEntity
  8
0
100
AcDbCircle
 62
7
  6
CONTINUOUS
 10
4.0980444447
 20
4.2749964319
 40
0.0680273735
100
AcDbArc
 50
84.0595899608
 51
86.3743831641
  0
ARC
  5
2A0
100
AcDbEntity
  8
0
100
AcDbCircle
 62
7
  6
CONTINUOUS
 10
4.0980615911
 20
4.2738540798
 40
0.0674749282
100
AcDbArc
 50
86.3592478733
 51
93.5633130815
  0
ARC
  5
2A1
100
AcDbEntity
  8
0
100
AcDbCircle
 62
7
  6
CONTINUOUS
 10
4.1129688189
 20
4.3737571412
 40
0.0648942521
100
AcDbArc
 50
230.0221414745
 51
234.7975775078
  0
ARC
  5
2A2
100
AcDbEntity
  8
0
100
AcDbCircle
 62
7
  6
CONTINUOUS
 10
4.1060895785
 20
4.2826217229
 40
0.0541124706
100
AcDbArc
 50
65.9838296549
 51
67.4288533611
  0
ARC
  5
2A3
100
AcDbEntity
  8
0
100
AcDbCircle
 62
7
  6
CONTINUOUS
 10
4.1149231955
 20
4.3466224928
 40
0.0377465709
100
AcDbArc
 50
290.2429382953
 51
296.5666314782
  0
ARC
  5
2A4
100
AcDbEntity
  8
0
100
AcDbCircle
 62
7
  6
CONTINUOUS
 10
4.0870958626
 20
4.3121284675
 40
0.037700596
100
AcDbArc
 50
115.4270491202
 51
115.6205170052
  0
ARC
  5
2A5
100
AcDbEntity
  8
0
100
AcDbCircle
 62
7
  6
CONTINUOUS
 10
4.0922692279
 20
4.3531088441
 40
0.0369113394
100
AcDbArc
 50
248.6534642092
 51
252.0507359533
  0
ARC
  5
2A6
100
AcDbEntity
  8
ALL_FEATURES
100
AcDbCircle
 62
7
  6
CONTINUOUS
 10
4.5823462733
 20
4.782371001
 40
0.03
100
AcDbArc
 50
108.553004535
 51
180.0
  0
ARC
  5
2A7
100
AcDbEntity
  8
ALL_FEATURES
100
AcDbCircle
 62
7
  6
CONTINUOUS
 10
4.6523462733
 20
4.782371001
 40
0.03
100
AcDbArc
 50
0.0
 51
71.446995465
  0
ARC
  5
2A8
100
AcDbEntity
  8
ALL_FEATURES
100
AcDbCircle
 62
7
  6
CONTINUOUS
 10
4.1137138053
 20
4.332984248
 40
0.0242281008
100
AcDbArc
 50
301.6825410825
 51
303.2599440595
  0
ARC
  5
2A9
100
AcDbEntity
  8
0
100
AcDbCircle
 62
7
  6
CONTINUOUS
 10
4.1209813612
 20
4.3188313513
 40
0.0158204544
100
AcDbArc
 50
33.7318747656
 51
34.1774508965
  0
ARC
  5
2AA
100
AcDbEntity
  8
0
100
AcDbCircle
 62
7
  6
CONTINUOUS
 10
5.1498344623
 20
5.5465877329
 40
0.015
100
AcDbArc
 50
90.0
 51
180.0
  0
ARC
  5
2AB
100
AcDbEntity
  8
0
100
AcDbCircle
 62
7
  6
CONTINUOUS
 10
3.6477942292
 20
4.4497290161
 40
0.0116676723
100
AcDbArc
 50
89.2237887896
 51
104.2161814763
  0
ARC
  5
2AC
100
AcDbEntity
  8
0
100
AcDbCircle
 62
7
  6
CONTINUOUS
 10
3.8831348916
 20
4.4582925197
 40
0.0114624186
100
AcDbArc
 50
82.6812104817
 51
93.9581755148
  0
ARC
  5
2AD
100
AcDbEntity
  8
0
100
AcDbCircle
 62
7
  6
CONTINUOUS
 10
4.1254007593
 20
4.3224989826
 40
0.0109452476
100
AcDbArc
 50
0.0301430244
 51
12.1798942762
  0
ARC
  5
2AE
100
AcDbEntity
  8
0
100
AcDbCircle
 62
7
  6
CONTINUOUS
 10
4.1255038084
 20
4.3225056265
 40
0.0108421971
100
AcDbArc
 50
355.4005711628
 51
359.9953197043
  0
ARC
  5
2AF
100
AcDbEntity
  8
0
100
AcDbCircle
 62
7
  6
CONTINUOUS
 10
3.8275985359
 20
4.4860877329
 40
0.01
100
AcDbArc
 50
65.6439701721
 51
90.0
  0
ARC
  5
2B0
100
AcDbEntity
  8
0
100
AcDbCircle
 62
7
  6
CONTINUOUS
 10
3.7033958573
 20
4.4860877329
 40
0.01
100
AcDbArc
 50
90.0
 51
120.8486437652
  0
ARC
  5
2B1
100
AcDbEntity
  8
0
100
AcDbCircle
 62
7
  6
CONTINUOUS
 10
3.6479522915
 20
4.4529729037
 40
0.01
100
AcDbArc
 50
120.8486437712
 51
177.512261493
  0
ARC
  5
2B2
100
AcDbEntity
  8
0
100
AcDbCircle
 62
7
  6
CONTINUOUS
 10
3.8823436608
 20
4.461304883
 40
0.01
100
AcDbArc
 50
13.2743585243
 51
65.6439701648
  0
ARC
  5
2B3
100
AcDbEntity
  8
0
100
AcDbCircle
 62
7
  6
CONTINUOUS
 10
3.6997162539
 20
4.4869667965
 40
0.00839322
100
AcDbArc
 50
63.9980411531
 51
68.6803696058
  0
SPLINE
  5
2B4
100
AcDbEntity
  8
ALL_FEATURES
100
AcDbSpline
 62
7
  6
CONTINUOUS
 70
0
 71
3
 72
21
 73
17
 74
0
 42
0.0000001
 43
0.0000001
 44
0.0000000001
 40
0.0
 40
0.0
 40
0.0
 40
0.0
 40
0.0697308383
 40
0.1393243434
 40
0.2771865865
 40
0.4120853488
 40
0.4780180745
 40
0.5427142836
 40
0.6060179606
 40
0.6677893778
 40
0.7278972869
 40
0.7862254717
 40
0.8426740382
 40
0.8971565679
 40
0.9496121506
 40
1.0
 40
1.0
 40
1.0
 40
1.0
 10
4.1023462733
 20
4.3376207086
 30
0.0
 10
4.1029626668
 20
4.3376207086
 30
0.0
 10
4.1041943294
 20
4.3376022835
 30
0.0
 10
4.1066423768
 20
4.3374925659
 30
0.0
 10
4.1096584414
 20
4.3372210329
 30
0.0
 10
4.1126200917
 20
4.336767912
 30
0.0
 10
4.1149202085
 20
4.3362984377
 30
0.0
 10
4.1165875961
 20
4.3358986573
 30
0.0
 10
4.118204313
 20
4.3354498033
 30
0.0
 10
4.1197646756
 20
4.3349536662
 30
0.0
 10
4.1212631349
 20
4.3344118893
 30
0.0
 10
4.122694379
 20
4.3338263695
 30
0.0
 10
4.1240533962
 20
4.3331993271
 30
0.0
 10
4.1253353065
 20
4.3325327443
 30
0.0
 10
4.1265355847
 20
4.3318291473
 30
0.0
 10
4.1272939939
 20
4.331326801
 30
0.0
 10
4.1276576636
 20
4.3310696365
 30
0.0
  0
LINE
  5
2B5
100
AcDbEntity
  8
ALL_FEATURES
100
AcDbLine
 62
7
  6
CONTINUOUS
 10
4.1352724501
 20
4.3255464216
 11
4.133272177
 21
4.3270995612
  0
SPLINE
  5
2B6
100
AcDbEntity
  8
ALL_FEATURES
100
AcDbSpline
 62
7
  6
CONTINUOUS
 70
0
 71
3
 72
21
 73
17
 74
0
 42
0.0000001
 43
0.0000001
 44
0.0000000001
 40
0.0
 40
0.0
 40
0.0
 40
0.0
 40
0.0503878494
 40
0.1028434321
 40
0.1573259618
 40
0.2137745283
 40
0.2721027131
 40
0.3322106222
 40
0.3939820394
 40
0.4572857164
 40
0.5219819255
 40
0.5879146512
 40
0.7228134135
 40
0.8606756566
 40
0.9302691617
 40
1.0
 40
1.0
 40
1.0
 40
1.0
 10
4.077034883
 20
4.3310696365
 30
0.0
 10
4.0773985526
 20
4.331326801
 30
0.0
 10
4.0781569619
 20
4.3318291473
 30
0.0
 10
4.0793572401
 20
4.3325327443
 30
0.0
 10
4.0806391504
 20
4.3331993271
 30
0.0
 10
4.0819981676
 20
4.3338263695
 30
0.0
 10
4.0834294117
 20
4.3344118893
 30
0.0
 10
4.084927871
 20
4.3349536662
 30
0.0
 10
4.0864882336
 20
4.3354498033
 30
0.0
 10
4.0881049505
 20
4.3358986573
 30
0.0
 10
4.0897723381
 20
4.3362984377
 30
0.0
 10
4.0920724549
 20
4.336767912
 30
0.0
 10
4.0950341052
 20
4.3372210329
 30
0.0
 10
4.0980501697
 20
4.3374925659
 30
0.0
 10
4.1004982172
 20
4.3376022835
 30
0.0
 10
4.1017298798
 20
4.3376207086
 30
0.0
 10
4.1023462733
 20
4.3376207086
 30
0.0
  0
SPLINE
  5
2B7
100
AcDbEntity
  8
ALL_FEATURES
100
AcDbSpline
 62
7
  6
CONTINUOUS
 70
0
 71
3
 72
10
 73
6
 74
0
 42
0.0000001
 43
0.0000001
 44
0.0000000001
 40
0.0
 40
0.0
 40
0.0
 40
0.0
 40
0.2678746682
 40
0.5236386951
 40
1.0
 40
1.0
 40
1.0
 40
1.0
 10
4.0738798537
 20
4.3288386796
 30
0.0
 10
4.0735395641
 20
4.3285980705
 30
0.0
 10
4.0728876459
 20
4.3281082663
 30
0.0
 10
4.0717065368
 20
4.327094936
 30
0.0
 10
4.0709193334
 20
4.3262632419
 30
0.0
 10
4.0704600525
 20
4.3256815816
 30
0.0
  0
LINE
  5
2B8
100
AcDbEntity
  8
ALL_FEATURES
100
AcDbLine
 62
7
  6
CONTINUOUS
 10
4.0715316989
 20
4.323813326
 11
4.0720234269
 21
4.3253426088
  0
SPLINE
  5
2B9
100
AcDbEntity
  8
ALL_FEATURES
100
AcDbSpline
 62
7
  6
CONTINUOUS
 70
0
 71
3
 72
11
 73
7
 74
0
 42
0.0000001
 43
0.0000001
 44
0.0000000001
 40
0.0
 40
0.0
 40
0.0
 40
0.0
 40
0.2364731214
 40
0.4812271813
 40
0.7354319827
 40
1.0
 40
1.0
 40
1.0
 40
1.0
 10
4.0720234269
 20
4.3253426088
 30
0.0
 10
4.0721432584
 20
4.3256245235
 30
0.0
 10
4.0724156014
 20
4.3261864847
 30
0.0
 10
4.072908058
 20
4.3270033708
 30
0.0
 10
4.0734893381
 20
4.3278049301
 30
0.0
 10
4.0739256707
 20
4.3283169915
 30
0.0
 10
4.0741570322
 20
4.3285698326
 30
0.0
  0
SPLINE
  5
2BA
100
AcDbEntity
  8
ALL_FEATURES
100
AcDbSpline
 62
7
  6
CONTINUOUS
 70
0
 71
3
 72
10
 73
6
 74
0
 42
0.0000001
 43
0.0000001
 44
0.0000000001
 40
0.0
 40
0.0
 40
0.0
 40
0.0
 40
0.482662079
 40
0.7369502828
 40
1.0
 40
1.0
 40
1.0
 40
1.0
 10
4.0741570322
 20
4.3285698326
 30
0.0
 10
4.0745717098
 20
4.3290230089
 30
0.0
 10
4.0752492678
 20
4.3296754021
 30
0.0
 10
4.0762325391
 20
4.3304837879
 30
0.0
 10
4.0767615442
 20
4.3308763483
 30
0.0
 10
4.077034883
 20
4.3310696365
 30
0.0
  0
SPLINE
  5
2BB
100
AcDbEntity
  8
ALL_FEATURES
100
AcDbSpline
 62
7
  6
CONTINUOUS
 70
0
 71
3
 72
29
 73
25
 74
0
 42
0.0000001
 43
0.0000001
 44
0.0000000001
 40
0.0
 40
0.0
 40
0.0
 40
0.0
 40
0.0738780152
 40
0.1435644858
 40
0.2092391475
 40
0.2712330928
 40
0.3300338339
 40
0.3584552474
 40
0.3863395458
 40
0.4137939446
 40
0.4409338856
 40
0.4678800118
 40
0.4947568391
 40
0.5216908097
 40
0.5488067368
 40
0.5762256945
 40
0.6040637059
 40
0.6613847385
 40
0.7215560023
 40
0.7851628851
 40
0.8526178473
 40
0.8878861987
 40
0.9242018834
 40
1.0
 40
1.0
 40
1.0
 40
1.0
 10
4.1276576636
 20
4.3310696365
 30
0.0
 10
4.1281166519
 20
4.3307450685
 30
0.0
 10
4.1289849334
 20
4.3300797254
 30
0.0
 10
4.1301599503
 20
4.3290020453
 30
0.0
 10
4.1311619559
 20
4.3278796931
 30
0.0
 10
4.1319844762
 20
4.3267196071
 30
0.0
 10
4.1325213424
 20
4.3257149508
 30
0.0
 10
4.1328510601
 20
4.3249028197
 30
0.0
 10
4.1330476926
 20
4.3242959386
 30
0.0
 10
4.133196007
 20
4.3236855023
 30
0.0
 10
4.1332958556
 20
4.3230724994
 30
0.0
 10
4.1333470564
 20
4.3224579274
 30
0.0
 10
4.1333494154
 20
4.3218427908
 30
0.0
 10
4.1333029129
 20
4.3212281189
 30
0.0
 10
4.1332077511
 20
4.3206149265
 30
0.0
 10
4.1330640893
 20
4.3200041795
 30
0.0
 10
4.132805691
 20
4.319186736
 30
0.0
 10
4.1323569447
 20
4.3181716911
 30
0.0
 10
4.1316355338
 20
4.3169934385
 30
0.0
 10
4.1307311136
 20
4.3158495913
 30
0.0
 10
4.1298436745
 20
4.3149440729
 30
0.0
 10
4.1290519559
 20
4.3142418596
 30
0.0
 10
4.1281804151
 20
4.3135356385
 30
0.0
 10
4.1274836863
 20
4.3130412812
 30
0.0
 10
4.1270014253
 20
4.3127249285
 30
0.0
  0
LINE
  5
2BC
100
AcDbEntity
  8
ALL_FEATURES
100
AcDbLine
 62
7
  6
CONTINUOUS
 10
4.1264387036
 20
4.3123668322
 11
4.1234654008
 21
4.3107741139
  0
LINE
  5
2BD
100
AcDbEntity
  8
0
100
AcDbLine
 62
7
  6
CONTINUOUS
 10
3.6063779841
 20
3.82514302
 11
3.6063462733
 21
3.8245877329
  0
SPLINE
  5
2BE
100
AcDbEntity
  8
0
100
AcDbSpline
 62
7
  6
CONTINUOUS
 70
0
 71
3
 72
11
 73
7
 74
0
 42
0.0000001
 43
0.0000001
 44
0.0000000001
 40
0.0
 40
0.0
 40
0.0
 40
0.0
 40
0.2499990599
 40
0.4999998189
 40
0.7500009437
 40
1.0
 40
1.0
 40
1.0
 40
1.0
 10
3.8888067745
 20
3.5560556482
 30
0.0
 10
3.8831919538
 20
3.57620109
 30
0.0
 10
3.8732302097
 20
3.6168576345
 30
0.0
 10
3.8621387275
 20
3.6786496678
 30
0.0
 10
3.8549294067
 20
3.741013913
 30
0.0
 10
3.8527347222
 20
3.7828154731
 30
0.0
 10
3.852296148
 20
3.8037241478
 30
0.0
  0
SPLINE
  5
2BF
100
AcDbEntity
  8
0
100
AcDbSpline
 62
7
  6
CONTINUOUS
 70
0
 71
3
 72
19
 73
15
 74
0
 42
0.0000001
 43
0.0000001
 44
0.0000000001
 40
0.0
 40
0.0
 40
0.0
 40
0.0
 40
0.1642838431
 40
0.3203766803
 40
0.4660707073
 40
0.5994514746
 40
0.6611236806
 40
0.7193069416
 40
0.7739662275
 40
0.8251629642
 40
0.8730510683
 40
0.9178758851
 40
0.960015386
 40
1.0
 40
1.0
 40
1.0
 40
1.0
 10
4.0938679257
 20
4.3411985607
 30
0.0
 10
4.092281001
 20
4.3410982019
 30
0.0
 10
4.0891920564
 20
4.3407873425
 30
0.0
 10
4.0847491208
 20
4.3399767598
 30
0.0
 10
4.0806830974
 20
4.3388553065
 30
0.0
 10
4.0776017631
 20
4.3376576866
 30
0.0
 10
4.0754095425
 20
4.3365578631
 30
0.0
 10
4.073953657
 20
4.3356984611
 30
0.0
 10
4.0726510565
 20
4.3347875806
 30
0.0
 10
4.0715085599
 20
4.3338308242
 30
0.0
 10
4.0705318378
 20
4.3328342192
 30
0.0
 10
4.0697266609
 20
4.3318028554
 30
0.0
 10
4.06909888
 20
4.330742491
 30
0.0
 10
4.0687943887
 20
4.3300043928
 30
0.0
 10
4.0686758579
 20
4.3296359821
 30
0.0
  0
SPLINE
  5
2C0
100
AcDbEntity
  8
0
100
AcDbSpline
 62
7
  6
CONTINUOUS
 70
0
 71
3
 72
16
 73
12
 74
0
 42
0.0000001
 43
0.0000001
 44
0.0000000001
 40
0.0
 40
0.0
 40
0.0
 40
0.0
 40
0.1441366688
 40
0.2867073117
 40
0.4251636474
 40
0.5575432407
 40
0.6821337817
 40
0.7411051011
 40
0.7977073749
 40
0.9035551368
 40
1.0
 40
1.0
 40
1.0
 40
1.0
 10
4.1023462741
 20
4.3411928312
 30
0.0
 10
4.1040481953
 20
4.341085028
 30
0.0
 10
4.1074269146
 20
4.3407437508
 30
0.0
 10
4.1123836602
 20
4.3398588065
 30
0.0
 10
4.1171190862
 20
4.3386107053
 30
0.0
 10
4.1215258708
 20
4.337020713
 30
0.0
 10
4.1249061123
 20
4.33540596
 30
0.0
 10
4.1273524308
 20
4.3339570693
 30
0.0
 10
4.1295184586
 20
4.332480952
 30
0.0
 10
4.1318701984
 20
4.3305008698
 30
0.0
 10
4.1334286493
 20
4.3286626313
 30
0.0
 10
4.1340696504
 20
4.3277186154
 30
0.0
  0
LINE
  5
2C1
100
AcDbEntity
  8
0
100
AcDbLine
 62
7
  6
CONTINUOUS
 10
4.1341383681
 20
4.3276165631
 11
4.1352919374
 21
4.3255476928
  0
SPLINE
  5
2C2
100
AcDbEntity
  8
0
100
AcDbSpline
 62
7
  6
CONTINUOUS
 70
0
 71
3
 72
9
 73
5
 74
0
 42
0.0000001
 43
0.0000001
 44
0.0000000001
 40
0.0
 40
0.0
 40
0.0
 40
0.0
 40
0.5079198087
 40
1.0
 40
1.0
 40
1.0
 40
1.0
 10
4.1352919374
 20
4.3255476928
 30
0.0
 10
4.1355671181
 20
4.3249374957
 30
0.0
 10
4.1360182187
 20
4.3236922711
 30
0.0
 10
4.1362501479
 20
4.3223870973
 30
0.0
 10
4.1363058643
 20
4.3217409934
 30
0.0
  0
SPLINE
  5
2C3
100
AcDbEntity
  8
0
100
AcDbSpline
 62
7
  6
CONTINUOUS
 70
0
 71
3
 72
14
 73
10
 74
0
 42
0.0000001
 43
0.0000001
 44
0.0000000001
 40
0.0
 40
0.0
 40
0.0
 40
0.0
 40
0.0988282619
 40
0.2029705866
 40
0.3142475428
 40
0.4338419254
 40
0.5622536703
 40
0.6996141309
 40
1.0
 40
1.0
 40
1.0
 40
1.0
 10
4.1448009191
 20
4.3289502373
 30
0.0
 10
4.144801039
 20
4.3282363806
 30
0.0
 10
4.144647577
 20
4.3267668845
 30
0.0
 10
4.1439871972
 20
4.324583401
 30
0.0
 10
4.1429074841
 20
4.3224065441
 30
0.0
 10
4.1414217648
 20
4.3202689175
 30
0.0
 10
4.1395467037
 20
4.3182018255
 30
0.0
 10
4.1364603139
 20
4.3155086771
 30
0.0
 10
4.1337451344
 20
4.3138326477
 30
0.0
 10
4.1318049064
 20
4.3128613991
 30
0.0
  0
SPLINE
  5
2C4
100
AcDbEntity
  8
0
100
AcDbSpline
 62
7
  6
CONTINUOUS
 70
0
 71
3
 72
12
 73
8
 74
0
 42
0.0000001
 43
0.0000001
 44
0.0000000001
 40
0.0
 40
0.0
 40
0.0
 40
0.0
 40
0.2741941658
 40
0.529354006
 40
0.7693411315
 40
0.8854651557
 40
1.0
 40
1.0
 40
1.0
 40
1.0
 10
4.1317877373
 20
4.3128739973
 30
0.0
 10
4.1324405377
 20
4.3135218888
 30
0.0
 10
4.1336234275
 20
4.3148557919
 30
0.0
 10
4.1350212773
 20
4.3170383982
 30
0.0
 10
4.1358053959
 20
4.3189480317
 30
0.0
 10
4.1361772321
 20
4.3204846922
 30
0.0
 10
4.1362802925
 20
4.3212532517
 30
0.0
 10
4.1363110901
 20
4.3216362017
 30
0.0
  0
SPLINE
  5
2C5
100
AcDbEntity
  8
0
100
AcDbSpline
 62
7
  6
CONTINUOUS
 70
0
 71
3
 72
8
 73
4
 74
0
 42
0.0000001
 43
0.0000001
 44
0.0000000001
 40
0.0
 40
0.0
 40
0.0
 40
0.0
 40
1.0
 40
1.0
 40
1.0
 40
1.0
 10
4.1803462733
 20
4.3490877329
 30
0.0
 10
4.1283045566
 20
4.3490877329
 30
0.0
 10
4.07638799
 20
4.3553377329
 30
0.0
 10
4.0243462733
 20
4.3553377329
 30
0.0
  0
LINE
  5
2C6
100
AcDbEntity
  8
0
100
AcDbLine
 62
7
  6
CONTINUOUS
 10
4.1001119201
 20
4.3155485885
 11
4.0938501141
 21
4.3156488222
  0
SPLINE
  5
2C7
100
AcDbEntity
  8
0
100
AcDbSpline
 62
7
  6
CONTINUOUS
 70
0
 71
3
 72
13
 73
9
 74
0
 42
0.0000001
 43
0.0000001
 44
0.0000000001
 40
0.0
 40
0.0
 40
0.0
 40
0.0
 40
0.118818022
 40
0.2414060663
 40
0.3666497771
 40
0.493541243
 40
0.7483178921
 40
1.0
 40
1.0
 40
1.0
 40
1.0
 10
4.1279835627
 20
4.3112073771
 30
0.0
 10
4.1271644179
 20
4.3110557638
 30
0.0
 10
4.1254840208
 20
4.3108297437
 30
0.0
 10
4.1229120294
 20
4.3107240993
 30
0.0
 10
4.1202846559
 20
4.3108587008
 30
0.0
 10
4.116759382
 20
4.3113371751
 30
0.0
 10
4.112443218
 20
4.3124472769
 30
0.0
 10
4.1091332811
 20
4.3137548021
 30
0.0
 10
4.107527628
 20
4.314486699
 30
0.0
  0
LINE
  5
2C8
100
AcDbEntity
  8
0
100
AcDbLine
 62
7
  6
CONTINUOUS
 10
4.0712748116
 20
4.324029144
 11
4.0698470323
 21
4.3269839041
  0
LINE
  5
2C9
100
AcDbEntity
  8
0
100
AcDbLine
 62
7
  6
CONTINUOUS
 10
4.0698470323
 20
4.3269839041
 11
4.0686046288
 21
4.329819294
  0
SPLINE
  5
2CA
100
AcDbEntity
  8
0
100
AcDbSpline
 62
7
  6
CONTINUOUS
 70
0
 71
3
 72
15
 73
11
 74
0
 42
0.0000001
 43
0.0000001
 44
0.0000000001
 40
0.0
 40
0.0
 40
0.0
 40
0.0
 40
0.1725537482
 40
0.3282753057
 40
0.467081512
 40
0.5903947367
 40
0.7012056884
 40
0.803641405
 40
0.9020567483
 40
1.0
 40
1.0
 40
1.0
 40
1.0
 10
4.0686046288
 20
4.329819294
 30
0.0
 10
4.0681543207
 20
4.3309142762
 30
0.0
 10
4.0673571756
 20
4.3330232281
 30
0.0
 10
4.0664751812
 20
4.3361092775
 30
0.0
 10
4.0659975909
 20
4.3389440652
 30
0.0
 10
4.0659434911
 20
4.3415137256
 30
0.0
 10
4.0663146564
 20
4.3438080242
 30
0.0
 10
4.0670908081
 20
4.3458182715
 30
0.0
 10
4.0682253663
 20
4.3475428595
 30
0.0
 10
4.0691759851
 20
4.348509393
 30
0.0
 10
4.0696845244
 20
4.3489487217
 30
0.0
  0
SPLINE
  5
2CB
100
AcDbEntity
  8
0
100
AcDbSpline
 62
7
  6
CONTINUOUS
 70
0
 71
3
 72
8
 73
4
 74
0
 42
0.0000001
 43
0.0000001
 44
0.0000000001
 40
0.0
 40
0.0
 40
0.0
 40
0.0
 40
1.0
 40
1.0
 40
1.0
 40
1.0
 10
4.1803462733
 20
4.0240877329
 30
0.0
 10
4.1283045566
 20
4.0240877329
 30
0.0
 10
4.07638799
 20
4.0178377329
 30
0.0
 10
4.0243462733
 20
4.0178377329
 30
0.0
  0
SPLINE
  5
2CC
100
AcDbEntity
  8
0
100
AcDbSpline
 62
7
  6
CONTINUOUS
 70
0
 71
3
 72
11
 73
7
 74
0
 42
0.0000001
 43
0.0000001
 44
0.0000000001
 40
0.0
 40
0.0
 40
0.0
 40
0.0
 40
0.2328334562
 40
0.4784613321
 40
0.7348502038
 40
1.0
 40
1.0
 40
1.0
 40
1.0
 10
4.0808940868
 20
4.3179939876
 30
0.0
 10
4.0818695758
 20
4.317676969
 30
0.0
 10
4.0838995563
 20
4.3171019116
 30
0.0
 10
4.0870680662
 20
4.3164283145
 30
0.0
 10
4.0904126161
 20
4.3159293269
 30
0.0
 10
4.0927021826
 20
4.3157215831
 30
0.0
 10
4.0938679195
 20
4.3156477356
 30
0.0
  0
SPLINE
  5
2CD
100
AcDbEntity
  8
0
100
AcDbSpline
 62
7
  6
CONTINUOUS
 70
0
 71
3
 72
9
 73
5
 74
0
 42
0.0000001
 43
0.0000001
 44
0.0000000001
 40
0.0
 40
0.0
 40
0.0
 40
0.0
 40
0.2478510073
 40
1.0
 40
1.0
 40
1.0
 40
1.0
 10
4.107527628
 20
4.314486699
 30
0.0
 10
4.1069097455
 20
4.3145276752
 30
0.0
 10
4.1044201864
 20
4.3147418203
 30
0.0
 10
4.1019476708
 20
4.3151468467
 30
0.0
 10
4.1001119201
 20
4.3155485885
 30
0.0
  0
LINE
  5
2CE
100
AcDbEntity
  8
0
100
AcDbLine
 62
7
  6
CONTINUOUS
 10
3.8794750406
 20
3.5445794525
 11
3.7942610212
 21
3.5102783404
  0
SPLINE
  5
2CF
100
AcDbEntity
  8
0
100
AcDbSpline
 62
7
  6
CONTINUOUS
 70
0
 71
3
 72
9
 73
5
 74
0
 42
0.0000001
 43
0.0000001
 44
0.0000000001
 40
0.0
 40
0.0
 40
0.0
 40
0.0
 40
0.4828835983
 40
1.0
 40
1.0
 40
1.0
 40
1.0
 10
4.0662977082
 20
4.343512231
 30
0.0
 10
4.0669813543
 20
4.3439960672
 30
0.0
 10
4.0684471739
 20
4.3449283191
 30
0.0
 10
4.069985073
 20
4.3457344211
 30
0.0
 10
4.0707937985
 20
4.3461222559
 30
0.0
  0
SPLINE
  5
2D0
100
AcDbEntity
  8
0
100
AcDbSpline
 62
7
  6
CONTINUOUS
 70
0
 71
3
 72
11
 73
7
 74
0
 42
0.0000001
 43
0.0000001
 44
0.0000000001
 40
0.0
 40
0.0
 40
0.0
 40
0.0
 40
0.2307294916
 40
0.4751668623
 40
0.7321556131
 40
1.0
 40
1.0
 40
1.0
 40
1.0
 10
4.0709086764
 20
4.3461771084
 30
0.0
 10
4.0718021396
 20
4.3466018755
 30
0.0
 10
4.0736767302
 20
4.3474051618
 30
0.0
 10
4.0766411142
 20
4.3484443996
 30
0.0
 10
4.0798163818
 20
4.3493439225
 30
0.0
 10
4.0820136287
 20
4.3498356522
 30
0.0
 10
4.0831404579
 20
4.3500573513
 30
0.0
  0
LINE
  5
2D1
100
AcDbEntity
  8
0
100
AcDbLine
 62
7
  6
CONTINUOUS
 10
3.7890619133
 20
3.5081937883
 11
3.7893545356
 21
3.508303619
  0
SPLINE
  5
2D2
100
AcDbEntity
  8
0
100
AcDbSpline
 62
7
  6
CONTINUOUS
 70
0
 71
3
 72
12
 73
8
 74
0
 42
0.0000001
 43
0.0000001
 44
0.0000000001
 40
0.0
 40
0.0
 40
0.0
 40
0.0
 40
0.247467677
 40
0.372071969
 40
0.4971284625
 40
0.748202226
 40
1.0
 40
1.0
 40
1.0
 40
1.0
 10
3.8743576997
 20
3.5562705164
 30
0.0
 10
3.8682359432
 20
3.5778259324
 30
0.0
 10
3.8601979126
 20
3.6105820404
 30
0.0
 10
3.851782912
 20
3.6548091432
 30
0.0
 10
3.8448624578
 20
3.6996274173
 30
0.0
 10
3.8391029987
 20
3.7562392407
 30
0.0
 10
3.8375770119
 20
3.801787796
 30
0.0
 10
3.8375772487
 20
3.8245877329
 30
0.0
  0
LINE
  5
2D3
100
AcDbEntity
  8
0
100
AcDbLine
 62
7
  6
CONTINUOUS
 10
3.5577148682
 20
3.5554895971
 11
3.8743576997
 21
3.5562705164
  0
SPLINE
  5
2D4
100
AcDbEntity
  8
0
100
AcDbSpline
 62
7
  6
CONTINUOUS
 70
0
 71
3
 72
9
 73
5
 74
0
 42
0.0000001
 43
0.0000001
 44
0.0000000001
 40
0.0
 40
0.0
 40
0.0
 40
0.0
 40
0.4966498707
 40
1.0
 40
1.0
 40
1.0
 40
1.0
 10
4.0938501141
 20
4.3156488222
 30
0.0
 10
4.0916378251
 20
4.3157793934
 30
0.0
 10
4.0871933105
 20
4.3162342403
 30
0.0
 10
4.082796949
 20
4.3170211869
 30
0.0
 10
4.080600668
 20
4.3174913248
 30
0.0
  0
SPLINE
  5
2D5
100
AcDbEntity
  8
0
100
AcDbSpline
 62
7
  6
CONTINUOUS
 70
0
 71
3
 72
17
 73
13
 74
0
 42
0.0000001
 43
0.0000001
 44
0.0000000001
 40
0.0
 40
0.0
 40
0.0
 40
0.0
 40
0.0450334192
 40
0.0896531245
 40
0.1348496738
 40
0.1816000833
 40
0.28287955
 40
0.3985815022
 40
0.5303329682
 40
0.6770464042
 40
0.8355067141
 40
1.0
 40
1.0
 40
1.0
 40
1.0
 10
3.8837578248
 20
4.4642010924
 30
0.0
 10
3.8837999394
 20
4.4640483945
 30
0.0
 10
3.8838567787
 20
4.4637360951
 30
0.0
 10
3.8838538153
 20
4.463259157
 30
0.0
 10
3.8837617789
 20
4.4627849288
 30
0.0
 10
3.8835154905
 20
4.4621481146
 30
0.0
 10
3.8829690928
 20
4.4613802941
 30
0.0
 10
3.8820203431
 20
4.4605876763
 30
0.0
 10
3.8807941551
 20
4.459924508
 30
0.0
 10
3.8793356904
 20
4.4594217276
 30
0.0
 10
3.8777088017
 20
4.4591086332
 30
0.0
 10
3.8765715331
 20
4.4590376865
 30
0.0
 10
3.8759929495
 20
4.4590376303
 30
0.0
  0
SPLINE
  5
2D6
100
AcDbEntity
  8
0
100
AcDbSpline
 62
7
  6
CONTINUOUS
 70
0
 71
3
 72
12
 73
8
 74
0
 42
0.0000001
 43
0.0000001
 44
0.0000000001
 40
0.0
 40
0.0
 40
0.0
 40
0.0
 40
0.2516932337
 40
0.502683663
 40
0.6277364382
 40
0.7523679212
 40
1.0
 40
1.0
 40
1.0
 40
1.0
 10
3.6163275147
 20
3.8240326159
 30
0.0
 10
3.6148664197
 20
3.8009320365
 30
0.0
 10
3.610215577
 20
3.7548870377
 30
0.0
 10
3.6000798805
 20
3.6979959563
 30
0.0
 10
3.5894092833
 20
3.6531943165
 30
0.0
 10
3.5771001087
 20
3.6091385096
 30
0.0
 10
3.565965469
 20
3.576715735
 30
0.0
 10
3.5577148682
 20
3.5554895971
 30
0.0
  0
SPLINE
  5
2D7
100
AcDbEntity
  8
0
100
AcDbSpline
 62
7
  6
CONTINUOUS
 70
0
 71
3
 72
17
 73
13
 74
0
 42
0.0000001
 43
0.0000001
 44
0.0000000001
 40
0.0
 40
0.0
 40
0.0
 40
0.0
 40
0.1250019786
 40
0.2500022155
 40
0.3749996133
 40
0.4375103864
 40
0.5000210143
 40
0.6250123703
 40
0.7500004875
 40
0.8125102563
 40
0.8750199292
 40
1.0
 40
1.0
 40
1.0
 40
1.0
 10
3.8935411108
 20
4.0341136997
 30
0.0
 10
3.8973772899
 20
4.0402348265
 30
0.0
 10
3.9054638376
 20
4.0522241921
 30
0.0
 10
3.9188662639
 20
4.0692783253
 30
0.0
 10
3.9311034735
 20
4.0825888305
 30
0.0
 10
3.9415152383
 20
4.0926118937
 30
0.0
 10
3.9523343185
 20
4.1021933898
 30
0.0
 10
3.9666076426
 20
4.1132954791
 30
0.0
 10
3.9818100853
 20
4.1230913808
 30
0.0
 10
3.9944726814
 20
4.1300589305
 30
0.0
 10
4.0074485422
 20
4.1364199214
 30
0.0
 10
4.0175190565
 20
4.1404807537
 30
0.0
 10
4.0243462733
 20
4.1428377187
 30
0.0
  0
SPLINE
  5
2D8
100
AcDbEntity
  8
0
100
AcDbSpline
 62
7
  6
CONTINUOUS
 70
0
 71
3
 72
11
 73
7
 74
0
 42
0.0000001
 43
0.0000001
 44
0.0000000001
 40
0.0
 40
0.0
 40
0.0
 40
0.0
 40
0.2517173771
 40
0.5027031517
 40
0.7523406164
 40
1.0
 40
1.0
 40
1.0
 40
1.0
 10
3.6061829929
 20
3.8219428867
 30
0.0
 10
3.6047422659
 20
3.7991436688
 30
0.0
 10
3.6001559813
 20
3.7537007353
 30
0.0
 10
3.5881740139
 20
3.6864167556
 30
0.0
 10
3.5711818431
 20
3.6205997525
 30
0.0
 10
3.5565347542
 20
3.5778530957
 30
0.0
 10
3.5484159183
 20
3.5568942437
 30
0.0
  0
LINE
  5
2D9
100
AcDbEntity
  8
0
100
AcDbLine
 62
7
  6
CONTINUOUS
 10
3.5484159183
 20
3.5568942437
 11
3.5478681184
 21
3.5555112745
  0
LINE
  5
2DA
100
AcDbEntity
  8
0
100
AcDbLine
 62
7
  6
CONTINUOUS
 10
3.5577148684
 20
3.555489597
 11
3.5577624079
 21
3.5437746313
  0
SPLINE
  5
2DB
100
AcDbEntity
  8
0
100
AcDbSpline
 62
7
  6
CONTINUOUS
 70
0
 71
3
 72
11
 73
7
 74
0
 42
0.0000001
 43
0.0000001
 44
0.0000000001
 40
0.0
 40
0.0
 40
0.0
 40
0.0
 40
0.2383675674
 40
0.4891341873
 40
0.7445728507
 40
1.0
 40
1.0
 40
1.0
 40
1.0
 10
3.887253584
 20
3.5475099526
 30
0.0
 10
3.886248679
 20
3.5482345577
 30
0.0
 10
3.884178712
 20
3.5497105802
 30
0.0
 10
3.880997814
 20
3.5519148827
 30
0.0
 10
3.8777104276
 20
3.5541204318
 30
0.0
 10
3.8754801728
 20
3.5555616433
 30
0.0
 10
3.8743576997
 20
3.5562705164
 30
0.0
  0
SPLINE
  5
2DC
100
AcDbEntity
  8
0
100
AcDbSpline
 62
7
  6
CONTINUOUS
 70
0
 71
3
 72
15
 73
11
 74
0
 42
0.0000001
 43
0.0000001
 44
0.0000000001
 40
0.0
 40
0.0
 40
0.0
 40
0.0
 40
0.1250076594
 40
0.2500122273
 40
0.3750139242
 40
0.5000132734
 40
0.6250109493
 40
0.7500075943
 40
0.8750037953
 40
1.0
 40
1.0
 40
1.0
 40
1.0
 10
3.8375772468
 20
3.8245877329
 30
0.0
 10
3.8375750996
 20
3.8337453578
 30
0.0
 10
3.8380426693
 20
3.8520650281
 30
0.0
 10
3.8403319632
 20
3.8794581168
 30
0.0
 10
3.8443609424
 20
3.9066531765
 30
0.0
 10
3.8502452031
 20
3.9335100893
 30
0.0
 10
3.8580587829
 20
3.9598722623
 30
0.0
 10
3.8678352211
 20
3.9855733021
 30
0.0
 10
3.8795699948
 20
4.0104405791
 30
0.0
 10
3.8886785417
 20
4.0263546952
 30
0.0
 10
3.8935411108
 20
4.0341136997
 30
0.0
  0
LINE
  5
2DD
100
AcDbEntity
  8
0
100
AcDbLine
 62
7
  6
CONTINUOUS
 10
4.0243531519
 20
4.1428401091
 11
4.0243461982
 21
4.0178377327
  0
SPLINE
  5
2DE
100
AcDbEntity
  8
0
100
AcDbSpline
 62
7
  6
CONTINUOUS
 70
0
 71
3
 72
30
 73
26
 74
0
 42
0.0000001
 43
0.0000001
 44
0.0000000001
 40
0.0
 40
0.0
 40
0.0
 40
0.0
 40
0.0917287156
 40
0.182652522
 40
0.271722297
 40
0.3580804313
 40
0.4409291568
 40
0.5194983974
 40
0.5930682086
 40
0.6610421787
 40
0.722924598
 40
0.7514825995
 40
0.7784111247
 40
0.8036990574
 40
0.8273614399
 40
0.8494335995
 40
0.8699738143
 40
0.8890736188
 40
0.9068730405
 40
0.9235582258
 40
0.9393653423
 40
0.9545822734
 40
0.9695345396
 40
0.9845625949
 40
1.0
 40
1.0
 40
1.0
 40
1.0
 10
3.8935411108
 20
4.0341136997
 30
0.0
 10
3.8952602842
 20
4.0330362888
 30
0.0
 10
3.898646992
 20
4.0308319599
 30
0.0
 10
3.9035696022
 20
4.0273819678
 30
0.0
 10
3.9082714119
 20
4.0238301624
 30
0.0
 10
3.91269916
 20
4.0202183043
 30
0.0
 10
3.9168043726
 20
4.0165851977
 30
0.0
 10
3.9205430353
 20
4.0129718822
 30
0.0
 10
3.9238731306
 20
4.0094172068
 30
0.0
 10
3.9267591207
 20
4.0059617878
 30
0.0
 10
3.9288202395
 20
4.0031236055
 30
0.0
 10
3.9302089168
 20
4.0009293275
 30
0.0
 10
3.9310928976
 20
3.9993758872
 30
0.0
 10
3.9318447941
 20
3.9978744355
 30
0.0
 10
3.9324628942
 20
3.996429079
 30
0.0
 10
3.9329457152
 20
3.995043589
 30
0.0
 10
3.9332917445
 20
3.9937214955
 30
0.0
 10
3.9334992519
 20
3.9924659962
 30
0.0
 10
3.9335674741
 20
3.991280203
 30
0.0
 10
3.9334954971
 20
3.9901670317
 30
0.0
 10
3.9332820857
 20
3.9891297488
 30
0.0
 10
3.9329261129
 20
3.988172654
 30
0.0
 10
3.932429236
 20
3.987300034
 30
0.0
 10
3.9317943175
 20
3.9865161579
 30
0.0
 10
3.931290853
 20
3.9860636953
 30
0.0
 10
3.9310211802
 20
3.9858542575
 30
0.0
  0
SPLINE
  5
2DF
100
AcDbEntity
  8
0
100
AcDbSpline
 62
7
  6
CONTINUOUS
 70
0
 71
3
 72
20
 73
16
 74
0
 42
0.0000001
 43
0.0000001
 44
0.0000000001
 40
0.0
 40
0.0
 40
0.0
 40
0.0
 40
0.044624724
 40
0.0908509832
 40
0.1391897441
 40
0.1900360009
 40
0.2436429925
 40
0.3001608271
 40
0.3596392597
 40
0.422027781
 40
0.4872156177
 40
0.5550120681
 40
0.6973245842
 40
0.8466244776
 40
1.0
 40
1.0
 40
1.0
 40
1.0
 10
4.1360996293
 20
4.3248082306
 30
0.0
 10
4.1359814669
 20
4.3253581339
 30
0.0
 10
4.1356564472
 20
4.326461011
 30
0.0
 10
4.1349307071
 20
4.3280635754
 30
0.0
 10
4.1339660831
 20
4.3296273861
 30
0.0
 10
4.132770155
 20
4.3311416972
 30
0.0
 10
4.13135357
 20
4.3325986536
 30
0.0
 10
4.1297261693
 20
4.3339889805
 30
0.0
 10
4.127899775
 20
4.3353042119
 30
0.0
 10
4.1258880764
 20
4.3365374339
 30
0.0
 10
4.1237048966
 20
4.3376803577
 30
0.0
 10
4.1205358748
 20
4.3390980215
 30
0.0
 10
4.1162481564
 20
4.3405890145
 30
0.0
 10
4.1107877874
 20
4.3419026489
 30
0.0
 10
4.1070076557
 20
4.3424584252
 30
0.0
 10
4.105084874
 20
4.3426585032
 30
0.0
  0
LINE
  5
2E0
100
AcDbEntity
  8
0
100
AcDbLine
 62
7
  6
CONTINUOUS
 10
3.7893545467
 20
3.5083036235
 11
3.7912775617
 21
3.5080312327
  0
SPLINE
  5
2E1
100
AcDbEntity
  8
0
100
AcDbSpline
 62
7
  6
CONTINUOUS
 70
0
 71
3
 72
9
 73
5
 74
0
 42
0.0000001
 43
0.0000001
 44
0.0000000001
 40
0.0
 40
0.0
 40
0.0
 40
0.0
 40
0.5048846645
 40
1.0
 40
1.0
 40
1.0
 40
1.0
 10
3.7912775617
 20
3.5080312327
 30
0.0
 10
3.7919019647
 20
3.508005161
 30
0.0
 10
3.7931477743
 20
3.5080772458
 30
0.0
 10
3.7943503163
 20
3.5084144364
 30
0.0
 10
3.7949187676
 20
3.5086434644
 30
0.0
  0
SPLINE
  5
2E2
100
AcDbEntity
  8
0
100
AcDbSpline
 62
7
  6
CONTINUOUS
 70
0
 71
3
 72
22
 73
18
 74
0
 42
0.0000001
 43
0.0000001
 44
0.0000000001
 40
0.0
 40
0.0
 40
0.0
 40
0.0
 40
0.035108683
 40
0.069943603
 40
0.1065037343
 40
0.1465162931
 40
0.168240458
 40
0.1912426477
 40
0.2413365505
 40
0.2970982687
 40
0.3585051328
 40
0.4253473659
 40
0.4972097262
 40
0.5735974541
 40
0.6539255715
 40
0.8237112337
 40
1.0
 40
1.0
 40
1.0
 40
1.0
 10
3.8933972795
 20
4.458439396
 30
0.0
 10
3.8934621821
 20
4.4582042525
 30
0.0
 10
3.8935339404
 20
4.4577169348
 30
0.0
 10
3.8934399941
 20
4.4569742281
 30
0.0
 10
3.8931458951
 20
4.4562499353
 30
0.0
 10
3.8927529693
 20
4.4556856362
 30
0.0
 10
3.8923575773
 20
4.455248843
 30
0.0
 10
3.8918782326
 20
4.4547959627
 30
0.0
 10
3.891164114
 20
4.4542517929
 30
0.0
 10
3.8901679764
 20
4.4536500066
 30
0.0
 10
3.889018793
 20
4.4530865141
 30
0.0
 10
3.8877280276
 20
4.4525669379
 30
0.0
 10
3.8863087164
 20
4.452096263
 30
0.0
 10
3.8847751744
 20
4.4516804596
 30
0.0
 10
3.8825578391
 20
4.4511973705
 30
0.0
 10
3.8796213471
 20
4.4507741974
 30
0.0
 10
3.8772176531
 20
4.450633695
 30
0.0
 10
3.8759929457
 20
4.4506144217
 30
0.0
  0
SPLINE
  5
2E3
100
AcDbEntity
  8
0
100
AcDbSpline
 62
7
  6
CONTINUOUS
 70
0
 71
3
 72
31
 73
27
 74
0
 42
0.0000001
 43
0.0000001
 44
0.0000000001
 40
0.0
 40
0.0
 40
0.0
 40
0.0
 40
0.0925001464
 40
0.1841592669
 40
0.2739603491
 40
0.3610564175
 40
0.444630366
 40
0.5238840988
 40
0.5981015113
 40
0.6666492497
 40
0.6986363391
 40
0.7290215556
 40
0.7577604546
 40
0.7848257045
 40
0.8102003653
 40
0.8338806556
 40
0.8558882007
 40
0.8762707778
 40
0.895103305
 40
0.9125003939
 40
0.928631375
 40
0.943720418
 40
0.9580513621
 40
0.9719622884
 40
0.9858215432
 40
1.0
 40
1.0
 40
1.0
 40
1.0
 10
3.9642324092
 20
4.2578479473
 30
0.0
 10
3.9661679142
 20
4.2607604448
 30
0.0
 10
3.969931404
 20
4.2666192985
 30
0.0
 10
3.9752553176
 20
4.2755052062
 30
0.0
 10
3.9801901572
 20
4.2843801332
 30
0.0
 10
3.9846820856
 20
4.2931452888
 30
0.0
 10
3.9886837585
 20
4.3017068993
 30
0.0
 10
3.9921520897
 20
4.3099729611
 30
0.0
 10
3.995050385
 20
4.3178533351
 30
0.0
 10
3.9970081383
 20
4.3241673018
 30
0.0
 10
3.9982491959
 20
4.3289594427
 30
0.0
 10
3.9989982213
 20
4.3323222595
 30
0.0
 10
3.9995849857
 20
4.3355282772
 30
0.0
 10
4.0000083578
 20
4.3385689597
 30
0.0
 10
4.0002673291
 20
4.3414362906
 30
0.0
 10
4.0003606287
 20
4.3441227639
 30
0.0
 10
4.0002880972
 20
4.3466214514
 30
0.0
 10
4.0000501929
 20
4.3489261697
 30
0.0
 10
3.9996469199
 20
4.3510312369
 30
0.0
 10
3.9990777823
 20
4.3529313026
 30
0.0
 10
3.9983432812
 20
4.3546215849
 30
0.0
 10
3.9974433951
 20
4.3560971064
 30
0.0
 10
3.9963779566
 20
4.3573510943
 30
0.0
 10
3.9951500798
 20
4.3583765991
 30
0.0
 10
3.993766851
 20
4.3591681323
 30
0.0
 10
3.9927646702
 20
4.3595306712
 30
0.0
 10
3.9922478571
 20
4.3596728638
 30
0.0
  0
SPLINE
  5
2E4
100
AcDbEntity
  8
0
100
AcDbSpline
 62
7
  6
CONTINUOUS
 70
0
 71
3
 72
60
 73
56
 74
0
 42
0.0000001
 43
0.0000001
 44
0.0000000001
 40
0.0
 40
0.0
 40
0.0
 40
0.0
 40
0.0008992545
 40
0.0015408385
 40
0.0020284917
 40
0.0025127626
 40
0.0031098901
 40
0.0038623442
 40
0.0047750921
 40
0.0058402199
 40
0.0070464476
 40
0.0083831091
 40
0.0114185474
 40
0.0149464461
 40
0.0190107006
 40
0.0236334057
 40
0.0288224723
 40
0.0345800417
 40
0.0409072254
 40
0.04780657
 40
0.0552809139
 40
0.0719633082
 40
0.0909691688
 40
0.112294643
 40
0.1359048854
 40
0.1617613648
 40
0.1898063842
 40
0.2199550578
 40
0.2521202563
 40
0.2862074589
 40
0.3221134691
 40
0.3597340061
 40
0.3989542031
 40
0.4396496282
 40
0.4816959477
 40
0.5249731485
 40
0.5693644336
 40
0.5919416788
 40
0.6147530587
 40
0.6377815848
 40
0.6610101054
 40
0.6844216355
 40
0.7079995969
 40
0.7317285306
 40
0.7555998723
 40
0.7796090722
 40
0.8037522208
 40
0.8280279736
 40
0.8524395396
 40
0.864698804
 40
0.8769898362
 40
0.901630449
 40
0.9508910445
 40
0.9754445443
 40
1.0
 40
1.0
 40
1.0
 40
1.0
 10
4.0243462823
 20
4.3553377332
 30
0.0
 10
4.0243087342
 20
4.3553377332
 30
0.0
 10
4.0242443319
 20
4.35533455
 30
0.0
 10
4.0241610033
 20
4.3553129275
 30
0.0
 10
4.0241070679
 20
4.3552669405
 30
0.0
 10
4.0240899035
 20
4.3552006937
 30
0.0
 10
4.0240981562
 20
4.3551240273
 30
0.0
 10
4.0241227534
 20
4.3550326505
 30
0.0
 10
4.0241604159
 20
4.3549250179
 30
0.0
 10
4.0242069523
 20
4.3548004828
 30
0.0
 10
4.0242582531
 20
4.354658819
 30
0.0
 10
4.0243306045
 20
4.354437383
 30
0.0
 10
4.0244069519
 20
4.3541154511
 30
0.0
 10
4.0244499239
 20
4.3536728425
 30
0.0
 10
4.0244616702
 20
4.3531627941
 30
0.0
 10
4.0244499023
 20
4.3525834106
 30
0.0
 10
4.0244243559
 20
4.3519338273
 30
0.0
 10
4.0243938634
 20
4.3512132053
 30
0.0
 10
4.0243685889
 20
4.3504209089
 30
0.0
 10
4.0243535259
 20
4.34955666
 30
0.0
 10
4.0243423186
 20
4.3482599629
 30
0.0
 10
4.0243430662
 20
4.3464577037
 30
0.0
 10
4.0243476166
 20
4.3440771251
 30
0.0
 10
4.0243463951
 20
4.3414072627
 30
0.0
 10
4.0243453112
 20
4.3384513595
 30
0.0
 10
4.0243481586
 20
4.3352148826
 30
0.0
 10
4.0243554457
 20
4.3317054036
 30
0.0
 10
4.0243608386
 20
4.3279325012
 30
0.0
 10
4.0243584008
 20
4.3239073041
 30
0.0
 10
4.0243473033
 20
4.3196417272
 30
0.0
 10
4.0243333376
 20
4.3151483734
 30
0.0
 10
4.0243209087
 20
4.3104406866
 30
0.0
 10
4.0243142805
 20
4.305533007
 30
0.0
 10
4.0243162498
 20
4.3004405223
 30
0.0
 10
4.0243326538
 20
4.2951786654
 30
0.0
 10
4.0243527589
 20
4.2897625069
 30
0.0
 10
4.0243563003
 20
4.2851592149
 30
0.0
 10
4.0243417615
 20
4.2814105065
 30
0.0
 10
4.0243226603
 20
4.2785538337
 30
0.0
 10
4.0243018433
 20
4.2756699805
 30
0.0
 10
4.0242845198
 20
4.2727610415
 30
0.0
 10
4.0242764196
 20
4.2698291171
 30
0.0
 10
4.024282411
 20
4.2668762781
 30
0.0
 10
4.0243103196
 20
4.2639043638
 30
0.0
 10
4.0243518437
 20
4.2609146232
 30
0.0
 10
4.0243890333
 20
4.2579075235
 30
0.0
 10
4.0244062759
 20
4.2548833159
 30
0.0
 10
4.0243870963
 20
4.2518422741
 30
0.0
 10
4.0243279981
 20
4.2492979559
 30
0.0
 10
4.0242455431
 20
4.2472552069
 30
0.0
 10
4.0241444328
 20
4.2452036884
 30
0.0
 10
4.0239482756
 20
4.2416105992
 30
0.0
 10
4.023797216
 20
4.2374987366
 30
0.0
 10
4.0239596114
 20
4.2333921826
 30
0.0
 10
4.0241856762
 20
4.231351464
 30
0.0
 10
4.0243441674
 20
4.230338483
 30
0.0
  0
SPLINE
  5
2E5
100
AcDbEntity
  8
0
100
AcDbSpline
 62
7
  6
CONTINUOUS
 70
0
 71
3
 72
12
 73
8
 74
0
 42
0.0000001
 43
0.0000001
 44
0.0000000001
 40
0.0
 40
0.0
 40
0.0
 40
0.0
 40
0.2772412747
 40
0.5339891453
 40
0.7729756317
 40
0.8875991932
 40
1.0
 40
1.0
 40
1.0
 40
1.0
 10
4.1380443305
 20
4.339453968
 30
0.0
 10
4.1389480938
 20
4.3386672949
 30
0.0
 10
4.1405972855
 20
4.33704042
 30
0.0
 10
4.1426048142
 20
4.3343528132
 30
0.0
 10
4.1437885918
 20
4.3319750347
 30
0.0
 10
4.144398401
 20
4.3300523405
 30
0.0
 10
4.1445943356
 20
4.3290885495
 30
0.0
 10
4.1446644771
 20
4.3286078655
 30
0.0
  0
LINE
  5
2E6
100
AcDbEntity
  8
0
100
AcDbLine
 62
7
  6
CONTINUOUS
 10
3.6163612899
 20
3.8245952701
 11
3.6063779665
 21
3.8251428966
  0
LINE
  5
2E7
100
AcDbEntity
  8
0
100
AcDbLine
 62
7
  6
CONTINUOUS
 10
3.6092701157
 20
3.824435588
 11
3.6063462733
 21
3.8245877329
  0
SPLINE
  5
2E8
100
AcDbEntity
  8
0
100
AcDbSpline
 62
7
  6
CONTINUOUS
 70
0
 71
3
 72
19
 73
15
 74
0
 42
0.0000001
 43
0.0000001
 44
0.0000000001
 40
0.0
 40
0.0
 40
0.0
 40
0.0
 40
0.188187218
 40
0.367678196
 40
0.5323118423
 40
0.6769637378
 40
0.7404393066
 40
0.797364499
 40
0.8474355088
 40
0.8905016716
 40
0.9265631056
 40
0.9559804901
 40
0.9797703019
 40
1.0
 40
1.0
 40
1.0
 40
1.0
 10
3.5577148684
 20
3.555489597
 30
0.0
 10
3.5571438913
 20
3.5556996901
 30
0.0
 10
3.5560204302
 20
3.5560891134
 30
0.0
 10
3.554372544
 20
3.5565870385
 30
0.0
 10
3.5528399319
 20
3.5569743024
 30
0.0
 10
3.5516558028
 20
3.5572037088
 30
0.0
 10
3.5508060734
 20
3.5573162945
 30
0.0
 10
3.550256623
 20
3.5573624882
 30
0.0
 10
3.5497712429
 20
3.5573740794
 30
0.0
 10
3.549353616
 20
3.557351298
 30
0.0
 10
3.5490063562
 20
3.5572942533
 30
0.0
 10
3.5487310182
 20
3.5572022858
 30
0.0
 10
3.5485270226
 20
3.5570742625
 30
0.0
 10
3.548440339
 20
3.5569549153
 30
0.0
 10
3.5484159183
 20
3.5568942437
 30
0.0
  0
SPLINE
  5
2E9
100
AcDbEntity
  8
0
100
AcDbSpline
 62
7
  6
CONTINUOUS
 70
0
 71
3
 72
20
 73
16
 74
0
 42
0.0000001
 43
0.0000001
 44
0.0000000001
 40
0.0
 40
0.0
 40
0.0
 40
0.0
 40
0.1273702281
 40
0.191458758
 40
0.2554892769
 40
0.319391626
 40
0.3831016649
 40
0.4465464263
 40
0.5096397427
 40
0.6343590991
 40
0.6961591463
 40
0.7575410252
 40
0.8185837442
 40
0.879383779
 40
1.0
 40
1.0
 40
1.0
 40
1.0
 10
3.5577624079
 20
3.5437746313
 30
0.0
 10
3.5569664854
 20
3.5438035083
 30
0.0
 10
3.5557696294
 20
3.543986907
 30
0.0
 10
3.5542513574
 20
3.5444912507
 30
0.0
 10
3.5531598189
 20
3.54499821
 30
0.0
 10
3.5521346345
 20
3.5456235807
 30
0.0
 10
3.5511904503
 20
3.5463597795
 30
0.0
 10
3.5503401797
 20
3.5471957756
 30
0.0
 10
3.549352341
 20
3.5484208691
 30
0.0
 10
3.5485929853
 20
3.5498047425
 30
0.0
 10
3.5481032019
 20
3.5512786244
 30
0.0
 10
3.5478760229
 20
3.5524110284
 30
0.0
 10
3.5477907162
 20
3.5535567814
 30
0.0
 10
3.5478697487
 20
3.5550735265
 30
0.0
 10
3.548143748
 20
3.5561908511
 30
0.0
 10
3.5484159183
 20
3.5568942437
 30
0.0
  0
SPLINE
  5
2EA
100
AcDbEntity
  8
0
100
AcDbSpline
 62
7
  6
CONTINUOUS
 70
0
 71
3
 72
15
 73
11
 74
0
 42
0.0000001
 43
0.0000001
 44
0.0000000001
 40
0.0
 40
0.0
 40
0.0
 40
0.0
 40
0.1285885295
 40
0.256443119
 40
0.3832167415
 40
0.5087332307
 40
0.6329283843
 40
0.7560304887
 40
0.8784009882
 40
1.0
 40
1.0
 40
1.0
 40
1.0
 10
3.5523246407
 20
3.5437932761
 30
0.0
 10
3.5518183339
 20
3.5440852038
 30
0.0
 10
3.5508552415
 20
3.544752992
 30
0.0
 10
3.5496040588
 20
3.5459760398
 30
0.0
 10
3.5485863169
 20
3.5473829144
 30
0.0
 10
3.5478340957
 20
3.5489296361
 30
0.0
 10
3.5473711938
 20
3.5505690094
 30
0.0
 10
3.5472118809
 20
3.5522512242
 30
0.0
 10
3.547364506
 20
3.5539217136
 30
0.0
 10
3.5476682653
 20
3.5549960038
 30
0.0
 10
3.547868124
 20
3.5555112722
 30
0.0
  0
SPLINE
  5
2EB
100
AcDbEntity
  8
0
100
AcDbSpline
 62
7
  6
CONTINUOUS
 70
0
 71
3
 72
11
 73
7
 74
0
 42
0.0000001
 43
0.0000001
 44
0.0000000001
 40
0.0
 40
0.0
 40
0.0
 40
0.0
 40
0.2582976665
 40
0.5097173883
 40
0.7562059268
 40
1.0
 40
1.0
 40
1.0
 40
1.0
 10
3.5572123987
 20
3.5423859206
 30
0.0
 10
3.556867254
 20
3.5423088849
 30
0.0
 10
3.5561742024
 20
3.5422048285
 30
0.0
 10
3.5551347591
 20
3.5422080063
 30
0.0
 10
3.554128537
 20
3.5423738463
 30
0.0
 10
3.5534896915
 20
3.5425914733
 30
0.0
 10
3.5531838473
 20
3.5427251469
 30
0.0
  0
SPLINE
  5
2EC
100
AcDbEntity
  8
0
100
AcDbSpline
 62
7
  6
CONTINUOUS
 70
0
 71
3
 72
11
 73
7
 74
0
 42
0.0000001
 43
0.0000001
 44
0.0000000001
 40
0.0
 40
0.0
 40
0.0
 40
0.0
 40
0.2449223897
 40
0.4920409183
 40
0.7431389215
 40
1.0
 40
1.0
 40
1.0
 40
1.0
 10
3.6314928744
 20
3.508499085
 30
0.0
 10
3.6317646202
 20
3.5083803147
 30
0.0
 10
3.6323291714
 20
3.508182056
 30
0.0
 10
3.633215664
 20
3.5080107656
 30
0.0
 10
3.6341318823
 20
3.5079673411
 30
0.0
 10
3.6347465822
 20
3.508023174
 30
0.0
 10
3.6350538796
 20
3.5080711729
 30
0.0
  0
SPLINE
  5
2ED
100
AcDbEntity
  8
0
100
AcDbSpline
 62
7
  6
CONTINUOUS
 70
0
 71
3
 72
13
 73
9
 74
0
 42
0.0000001
 43
0.0000001
 44
0.0000000001
 40
0.0
 40
0.0
 40
0.0
 40
0.0
 40
0.2878582006
 40
0.4150603028
 40
0.5336171179
 40
0.6471437316
 40
0.7600534867
 40
1.0
 40
1.0
 40
1.0
 40
1.0
 10
3.7890619129
 20
3.5081937883
 30
0.0
 10
3.7889549709
 20
3.5080411257
 30
0.0
 10
3.7887895603
 20
3.5078276979
 30
0.0
 10
3.7885426208
 20
3.5075852864
 30
0.0
 10
3.7883588984
 20
3.5074415611
 30
0.0
 10
3.7881645511
 20
3.5073296072
 30
0.0
 10
3.7878811229
 20
3.5072220655
 30
0.0
 10
3.7876500868
 20
3.5071948507
 30
0.0
 10
3.7874947176
 20
3.5071944645
 30
0.0
  0
SPLINE
  5
2EE
100
AcDbEntity
  8
0
100
AcDbSpline
 62
7
  6
CONTINUOUS
 70
0
 71
3
 72
10
 73
6
 74
0
 42
0.0000001
 43
0.0000001
 44
0.0000000001
 40
0.0
 40
0.0
 40
0.0
 40
0.0
 40
0.5188438236
 40
0.7630498677
 40
1.0
 40
1.0
 40
1.0
 40
1.0
 10
3.7890619272
 20
3.5081937932
 30
0.0
 10
3.7898487923
 20
3.5079767115
 30
0.0
 10
3.7910553661
 20
3.5077924105
 30
0.0
 10
3.7926289067
 20
3.5079114159
 30
0.0
 10
3.7933691848
 20
3.5080884177
 30
0.0
 10
3.7937231172
 20
3.5082054414
 30
0.0
  0
SPLINE
  5
2EF
100
AcDbEntity
  8
0
100
AcDbSpline
 62
7
  6
CONTINUOUS
 70
0
 71
3
 72
11
 73
7
 74
0
 42
0.0000001
 43
0.0000001
 44
0.0000000001
 40
0.0
 40
0.0
 40
0.0
 40
0.0
 40
0.2386931097
 40
0.4820547891
 40
0.7345502378
 40
1.0
 40
1.0
 40
1.0
 40
1.0
 10
3.6395524614
 20
3.5068252264
 30
0.0
 10
3.6392887096
 20
3.5068245742
 30
0.0
 10
3.638755022
 20
3.506865766
 30
0.0
 10
3.6379624162
 20
3.5070541686
 30
0.0
 10
3.6371790352
 20
3.507368321
 30
0.0
 10
3.6366801796
 20
3.5076526462
 30
0.0
 10
3.6364344801
 20
3.5078128568
 30
0.0
  0
SPLINE
  5
2F0
100
AcDbEntity
  8
0
100
AcDbSpline
 62
7
  6
CONTINUOUS
 70
0
 71
3
 72
30
 73
26
 74
0
 42
0.0000001
 43
0.0000001
 44
0.0000000001
 40
0.0
 40
0.0
 40
0.0
 40
0.0
 40
0.0624926072
 40
0.1249865198
 40
0.1874817496
 40
0.2499780283
 40
0.3124752751
 40
0.3749733903
 40
0.4374723763
 40
0.4999722029
 40
0.5624729785
 40
0.6249746403
 40
0.6874766638
 40
0.7499787875
 40
0.7812317704
 40
0.8124845719
 40
0.8437372291
 40
0.8749897755
 40
0.9062422996
 40
0.9218686032
 40
0.9374949211
 40
0.9531212182
 40
0.968747521
 40
0.9843737533
 40
1.0
 40
1.0
 40
1.0
 40
1.0
 10
3.9642324092
 20
4.2578479473
 30
0.0
 10
3.9604073907
 20
4.2603898956
 30
0.0
 10
3.9529749411
 20
4.2658094879
 30
0.0
 10
3.9425438343
 20
4.2748331077
 30
0.0
 10
3.932863585
 20
4.2846581088
 30
0.0
 10
3.9239640192
 20
4.2951940512
 30
0.0
 10
3.9158652891
 20
4.3063565456
 30
0.0
 10
3.9085800136
 20
4.318065372
 30
0.0
 10
3.9021124669
 20
4.3302442299
 30
0.0
 10
3.8964577105
 20
4.3428203543
 30
0.0
 10
3.8916014524
 20
4.3557251037
 30
0.0
 10
3.8875192108
 20
4.3688943611
 30
0.0
 10
3.8841723041
 20
4.3822682753
 30
0.0
 10
3.8819523305
 20
4.3935399336
 30
0.0
 10
3.8804837162
 20
4.4026092695
 30
0.0
 10
3.8795247015
 20
4.409433087
 30
0.0
 10
3.8786955725
 20
4.4162737388
 30
0.0
 10
3.8779826946
 20
4.4231273746
 30
0.0
 10
3.8774707425
 20
4.4288466231
 30
0.0
 10
3.8771034926
 20
4.4334254898
 30
0.0
 10
3.8768452925
 20
4.4368609834
 30
0.0
 10
3.8766017016
 20
4.4402975391
 30
0.0
 10
3.8763777744
 20
4.4437354561
 30
0.0
 10
3.8761494878
 20
4.4471729243
 30
0.0
 10
3.8760269237
 20
4.4494668694
 30
0.0
 10
3.87599295
 20
4.4506147522
 30
0.0
  0
SPLINE
  5
2F1
100
AcDbEntity
  8
0
100
AcDbSpline
 62
7
  6
CONTINUOUS
 70
0
 71
3
 72
11
 73
7
 74
0
 42
0.0000001
 43
0.0000001
 44
0.0000000001
 40
0.0
 40
0.0
 40
0.0
 40
0.0
 40
0.2422758485
 40
0.4878372433
 40
0.7396100325
 40
1.0
 40
1.0
 40
1.0
 40
1.0
 10
3.6333189424
 20
3.5078050942
 30
0.0
 10
3.6335617253
 20
3.5077261633
 30
0.0
 10
3.6340644056
 20
3.5076067525
 30
0.0
 10
3.6348447249
 20
3.5075493599
 30
0.0
 10
3.6356434687
 20
3.5076136538
 30
0.0
 10
3.6361715632
 20
3.5077343206
 30
0.0
 10
3.6364344597
 20
3.5078128634
 30
0.0
  0
SPLINE
  5
2F2
100
AcDbEntity
  8
0
100
AcDbSpline
 62
7
  6
CONTINUOUS
 70
0
 71
3
 72
11
 73
7
 74
0
 42
0.0000001
 43
0.0000001
 44
0.0000000001
 40
0.0
 40
0.0
 40
0.0
 40
0.0
 40
0.2500024734
 40
0.5000030442
 40
0.7500020918
 40
1.0
 40
1.0
 40
1.0
 40
1.0
 10
4.0243462733
 20
4.2303378918
 30
0.0
 10
4.0190232304
 20
4.2318372891
 30
0.0
 10
4.0084865776
 20
4.2352417908
 30
0.0
 10
3.993124206
 20
4.2415484274
 30
0.0
 10
3.9782992503
 20
4.2490319902
 30
0.0
 10
3.9688381839
 20
4.254787114
 30
0.0
 10
3.9642324092
 20
4.2578479473
 30
0.0
  0
SPLINE
  5
2F3
100
AcDbEntity
  8
0
100
AcDbSpline
 62
7
  6
CONTINUOUS
 70
0
 71
3
 72
13
 73
9
 74
0
 42
0.0000001
 43
0.0000001
 44
0.0000000001
 40
0.0
 40
0.0
 40
0.0
 40
0.0
 40
0.1083698254
 40
0.2188401635
 40
0.3330275098
 40
0.4523905693
 40
0.7108782886
 40
1.0
 40
1.0
 40
1.0
 40
1.0
 10
3.8864677151
 20
4.4704148872
 30
0.0
 10
3.8863244385
 20
4.4704797478
 30
0.0
 10
3.8860238823
 20
4.4705872763
 30
0.0
 10
3.8855470684
 20
4.4706767277
 30
0.0
 10
3.8850463165
 20
4.470694394
 30
0.0
 10
3.8843341183
 20
4.4706199924
 30
0.0
 10
3.8833998432
 20
4.4703341806
 30
0.0
 10
3.8826967698
 20
4.4699542529
 30
0.0
 10
3.8823436608
 20
4.469727597
 30
0.0
  0
LINE
  5
2F4
100
AcDbEntity
  8
0
100
AcDbLine
 62
7
  6
CONTINUOUS
 10
3.8275985359
 20
4.4945104469
 11
3.8285995126
 21
4.4950501505
  0
SPLINE
  5
2F5
100
AcDbEntity
  8
0
100
AcDbSpline
 62
7
  6
CONTINUOUS
 70
0
 71
3
 72
11
 73
7
 74
0
 42
0.0000001
 43
0.0000001
 44
0.0000000001
 40
0.0
 40
0.0
 40
0.0
 40
0.0
 40
0.2782625772
 40
0.5336161385
 40
0.7716964283
 40
1.0
 40
1.0
 40
1.0
 40
1.0
 10
3.8285995126
 20
4.4950501505
 30
0.0
 10
3.8288729289
 20
4.4951692804
 30
0.0
 10
3.8294151518
 20
4.4953604222
 30
0.0
 10
3.8302372534
 20
4.4954911257
 30
0.0
 10
3.8310160016
 20
4.495447063
 30
0.0
 10
3.831499672
 20
4.4952986511
 30
0.0
 10
3.8317225902
 20
4.4951977371
 30
0.0
  0
SPLINE
  5
2F6
100
AcDbEntity
  8
0
100
AcDbSpline
 62
7
  6
CONTINUOUS
 70
0
 71
3
 72
11
 73
7
 74
0
 42
0.0000001
 43
0.0000001
 44
0.0000000001
 40
0.0
 40
0.0
 40
0.0
 40
0.0
 40
0.2285682275
 40
0.4669867263
 40
0.7225517301
 40
1.0
 40
1.0
 40
1.0
 40
1.0
 10
3.698268138
 20
4.4946729816
 30
0.0
 10
3.6985724894
 20
4.4948547618
 30
0.0
 10
3.6992491654
 20
4.4951408511
 30
0.0
 10
3.7003701558
 20
4.4952960957
 30
0.0
 10
3.7015703057
 20
4.4951818165
 30
0.0
 10
3.7023668549
 20
4.4949419467
 30
0.0
 10
3.7027677805
 20
4.494785641
 30
0.0
  0
SPLINE
  5
2F7
100
AcDbEntity
  8
0
100
AcDbSpline
 62
7
  6
CONTINUOUS
 70
0
 71
3
 72
11
 73
7
 74
0
 42
0.0000001
 43
0.0000001
 44
0.0000000001
 40
0.0
 40
0.0
 40
0.0
 40
0.0
 40
0.2817611343
 40
0.5388917165
 40
0.775422558
 40
1.0
 40
1.0
 40
1.0
 40
1.0
 10
3.6479522915
 20
4.4613956177
 30
0.0
 10
3.6475017014
 20
4.4616148347
 30
0.0
 10
3.6466020412
 20
4.4619636458
 30
0.0
 10
3.6452295597
 20
4.4621891756
 30
0.0
 10
3.6439421032
 20
4.4620742965
 30
0.0
 10
3.6431674588
 20
4.4617629485
 30
0.0
 10
3.6428245722
 20
4.4615581523
 30
0.0
  0
SPLINE
  5
2F8
100
AcDbEntity
  8
0
100
AcDbSpline
 62
7
  6
CONTINUOUS
 70
0
 71
3
 72
9
 73
5
 74
0
 42
0.0000001
 43
0.0000001
 44
0.0000000001
 40
0.0
 40
0.0
 40
0.0
 40
0.0
 40
0.5060351237
 40
1.0
 40
1.0
 40
1.0
 40
1.0
 10
4.1023462733
 20
4.3428876523
 30
0.0
 10
4.1005197487
 20
4.343003348
 30
0.0
 10
4.0968996802
 20
4.3430871556
 30
0.0
 10
4.0932842059
 20
4.3428795814
 30
0.0
 10
4.0915067853
 20
4.3426993954
 30
0.0
  0
SPLINE
  5
2F9
100
AcDbEntity
  8
0
100
AcDbSpline
 62
7
  6
CONTINUOUS
 70
0
 71
3
 72
19
 73
15
 74
0
 42
0.0000001
 43
0.0000001
 44
0.0000000001
 40
0.0
 40
0.0
 40
0.0
 40
0.0
 40
0.1680362955
 40
0.3263163746
 40
0.4726318496
 40
0.5407565495
 40
0.6053119733
 40
0.723308864
 40
0.7768795877
 40
0.8269757603
 40
0.8738536214
 40
0.917926481
 40
0.9597466724
 40
1.0
 40
1.0
 40
1.0
 40
1.0
 10
4.0915067853
 20
4.3426993954
 30
0.0
 10
4.0899572373
 20
4.34254231
 30
0.0
 10
4.0869578966
 20
4.3421232077
 30
0.0
 10
4.0826807193
 20
4.3411526145
 30
0.0
 10
4.0793921332
 20
4.3400723539
 30
0.0
 10
4.077012168
 20
4.3390568035
 30
0.0
 10
4.074934809
 20
4.3380145641
 30
0.0
 10
4.0730761897
 20
4.3368389811
 30
0.0
 10
4.0714995015
 20
4.3355175553
 30
0.0
 10
4.0705218635
 20
4.3345182225
 30
0.0
 10
4.0697172808
 20
4.3334838177
 30
0.0
 10
4.0690903601
 20
4.3324203865
 30
0.0
 10
4.0686451102
 20
4.3313347183
 30
0.0
 10
4.0684702885
 20
4.3305902128
 30
0.0
 10
4.0684161118
 20
4.3302210684
 30
0.0
  0
SPLINE
  5
2FA
100
AcDbEntity
  8
0
100
AcDbSpline
 62
7
  6
CONTINUOUS
 70
0
 71
3
 72
14
 73
10
 74
0
 42
0.0000001
 43
0.0000001
 44
0.0000000001
 40
0.0
 40
0.0
 40
0.0
 40
0.0
 40
0.1166892831
 40
0.2347521722
 40
0.3547837356
 40
0.4775485662
 40
0.6035816736
 40
0.7329426871
 40
1.0
 40
1.0
 40
1.0
 40
1.0
 10
3.6379617162
 20
4.4534069595
 30
0.0
 10
3.6379803827
 20
4.4538366036
 30
0.0
 10
3.6380982323
 20
4.4546993618
 30
0.0
 10
3.6385053449
 20
4.4559488592
 30
0.0
 10
3.6391370912
 20
4.4571268436
 30
0.0
 10
3.6399747741
 20
4.4582050122
 30
0.0
 10
3.6409998074
 20
4.4591580869
 30
0.0
 10
3.6425948415
 20
4.4602459374
 30
0.0
 10
3.6439750268
 20
4.4607967403
 30
0.0
 10
3.6449288687
 20
4.4610393779
 30
0.0
  0
SPLINE
  5
2FB
100
AcDbEntity
  8
0
100
AcDbSpline
 62
7
  6
CONTINUOUS
 70
0
 71
3
 72
15
 73
11
 74
0
 42
0.0000001
 43
0.0000001
 44
0.0000000001
 40
0.0
 40
0.0
 40
0.0
 40
0.0
 40
0.114424482
 40
0.2307011136
 40
0.349871779
 40
0.4729103324
 40
0.6000194133
 40
0.7308474911
 40
0.8647069836
 40
1.0
 40
1.0
 40
1.0
 40
1.0
 10
3.6378592378
 20
4.4510496415
 30
0.0
 10
3.6378826183
 20
4.4515871517
 30
0.0
 10
3.6380557153
 20
4.4526691772
 30
0.0
 10
3.6386753765
 20
4.4542068802
 30
0.0
 10
3.6396340273
 20
4.455608711
 30
0.0
 10
3.6408918624
 20
4.4568219639
 30
0.0
 10
3.6424001213
 20
4.4578068667
 30
0.0
 10
3.6441056164
 20
4.4585278742
 30
0.0
 10
3.6459446087
 20
4.4589591485
 30
0.0
 10
3.6472137004
 20
4.4590458291
 30
0.0
 10
3.647849791
 20
4.4590377892
 30
0.0
  0
SPLINE
  5
2FC
100
AcDbEntity
  8
0
100
AcDbSpline
 62
7
  6
CONTINUOUS
 70
0
 71
3
 72
15
 73
11
 74
0
 42
0.0000001
 43
0.0000001
 44
0.0000000001
 40
0.0
 40
0.0
 40
0.0
 40
0.0
 40
0.115065144
 40
0.2318479232
 40
0.3511012423
 40
0.4736671941
 40
0.6000542625
 40
0.7303238149
 40
0.8640809257
 40
1.0
 40
1.0
 40
1.0
 40
1.0
 10
3.8933972759
 20
4.45843939
 30
0.0
 10
3.8932731977
 20
4.4588888571
 30
0.0
 10
3.8929290716
 20
4.4597710918
 30
0.0
 10
3.8921568963
 20
4.4609765097
 30
0.0
 10
3.8911447625
 20
4.4620314861
 30
0.0
 10
3.8899273809
 20
4.4629076186
 30
0.0
 10
3.8885379239
 20
4.4635805836
 30
0.0
 10
3.8870155454
 20
4.464034841
 30
0.0
 10
3.8854040026
 20
4.464254657
 30
0.0
 10
3.8843068469
 20
4.4642451322
 30
0.0
 10
3.8837578248
 20
4.4642010924
 30
0.0
  0
SPLINE
  5
2FD
100
AcDbEntity
  8
0
100
AcDbSpline
 62
7
  6
CONTINUOUS
 70
0
 71
3
 72
15
 73
11
 74
0
 42
0.0000001
 43
0.0000001
 44
0.0000000001
 40
0.0
 40
0.0
 40
0.0
 40
0.0
 40
0.1168254459
 40
0.2350492422
 40
0.3551661447
 40
0.4778046714
 40
0.6034745017
 40
0.7324490122
 40
0.8647071475
 40
1.0
 40
1.0
 40
1.0
 40
1.0
 10
3.8920764781
 20
4.4636010249
 30
0.0
 10
3.8919849468
 20
4.4639890053
 30
0.0
 10
3.891731961
 20
4.464754967
 30
0.0
 10
3.8911616982
 20
4.4658304259
 30
0.0
 10
3.890408461
 20
4.4668121302
 30
0.0
 10
3.8894899146
 20
4.4676778355
 30
0.0
 10
3.8884266147
 20
4.4684119226
 30
0.0
 10
3.8872391971
 20
4.4689989057
 30
0.0
 10
3.885952353
 20
4.4694293098
 30
0.0
 10
3.8850529435
 20
4.4696025189
 30
0.0
 10
3.8845950878
 20
4.4696615507
 30
0.0
  0
SPLINE
  5
2FE
100
AcDbEntity
  8
0
100
AcDbSpline
 62
7
  6
CONTINUOUS
 70
0
 71
3
 72
15
 73
11
 74
0
 42
0.0000001
 43
0.0000001
 44
0.0000000001
 40
0.0
 40
0.0
 40
0.0
 40
0.0
 40
0.1249026746
 40
0.2498258689
 40
0.3748775679
 40
0.5000279649
 40
0.6251775172
 40
0.750224563
 40
0.8751329292
 40
1.0
 40
1.0
 40
1.0
 40
1.0
 10
4.1803462733
 20
4.3443879475
 30
0.0
 10
4.173832298
 20
4.3443661386
 30
0.0
 10
4.1608008484
 20
4.3446755309
 30
0.0
 10
4.1412875033
 20
4.3459370915
 30
0.0
 10
4.1218047628
 20
4.3477314694
 30
0.0
 10
4.1023382893
 20
4.3497959963
 30
0.0
 10
4.0828729628
 20
4.351868683
 30
0.0
 10
4.0633936741
 20
4.3536875635
 30
0.0
 10
4.0438860682
 20
4.3549900327
 30
0.0
 10
4.0308584206
 20
4.3553377325
 30
0.0
 10
4.0243462656
 20
4.3553377329
 30
0.0
  0
SPLINE
  5
2FF
100
AcDbEntity
  8
0
100
AcDbSpline
 62
7
  6
CONTINUOUS
 70
0
 71
3
 72
11
 73
7
 74
0
 42
0.0000001
 43
0.0000001
 44
0.0000000001
 40
0.0
 40
0.0
 40
0.0
 40
0.0
 40
0.2502169985
 40
0.4999825279
 40
0.7497626509
 40
1.0
 40
1.0
 40
1.0
 40
1.0
 10
4.1803462733
 20
4.2255937846
 30
0.0
 10
4.1673295211
 20
4.2257524795
 30
0.0
 10
4.1413222666
 20
4.2263059448
 30
0.0
 10
4.1023359295
 20
4.2275817397
 30
0.0
 10
4.0633550576
 20
4.2290350728
 30
0.0
 10
4.0373569617
 20
4.2299432111
 30
0.0
 10
4.0243441694
 20
4.2303379557
 30
0.0
  0
SPLINE
  5
300
100
AcDbEntity
  8
0
100
AcDbSpline
 62
7
  6
CONTINUOUS
 70
0
 71
3
 72
15
 73
11
 74
0
 42
0.0000001
 43
0.0000001
 44
0.0000000001
 40
0.0
 40
0.0
 40
0.0
 40
0.0
 40
0.1463078561
 40
0.2843225488
 40
0.4147055267
 40
0.5384737853
 40
0.6570620127
 40
0.7722137929
 40
0.8858881065
 40
1.0
 40
1.0
 40
1.0
 40
1.0
 10
4.1380443305
 20
4.339453968
 30
0.0
 10
4.1385744661
 20
4.3391034962
 30
0.0
 10
4.1395796816
 20
4.3383831895
 30
0.0
 10
4.1409469836
 20
4.3372064436
 30
0.0
 10
4.1421204738
 20
4.3359669646
 30
0.0
 10
4.1430909203
 20
4.3346658275
 30
0.0
 10
4.1438526978
 20
4.3333071967
 30
0.0
 10
4.1444005921
 20
4.3318953445
 30
0.0
 10
4.144729119
 20
4.3304369565
 30
0.0
 10
4.1448008358
 20
4.3294459002
 30
0.0
 10
4.1448009191
 20
4.3289502373
 30
0.0
  0
SPLINE
  5
301
100
AcDbEntity
  8
0
100
AcDbSpline
 62
7
  6
CONTINUOUS
 70
0
 71
3
 72
18
 73
14
 74
0
 42
0.0000001
 43
0.0000001
 44
0.0000000001
 40
0.0
 40
0.0
 40
0.0
 40
0.0
 40
0.1293317255
 40
0.2613556254
 40
0.3943526547
 40
0.5263523122
 40
0.6551595668
 40
0.7176603093
 40
0.7785112174
 40
0.8374341075
 40
0.8941569261
 40
0.9484259926
 40
1.0
 40
1.0
 40
1.0
 40
1.0
 10
4.0831404579
 20
4.3500573513
 30
0.0
 10
4.0855592216
 20
4.3499144683
 30
0.0
 10
4.0904436556
 20
4.3495639544
 30
0.0
 10
4.0977979698
 20
4.3488508054
 30
0.0
 10
4.1051803444
 20
4.34793413
 30
0.0
 10
4.1124718089
 20
4.3468007914
 30
0.0
 10
4.1184205398
 20
4.345649757
 30
0.0
 10
4.1230239967
 20
4.3445868692
 30
0.0
 10
4.1263295366
 20
4.343727813
 30
0.0
 10
4.1295024439
 20
4.342794842
 30
0.0
 10
4.1325217074
 20
4.3417833531
 30
0.0
 10
4.1353648676
 20
4.3406885001
 30
0.0
 10
4.1371760566
 20
4.339877855
 30
0.0
 10
4.1380443305
 20
4.339453968
 30
0.0
  0
SPLINE
  5
302
100
AcDbEntity
  8
0
100
AcDbSpline
 62
7
  6
CONTINUOUS
 70
0
 71
3
 72
11
 73
7
 74
0
 42
0.0000001
 43
0.0000001
 44
0.0000000001
 40
0.0
 40
0.0
 40
0.0
 40
0.0
 40
0.2193335919
 40
0.4599775551
 40
0.7207644563
 40
1.0
 40
1.0
 40
1.0
 40
1.0
 10
4.0696845244
 20
4.3489487217
 30
0.0
 10
4.070652999
 20
4.3491467663
 30
0.0
 10
4.0727013348
 20
4.3494787341
 30
0.0
 10
4.0759341789
 20
4.3498089216
 30
0.0
 10
4.07944809
 20
4.3500053106
 30
0.0
 10
4.0818819807
 20
4.3500518795
 30
0.0
 10
4.0831404579
 20
4.3500573513
 30
0.0
  0
SPLINE
  5
303
100
AcDbEntity
  8
0
100
AcDbSpline
 62
7
  6
CONTINUOUS
 70
0
 71
3
 72
12
 73
8
 74
0
 42
0.0000001
 43
0.0000001
 44
0.0000000001
 40
0.0
 40
0.0
 40
0.0
 40
0.0
 40
0.247466882
 40
0.3720424683
 40
0.497066457
 40
0.748112535
 40
1.0
 40
1.0
 40
1.0
 40
1.0
 10
3.8887698514
 20
3.5560750402
 30
0.0
 10
3.8831496004
 20
3.5759991174
 30
0.0
 10
3.8756797283
 20
3.606241753
 30
0.0
 10
3.8676609568
 20
3.647047818
 30
0.0
 10
3.8609005407
 20
3.6883863714
 30
0.0
 10
3.8548977511
 20
3.7406097935
 30
0.0
 10
3.8527239245
 20
3.7826576866
 30
0.0
 10
3.8522913565
 20
3.8037246415
 30
0.0
  0
SPLINE
  5
304
100
AcDbEntity
  8
0
100
AcDbSpline
 62
7
  6
CONTINUOUS
 70
0
 71
3
 72
11
 73
7
 74
0
 42
0.0000001
 43
0.0000001
 44
0.0000000001
 40
0.0
 40
0.0
 40
0.0
 40
0.0
 40
0.2502126925
 40
0.499982637
 40
0.7497669944
 40
1.0
 40
1.0
 40
1.0
 40
1.0
 10
4.1803462733
 20
4.1479963891
 30
0.0
 10
4.1673293345
 20
4.1478005743
 30
0.0
 10
4.1413218932
 20
4.1471754145
 30
0.0
 10
4.1023360856
 20
4.1457969153
 30
0.0
 10
4.063356127
 20
4.1442428588
 30
0.0
 10
4.0373586635
 20
4.1432669713
 30
0.0
 10
4.0243462733
 20
4.1428377187
 30
0.0
  0
SPLINE
  5
305
100
AcDbEntity
  8
0
100
AcDbSpline
 62
7
  6
CONTINUOUS
 70
0
 71
3
 72
15
 73
11
 74
0
 42
0.0000001
 43
0.0000001
 44
0.0000000001
 40
0.0
 40
0.0
 40
0.0
 40
0.0
 40
0.1249026744
 40
0.2498258698
 40
0.3748775708
 40
0.5000279695
 40
0.6251775223
 40
0.7502245669
 40
0.8751329306
 40
1.0
 40
1.0
 40
1.0
 40
1.0
 10
4.1803462733
 20
4.0287875067
 30
0.0
 10
4.1738322952
 20
4.0288093156
 30
0.0
 10
4.1608008399
 20
4.0284999222
 30
0.0
 10
4.1412874862
 20
4.0272383584
 30
0.0
 10
4.1218047372
 20
4.0254439769
 30
0.0
 10
4.1023382553
 20
4.0233794472
 30
0.0
 10
4.0828729202
 20
4.0213067597
 30
0.0
 10
4.0633936228
 20
4.0194878817
 30
0.0
 10
4.0438860082
 20
4.0181854193
 30
0.0
 10
4.0308583548
 20
4.017837728
 30
0.0
 10
4.0243461971
 20
4.0178377329
 30
0.0
  0
LINE
  5
306
100
AcDbEntity
  8
0
100
AcDbLine
 62
7
  6
CONTINUOUS
 10
3.5577624078
 20
3.5437746313
 11
3.5572123959
 21
3.5423859218
  0
LINE
  5
307
100
AcDbEntity
  8
0
100
AcDbLine
 62
7
  6
CONTINUOUS
 10
3.5577624078
 20
3.5437746313
 11
3.8794750406
 21
3.5445794525
  0
SPLINE
  5
308
100
AcDbEntity
  8
0
100
AcDbSpline
 62
7
  6
CONTINUOUS
 70
0
 71
3
 72
14
 73
10
 74
0
 42
0.0000001
 43
0.0000001
 44
0.0000000001
 40
0.0
 40
0.0
 40
0.0
 40
0.0
 40
0.1048262179
 40
0.2171073847
 40
0.3361867715
 40
0.4612182549
 40
0.5912263042
 40
0.7251483545
 40
1.0
 40
1.0
 40
1.0
 40
1.0
 10
4.0700992273
 20
4.3322484945
 30
0.0
 10
4.0711300858
 20
4.3327700132
 30
0.0
 10
4.07331825
 20
4.3337469117
 30
0.0
 10
4.0768150752
 20
4.3349813453
 30
0.0
 10
4.0806064179
 20
4.3360194355
 30
0.0
 10
4.0846481429
 20
4.3368476501
 30
0.0
 10
4.0888944778
 20
4.3374533841
 30
0.0
 10
4.0948132277
 20
4.3379550075
 30
0.0
 10
4.0993299082
 20
4.3379641247
 30
0.0
 10
4.1023550931
 20
4.3378103492
 30
0.0
  0
SPLINE
  5
309
100
AcDbEntity
  8
0
100
AcDbSpline
 62
7
  6
CONTINUOUS
 70
0
 71
3
 72
9
 73
5
 74
0
 42
0.0000001
 43
0.0000001
 44
0.0000000001
 40
0.0
 40
0.0
 40
0.0
 40
0.0
 40
0.5100707335
 40
1.0
 40
1.0
 40
1.0
 40
1.0
 10
4.1180565982
 20
4.3354877721
 30
0.0
 10
4.119584934
 20
4.335099894
 30
0.0
 10
4.1225572691
 20
4.3342408725
 30
0.0
 10
4.1254610987
 20
4.3331707632
 30
0.0
 10
4.1268595874
 20
4.3325893744
 30
0.0
  0
LINE
  5
30A
100
AcDbEntity
  8
0
100
AcDbLine
 62
7
  6
CONTINUOUS
 10
4.1281130538
 20
4.332049711
 11
4.132184217
 21
4.330005536
  0
SPLINE
  5
30B
100
AcDbEntity
  8
0
100
AcDbSpline
 62
7
  6
CONTINUOUS
 70
0
 71
3
 72
15
 73
11
 74
0
 42
0.0000001
 43
0.0000001
 44
0.0000000001
 40
0.0
 40
0.0
 40
0.0
 40
0.0
 40
0.0414431941
 40
0.1545441927
 40
0.3155766489
 40
0.4999967084
 40
0.6844176311
 40
0.8454506494
 40
0.9585536013
 40
1.0
 40
1.0
 40
1.0
 40
1.0
 10
4.7048462733
 20
4.6715877329
 30
0.0
 10
4.7024473069
 20
4.6712210621
 30
0.0
 10
4.6934932359
 20
4.6699061808
 30
0.0
 10
4.6751511915
 20
4.6676272929
 30
0.0
 10
4.6483798163
 20
4.6654092587
 30
0.0
 10
4.6173468012
 20
4.6645070872
 30
0.0
 10
4.5863137511
 20
4.6654091952
 30
0.0
 10
4.5595421747
 20
4.6676272003
 30
0.0
 10
4.5411997954
 20
4.669906111
 30
0.0
 10
4.5322454251
 20
4.6712210334
 30
0.0
 10
4.5298462733
 20
4.6715877329
 30
0.0
  0
ENDSEC
  0
SECTION
  2
OBJECTS
  0
DICTIONARY
  5
C
100
AcDbDictionary
280
0
281
1
  3
ACAD_GROUP
350
D
  3
ACAD_MLINESTYLE
350
17
  3
ACAD_LAYOUT
350
1A
  3
ACAD_PLOTSETTINGS
350
19
  3
ACAD_PLOTSTYLENAME
350
E
  0
DICTIONARY
  5
D
102
{ACAD_REACTORS
330
C
102
}
100
AcDbDictionary
280
0
281
1
  0
ACDBDICTIONARYWDFLT
  5
E
102
{ACAD_REACTORS
330
C
102
}
100
AcDbDictionary
281
1
  3
Normal
350
F
100
AcDbDictionaryWithDefault
340
F
  0
DICTIONARY
  5
17
102
{ACAD_REACTORS
330
C
102
}
100
AcDbDictionary
280
0
281
1
  3
Standard
350
18
  0
DICTIONARY
  5
19
102
{ACAD_REACTORS
330
C
102
}
100
AcDbDictionary
281
1
  0
DICTIONARY
  5
1A
102
{ACAD_REACTORS
330
C
102
}
100
AcDbDictionary
281
1
  3
Model
350
30C
  3
Layout1
350
30D
  0
ACDBPLACEHOLDER
  5
F
102
{ACAD_REACTORS
330
E
102
}
  0
MLINESTYLE
  5
18
102
{ACAD_REACTORS
330
17
102
}
100
AcDbMlineStyle
  2
STANDARD
 70
0
  3

 62
256
 51
90.0
 52
90.0
 71
2
 49
0.5
 62
256
  6
BYLAYER
 49
-0.5
 62
256
  6
BYLAYER
  0
LAYOUT
  5
30C
102
{ACAD_REACTORS
330
1A
102
}
100
AcDbPlotSettings
  1

  2
none_device
  4
ANSI_A_(11.00_x_8.50_Inches)
  6

 40
0.0
 41
0.0
 42
0.0
 43
0.0
 44
279.4
 45
215.9
 46
0.0
 47
0.0
 48
0.0
 49
0.0
140
0.0
141
0.0
142
1.0
143
1.0
 70
1024
 72
0
 73
0
 74
0
  7

 75
0
147
1.0
148
0.0
149
0.0
100
AcDbLayout
  1
Model
 70
0
 71
0
 10
0.0
 20
0.0
 11
11.0
 21
8.5
 12
0.0
 22
0.0
 32
0.0
 14
0.0
 24
0.0
 34
0.0
 15
0.0
 25
0.0
 35
0.0
146
0.0
 13
0.0
 23
0.0
 33
0.0
 16
1.0
 26
0.0
 36
0.0
 17
0.0
 27
1.0
 37
0.0
 76
0
330
222
345
0
346
0
  0
LAYOUT
  5
30D
102
{ACAD_REACTORS
330
1A
102
}
100
AcDbPlotSettings
  1

  2
none_device
  4
ANSI_A_(11.00_x_8.50_Inches)
  6

 40
0.0
 41
0.0
 42
0.0
 43
0.0
 44
279.4
 45
215.9
 46
0.0
 47
0.0
 48
0.0
 49
0.0
140
0.0
141
0.0
142
1.0
143
1.0
 70
0
 72
0
 73
0
 74
0
  7

 75
0
147
1.0
148
0.0
149
0.0
100
AcDbLayout
  1
Layout1
 70
0
 71
1
 10
0.0
 20
0.0
 11
11.0
 21
8.5
 12
0.0
 22
0.0
 32
0.0
 14
0.0
 24
0.0
 34
0.0
 15
0.0
 25
0.0
 35
0.0
146
0.0
 13
0.0
 23
0.0
 33
0.0
 16
1.0
 26
0.0
 36
0.0
 17
0.0
 27
1.0
 37
0.0
 76
0
330
223
345
0
346
0
  0
ENDSEC
  0
EOF
