999
DXF file: 3-2575_FRONT.dxf
999
Pro/ENGINEER 2018400 by Parametric Technology Corporation
  0
SECTION
  2
HEADER
  9
$ACADVER
  1
AC1027
  9
$DWGCODEPAGE
  3
ANSI_1252
  9
$EXTMAX
 10
11.0
 20
8.5
 30
0.0
  9
$EXTMIN
 10
0.0
 20
0.0
 30
0.0
  9
$LIMMIN
 10
0.0
 20
0.0
  9
$LIMMAX
 10
11.0
 20
8.5
  9
$VIEWCTR
 10
5.5
 20
4.25
  9
$VIEWSIZE
 40
8.5
  9
$CLAYER
  8
0
  9
$LTSCALE
 40
0.605
  9
$CELTYPE
  6
BYLAYER
  9
$DIMSCALE
 40
1.0
  9
$DIMASZ
 40
0.1
  9
$DIMEXO
 40
0.0625
  9
$DIMDLI
 40
0.418
  9
$DIMEXE
 40
0.125
  9
$DIMCEN
 40
0.099
  9
$DIMLFAC
 40
1.0
  9
$DIMBLK
  1
_FILLED
  9
$DIMALT
 70
1
  9
$DIMALTD
 70
2
  9
$DIMALTTD
 70
2
  9
$DIMALTF
 40
25.4
  9
$DIMTXT
 40
0.08
  9
$DIMTOL
 70
1
  9
$DIMLIM
 70
0
  9
$DIMTFAC
 40
1.0
  9
$DIMTP
 40
0.001
  9
$DIMTM
 40
0.001
  9
$DIMGAP
 40
0.09
  9
$DIMDSEP
 70
46
  9
$AUNITS
 70
0
  9
$PDMODE
 70
3
  9
$PDSIZE
 40
0.3125
  9
$HANDSEED
  5
490
  9
$TILEMODE
 70
1
  9
$MEASUREMENT
 70
0
  9
$INSUNITS
 70
1
  0
ENDSEC
  0
SECTION
  2
CLASSES
  0
CLASS
  1
ACDBDICTIONARYWDFLT
  2
AcDbDictionaryWithDefault
  3
AutoCAD 2000
 90
0
 91
1
280
0
281
0
  0
CLASS
  1
ACDBPLACEHOLDER
  2
AcDbPlaceHolder
  3
AutoCAD 2000
 90
0
 91
1
280
0
281
0
  0
CLASS
  1
LAYOUT
  2
AcDbLayout
  3
AutoCAD 2000
 90
0
 91
0
280
0
281
0
  0
ENDSEC
  0
SECTION
  2
TABLES
  0
TABLE
  2
VPORT
  5
8
100
AcDbSymbolTable
 70
2
  0
VPORT
  5
1F4
100
AcDbSymbolTableRecord
100
AcDbViewportTableRecord
  2
*ACTIVE
 70
0
 10
0.0
 20
0.0
 11
1.0
 21
1.0
 12
5.5
 22
4.25
 13
0.0
 23
0.0
 14
1.0
 24
1.0
 15
0.0
 25
0.0
 16
0.0
 26
0.0
 36
1.0
 17
0.0
 27
0.0
 37
0.0
 40
8.5
 41
1.2941176471
 42
50.0
 43
0.0
 44
0.0
 50
0.0
 51
0.0
 71
0
 72
100
 73
1
 74
1
 75
0
 76
0
 77
0
 78
0
  0
ENDTAB
  0
TABLE
  2
LTYPE
  5
5
100
AcDbSymbolTable
 70
6
  0
LTYPE
  5
14
100
AcDbSymbolTableRecord
100
AcDbLinetypeTableRecord
  2
BYBLOCK
 70
0
  3

 72
65
 73
0
 40
0.0
  0
LTYPE
  5
15
100
AcDbSymbolTableRecord
100
AcDbLinetypeTableRecord
  2
BYLAYER
 70
0
  3

 72
65
 73
0
 40
0.0
  0
LTYPE
  5
16
100
AcDbSymbolTableRecord
100
AcDbLinetypeTableRecord
  2
CONTINUOUS
 70
64
  3
Solid line
 72
65
 73
0
 40
0.0
  0
LTYPE
  5
1F5
100
AcDbSymbolTableRecord
100
AcDbLinetypeTableRecord
  2
CENTER
 70
64
  3
____ _ ____ _ ____ _ ____ _ ____ _ ____ _ ____
 72
65
 73
4
 40
0.6
 49
0.375
 74
0
 49
-0.075
 74
0
 49
0.075
 74
0
 49
-0.075
 74
0
  0
LTYPE
  5
1F6
100
AcDbSymbolTableRecord
100
AcDbLinetypeTableRecord
  2
HIDDEN
 70
64
  3
- - - - - - - - - - - - - - - - - - - -
 72
65
 73
2
 40
0.2
 49
0.1
 74
0
 49
-0.1
 74
0
  0
LTYPE
  5
1F7
100
AcDbSymbolTableRecord
100
AcDbLinetypeTableRecord
  2
PHANTOM
 70
64
  3
_____ _ _ _____ _ _ _____ _ _ _____
 72
65
 73
6
 40
0.8
 49
0.45
 74
0
 49
-0.05
 74
0
 49
0.1
 74
0
 49
-0.05
 74
0
 49
0.1
 74
0
 49
-0.05
 74
0
  0
LTYPE
  5
1F8
100
AcDbSymbolTableRecord
100
AcDbLinetypeTableRecord
  2
DOT
 70
64
  3
. . . . . . . . . . . . . . . . . . . .
 72
65
 73
2
 40
0.2
 49
0.1
 74
0
 49
-0.1
 74
0
  0
LTYPE
  5
1F9
100
AcDbSymbolTableRecord
100
AcDbLinetypeTableRecord
  2
DASHED
 70
64
  3
- - - - - - - - - - - - - - - - - - - -
 72
65
 73
2
 40
0.2
 49
0.1
 74
0
 49
-0.1
 74
0
  0
ENDTAB
  0
TABLE
  2
LAYER
  5
2
100
AcDbSymbolTable
 70
36
  0
LAYER
  5
10
100
AcDbSymbolTableRecord
100
AcDbLayerTableRecord
  2
0
 70
0
 62
7
  6
CONTINUOUS
370
-3
390
F
  0
LAYER
  5
1FA
100
AcDbSymbolTableRecord
100
AcDbLayerTableRecord
  2
DEFAULT_1
 70
0
 62
7
  6
CENTER
370
-3
390
F
  0
LAYER
  5
1FB
100
AcDbSymbolTableRecord
100
AcDbLayerTableRecord
  2
DEFAULT_2
 70
0
 62
8
  6
HIDDEN
370
-3
390
F
  0
LAYER
  5
1FC
100
AcDbSymbolTableRecord
100
AcDbLayerTableRecord
  2
DEFAULT_3
 70
0
 62
7
  6
PHANTOM
370
-3
390
F
  0
LAYER
  5
1FD
100
AcDbSymbolTableRecord
100
AcDbLayerTableRecord
  2
01_ALL_DTM_PLN
 70
0
 62
7
  6
CONTINUOUS
370
-3
390
F
  0
LAYER
  5
1FE
100
AcDbSymbolTableRecord
100
AcDbLayerTableRecord
  2
01__ASM_ALL_DTM_PLN
 70
0
 62
7
  6
CONTINUOUS
370
-3
390
F
  0
LAYER
  5
1FF
100
AcDbSymbolTableRecord
100
AcDbLayerTableRecord
  2
01__ASM_DEF_DTM_PLN
 70
0
 62
7
  6
CONTINUOUS
370
-3
390
F
  0
LAYER
  5
200
100
AcDbSymbolTableRecord
100
AcDbLayerTableRecord
  2
01___PRT_ALL_DTM_PLN
 70
0
 62
7
  6
CONTINUOUS
370
-3
390
F
  0
LAYER
  5
201
100
AcDbSymbolTableRecord
100
AcDbLayerTableRecord
  2
01___PRT_DEF_DTM_PLN
 70
0
 62
7
  6
CONTINUOUS
370
-3
390
F
  0
LAYER
  5
202
100
AcDbSymbolTableRecord
100
AcDbLayerTableRecord
  2
02_ALL_AXES
 70
0
 62
7
  6
CONTINUOUS
370
-3
390
F
  0
LAYER
  5
203
100
AcDbSymbolTableRecord
100
AcDbLayerTableRecord
  2
02__ASM_ALL_AXES
 70
0
 62
7
  6
CONTINUOUS
370
-3
390
F
  0
LAYER
  5
204
100
AcDbSymbolTableRecord
100
AcDbLayerTableRecord
  2
02___PRT_ALL_AXES
 70
0
 62
7
  6
CONTINUOUS
370
-3
390
F
  0
LAYER
  5
205
100
AcDbSymbolTableRecord
100
AcDbLayerTableRecord
  2
03_ALL_CURVES
 70
0
 62
7
  6
CONTINUOUS
370
-3
390
F
  0
LAYER
  5
206
100
AcDbSymbolTableRecord
100
AcDbLayerTableRecord
  2
03__ASM_ALL_CURVES
 70
0
 62
7
  6
CONTINUOUS
370
-3
390
F
  0
LAYER
  5
207
100
AcDbSymbolTableRecord
100
AcDbLayerTableRecord
  2
03___PRT_ALL_CURVES
 70
0
 62
7
  6
CONTINUOUS
370
-3
390
F
  0
LAYER
  5
208
100
AcDbSymbolTableRecord
100
AcDbLayerTableRecord
  2
04_ALL_DTM_PNT
 70
0
 62
7
  6
CONTINUOUS
370
-3
390
F
  0
LAYER
  5
209
100
AcDbSymbolTableRecord
100
AcDbLayerTableRecord
  2
04__ASM_ALL_DTM_PNT
 70
0
 62
7
  6
CONTINUOUS
370
-3
390
F
  0
LAYER
  5
20A
100
AcDbSymbolTableRecord
100
AcDbLayerTableRecord
  2
04___PRT_ALL_DTM_PNT
 70
0
 62
7
  6
CONTINUOUS
370
-3
390
F
  0
LAYER
  5
20B
100
AcDbSymbolTableRecord
100
AcDbLayerTableRecord
  2
05_ALL_DTM_CSYS
 70
0
 62
7
  6
CONTINUOUS
370
-3
390
F
  0
LAYER
  5
20C
100
AcDbSymbolTableRecord
100
AcDbLayerTableRecord
  2
05__ASM_ALL_DTM_CSYS
 70
0
 62
7
  6
CONTINUOUS
370
-3
390
F
  0
LAYER
  5
20D
100
AcDbSymbolTableRecord
100
AcDbLayerTableRecord
  2
05__ASM_DEF_DTM_CSYS
 70
0
 62
7
  6
CONTINUOUS
370
-3
390
F
  0
LAYER
  5
20E
100
AcDbSymbolTableRecord
100
AcDbLayerTableRecord
  2
05___PRT_ALL_DTM_CSYS
 70
0
 62
7
  6
CONTINUOUS
370
-3
390
F
  0
LAYER
  5
20F
100
AcDbSymbolTableRecord
100
AcDbLayerTableRecord
  2
05___PRT_DEF_DTM_CSYS
 70
0
 62
7
  6
CONTINUOUS
370
-3
390
F
  0
LAYER
  5
210
100
AcDbSymbolTableRecord
100
AcDbLayerTableRecord
  2
06_ALL_SURFS
 70
0
 62
7
  6
CONTINUOUS
370
-3
390
F
  0
LAYER
  5
211
100
AcDbSymbolTableRecord
100
AcDbLayerTableRecord
  2
06__ASM_ALL_SURFS
 70
0
 62
7
  6
CONTINUOUS
370
-3
390
F
  0
LAYER
  5
212
100
AcDbSymbolTableRecord
100
AcDbLayerTableRecord
  2
06___PRT_ALL_SURFS
 70
0
 62
7
  6
CONTINUOUS
370
-3
390
F
  0
LAYER
  5
213
100
AcDbSymbolTableRecord
100
AcDbLayerTableRecord
  2
07__ASM_ALL_SKELETONS
 70
0
 62
7
  6
CONTINUOUS
370
-3
390
F
  0
LAYER
  5
214
100
AcDbSymbolTableRecord
100
AcDbLayerTableRecord
  2
3-985_ASSY_PLANES
 70
0
 62
7
  6
CONTINUOUS
370
-3
390
F
  0
LAYER
  5
215
100
AcDbSymbolTableRecord
100
AcDbLayerTableRecord
  2
ALL_ASSEMBLY_MEMBERS
 70
0
 62
7
  6
CONTINUOUS
370
-3
390
F
  0
LAYER
  5
216
100
AcDbSymbolTableRecord
100
AcDbLayerTableRecord
  2
ALL_FEATURES
 70
0
 62
7
  6
CONTINUOUS
370
-3
390
F
  0
LAYER
  5
217
100
AcDbSymbolTableRecord
100
AcDbLayerTableRecord
  2
AXES_FEATURES
 70
0
 62
7
  6
CONTINUOUS
370
-3
390
F
  0
LAYER
  5
218
100
AcDbSymbolTableRecord
100
AcDbLayerTableRecord
  2
CHAMFER_FEATURES
 70
0
 62
7
  6
CONTINUOUS
370
-3
390
F
  0
LAYER
  5
219
100
AcDbSymbolTableRecord
100
AcDbLayerTableRecord
  2
CUT_FEATURES
 70
0
 62
7
  6
CONTINUOUS
370
-3
390
F
  0
LAYER
  5
21A
100
AcDbSymbolTableRecord
100
AcDbLayerTableRecord
  2
DATUM_CURVES
 70
0
 62
7
  6
CONTINUOUS
370
-3
390
F
  0
LAYER
  5
21B
100
AcDbSymbolTableRecord
100
AcDbLayerTableRecord
  2
DATUM_PLANES
 70
0
 62
7
  6
CONTINUOUS
370
-3
390
F
  0
LAYER
  5
21C
100
AcDbSymbolTableRecord
100
AcDbLayerTableRecord
  2
DATUM_POINTS
 70
0
 62
7
  6
CONTINUOUS
370
-3
390
F
  0
LAYER
  5
21D
100
AcDbSymbolTableRecord
100
AcDbLayerTableRecord
  2
DEFAULT_COORDINATE_SYSTEM
 70
0
 62
7
  6
CONTINUOUS
370
-3
390
F
  0
LAYER
  5
21E
100
AcDbSymbolTableRecord
100
AcDbLayerTableRecord
  2
DEFAULT_DATUM_AXES
 70
0
 62
7
  6
CONTINUOUS
370
-3
390
F
  0
LAYER
  5
21F
100
AcDbSymbolTableRecord
100
AcDbLayerTableRecord
  2
DEFAULT_DATUM_CURVES
 70
0
 62
7
  6
CONTINUOUS
370
-3
390
F
  0
LAYER
  5
220
100
AcDbSymbolTableRecord
100
AcDbLayerTableRecord
  2
DEFAULT_DATUM_PLANES
 70
0
 62
7
  6
CONTINUOUS
370
-3
390
F
  0
LAYER
  5
221
100
AcDbSymbolTableRecord
100
AcDbLayerTableRecord
  2
DEFAULT_SURFACES
 70
0
 62
7
  6
CONTINUOUS
370
-3
390
F
  0
LAYER
  5
222
100
AcDbSymbolTableRecord
100
AcDbLayerTableRecord
  2
DIMENSIONS
 70
0
 62
7
  6
CONTINUOUS
370
-3
390
F
  0
LAYER
  5
223
100
AcDbSymbolTableRecord
100
AcDbLayerTableRecord
  2
HOLE_FEATURES
 70
0
 62
7
  6
CONTINUOUS
370
-3
390
F
  0
LAYER
  5
224
100
AcDbSymbolTableRecord
100
AcDbLayerTableRecord
  2
NONE
 70
0
 62
7
  6
CONTINUOUS
370
-3
390
F
  0
LAYER
  5
225
100
AcDbSymbolTableRecord
100
AcDbLayerTableRecord
  2
PART_REFERENCE_DIMENSIONS
 70
0
 62
7
  6
CONTINUOUS
370
-3
390
F
  0
LAYER
  5
226
100
AcDbSymbolTableRecord
100
AcDbLayerTableRecord
  2
POINTS
 70
0
 62
7
  6
CONTINUOUS
370
-3
390
F
  0
LAYER
  5
227
100
AcDbSymbolTableRecord
100
AcDbLayerTableRecord
  2
PROTRUSION_FEATURES
 70
0
 62
7
  6
CONTINUOUS
370
-3
390
F
  0
LAYER
  5
228
100
AcDbSymbolTableRecord
100
AcDbLayerTableRecord
  2
QUILTS
 70
0
 62
7
  6
CONTINUOUS
370
-3
390
F
  0
LAYER
  5
229
100
AcDbSymbolTableRecord
100
AcDbLayerTableRecord
  2
REFERENCE_DIMENSIONS
 70
0
 62
7
  6
CONTINUOUS
370
-3
390
F
  0
LAYER
  5
22A
100
AcDbSymbolTableRecord
100
AcDbLayerTableRecord
  2
ROUND_FEATURES
 70
0
 62
7
  6
CONTINUOUS
370
-3
390
F
  0
LAYER
  5
22B
100
AcDbSymbolTableRecord
100
AcDbLayerTableRecord
  2
SIZE_REF
 70
0
 62
7
  6
CONTINUOUS
370
-3
390
F
  0
LAYER
  5
22C
100
AcDbSymbolTableRecord
100
AcDbLayerTableRecord
  2
WETTED_SURFACE_AREA
 70
0
 62
7
  6
CONTINUOUS
370
-3
390
F
  0
LAYER
  5
22D
100
AcDbSymbolTableRecord
100
AcDbLayerTableRecord
  2
XSEC_DATUMS
 70
0
 62
7
  6
CONTINUOUS
370
-3
390
F
  0
ENDTAB
  0
TABLE
  2
STYLE
  5
3
100
AcDbSymbolTable
 70
1
  0
STYLE
  5
11
100
AcDbSymbolTableRecord
100
AcDbTextStyleTableRecord
  2
STANDARD
 70
0
 40
0.0
 41
0.8
 50
0.0
 71
0
 42
0.2
  3
txt
  4

  0
STYLE
  5
22E
100
AcDbSymbolTableRecord
100
AcDbTextStyleTableRecord
  2
TEXTSTYLE_1
 70
0
 40
0.0
 41
0.8
 50
0.0
 71
0
 42
0.2
  3
gdt
  4

  0
ENDTAB
  0
TABLE
  2
VIEW
  5
6
100
AcDbSymbolTable
 70
0
  0
ENDTAB
  0
TABLE
  2
UCS
  5
7
100
AcDbSymbolTable
 70
0
  0
ENDTAB
  0
TABLE
  2
APPID
  5
9
100
AcDbSymbolTable
 70
1
  0
APPID
  5
22F
100
AcDbSymbolTableRecord
100
AcDbRegAppTableRecord
  2
ACAD
 70
0
  0
ENDTAB
  0
TABLE
  2
BLOCK_RECORD
  5
1
100
AcDbSymbolTable
 70
0
  0
BLOCK_RECORD
  5
230
100
AcDbSymbolTableRecord
100
AcDbBlockTableRecord
  2
*Model_Space
  0
BLOCK_RECORD
  5
231
100
AcDbSymbolTableRecord
100
AcDbBlockTableRecord
  2
*Paper_Space
  0
BLOCK_RECORD
  5
232
100
AcDbSymbolTableRecord
100
AcDbBlockTableRecord
  2
_FILLED
  0
ENDTAB
  0
TABLE
  2
DIMSTYLE
  5
A
100
AcDbSymbolTable
 70
1
100
AcDbDimStyleTable
 71
0
  0
DIMSTYLE
105
233
100
AcDbSymbolTableRecord
100
AcDbDimStyleTableRecord
  2
STANDARD
 70
0
  3

  4

 40
1.0
 41
0.1
 42
0.0625
 43
0.38
 44
0.125
 45
0.0
 46
0.0
 47
0.001
 48
0.001
140
0.08
141
0.09
142
0.0
143
25.4
144
1.0
145
0.0
146
1.0
147
0.09
 71
1.0
 72
0.0
 73
1
 74
1
 75
0
 76
0
 77
0
 78
4
 79
1
170
1
171
2
172
0
173
0
174
0
175
0
176
0
177
0
178
0
270
2
179
3
271
3
272
3
273
2
274
2
275
0
280
0
281
0
282
0
283
1
284
4
285
0
286
0
287
3
288
0
340
11
278
46
341
232
342
232
343
232
344
232
  0
ENDTAB
  0
ENDSEC
  0
SECTION
  2
BLOCKS
  0
BLOCK
  5
20
100
AcDbEntity
  8
0
100
AcDbBlockBegin
  2
*Model_Space
 70
0
 10
0.0
 20
0.0
 30
0.0
  3
*Model_Space
  1

  0
ENDBLK
  5
21
100
AcDbEntity
  8
0
100
AcDbBlockEnd
  0
BLOCK
  5
1C
100
AcDbEntity
  8
0
100
AcDbBlockBegin
  2
*Paper_Space
 70
0
 10
0.0
 20
0.0
 30
0.0
  3
*Paper_Space
  1

  0
ENDBLK
  5
1D
100
AcDbEntity
  8
0
100
AcDbBlockEnd
  0
BLOCK
  5
234
100
AcDbEntity
  8
0
100
AcDbBlockBegin
  2
_FILLED
 70
64
 10
0.0
 20
0.0
  3
_FILLED
  1

  0
SOLID
  5
235
100
AcDbEntity
  8
0
  6
BYBLOCK
 62
0
100
AcDbTrace
 10
0.0
 20
0.0
 11
-1.0
 21
0.2
 12
-1.0
 22
-0.2
 13
-1.0
 23
-0.2
  0
ENDBLK
  5
236
100
AcDbEntity
  8
0
  6
BYBLOCK
 62
0
100
AcDbBlockEnd
  0
ENDSEC
  0
SECTION
  2
ENTITIES
  0
MTEXT
  5
237
100
AcDbEntity
  8
0
100
AcDbMText
 62
2
  6
CONTINUOUS
  7
STANDARD
 71
3
 72
1
 10
2.7963315217
 20
1.7545439394
 30
0.0
 11
1.0
 21
0.0
 31
0.0
 73
2
 44
0.9
  1
SCALE  .500
 40
0.08
 41
0.704
  0
LINE
  5
238
100
AcDbEntity
  8
0
100
AcDbLine
 62
7
  6
CONTINUOUS
 10
0.0
 20
0.0
 11
0.0
 21
8.5
  0
LINE
  5
239
100
AcDbEntity
  8
0
100
AcDbLine
 62
7
  6
CONTINUOUS
 10
0.0
 20
0.0
 11
11.0
 21
0.0
  0
LINE
  5
23A
100
AcDbEntity
  8
0
100
AcDbLine
 62
7
  6
CONTINUOUS
 10
0.0
 20
8.5
 11
11.0
 21
8.5
  0
LINE
  5
23B
100
AcDbEntity
  8
0
100
AcDbLine
 62
7
  6
CONTINUOUS
 10
11.0
 20
0.0
 11
11.0
 21
8.5
  0
LWPOLYLINE
  5
23C
100
AcDbEntity
  8
ALL_ASSEMBLY_MEMBERS
100
AcDbPolyline
 62
7
  6
CONTINUOUS
 90
19
 70
0
 10
1.6549543481
 20
6.1136032041
 10
1.6546639627
 20
6.1129775217
 10
1.6544323206
 20
6.1123799327
 10
1.654249067
 20
6.1118085114
 10
1.6541077615
 20
6.1112693007
 10
1.6540032201
 20
6.1107761054
 10
1.6539280437
 20
6.1103366184
 10
1.653872044
 20
6.1099324348
 10
1.6538276175
 20
6.1095376809
 10
1.6537917376
 20
6.1091468083
 10
1.6537617973
 20
6.1087502125
 10
1.6537350545
 20
6.1083214169
 10
1.6537108014
 20
6.107850484
 10
1.6536889011
 20
6.1073350685
 10
1.6536690621
 20
6.1067677589
 10
1.6536512655
 20
6.1061460207
 10
1.6536356006
 20
6.1054718257
 10
1.6536221951
 20
6.1047529372
 10
1.6536020534
 20
6.103204281
  0
LINE
  5
23D
100
AcDbEntity
  8
ALL_ASSEMBLY_MEMBERS
100
AcDbLine
 62
7
  6
CONTINUOUS
 10
1.6549543481
 20
6.1136032041
 11
1.7154477787
 21
6.2308157542
  0
LINE
  5
23E
100
AcDbEntity
  8
ALL_ASSEMBLY_MEMBERS
100
AcDbLine
 62
7
  6
CONTINUOUS
 10
1.6551583745
 20
6.1139463644
 11
1.7155985871
 21
6.2310550842
  0
LINE
  5
23F
100
AcDbEntity
  8
ALL_ASSEMBLY_MEMBERS
100
AcDbLine
 62
7
  6
CONTINUOUS
 10
1.6585805168
 20
6.1139463644
 11
1.727299184
 21
6.2315834611
  0
LINE
  5
240
100
AcDbEntity
  8
ALL_ASSEMBLY_MEMBERS
100
AcDbLine
 62
7
  6
CONTINUOUS
 10
1.659072778
 20
6.0994797318
 11
1.7273422916
 21
6.2163479381
  0
LWPOLYLINE
  5
241
100
AcDbEntity
  8
ALL_ASSEMBLY_MEMBERS
100
AcDbPolyline
 62
7
  6
CONTINUOUS
 90
18
 70
0
 10
1.6536333446
 20
5.9930274169
 10
1.6536487526
 20
5.9923419783
 10
1.6536663156
 20
5.9917093724
 10
1.6536859416
 20
5.9911318525
 10
1.6537076373
 20
5.9906071741
 10
1.6537316603
 20
5.9901283617
 10
1.6537581112
 20
5.9896933265
 10
1.6537876566
 20
5.9892920818
 10
1.6538229507
 20
5.9888980573
 10
1.6538664444
 20
5.9885021719
 10
1.6539210992
 20
5.9880983172
 10
1.6539946884
 20
5.9876585002
 10
1.6540976484
 20
5.9871632188
 10
1.6542375181
 20
5.9866207635
 10
1.6544197463
 20
5.9860450688
 10
1.6546512943
 20
5.9854416244
 10
1.6549427674
 20
5.9848088818
 10
1.6549920478
 20
5.9847121342
  0
LINE
  5
242
100
AcDbEntity
  8
ALL_ASSEMBLY_MEMBERS
100
AcDbLine
 62
7
  6
CONTINUOUS
 10
1.6536093633
 20
5.9945256347
 11
1.6536333446
 21
5.9930274169
  0
LINE
  5
243
100
AcDbEntity
  8
ALL_ASSEMBLY_MEMBERS
100
AcDbLine
 62
7
  6
CONTINUOUS
 10
1.6535940942
 20
5.9961580931
 11
1.6536093633
 21
5.9945256347
  0
LINE
  5
244
100
AcDbEntity
  8
ALL_ASSEMBLY_MEMBERS
100
AcDbLine
 62
7
  6
CONTINUOUS
 10
1.6535856435
 20
5.9987641361
 11
1.6535940942
 21
5.9961580931
  0
LINE
  5
245
100
AcDbEntity
  8
ALL_ASSEMBLY_MEMBERS
100
AcDbLine
 62
7
  6
CONTINUOUS
 10
1.6576699043
 20
5.9989093892
 11
1.6576699043
 21
6.0994797318
  0
LINE
  5
246
100
AcDbEntity
  8
ALL_ASSEMBLY_MEMBERS
100
AcDbLine
 62
7
  6
CONTINUOUS
 10
1.659072778
 20
5.9989093892
 11
1.659072778
 21
6.0994797318
  0
LINE
  5
247
100
AcDbEntity
  8
ALL_ASSEMBLY_MEMBERS
100
AcDbLine
 62
7
  6
CONTINUOUS
 10
1.6535902173
 20
6.1015435333
 11
1.6535856435
 21
5.9987641361
  0
LINE
  5
248
100
AcDbEntity
  8
ALL_ASSEMBLY_MEMBERS
100
AcDbLine
 62
7
  6
CONTINUOUS
 10
1.6536020534
 20
6.103204281
 11
1.6535902173
 21
6.1015435333
  0
LWPOLYLINE
  5
249
100
AcDbEntity
  8
ALL_ASSEMBLY_MEMBERS
100
AcDbPolyline
 62
7
  6
CONTINUOUS
 90
8
 70
0
 10
2.6831721408
 20
5.5611909381
 10
2.6829961672
 20
5.6126677548
 10
2.6828333674
 20
5.6645807044
 10
2.6826854057
 20
5.7169285593
 10
2.6825546826
 20
5.7693722242
 10
2.6824420833
 20
5.8222480695
 10
2.6823482161
 20
5.876568293
 10
2.6823103188
 20
5.9060287977
  0
LINE
  5
24A
100
AcDbEntity
  8
ALL_ASSEMBLY_MEMBERS
100
AcDbLine
 62
7
  6
CONTINUOUS
 10
2.6831474779
 20
5.5611908539
 11
2.6823149438
 21
5.9060288034
  0
LWPOLYLINE
  5
24B
100
AcDbEntity
  8
ALL_ASSEMBLY_MEMBERS
100
AcDbPolyline
 62
7
  6
CONTINUOUS
 90
9
 70
0
 10
2.6823086126
 20
6.1923622849
 10
2.6823966454
 20
6.2514498044
 10
2.6824718658
 20
6.2910570056
 10
2.6825588573
 20
6.33081838
 10
2.6826571333
 20
6.3707131327
 10
2.6827675964
 20
6.4112487254
 10
2.6828906064
 20
6.4525935392
 10
2.6830255405
 20
6.4945770734
 10
2.6831721408
 20
6.5371981829
  0
LINE
  5
24C
100
AcDbEntity
  8
ALL_ASSEMBLY_MEMBERS
100
AcDbLine
 62
7
  6
CONTINUOUS
 10
2.6823145785
 20
6.1923622776
 11
2.6831471073
 21
6.5371982683
  0
LWPOLYLINE
  5
24D
100
AcDbEntity
  8
ALL_ASSEMBLY_MEMBERS
100
AcDbPolyline
 62
7
  6
CONTINUOUS
 90
7
 70
0
 10
2.7069075445
 20
6.5119245137
 10
2.7067095657
 20
6.4567968178
 10
2.7065244388
 20
6.3997559306
 10
2.7063657156
 20
6.3443403539
 10
2.7062333598
 20
6.2905501856
 10
2.7061270734
 20
6.2383854363
 10
2.7060525676
 20
6.1917563644
  0
LINE
  5
24E
100
AcDbEntity
  8
ALL_ASSEMBLY_MEMBERS
100
AcDbLine
 62
7
  6
CONTINUOUS
 10
2.6999313444
 20
5.5723692386
 11
2.7069135061
 21
5.5863604976
  0
LINE
  5
24F
100
AcDbEntity
  8
ALL_ASSEMBLY_MEMBERS
100
AcDbLine
 62
7
  6
CONTINUOUS
 10
2.6915963938
 20
5.5527658966
 11
2.7027756501
 21
5.5695255964
  0
LINE
  5
250
100
AcDbEntity
  8
ALL_ASSEMBLY_MEMBERS
100
AcDbLine
 62
7
  6
CONTINUOUS
 10
2.7168706187
 20
5.5765032186
 11
2.7218600589
 21
5.5829206857
  0
LWPOLYLINE
  5
251
100
AcDbEntity
  8
ALL_ASSEMBLY_MEMBERS
100
AcDbPolyline
 62
7
  6
CONTINUOUS
 90
4
 70
0
 10
2.7179688341
 20
5.5779297349
 10
2.7195299521
 20
5.5799010869
 10
2.7206005764
 20
5.5812724174
 10
2.7218600589
 20
5.5829206857
  0
LWPOLYLINE
  5
252
100
AcDbEntity
  8
ALL_ASSEMBLY_MEMBERS
100
AcDbPolyline
 62
7
  6
CONTINUOUS
 90
3
 70
0
 10
2.7168604309
 20
5.5765025627
 10
2.7171345664
 20
5.5768435965
 10
2.7179688341
 20
5.5779297349
  0
LINE
  5
253
100
AcDbEntity
  8
ALL_ASSEMBLY_MEMBERS
100
AcDbLine
 62
7
  6
CONTINUOUS
 10
2.6049136573
 20
5.4826710407
 11
2.6056874602
 21
5.483447274
  0
LINE
  5
254
100
AcDbEntity
  8
ALL_ASSEMBLY_MEMBERS
100
AcDbLine
 62
7
  6
CONTINUOUS
 10
2.6049136573
 20
5.4826710407
 11
2.6056855843
 21
5.483445338
  0
LINE
  5
255
100
AcDbEntity
  8
ALL_ASSEMBLY_MEMBERS
100
AcDbLine
 62
7
  6
CONTINUOUS
 10
3.7542867023
 20
6.6157179978
 11
3.7535112293
 21
6.6149400918
  0
LINE
  5
256
100
AcDbEntity
  8
ALL_ASSEMBLY_MEMBERS
100
AcDbLine
 62
7
  6
CONTINUOUS
 10
3.7461236721
 20
6.6238811107
 11
3.7453492369
 21
6.6231091451
  0
LINE
  5
257
100
AcDbEntity
  8
ALL_ASSEMBLY_MEMBERS
100
AcDbLine
 62
7
  6
CONTINUOUS
 10
2.6130766321
 20
5.474508074
 11
2.6138509236
 21
5.4752799969
  0
LINE
  5
258
100
AcDbEntity
  8
ALL_ASSEMBLY_MEMBERS
100
AcDbLine
 62
7
  6
CONTINUOUS
 10
2.6130766321
 20
5.474508074
 11
2.6138528635
 21
5.4752818759
  0
LWPOLYLINE
  5
259
100
AcDbEntity
  8
ALL_ASSEMBLY_MEMBERS
100
AcDbPolyline
 62
7
  6
CONTINUOUS
 90
3
 70
0
 10
3.6522935915
 20
6.5119281652
 10
3.6522760762
 20
6.5119137374
 10
3.6521667832
 20
6.5118260126
  0
LWPOLYLINE
  5
25A
100
AcDbEntity
  8
ALL_ASSEMBLY_MEMBERS
100
AcDbPolyline
 62
7
  6
CONTINUOUS
 90
3
 70
0
 10
3.649997111
 20
6.5101427656
 10
3.6471367343
 20
6.5079062152
 10
3.6458754556
 20
6.5069345966
  0
LINE
  5
25B
100
AcDbEntity
  8
ALL_ASSEMBLY_MEMBERS
100
AcDbLine
 62
7
  6
CONTINUOUS
 10
3.6522933959
 20
6.5119242107
 11
3.6458754556
 21
6.5069345966
  0
LINE
  5
25C
100
AcDbEntity
  8
ALL_ASSEMBLY_MEMBERS
100
AcDbLine
 62
7
  6
CONTINUOUS
 10
3.6519558401
 20
6.5116628929
 11
3.6516403541
 21
6.5114201551
  0
LINE
  5
25D
100
AcDbEntity
  8
ALL_ASSEMBLY_MEMBERS
100
AcDbLine
 62
7
  6
CONTINUOUS
 10
3.676027692
 20
6.5371990634
 11
3.6749065815
 21
6.5364411158
  0
LINE
  5
25E
100
AcDbEntity
  8
ALL_ASSEMBLY_MEMBERS
100
AcDbLine
 62
7
  6
CONTINUOUS
 10
3.6606770998
 20
6.526969985
 11
3.6592687423
 21
6.5260206601
  0
LINE
  5
25F
100
AcDbEntity
  8
ALL_ASSEMBLY_MEMBERS
100
AcDbLine
 62
7
  6
CONTINUOUS
 10
3.676027692
 20
6.5371990634
 11
3.6592687423
 21
6.5260206601
  0
LINE
  5
260
100
AcDbEntity
  8
ALL_ASSEMBLY_MEMBERS
100
AcDbLine
 62
7
  6
CONTINUOUS
 10
3.6736945249
 20
6.5356347322
 11
3.6724007698
 21
6.5347799446
  0
LINE
  5
261
100
AcDbEntity
  8
ALL_ASSEMBLY_MEMBERS
100
AcDbLine
 62
7
  6
CONTINUOUS
 10
3.6564251369
 20
6.5288635463
 11
3.6424326098
 21
6.5218802715
  0
LWPOLYLINE
  5
262
100
AcDbEntity
  8
ALL_ASSEMBLY_MEMBERS
100
AcDbPolyline
 62
7
  6
CONTINUOUS
 90
15
 70
0
 10
2.7069091147
 20
5.5864654238
 10
2.7069409549
 20
5.5857046479
 10
2.7070995645
 20
5.5845601546
 10
2.7073891228
 20
5.583441608
 10
2.707805763
 20
5.5823639361
 10
2.7083439218
 20
5.5813415246
 10
2.7089964128
 20
5.5803880239
 10
2.7097545244
 20
5.5795161619
 10
2.7106081355
 20
5.5787375769
 10
2.7115458486
 20
5.5780626631
 10
2.7125551424
 20
5.5775004307
 10
2.7136225434
 20
5.5770583832
 10
2.7147337998
 20
5.5767424211
 10
2.7158740682
 20
5.5765567611
 10
2.716870529
 20
5.5765032261
  0
LINE
  5
263
100
AcDbEntity
  8
ALL_ASSEMBLY_MEMBERS
100
AcDbLine
 62
7
  6
CONTINUOUS
 10
2.7124221098
 20
5.9067960514
 11
2.7133498872
 21
5.5914546056
  0
LWPOLYLINE
  5
264
100
AcDbEntity
  8
ALL_ASSEMBLY_MEMBERS
100
AcDbPolyline
 62
7
  6
CONTINUOUS
 90
9
 70
0
 10
2.7124429298
 20
5.8977866726
 10
2.7125083518
 20
5.86086793
 10
2.712586751
 20
5.8237502079
 10
2.71267773
 20
5.7864237146
 10
2.712780783
 20
5.7488994782
 10
2.7128970331
 20
5.7106884311
 10
2.7130269705
 20
5.6716282735
 10
2.7131699393
 20
5.6318832693
 10
2.7133256993
 20
5.5914545061
  0
LWPOLYLINE
  5
265
100
AcDbEntity
  8
ALL_ASSEMBLY_MEMBERS
100
AcDbPolyline
 62
7
  6
CONTINUOUS
 90
7
 70
0
 10
2.7060526221
 20
5.9066336037
 10
2.7061265398
 20
5.8602971335
 10
2.7062326973
 20
5.8081333633
 10
2.7063649287
 20
5.7543442041
 10
2.7065235324
 20
5.6989296674
 10
2.7067085462
 20
5.6418898504
 10
2.7069075416
 20
5.5864653996
  0
LINE
  5
266
100
AcDbEntity
  8
ALL_ASSEMBLY_MEMBERS
100
AcDbLine
 62
7
  6
CONTINUOUS
 10
2.8803501086
 20
5.9191966101
 11
2.8803501346
 21
6.179192511
  0
LINE
  5
267
100
AcDbEntity
  8
ALL_ASSEMBLY_MEMBERS
100
AcDbLine
 62
7
  6
CONTINUOUS
 10
2.7133490798
 20
6.5069345187
 11
2.7124213078
 21
6.1915935787
  0
LWPOLYLINE
  5
268
100
AcDbEntity
  8
ALL_ASSEMBLY_MEMBERS
100
AcDbPolyline
 62
7
  6
CONTINUOUS
 90
8
 70
0
 10
2.7133256993
 20
6.5069346149
 10
2.7131491368
 20
6.4608612185
 10
2.7129825888
 20
6.4137456688
 10
2.7128284073
 20
6.3655884672
 10
2.7126898222
 20
6.3165984672
 10
2.7125687416
 20
6.2665683864
 10
2.712466682
 20
6.2148743973
 10
2.7124322538
 20
6.1915935616
  0
LINE
  5
269
100
AcDbEntity
  8
ALL_ASSEMBLY_MEMBERS
100
AcDbLine
 62
7
  6
CONTINUOUS
 10
3.6592687847
 20
6.5260197822
 11
3.6522867704
 21
6.5120288431
  0
LINE
  5
26A
100
AcDbEntity
  8
ALL_ASSEMBLY_MEMBERS
100
AcDbLine
 62
7
  6
CONTINUOUS
 10
3.487778457
 20
6.0021878817
 11
3.4450835149
 21
5.9338759743
  0
LINE
  5
26B
100
AcDbEntity
  8
ALL_ASSEMBLY_MEMBERS
100
AcDbLine
 62
7
  6
CONTINUOUS
 10
3.4876301383
 20
5.9867625334
 11
3.4420876619
 21
5.9138945711
  0
LINE
  5
26C
100
AcDbEntity
  8
ALL_ASSEMBLY_MEMBERS
100
AcDbLine
 62
7
  6
CONTINUOUS
 10
3.6676036302
 20
6.5456235877
 11
3.6564242132
 21
6.5288636717
  0
LINE
  5
26D
100
AcDbEntity
  8
ALL_ASSEMBLY_MEMBERS
100
AcDbLine
 62
7
  6
CONTINUOUS
 10
3.642330507
 20
6.5218864831
 11
3.6373411011
 21
6.5154690872
  0
LWPOLYLINE
  5
26E
100
AcDbEntity
  8
ALL_ASSEMBLY_MEMBERS
100
AcDbPolyline
 62
7
  6
CONTINUOUS
 90
4
 70
0
 10
3.6412325408
 20
6.5204599997
 10
3.6396713665
 20
6.5184886665
 10
3.6386006758
 20
6.5171173457
 10
3.6373411011
 20
6.5154690872
  0
LWPOLYLINE
  5
26F
100
AcDbEntity
  8
ALL_ASSEMBLY_MEMBERS
100
AcDbPolyline
 62
7
  6
CONTINUOUS
 90
3
 70
0
 10
3.6423407445
 20
6.5218871389
 10
3.6420667602
 20
6.5215461212
 10
3.6412325408
 20
6.5204599997
  0
LWPOLYLINE
  5
270
100
AcDbEntity
  8
ALL_ASSEMBLY_MEMBERS
100
AcDbPolyline
 62
7
  6
CONTINUOUS
 90
3
 70
0
 10
2.7069075563
 20
5.586461475
 10
2.7069250772
 20
5.5864759237
 10
2.7070343785
 20
5.5865636805
  0
LWPOLYLINE
  5
271
100
AcDbEntity
  8
ALL_ASSEMBLY_MEMBERS
100
AcDbPolyline
 62
7
  6
CONTINUOUS
 90
3
 70
0
 10
2.7092040773
 20
5.5882469768
 10
2.7120644376
 20
5.5904834435
 10
2.7133256973
 20
5.5914550232
  0
LINE
  5
272
100
AcDbEntity
  8
ALL_ASSEMBLY_MEMBERS
100
AcDbLine
 62
7
  6
CONTINUOUS
 10
2.7069077534
 20
5.5864654137
 11
2.7133256973
 21
5.5914550232
  0
LINE
  5
273
100
AcDbEntity
  8
ALL_ASSEMBLY_MEMBERS
100
AcDbLine
 62
7
  6
CONTINUOUS
 10
2.7072453288
 20
5.5867268316
 11
2.7075608206
 21
5.586969597
  0
LINE
  5
274
100
AcDbEntity
  8
ALL_ASSEMBLY_MEMBERS
100
AcDbLine
 62
7
  6
CONTINUOUS
 10
2.683172143
 20
5.5611902885
 11
2.6842912483
 21
5.5619468118
  0
LINE
  5
275
100
AcDbEntity
  8
ALL_ASSEMBLY_MEMBERS
100
AcDbLine
 62
7
  6
CONTINUOUS
 10
2.6985209943
 20
5.5714183099
 11
2.6999313457
 21
5.5723688776
  0
LINE
  5
276
100
AcDbEntity
  8
ALL_ASSEMBLY_MEMBERS
100
AcDbLine
 62
7
  6
CONTINUOUS
 10
2.683172143
 20
5.5611902885
 11
2.6999313457
 21
5.5723688776
  0
LINE
  5
277
100
AcDbEntity
  8
ALL_ASSEMBLY_MEMBERS
100
AcDbLine
 62
7
  6
CONTINUOUS
 10
1.7155985871
 20
5.8673340368
 11
1.7154492348
 21
5.8675705456
  0
LINE
  5
278
100
AcDbEntity
  8
ALL_ASSEMBLY_MEMBERS
100
AcDbLine
 62
7
  6
CONTINUOUS
 10
1.6585805168
 20
5.9844427566
 11
1.727299184
 21
5.8668056599
  0
LINE
  5
279
100
AcDbEntity
  8
ALL_ASSEMBLY_MEMBERS
100
AcDbLine
 62
7
  6
CONTINUOUS
 10
1.659072778
 20
5.9989093892
 11
1.7273422916
 21
5.8820411829
  0
LWPOLYLINE
  5
27A
100
AcDbEntity
  8
ALL_ASSEMBLY_MEMBERS
100
AcDbPolyline
 62
7
  6
CONTINUOUS
 90
23
 70
0
 10
1.715447709
 20
5.86757347
 10
1.7156156011
 20
5.8672618151
 10
1.7159192009
 20
5.8667568203
 10
1.7162483874
 20
5.8662755607
 10
1.7166006765
 20
5.8658196458
 10
1.7169739564
 20
5.8653898569
 10
1.7173661262
 20
5.8649868147
 10
1.7177745388
 20
5.8646114784
 10
1.7181971242
 20
5.8642640253
 10
1.7186317768
 20
5.8639445649
 10
1.7190757002
 20
5.8636535203
 10
1.7195269271
 20
5.8633905468
 10
1.7199835248
 20
5.8631552147
 10
1.7204427326
 20
5.8629473675
 10
1.7209045384
 20
5.8627655641
 10
1.7213656289
 20
5.8626097183
 10
1.7218181339
 20
5.8624805115
 10
1.722263857
 20
5.8623753039
 10
1.7226981525
 20
5.8622931636
 10
1.7231033023
 20
5.8622341873
 10
1.7234790702
 20
5.8621944023
 10
1.723824485
 20
5.8621702691
 10
1.7239106303
 20
5.8621660818
  0
LINE
  5
27B
100
AcDbEntity
  8
ALL_ASSEMBLY_MEMBERS
100
AcDbLine
 62
7
  6
CONTINUOUS
 10
1.6549919511
 20
5.984712342
 11
1.7154478122
 21
5.8675733019
  0
LINE
  5
27C
100
AcDbEntity
  8
ALL_ASSEMBLY_MEMBERS
100
AcDbLine
 62
7
  6
CONTINUOUS
 10
1.6551583745
 20
5.9844427566
 11
1.7155985871
 21
5.8673340368
  0
LINE
  5
27D
100
AcDbEntity
  8
ALL_ASSEMBLY_MEMBERS
100
AcDbLine
 62
7
  6
CONTINUOUS
 10
2.7027751299
 20
5.5695256763
 11
2.7167680382
 21
5.5765090876
  0
LINE
  5
27E
100
AcDbEntity
  8
ALL_ASSEMBLY_MEMBERS
100
AcDbLine
 62
7
  6
CONTINUOUS
 10
3.4368544008
 20
5.9338759743
 11
3.4368544008
 21
6.1645131467
  0
LINE
  5
27F
100
AcDbEntity
  8
ALL_ASSEMBLY_MEMBERS
100
AcDbLine
 62
7
  6
CONTINUOUS
 10
3.4450835149
 20
5.9338759743
 11
3.4450835149
 21
6.1645131467
  0
LINE
  5
280
100
AcDbEntity
  8
ALL_ASSEMBLY_MEMBERS
100
AcDbLine
 62
7
  6
CONTINUOUS
 10
3.487778457
 20
6.0962012393
 11
3.487778457
 21
6.0021878817
  0
LINE
  5
281
100
AcDbEntity
  8
ALL_ASSEMBLY_MEMBERS
100
AcDbLine
 62
7
  6
CONTINUOUS
 10
3.4891501553
 20
6.1063265982
 11
3.4891501553
 21
5.9920625228
  0
LWPOLYLINE
  5
282
100
AcDbEntity
  8
ALL_ASSEMBLY_MEMBERS
100
AcDbPolyline
 62
7
  6
CONTINUOUS
 90
15
 70
0
 10
3.6522919672
 20
6.5119241997
 10
3.6522535427
 20
6.5127633045
 10
3.6520884164
 20
6.5138944732
 10
3.651795279
 20
6.5149994013
 10
3.6513779637
 20
6.5160636451
 10
3.6508419264
 20
6.5170732974
 10
3.650194174
 20
6.5180151651
 10
3.6494431763
 20
6.5188769379
 10
3.6485987516
 20
6.5196473554
 10
3.6476719357
 20
6.5203163549
 10
3.6466748392
 20
6.5208751985
 10
3.6456204922
 20
6.5213165865
 10
3.6445226731
 20
6.5216347538
 10
3.6433957255
 20
6.5218255459
 10
3.6423305959
 20
6.5218864757
  0
LWPOLYLINE
  5
283
100
AcDbEntity
  8
ALL_ASSEMBLY_MEMBERS
100
AcDbPolyline
 62
7
  6
CONTINUOUS
 90
10
 70
0
 10
3.6522921988
 20
5.5864642703
 10
3.6526391557
 20
5.6868661817
 10
3.6529281744
 20
5.7907178216
 10
3.6531324526
 20
5.8944804346
 10
3.6532378866
 20
5.9981527737
 10
3.6532340011
 20
6.1017349193
 10
3.6531262488
 20
6.2052279666
 10
3.6529244954
 20
6.3086314934
 10
3.6526388576
 20
6.4119437967
 10
3.6522936063
 20
6.5119242243
  0
LINE
  5
284
100
AcDbEntity
  8
ALL_ASSEMBLY_MEMBERS
100
AcDbLine
 62
7
  6
CONTINUOUS
 10
5.0471001553
 20
3.1627251104
 11
4.9721001553
 21
3.1627251104
  0
LINE
  5
285
100
AcDbEntity
  8
ALL_ASSEMBLY_MEMBERS
100
AcDbLine
 62
7
  6
CONTINUOUS
 10
5.2471001553
 20
3.1627251104
 11
5.3221001553
 21
3.1627251104
  0
LINE
  5
286
100
AcDbEntity
  8
ALL_ASSEMBLY_MEMBERS
100
AcDbLine
 62
7
  6
CONTINUOUS
 10
2.6999313428
 20
6.5260194419
 11
2.7069141289
 21
6.5120273713
  0
LINE
  5
287
100
AcDbEntity
  8
ALL_ASSEMBLY_MEMBERS
100
AcDbLine
 62
7
  6
CONTINUOUS
 10
2.6915964253
 20
6.5456219081
 11
2.6923485147
 21
6.5445089058
  0
LINE
  5
288
100
AcDbEntity
  8
ALL_ASSEMBLY_MEMBERS
100
AcDbLine
 62
7
  6
CONTINUOUS
 10
2.7018205949
 20
6.5302793657
 11
2.7027751332
 21
6.5288630937
  0
LINE
  5
289
100
AcDbEntity
  8
ALL_ASSEMBLY_MEMBERS
100
AcDbLine
 62
7
  6
CONTINUOUS
 10
2.6915964253
 20
6.5456219081
 11
2.7027751332
 21
6.5288630937
  0
LINE
  5
28A
100
AcDbEntity
  8
ALL_ASSEMBLY_MEMBERS
100
AcDbLine
 62
7
  6
CONTINUOUS
 10
3.6592690529
 20
5.5723696677
 11
3.6522856831
 21
5.5863625651
  0
LINE
  5
28B
100
AcDbEntity
  8
ALL_ASSEMBLY_MEMBERS
100
AcDbLine
 62
7
  6
CONTINUOUS
 10
7.5939251806
 20
6.5288634447
 11
7.5799328605
 21
6.521880357
  0
LWPOLYLINE
  5
28C
100
AcDbEntity
  8
ALL_ASSEMBLY_MEMBERS
100
AcDbPolyline
 62
7
  6
CONTINUOUS
 90
3
 70
0
 10
2.7168663846
 20
6.5218875681
 10
2.716880816
 20
6.52187005
 10
2.7169685473
 20
6.5217607536
  0
LWPOLYLINE
  5
28D
100
AcDbEntity
  8
ALL_ASSEMBLY_MEMBERS
100
AcDbPolyline
 62
7
  6
CONTINUOUS
 90
3
 70
0
 10
2.7186518246
 20
6.5195910943
 10
2.7208883825
 20
6.5167307649
 10
2.7218600028
 20
6.5154695131
  0
LWPOLYLINE
  5
28E
100
AcDbEntity
  8
ALL_ASSEMBLY_MEMBERS
100
AcDbPolyline
 62
7
  6
CONTINUOUS
 90
3
 70
0
 10
3.6405477318
 20
5.5787976127
 10
3.6383112372
 20
5.5816579921
 10
3.6373396401
 20
5.5829192683
  0
LINE
  5
28F
100
AcDbEntity
  8
ALL_ASSEMBLY_MEMBERS
100
AcDbLine
 62
7
  6
CONTINUOUS
 10
2.7168703365
 20
6.5218873714
 11
2.7218600028
 21
6.5154695131
  0
LINE
  5
290
100
AcDbEntity
  8
ALL_ASSEMBLY_MEMBERS
100
AcDbLine
 62
7
  6
CONTINUOUS
 10
3.6423293386
 20
5.5765013246
 11
3.6373396401
 21
5.5829192683
  0
LINE
  5
291
100
AcDbEntity
  8
ALL_ASSEMBLY_MEMBERS
100
AcDbLine
 62
7
  6
CONTINUOUS
 10
3.6420678985
 20
5.5768388827
 11
3.6418251239
 21
5.5771543673
  0
LINE
  5
292
100
AcDbEntity
  8
ALL_ASSEMBLY_MEMBERS
100
AcDbLine
 62
7
  6
CONTINUOUS
 10
2.7171316751
 20
6.5215498088
 11
2.7173744215
 21
6.5212343233
  0
LINE
  5
293
100
AcDbEntity
  8
ALL_ASSEMBLY_MEMBERS
100
AcDbLine
 62
7
  6
CONTINUOUS
 10
3.667604399
 20
5.5527670278
 11
3.6668482209
 21
5.5538856836
  0
LINE
  5
294
100
AcDbEntity
  8
ALL_ASSEMBLY_MEMBERS
100
AcDbLine
 62
7
  6
CONTINUOUS
 10
3.6573767664
 20
5.5681152399
 11
3.6564258866
 21
5.5695259809
  0
LINE
  5
295
100
AcDbEntity
  8
ALL_ASSEMBLY_MEMBERS
100
AcDbLine
 62
7
  6
CONTINUOUS
 10
3.667604399
 20
5.5527670278
 11
3.6564258866
 21
5.5695259809
  0
LINE
  5
296
100
AcDbEntity
  8
ALL_ASSEMBLY_MEMBERS
100
AcDbLine
 62
7
  6
CONTINUOUS
 10
3.487778457
 20
6.0962012393
 11
3.4450835149
 21
6.1645131467
  0
LINE
  5
297
100
AcDbEntity
  8
ALL_ASSEMBLY_MEMBERS
100
AcDbLine
 62
7
  6
CONTINUOUS
 10
3.4876301383
 20
6.1116265876
 11
3.4420876619
 21
6.1844945499
  0
LINE
  5
298
100
AcDbEntity
  8
ALL_ASSEMBLY_MEMBERS
100
AcDbLine
 62
7
  6
CONTINUOUS
 10
4.6471001553
 20
2.3497048177
 11
4.6471001553
 21
4.1049065094
  0
LINE
  5
299
100
AcDbEntity
  8
ALL_ASSEMBLY_MEMBERS
100
AcDbLine
 62
7
  6
CONTINUOUS
 10
4.7096001553
 20
3.1692149014
 11
4.7096001553
 21
3.1305887797
  0
LINE
  5
29A
100
AcDbEntity
  8
ALL_ASSEMBLY_MEMBERS
100
AcDbLine
 62
7
  6
CONTINUOUS
 10
7.6135281675
 20
6.5371988325
 11
7.6124090623
 21
6.5364423092
  0
LINE
  5
29B
100
AcDbEntity
  8
ALL_ASSEMBLY_MEMBERS
100
AcDbLine
 62
7
  6
CONTINUOUS
 10
7.5981793163
 20
6.5269708111
 11
7.5967689649
 21
6.5260202434
  0
LINE
  5
29C
100
AcDbEntity
  8
ALL_ASSEMBLY_MEMBERS
100
AcDbLine
 62
7
  6
CONTINUOUS
 10
7.6135281675
 20
6.5371988325
 11
7.5967689649
 21
6.5260202434
  0
LINE
  5
29D
100
AcDbEntity
  8
ALL_ASSEMBLY_MEMBERS
100
AcDbLine
 62
7
  6
CONTINUOUS
 10
6.6402751737
 20
5.5695255747
 11
6.6542670897
 21
5.5765085159
  0
LINE
  5
29E
100
AcDbEntity
  8
ALL_ASSEMBLY_MEMBERS
100
AcDbLine
 62
7
  6
CONTINUOUS
 10
3.7461236055
 20
5.4745080179
 11
3.7453456638
 21
5.4752835258
  0
LINE
  5
29F
100
AcDbEntity
  8
ALL_ASSEMBLY_MEMBERS
100
AcDbLine
 62
7
  6
CONTINUOUS
 10
3.7461236055
 20
5.4745080179
 11
3.7453492031
 21
5.4752799468
  0
LINE
  5
2A0
100
AcDbEntity
  8
ALL_ASSEMBLY_MEMBERS
100
AcDbLine
 62
7
  6
CONTINUOUS
 10
2.613076628
 20
6.6238810462
 11
2.6138509444
 21
6.6231091198
  0
LINE
  5
2A1
100
AcDbEntity
  8
ALL_ASSEMBLY_MEMBERS
100
AcDbLine
 62
7
  6
CONTINUOUS
 10
2.613076628
 20
6.6238810462
 11
2.6138542572
 21
6.6231058494
  0
LINE
  5
2A2
100
AcDbEntity
  8
ALL_ASSEMBLY_MEMBERS
100
AcDbLine
 62
7
  6
CONTINUOUS
 10
2.6049136586
 20
6.6157180775
 11
2.6056888548
 21
6.6149404458
  0
LINE
  5
2A3
100
AcDbEntity
  8
ALL_ASSEMBLY_MEMBERS
100
AcDbLine
 62
7
  6
CONTINUOUS
 10
2.6049136586
 20
6.6157180775
 11
2.6056855857
 21
6.6149437563
  0
LINE
  5
2A4
100
AcDbEntity
  8
ALL_ASSEMBLY_MEMBERS
100
AcDbLine
 62
7
  6
CONTINUOUS
 10
3.7542867026
 20
5.4826710507
 11
3.7535147411
 21
5.4834454905
  0
LINE
  5
2A5
100
AcDbEntity
  8
ALL_ASSEMBLY_MEMBERS
100
AcDbLine
 62
7
  6
CONTINUOUS
 10
3.7542867026
 20
5.4826710507
 11
3.7535111615
 21
5.4834490262
  0
LWPOLYLINE
  5
2A6
100
AcDbEntity
  8
ALL_ASSEMBLY_MEMBERS
100
AcDbPolyline
 62
7
  6
CONTINUOUS
 90
3
 70
0
 10
3.6423332752
 20
5.5765011317
 10
3.6423188224
 20
5.5765186471
 10
3.6422310583
 20
5.5766279401
  0
LINE
  5
2A7
100
AcDbEntity
  8
ALL_ASSEMBLY_MEMBERS
100
AcDbLine
 62
7
  6
CONTINUOUS
 10
4.9721001553
 20
3.1627251104
 11
4.9721001553
 21
3.1868634061
  0
LINE
  5
2A8
100
AcDbEntity
  8
ALL_ASSEMBLY_MEMBERS
100
AcDbLine
 62
7
  6
CONTINUOUS
 10
5.0471001553
 20
3.1627251104
 11
5.0471001553
 21
3.1891107651
  0
LWPOLYLINE
  5
2A9
100
AcDbEntity
  8
ALL_ASSEMBLY_MEMBERS
100
AcDbPolyline
 62
7
  6
CONTINUOUS
 90
3
 70
0
 10
7.5897927543
 20
6.511927646
 10
7.5897752334
 20
6.5119131973
 10
7.5896659321
 20
6.5118254405
  0
LWPOLYLINE
  5
2AA
100
AcDbEntity
  8
ALL_ASSEMBLY_MEMBERS
100
AcDbPolyline
 62
7
  6
CONTINUOUS
 90
3
 70
0
 10
7.5874962333
 20
6.5101421442
 10
7.5846358729
 20
6.5079056775
 10
7.5833746133
 20
6.5069340978
  0
LINE
  5
2AB
100
AcDbEntity
  8
ALL_ASSEMBLY_MEMBERS
100
AcDbLine
 62
7
  6
CONTINUOUS
 10
7.5897925572
 20
6.5119237073
 11
7.5833746133
 21
6.5069340978
  0
LINE
  5
2AC
100
AcDbEntity
  8
ALL_ASSEMBLY_MEMBERS
100
AcDbLine
 62
7
  6
CONTINUOUS
 10
7.5894549818
 20
6.5116622894
 11
7.5891394899
 21
6.511419524
  0
LINE
  5
2AD
100
AcDbEntity
  8
ALL_ASSEMBLY_MEMBERS
100
AcDbLine
 62
7
  6
CONTINUOUS
 10
6.6206726186
 20
5.5611900576
 11
6.621793729
 21
5.5619480052
  0
LINE
  5
2AE
100
AcDbEntity
  8
ALL_ASSEMBLY_MEMBERS
100
AcDbLine
 62
7
  6
CONTINUOUS
 10
6.6360232107
 20
5.571419136
 11
6.6374315683
 21
5.5723684609
  0
LINE
  5
2AF
100
AcDbEntity
  8
ALL_ASSEMBLY_MEMBERS
100
AcDbLine
 62
7
  6
CONTINUOUS
 10
6.6206726186
 20
5.5611900576
 11
6.6374315683
 21
5.5723684609
  0
LINE
  5
2B0
100
AcDbEntity
  8
ALL_ASSEMBLY_MEMBERS
100
AcDbLine
 62
7
  6
CONTINUOUS
 10
6.6230057857
 20
5.5627543888
 11
6.6242995408
 21
5.5636091764
  0
LINE
  5
2B1
100
AcDbEntity
  8
ALL_ASSEMBLY_MEMBERS
100
AcDbLine
 62
7
  6
CONTINUOUS
 10
3.6522915047
 20
5.5864643662
 11
3.6458740365
 21
5.5914537304
  0
LWPOLYLINE
  5
2B2
100
AcDbEntity
  8
ALL_ASSEMBLY_MEMBERS
100
AcDbPolyline
 62
7
  6
CONTINUOUS
 90
4
 70
0
 10
3.6508649843
 20
5.5875623145
 10
3.6488936312
 20
5.5891234748
 10
3.6475223019
 20
5.5901941602
 10
3.6458740365
 20
5.5914537304
  0
LWPOLYLINE
  5
2B3
100
AcDbEntity
  8
ALL_ASSEMBLY_MEMBERS
100
AcDbPolyline
 62
7
  6
CONTINUOUS
 90
3
 70
0
 10
3.6522921608
 20
5.5864541298
 10
3.6519511253
 20
5.5867281097
 10
3.6508649843
 20
5.5875623145
  0
LINE
  5
2B4
100
AcDbEntity
  8
ALL_ASSEMBLY_MEMBERS
100
AcDbLine
 62
7
  6
CONTINUOUS
 10
5.2471001553
 20
3.1627251104
 11
5.2471001553
 21
3.1891107651
  0
LINE
  5
2B5
100
AcDbEntity
  8
ALL_ASSEMBLY_MEMBERS
100
AcDbLine
 62
7
  6
CONTINUOUS
 10
5.3221001553
 20
3.1627251104
 11
5.3221001553
 21
3.1868634061
  0
LINE
  5
2B6
100
AcDbEntity
  8
ALL_ASSEMBLY_MEMBERS
100
AcDbLine
 62
7
  6
CONTINUOUS
 10
6.5424136082
 20
5.4826711232
 11
6.5431890813
 21
5.4834490292
  0
LINE
  5
2B7
100
AcDbEntity
  8
ALL_ASSEMBLY_MEMBERS
100
AcDbLine
 62
7
  6
CONTINUOUS
 10
6.5424136082
 20
5.4826711232
 11
6.543185532
 21
5.483445511
  0
LINE
  5
2B8
100
AcDbEntity
  8
ALL_ASSEMBLY_MEMBERS
100
AcDbLine
 62
7
  6
CONTINUOUS
 10
7.6836236784
 20
6.623881047
 11
7.6828474471
 21
6.6231072451
  0
LINE
  5
2B9
100
AcDbEntity
  8
ALL_ASSEMBLY_MEMBERS
100
AcDbLine
 62
7
  6
CONTINUOUS
 10
7.6836236784
 20
6.623881047
 11
7.682849387
 21
6.6231091241
  0
LINE
  5
2BA
100
AcDbEntity
  8
ALL_ASSEMBLY_MEMBERS
100
AcDbLine
 62
7
  6
CONTINUOUS
 10
6.5505766385
 20
5.4745080103
 11
6.5513510737
 21
5.4752799759
  0
LINE
  5
2BB
100
AcDbEntity
  8
ALL_ASSEMBLY_MEMBERS
100
AcDbLine
 62
7
  6
CONTINUOUS
 10
6.5505766385
 20
5.4745080103
 11
6.551354585
 21
5.4752835228
  0
LWPOLYLINE
  5
2BC
100
AcDbEntity
  8
ALL_ASSEMBLY_MEMBERS
100
AcDbPolyline
 62
7
  6
CONTINUOUS
 90
3
 70
0
 10
6.644406719
 20
5.5864609558
 10
6.6444242344
 20
5.5864753836
 10
6.6445335273
 20
5.5865631084
  0
LWPOLYLINE
  5
2BD
100
AcDbEntity
  8
ALL_ASSEMBLY_MEMBERS
100
AcDbPolyline
 62
7
  6
CONTINUOUS
 90
3
 70
0
 10
6.6467031995
 20
5.5882463554
 10
6.6495635763
 20
5.5904829058
 10
6.650824855
 20
5.5914545244
  0
LINE
  5
2BE
100
AcDbEntity
  8
ALL_ASSEMBLY_MEMBERS
100
AcDbLine
 62
7
  6
CONTINUOUS
 10
6.6444069147
 20
5.5864649103
 11
6.650824855
 21
5.5914545244
  0
LINE
  5
2BF
100
AcDbEntity
  8
ALL_ASSEMBLY_MEMBERS
100
AcDbLine
 62
7
  6
CONTINUOUS
 10
6.6447444705
 20
5.5867262281
 11
6.6450599565
 21
5.5869689659
  0
LINE
  5
2C0
100
AcDbEntity
  8
ALL_ASSEMBLY_MEMBERS
100
AcDbLine
 62
7
  6
CONTINUOUS
 10
3.6564252784
 20
5.5695259399
 11
3.6424342296
 21
5.5765080643
  0
LINE
  5
2C1
100
AcDbEntity
  8
ALL_ASSEMBLY_MEMBERS
100
AcDbLine
 62
7
  6
CONTINUOUS
 10
3.6760288424
 20
5.5611911715
 11
3.6592691345
 21
5.5723703931
  0
LINE
  5
2C2
100
AcDbEntity
  8
ALL_ASSEMBLY_MEMBERS
100
AcDbLine
 62
7
  6
CONTINUOUS
 10
2.6988015767
 20
6.5267773494
 11
2.6999313413
 21
6.5260190331
  0
LINE
  5
2C3
100
AcDbEntity
  8
ALL_ASSEMBLY_MEMBERS
100
AcDbLine
 62
7
  6
CONTINUOUS
 10
2.6831721396
 20
6.5371977946
 11
2.6840541833
 21
6.5366045622
  0
LINE
  5
2C4
100
AcDbEntity
  8
ALL_ASSEMBLY_MEMBERS
100
AcDbLine
 62
7
  6
CONTINUOUS
 10
2.7069082383
 20
6.5119244175
 11
2.7133257012
 21
6.5069350854
  0
LWPOLYLINE
  5
2C5
100
AcDbEntity
  8
ALL_ASSEMBLY_MEMBERS
100
AcDbPolyline
 62
7
  6
CONTINUOUS
 90
4
 70
0
 10
2.7083347369
 20
6.5108263652
 10
2.7103060882
 20
6.509265244
 10
2.7116774237
 20
6.5081945998
 10
2.7133257012
 20
6.5069350854
  0
LWPOLYLINE
  5
2C6
100
AcDbEntity
  8
ALL_ASSEMBLY_MEMBERS
100
AcDbPolyline
 62
7
  6
CONTINUOUS
 90
4
 70
0
 10
2.7069075824
 20
6.5119346318
 10
2.7069871545
 20
6.5118709505
 10
2.707248606
 20
6.5116605867
 10
2.7083347369
 20
6.5108263652
  0
LINE
  5
2C7
100
AcDbEntity
  8
ALL_ASSEMBLY_MEMBERS
100
AcDbLine
 62
7
  6
CONTINUOUS
 10
5.5821001553
 20
3.1694558875
 11
5.5821001553
 21
3.1303413009
  0
LINE
  5
2C8
100
AcDbEntity
  8
ALL_ASSEMBLY_MEMBERS
100
AcDbLine
 62
7
  6
CONTINUOUS
 10
5.6471001553
 20
2.3497048177
 11
5.6471001553
 21
4.1049065289
  0
LINE
  5
2C9
100
AcDbEntity
  8
ALL_ASSEMBLY_MEMBERS
100
AcDbLine
 62
7
  6
CONTINUOUS
 10
6.8090701722
 20
6.1116265876
 11
6.8546126487
 21
6.1844945499
  0
LINE
  5
2CA
100
AcDbEntity
  8
ALL_ASSEMBLY_MEMBERS
100
AcDbLine
 62
7
  6
CONTINUOUS
 10
6.8089218535
 20
6.0962012393
 11
6.8516167957
 21
6.1645131467
  0
LINE
  5
2CB
100
AcDbEntity
  8
ALL_ASSEMBLY_MEMBERS
100
AcDbLine
 62
7
  6
CONTINUOUS
 10
6.6543698036
 20
5.5765026379
 11
6.6593592095
 21
5.5829200339
  0
LWPOLYLINE
  5
2CC
100
AcDbEntity
  8
ALL_ASSEMBLY_MEMBERS
100
AcDbPolyline
 62
7
  6
CONTINUOUS
 90
4
 70
0
 10
6.6554677698
 20
5.5779291213
 10
6.657028944
 20
5.5799004545
 10
6.6580996348
 20
5.5812717753
 10
6.6593592095
 20
5.5829200339
  0
LWPOLYLINE
  5
2CD
100
AcDbEntity
  8
ALL_ASSEMBLY_MEMBERS
100
AcDbPolyline
 62
7
  6
CONTINUOUS
 90
3
 70
0
 10
6.6543595661
 20
5.5765019821
 10
6.6546335504
 20
5.5768429998
 10
6.6554677698
 20
5.5779291213
  0
LINE
  5
2CE
100
AcDbEntity
  8
ALL_ASSEMBLY_MEMBERS
100
AcDbLine
 62
7
  6
CONTINUOUS
 10
7.6917866533
 20
6.6157180803
 11
7.6910147263
 21
6.614943783
  0
LINE
  5
2CF
100
AcDbEntity
  8
ALL_ASSEMBLY_MEMBERS
100
AcDbLine
 62
7
  6
CONTINUOUS
 10
7.6917866533
 20
6.6157180803
 11
7.6910128503
 21
6.614941847
  0
LINE
  5
2D0
100
AcDbEntity
  8
ALL_ASSEMBLY_MEMBERS
100
AcDbLine
 62
7
  6
CONTINUOUS
 10
2.6831721396
 20
6.5371977946
 11
2.6999313413
 21
6.5260190331
  0
LINE
  5
2D1
100
AcDbEntity
  8
ALL_ASSEMBLY_MEMBERS
100
AcDbLine
 62
7
  6
CONTINUOUS
 10
6.6374315259
 20
5.5723693388
 11
6.6444135401
 21
5.5863602779
  0
LINE
  5
2D2
100
AcDbEntity
  8
ALL_ASSEMBLY_MEMBERS
100
AcDbLine
 62
7
  6
CONTINUOUS
 10
6.6290966803
 20
5.5527655333
 11
6.6402760974
 21
5.5695254493
  0
LINE
  5
2D3
100
AcDbEntity
  8
ALL_ASSEMBLY_MEMBERS
100
AcDbLine
 62
7
  6
CONTINUOUS
 10
7.5798296919
 20
6.5218859024
 11
7.5748402517
 21
6.5154684353
  0
LWPOLYLINE
  5
2D4
100
AcDbEntity
  8
ALL_ASSEMBLY_MEMBERS
100
AcDbPolyline
 62
7
  6
CONTINUOUS
 90
4
 70
0
 10
7.5787314765
 20
6.5204593861
 10
7.5771703584
 20
6.5184880341
 10
7.5760997342
 20
6.5171167036
 10
7.5748402517
 20
6.5154684353
  0
LWPOLYLINE
  5
2D5
100
AcDbEntity
  8
ALL_ASSEMBLY_MEMBERS
100
AcDbPolyline
 62
7
  6
CONTINUOUS
 90
3
 70
0
 10
7.5798398797
 20
6.5218865583
 10
7.5795657441
 20
6.5215455245
 10
7.5787314765
 20
6.5204593861
  0
LINE
  5
2D6
100
AcDbEntity
  8
ALL_ASSEMBLY_MEMBERS
100
AcDbLine
 62
7
  6
CONTINUOUS
 10
2.7027753467
 20
6.5288631481
 11
2.7167664068
 21
6.5218808476
  0
LINE
  5
2D7
100
AcDbEntity
  8
ALL_ASSEMBLY_MEMBERS
100
AcDbLine
 62
7
  6
CONTINUOUS
 10
7.6051039168
 20
6.5456232244
 11
7.5939246605
 21
6.5288635246
  0
LWPOLYLINE
  5
2D8
100
AcDbEntity
  8
ALL_ASSEMBLY_MEMBERS
100
AcDbPolyline
 62
7
  6
CONTINUOUS
 90
26
 70
0
 10
8.5728693124
 20
5.8621699271
 10
8.5731870427
 20
5.8621914849
 10
8.5735209711
 20
5.8622249871
 10
8.5738653673
 20
5.8622713661
 10
8.5742256313
 20
5.8623329554
 10
8.5745935133
 20
5.8624099268
 10
8.5749657501
 20
5.8625026512
 10
8.5753441735
 20
5.8626126773
 10
8.5757279734
 20
5.8627410737
 10
8.5761170664
 20
5.8628892417
 10
8.5765093518
 20
5.863057872
 10
8.5769009473
 20
5.8632465732
 10
8.5772909318
 20
5.8634560384
 10
8.5776778007
 20
5.8636866431
 10
8.5780570955
 20
5.8639366401
 10
8.5784272051
 20
5.8642055475
 10
8.5787876167
 20
5.8644935963
 10
8.5791359082
 20
5.8647993817
 10
8.5794704793
 20
5.8651218009
 10
8.5797911242
 20
5.8654609726
 10
8.5800975789
 20
5.8658171508
 10
8.580389174
 20
5.8661902952
 10
8.5806645236
 20
5.8665794189
 10
8.5809222796
 20
5.8669833044
 10
8.5811615569
 20
5.8674012162
 10
8.5812525382
 20
5.8675733682
  0
LWPOLYLINE
  5
2D9
100
AcDbEntity
  8
ALL_ASSEMBLY_MEMBERS
100
AcDbPolyline
 62
7
  6
CONTINUOUS
 90
15
 70
0
 10
7.5798299627
 20
5.5765031216
 10
7.5806691116
 20
5.576541563
 10
7.5818002658
 20
5.5767067097
 10
7.5829051776
 20
5.5769998649
 10
7.5839694035
 20
5.577417195
 10
7.5849790369
 20
5.5779532441
 10
7.585920885
 20
5.5786010053
 10
7.586782638
 20
5.5793520087
 10
7.5875530359
 20
5.5801964361
 10
7.5882220164
 20
5.5811232518
 10
7.5887808421
 20
5.5821203457
 10
7.5892222135
 20
5.5831746875
 10
7.5895403659
 20
5.5842724995
 10
7.589731145
 20
5.5853994384
 10
7.5897920647
 20
5.5864646142
  0
LWPOLYLINE
  5
2DA
100
AcDbEntity
  8
ALL_ASSEMBLY_MEMBERS
100
AcDbPolyline
 62
7
  6
CONTINUOUS
 90
15
 70
0
 10
3.6423293304
 20
5.5765028637
 10
3.6431678759
 20
5.5765412395
 10
3.644299138
 20
5.5767063215
 10
3.6454041607
 20
5.5769994364
 10
3.6464684968
 20
5.5774167505
 10
3.6474782357
 20
5.577952807
 10
3.6484201807
 20
5.5786005975
 10
3.6492820187
 20
5.5793516503
 10
3.6500524864
 20
5.5801961448
 10
3.6507215187
 20
5.5811230423
 10
3.651280376
 20
5.5821202293
 10
3.6517217569
 20
5.583174672
 10
3.6520398954
 20
5.5842725886
 10
3.6522306368
 20
5.5853996318
 10
3.6522914975
 20
5.5864642777
  0
LWPOLYLINE
  5
2DB
100
AcDbEntity
  8
ALL_ASSEMBLY_MEMBERS
100
AcDbPolyline
 62
7
  6
CONTINUOUS
 90
10
 70
0
 10
2.7168705223
 20
5.5765025249
 10
2.8172727845
 20
5.5761555635
 10
2.9211245878
 20
5.5758665402
 10
3.0248872633
 20
5.57566226
 10
3.1285595643
 20
5.575556829
 10
3.2321415716
 20
5.5755607184
 10
3.33563438
 20
5.5756684713
 10
3.4390375673
 20
5.5758702248
 10
3.5423494301
 20
5.5761558641
 10
3.642329353
 20
5.5765011169
  0
LWPOLYLINE
  5
2DC
100
AcDbEntity
  8
ALL_ASSEMBLY_MEMBERS
100
AcDbPolyline
 62
7
  6
CONTINUOUS
 90
10
 70
0
 10
6.6543697073
 20
5.5765019439
 10
6.7546017093
 20
5.5761541194
 10
6.8583256413
 20
5.5758658851
 10
6.9620032975
 20
5.5756654764
 10
7.0656336216
 20
5.5755641771
 10
7.169216065
 20
5.5755639743
 10
7.2727515072
 20
5.5756653584
 10
7.3762395228
 20
5.5758660718
 10
7.4796791565
 20
5.5761537594
 10
7.5798299878
 20
5.5765015381
  0
LINE
  5
2DD
100
AcDbEntity
  8
ALL_ASSEMBLY_MEMBERS
100
AcDbLine
 62
7
  6
CONTINUOUS
 10
7.5967689662
 20
6.5260198824
 11
7.5897864496
 21
6.5120279592
  0
LINE
  5
2DE
100
AcDbEntity
  8
ALL_ASSEMBLY_MEMBERS
100
AcDbLine
 62
7
  6
CONTINUOUS
 10
8.5717983391
 20
5.8621157135
 11
8.5727892083
 21
5.8621660608
  0
LINE
  5
2DF
100
AcDbEntity
  8
ALL_ASSEMBLY_MEMBERS
100
AcDbLine
 62
7
  6
CONTINUOUS
 10
8.5727892083
 20
5.8621660608
 11
8.5728693124
 21
5.8621699271
  0
LWPOLYLINE
  5
2E0
100
AcDbEntity
  8
ALL_ASSEMBLY_MEMBERS
100
AcDbPolyline
 62
7
  6
CONTINUOUS
 90
7
 70
0
 10
8.5623121148
 20
5.86166905
 10
8.5638158513
 20
5.8617197997
 10
8.5652763441
 20
5.8617772782
 10
8.5667000328
 20
5.861840081
 10
8.5680791305
 20
5.8619069945
 10
8.5693916816
 20
5.8619766994
 10
8.5717983391
 20
5.8621157135
  0
LINE
  5
2E1
100
AcDbEntity
  8
ALL_ASSEMBLY_MEMBERS
100
AcDbLine
 62
7
  6
CONTINUOUS
 10
8.5608714484
 20
5.8616304191
 11
8.5623121148
 21
5.86166905
  0
LINE
  5
2E2
100
AcDbEntity
  8
ALL_ASSEMBLY_MEMBERS
100
AcDbLine
 62
7
  6
CONTINUOUS
 10
8.5608088014
 20
5.8616291764
 11
8.5608693336
 21
5.8616303716
  0
LWPOLYLINE
  5
2E3
100
AcDbEntity
  8
ALL_ASSEMBLY_MEMBERS
100
AcDbPolyline
 62
7
  6
CONTINUOUS
 90
13
 70
0
 10
1.7375504162
 20
5.8616321152
 10
1.8199256858
 20
5.863028912
 10
1.9071204652
 20
5.8656928675
 10
1.9962400981
 20
5.8694416117
 10
2.0872567465
 20
5.874084477
 10
2.1801529257
 20
5.879398402
 10
2.2749215259
 20
5.8851272759
 10
2.3715603992
 20
5.8909806222
 10
2.4700699371
 20
5.8966282407
 10
2.5704540072
 20
5.9016995305
 10
2.6727123773
 20
5.9057843019
 10
2.776833481
 20
5.9084366593
 10
2.8761486156
 20
5.9092047891
  0
LINE
  5
2E4
100
AcDbEntity
  8
ALL_ASSEMBLY_MEMBERS
100
AcDbLine
 62
7
  6
CONTINUOUS
 10
8.5607019054
 20
5.86162779
 11
8.5608088014
 21
5.8616291764
  0
LINE
  5
2E5
100
AcDbEntity
  8
ALL_ASSEMBLY_MEMBERS
100
AcDbLine
 62
7
  6
CONTINUOUS
 10
8.560481076
 20
5.8616277939
 11
8.5608693336
 21
5.8616303716
  0
LINE
  5
2E6
100
AcDbEntity
  8
ALL_ASSEMBLY_MEMBERS
100
AcDbLine
 62
7
  6
CONTINUOUS
 10
1.7365280727
 20
5.8616274157
 11
1.7375484189
 21
5.8616321018
  0
LINE
  5
2E7
100
AcDbEntity
  8
ALL_ASSEMBLY_MEMBERS
100
AcDbLine
 62
7
  6
CONTINUOUS
 10
1.7375484066
 20
5.8616321016
 11
1.7361571442
 21
5.8616284029
  0
LINE
  5
2E8
100
AcDbEntity
  8
ALL_ASSEMBLY_MEMBERS
100
AcDbLine
 62
7
  6
CONTINUOUS
 10
8.5590982401
 20
5.8820276157
 11
8.569358019
 21
5.8820411829
  0
LINE
  5
2E9
100
AcDbEntity
  8
ALL_ASSEMBLY_MEMBERS
100
AcDbLine
 62
7
  6
CONTINUOUS
 10
8.5606225431
 20
5.8616272447
 11
8.560280039
 21
5.8616274594
  0
LINE
  5
2EA
100
AcDbEntity
  8
ALL_ASSEMBLY_MEMBERS
100
AcDbLine
 62
7
  6
CONTINUOUS
 10
7.4181413264
 20
5.9091993696
 11
6.8630926317
 21
5.9091945605
  0
LINE
  5
2EB
100
AcDbEntity
  8
ALL_ASSEMBLY_MEMBERS
100
AcDbLine
 62
7
  6
CONTINUOUS
 10
2.8715097828
 20
5.9091689111
 11
2.8815046581
 21
5.9091945605
  0
LINE
  5
2EC
100
AcDbEntity
  8
ALL_ASSEMBLY_MEMBERS
100
AcDbLine
 62
7
  6
CONTINUOUS
 10
7.416350176
 20
5.91919661
 11
6.8632130962
 21
5.9191945605
  0
LINE
  5
2ED
100
AcDbEntity
  8
ALL_ASSEMBLY_MEMBERS
100
AcDbLine
 62
7
  6
CONTINUOUS
 10
1.7376020704
 20
5.8820276157
 11
1.7273422916
 21
5.8820411829
  0
LINE
  5
2EE
100
AcDbEntity
  8
ALL_ASSEMBLY_MEMBERS
100
AcDbLine
 62
7
  6
CONTINUOUS
 10
3.4336076789
 20
5.9091945605
 11
2.8795315132
 21
5.9091968412
  0
LINE
  5
2EF
100
AcDbEntity
  8
ALL_ASSEMBLY_MEMBERS
100
AcDbLine
 62
7
  6
CONTINUOUS
 10
2.8803501553
 20
5.9091945605
 11
2.8761481898
 21
5.9092047961
  0
LINE
  5
2F0
100
AcDbEntity
  8
ALL_ASSEMBLY_MEMBERS
100
AcDbLine
 62
7
  6
CONTINUOUS
 10
3.4334872146
 20
5.9191945605
 11
2.8803501086
 21
5.9191966101
  0
LINE
  5
2F1
100
AcDbEntity
  8
ALL_ASSEMBLY_MEMBERS
100
AcDbLine
 62
7
  6
CONTINUOUS
 10
7.4172523567
 20
5.9091920713
 11
7.4198419042
 21
5.9091849268
  0
LWPOLYLINE
  5
2F2
100
AcDbEntity
  8
ALL_ASSEMBLY_MEMBERS
100
AcDbPolyline
 62
7
  6
CONTINUOUS
 90
3
 70
0
 10
1.7362616637
 20
5.861627486
 10
1.7361953617
 20
5.8616278149
 10
1.7361571442
 20
5.8616284029
  0
LINE
  5
2F3
100
AcDbEntity
  8
ALL_ASSEMBLY_MEMBERS
100
AcDbLine
 62
7
  6
CONTINUOUS
 10
8.5593747618
 20
5.8616309568
 11
8.559151904
 21
5.8616321016
  0
LWPOLYLINE
  5
2F4
100
AcDbEntity
  8
ALL_ASSEMBLY_MEMBERS
100
AcDbPolyline
 62
7
  6
CONTINUOUS
 90
3
 70
0
 10
8.5591927874
 20
5.8616317962
 10
8.5592917319
 20
5.8616312801
 10
8.5605431664
 20
5.8616284029
  0
LINE
  5
2F5
100
AcDbEntity
  8
ALL_ASSEMBLY_MEMBERS
100
AcDbLine
 62
7
  6
CONTINUOUS
 10
8.559379056
 20
5.8616309151
 11
8.559151904
 21
5.8616321016
  0
LINE
  5
2F6
100
AcDbEntity
  8
ALL_ASSEMBLY_MEMBERS
100
AcDbLine
 62
7
  6
CONTINUOUS
 10
1.73617094
 20
5.8616269586
 11
1.7358334494
 21
5.8616303166
  0
LINE
  5
2F7
100
AcDbEntity
  8
ALL_ASSEMBLY_MEMBERS
100
AcDbLine
 62
7
  6
CONTINUOUS
 10
1.7359639677
 20
5.8616281444
 11
1.7360730341
 21
5.8616272683
  0
LWPOLYLINE
  5
2F8
100
AcDbEntity
  8
ALL_ASSEMBLY_MEMBERS
100
AcDbPolyline
 62
7
  6
CONTINUOUS
 90
3
 70
0
 10
1.7358334494
 20
5.8616303166
 10
1.7358644309
 20
5.8616296719
 10
1.7359639677
 20
5.8616281444
  0
LWPOLYLINE
  5
2F9
100
AcDbEntity
  8
ALL_ASSEMBLY_MEMBERS
100
AcDbPolyline
 62
7
  6
CONTINUOUS
 90
3
 70
0
 10
1.7239106303
 20
5.8621660818
 10
1.7249106686
 20
5.8621152303
 10
1.7273182068
 20
5.8619761695
  0
LWPOLYLINE
  5
2FA
100
AcDbEntity
  8
ALL_ASSEMBLY_MEMBERS
100
AcDbPolyline
 62
7
  6
CONTINUOUS
 90
7
 70
0
 10
1.7273182068
 20
5.8619761695
 10
1.7286308055
 20
5.8619065059
 10
1.7300097606
 20
5.8618396416
 10
1.7314333548
 20
5.8617768856
 10
1.7328938792
 20
5.8617194536
 10
1.73439769
 20
5.8616687607
 10
1.7358290156
 20
5.8616304156
  0
LWPOLYLINE
  5
2FB
100
AcDbEntity
  8
ALL_ASSEMBLY_MEMBERS
100
AcDbPolyline
 62
7
  6
CONTINUOUS
 90
15
 70
0
 10
6.6444083434
 20
5.5864649213
 10
6.6444467679
 20
5.5856258165
 10
6.6446118941
 20
5.5844946478
 10
6.6449050316
 20
5.5833897197
 10
6.6453223468
 20
5.5823254759
 10
6.6458583841
 20
5.5813158236
 10
6.6465061365
 20
5.5803739559
 10
6.6472571343
 20
5.5795121831
 10
6.6481015589
 20
5.5787417656
 10
6.6490283748
 20
5.5780727661
 10
6.6500254714
 20
5.5775139225
 10
6.6510798183
 20
5.5770725345
 10
6.6521776374
 20
5.5767543672
 10
6.6533045851
 20
5.5765635751
 10
6.6543697147
 20
5.5765026453
  0
LINE
  5
2FC
100
AcDbEntity
  8
ALL_ASSEMBLY_MEMBERS
100
AcDbLine
 62
7
  6
CONTINUOUS
 10
6.8075501553
 20
5.9920625228
 11
6.8075501553
 21
6.1063265982
  0
LINE
  5
2FD
100
AcDbEntity
  8
ALL_ASSEMBLY_MEMBERS
100
AcDbLine
 62
7
  6
CONTINUOUS
 10
6.8089218535
 20
6.0021878817
 11
6.8089218535
 21
6.0962012393
  0
LWPOLYLINE
  5
2FE
100
AcDbEntity
  8
ALL_ASSEMBLY_MEMBERS
100
AcDbPolyline
 62
7
  6
CONTINUOUS
 90
10
 70
0
 10
6.6444081118
 20
6.5119248508
 10
6.6440611549
 20
6.4115229393
 10
6.6437721362
 20
6.3076712994
 10
6.6435678579
 20
6.2039086864
 10
6.643462424
 20
6.1002363473
 10
6.6434663095
 20
5.9966542017
 10
6.6435740617
 20
5.8931611544
 10
6.6437758151
 20
5.7897576276
 10
6.644061453
 20
5.6864453243
 10
6.6444067043
 20
5.5864648967
  0
LWPOLYLINE
  5
2FF
100
AcDbEntity
  8
ALL_ASSEMBLY_MEMBERS
100
AcDbPolyline
 62
7
  6
CONTINUOUS
 90
13
 70
0
 10
8.5591498943
 20
6.2367570058
 10
8.4767746247
 20
6.235360209
 10
8.3895798454
 20
6.2326962535
 10
8.3004602124
 20
6.2289475093
 10
8.2094435641
 20
6.224304644
 10
8.1165473849
 20
6.218990719
 10
8.0217787847
 20
6.2132618451
 10
7.9251399114
 20
6.2074084988
 10
7.8266303735
 20
6.2017608803
 10
7.7262463033
 20
6.1966895905
 10
7.6239879333
 20
6.1926048191
 10
7.5198668296
 20
6.1899524617
 10
7.420551695
 20
6.1891843319
  0
LINE
  5
300
100
AcDbEntity
  8
ALL_ASSEMBLY_MEMBERS
100
AcDbLine
 62
7
  6
CONTINUOUS
 10
6.8598459098
 20
5.9338759743
 11
6.8516167957
 21
5.9338759743
  0
LINE
  5
301
100
AcDbEntity
  8
ALL_ASSEMBLY_MEMBERS
100
AcDbLine
 62
7
  6
CONTINUOUS
 10
3.4368544008
 20
5.9338759743
 11
3.4450835149
 21
5.9338759743
  0
LINE
  5
302
100
AcDbEntity
  8
ALL_ASSEMBLY_MEMBERS
100
AcDbLine
 62
7
  6
CONTINUOUS
 10
1.6551583745
 20
5.9844427566
 11
1.6585805168
 21
5.9844427566
  0
LINE
  5
303
100
AcDbEntity
  8
ALL_ASSEMBLY_MEMBERS
100
AcDbLine
 62
7
  6
CONTINUOUS
 10
8.6381197938
 20
5.9844427566
 11
8.6415419361
 21
5.9844427566
  0
LINE
  5
304
100
AcDbEntity
  8
ALL_ASSEMBLY_MEMBERS
100
AcDbLine
 62
7
  6
CONTINUOUS
 10
1.6539195879
 20
5.9892649675
 11
1.6573417302
 21
5.9892649675
  0
LINE
  5
305
100
AcDbEntity
  8
ALL_ASSEMBLY_MEMBERS
100
AcDbLine
 62
7
  6
CONTINUOUS
 10
8.6393585804
 20
5.9892649675
 11
8.6427807227
 21
5.9892649675
  0
LINE
  5
306
100
AcDbEntity
  8
ALL_ASSEMBLY_MEMBERS
100
AcDbLine
 62
7
  6
CONTINUOUS
 10
8.6390304063
 20
5.9989093892
 11
8.6376275326
 21
5.9989093892
  0
LINE
  5
307
100
AcDbEntity
  8
ALL_ASSEMBLY_MEMBERS
100
AcDbLine
 62
7
  6
CONTINUOUS
 10
1.6576699043
 20
5.9989093892
 11
1.659072778
 21
5.9989093892
  0
LINE
  5
308
100
AcDbEntity
  8
ALL_ASSEMBLY_MEMBERS
100
AcDbLine
 62
7
  6
CONTINUOUS
 10
8.6431088968
 20
5.9989093892
 11
8.6431146878
 21
5.9989093892
  0
LINE
  5
309
100
AcDbEntity
  8
ALL_ASSEMBLY_MEMBERS
100
AcDbLine
 62
7
  6
CONTINUOUS
 10
1.6535914137
 20
5.9989093892
 11
1.6535856228
 21
5.9989093891
  0
LINE
  5
30A
100
AcDbEntity
  8
ALL_ASSEMBLY_MEMBERS
100
AcDbLine
 62
7
  6
CONTINUOUS
 10
3.4891501553
 20
6.0021878817
 11
3.487778457
 21
6.0021878817
  0
LINE
  5
30B
100
AcDbEntity
  8
ALL_ASSEMBLY_MEMBERS
100
AcDbLine
 62
7
  6
CONTINUOUS
 10
6.8075501553
 20
6.0021878817
 11
6.8089218535
 21
6.0021878817
  0
LINE
  5
30C
100
AcDbEntity
  8
ALL_ASSEMBLY_MEMBERS
100
AcDbLine
 62
7
  6
CONTINUOUS
 10
1.7273212545
 20
6.0491945605
 11
2.8803501553
 21
6.0491945605
  0
LINE
  5
30D
100
AcDbEntity
  8
ALL_ASSEMBLY_MEMBERS
100
AcDbLine
 62
7
  6
CONTINUOUS
 10
7.4163501553
 20
6.0491945605
 11
8.5693790561
 21
6.0491945605
  0
LINE
  5
30E
100
AcDbEntity
  8
ALL_ASSEMBLY_MEMBERS
100
AcDbLine
 62
7
  6
CONTINUOUS
 10
3.4891501553
 20
6.0962012393
 11
3.487778457
 21
6.0962012393
  0
LINE
  5
30F
100
AcDbEntity
  8
ALL_ASSEMBLY_MEMBERS
100
AcDbLine
 62
7
  6
CONTINUOUS
 10
6.8075501553
 20
6.0962012393
 11
6.8089218535
 21
6.0962012393
  0
LINE
  5
310
100
AcDbEntity
  8
ALL_ASSEMBLY_MEMBERS
100
AcDbLine
 62
7
  6
CONTINUOUS
 10
8.6431088968
 20
6.0994797318
 11
8.6431146878
 21
6.0994797319
  0
LINE
  5
311
100
AcDbEntity
  8
ALL_ASSEMBLY_MEMBERS
100
AcDbLine
 62
7
  6
CONTINUOUS
 10
8.6390304063
 20
6.0994797318
 11
8.6376275326
 21
6.0994797318
  0
LINE
  5
312
100
AcDbEntity
  8
ALL_ASSEMBLY_MEMBERS
100
AcDbLine
 62
7
  6
CONTINUOUS
 10
1.6535914137
 20
6.0994797318
 11
1.6535856228
 21
6.0994797318
  0
LINE
  5
313
100
AcDbEntity
  8
ALL_ASSEMBLY_MEMBERS
100
AcDbLine
 62
7
  6
CONTINUOUS
 10
1.6576699043
 20
6.0994797318
 11
1.659072778
 21
6.0994797318
  0
LINE
  5
314
100
AcDbEntity
  8
ALL_ASSEMBLY_MEMBERS
100
AcDbLine
 62
7
  6
CONTINUOUS
 10
8.6427807227
 20
6.1091241535
 11
8.6393585804
 21
6.1091241535
  0
LINE
  5
315
100
AcDbEntity
  8
ALL_ASSEMBLY_MEMBERS
100
AcDbLine
 62
7
  6
CONTINUOUS
 10
1.6573417302
 20
6.1091241535
 11
1.6539195879
 21
6.1091241535
  0
LINE
  5
316
100
AcDbEntity
  8
ALL_ASSEMBLY_MEMBERS
100
AcDbLine
 62
7
  6
CONTINUOUS
 10
8.6415419361
 20
6.1139463644
 11
8.6381197938
 21
6.1139463644
  0
LINE
  5
317
100
AcDbEntity
  8
ALL_ASSEMBLY_MEMBERS
100
AcDbLine
 62
7
  6
CONTINUOUS
 10
1.6585805168
 20
6.1139463644
 11
1.6551583745
 21
6.1139463644
  0
LINE
  5
318
100
AcDbEntity
  8
ALL_ASSEMBLY_MEMBERS
100
AcDbLine
 62
7
  6
CONTINUOUS
 10
6.8598459098
 20
6.1645131467
 11
6.8516167957
 21
6.1645131467
  0
LINE
  5
319
100
AcDbEntity
  8
ALL_ASSEMBLY_MEMBERS
100
AcDbLine
 62
7
  6
CONTINUOUS
 10
3.4368544008
 20
6.1645131467
 11
3.4450835149
 21
6.1645131467
  0
LINE
  5
31A
100
AcDbEntity
  8
ALL_ASSEMBLY_MEMBERS
100
AcDbLine
 62
7
  6
CONTINUOUS
 10
2.8803501346
 20
6.179192511
 11
3.4334872144
 21
6.1791945605
  0
LINE
  5
31B
100
AcDbEntity
  8
ALL_ASSEMBLY_MEMBERS
100
AcDbLine
 62
7
  6
CONTINUOUS
 10
7.4251905277
 20
6.1892202099
 11
7.4151956524
 21
6.1891945605
  0
LINE
  5
31C
100
AcDbEntity
  8
ALL_ASSEMBLY_MEMBERS
100
AcDbLine
 62
7
  6
CONTINUOUS
 10
2.8785589841
 20
6.1891897514
 11
3.4336076827
 21
6.1891945605
  0
LINE
  5
31D
100
AcDbEntity
  8
ALL_ASSEMBLY_MEMBERS
100
AcDbLine
 62
7
  6
CONTINUOUS
 10
2.8794479539
 20
6.1891970497
 11
2.8768584063
 21
6.1892041942
  0
LINE
  5
31E
100
AcDbEntity
  8
ALL_ASSEMBLY_MEMBERS
100
AcDbLine
 62
7
  6
CONTINUOUS
 10
6.8632130959
 20
6.1791945605
 11
7.416350202
 21
6.1791925109
  0
LINE
  5
31F
100
AcDbEntity
  8
ALL_ASSEMBLY_MEMBERS
100
AcDbLine
 62
7
  6
CONTINUOUS
 10
6.8630926252
 20
6.1891945605
 11
7.4171687514
 21
6.1891922801
  0
LINE
  5
320
100
AcDbEntity
  8
ALL_ASSEMBLY_MEMBERS
100
AcDbLine
 62
7
  6
CONTINUOUS
 10
7.416350118
 20
6.1891945606
 11
7.4205521208
 21
6.1891843249
  0
LWPOLYLINE
  5
321
100
AcDbEntity
  8
ALL_ASSEMBLY_MEMBERS
100
AcDbPolyline
 62
7
  6
CONTINUOUS
 90
13
 70
0
 10
7.4181412009
 20
5.9091993679
 10
7.5201460735
 20
5.9084318844
 10
7.6242827346
 20
5.9057744273
 10
7.7265528577
 20
5.901685457
 10
7.8269452881
 20
5.8966110602
 10
7.9254597218
 20
5.8909615773
 10
8.0221000672
 20
5.8851076754
 10
8.1168667493
 20
5.8793794524
 10
8.2097575539
 20
5.8740673356
 10
8.3007654684
 20
5.8694272963
 10
8.3898726307
 20
5.8656821153
 10
8.4770516752
 20
5.8630223145
 10
8.5591498971
 20
5.8616321084
  0
LWPOLYLINE
  5
322
100
AcDbEntity
  8
ALL_ASSEMBLY_MEMBERS
100
AcDbPolyline
 62
7
  6
CONTINUOUS
 90
13
 70
0
 10
2.8785591096
 20
6.1891897531
 10
2.7765542371
 20
6.1899572366
 10
2.672417576
 20
6.1926146937
 10
2.5701474529
 20
6.196703664
 10
2.4697550224
 20
6.2017780608
 10
2.3712405888
 20
6.2074275437
 10
2.2746002433
 20
6.2132814456
 10
2.1798335612
 20
6.2190096686
 10
2.0869427567
 20
6.2243217854
 10
1.9959348422
 20
6.2289618247
 10
1.9068276799
 20
6.2327070057
 10
1.8196486353
 20
6.2353668065
 10
1.7375504135
 20
6.2367570126
  0
LINE
  5
323
100
AcDbEntity
  8
ALL_ASSEMBLY_MEMBERS
100
AcDbLine
 62
7
  6
CONTINUOUS
 10
6.8516167957
 20
6.1645131467
 11
6.8516167957
 21
5.9338759743
  0
LINE
  5
324
100
AcDbEntity
  8
ALL_ASSEMBLY_MEMBERS
100
AcDbLine
 62
7
  6
CONTINUOUS
 10
6.8598459098
 20
6.1645131467
 11
6.8598459098
 21
5.9338759743
  0
LWPOLYLINE
  5
325
100
AcDbEntity
  8
ALL_ASSEMBLY_MEMBERS
100
AcDbPolyline
 62
7
  6
CONTINUOUS
 90
26
 70
0
 10
1.7238309982
 20
6.2362191939
 10
1.7235132679
 20
6.2361976361
 10
1.7231793394
 20
6.2361641339
 10
1.7228349433
 20
6.2361177549
 10
1.7224746793
 20
6.2360561657
 10
1.7221067973
 20
6.2359791942
 10
1.7217345604
 20
6.2358864698
 10
1.7213561371
 20
6.2357764437
 10
1.7209723371
 20
6.2356480473
 10
1.7205832442
 20
6.2354998793
 10
1.7201909588
 20
6.235331249
 10
1.7197993633
 20
6.2351425478
 10
1.7194093787
 20
6.2349330826
 10
1.7190225099
 20
6.2347024779
 10
1.7186432151
 20
6.2344524809
 10
1.7182731054
 20
6.2341835735
 10
1.7179126939
 20
6.2338955247
 10
1.7175644023
 20
6.2335897393
 10
1.7172298312
 20
6.2332673201
 10
1.7169091863
 20
6.2329281484
 10
1.7166027317
 20
6.2325719702
 10
1.7163111366
 20
6.2321988258
 10
1.716035787
 20
6.2318097021
 10
1.715778031
 20
6.2314058166
 10
1.7155387536
 20
6.2309879048
 10
1.7154477724
 20
6.2308157528
  0
LINE
  5
326
100
AcDbEntity
  8
ALL_ASSEMBLY_MEMBERS
100
AcDbLine
 62
7
  6
CONTINUOUS
 10
1.7249019715
 20
6.2362734075
 11
1.7239111023
 21
6.2362230602
  0
LWPOLYLINE
  5
327
100
AcDbEntity
  8
ALL_ASSEMBLY_MEMBERS
100
AcDbPolyline
 62
7
  6
CONTINUOUS
 90
15
 70
0
 10
6.6543709802
 20
6.5218862573
 10
6.6535324347
 20
6.5218478815
 10
6.6524011725
 20
6.5216827995
 10
6.6512961498
 20
6.5213896846
 10
6.6502318137
 20
6.5209723705
 10
6.6492220749
 20
6.520436314
 10
6.6482801299
 20
6.5197885235
 10
6.6474182919
 20
6.5190374707
 10
6.6466478242
 20
6.5181929762
 10
6.6459787918
 20
6.5172660787
 10
6.6454199346
 20
6.5162688917
 10
6.6449785537
 20
6.515214449
 10
6.6446604152
 20
6.5141165325
 10
6.6444696737
 20
6.5129894892
 10
6.6444088131
 20
6.5119248433
  0
LINE
  5
328
100
AcDbEntity
  8
ALL_ASSEMBLY_MEMBERS
100
AcDbLine
 62
7
  6
CONTINUOUS
 10
1.7239111023
 20
6.2362230602
 11
1.7238309982
 21
6.2362191939
  0
LWPOLYLINE
  5
329
100
AcDbEntity
  8
ALL_ASSEMBLY_MEMBERS
100
AcDbPolyline
 62
7
  6
CONTINUOUS
 90
7
 70
0
 10
1.7343881958
 20
6.236720071
 10
1.7328844593
 20
6.2366693213
 10
1.7314239664
 20
6.2366118428
 10
1.7300002778
 20
6.23654904
 10
1.72862118
 20
6.2364821265
 10
1.727308629
 20
6.2364124216
 10
1.7249019715
 20
6.2362734075
  0
LINE
  5
32A
100
AcDbEntity
  8
ALL_ASSEMBLY_MEMBERS
100
AcDbLine
 62
7
  6
CONTINUOUS
 10
1.7358288622
 20
6.2367587019
 11
1.7343881958
 21
6.236720071
  0
LINE
  5
32B
100
AcDbEntity
  8
ALL_ASSEMBLY_MEMBERS
100
AcDbLine
 62
7
  6
CONTINUOUS
 10
1.7358915092
 20
6.2367599447
 11
1.735830977
 21
6.2367587494
  0
LINE
  5
32C
100
AcDbEntity
  8
ALL_ASSEMBLY_MEMBERS
100
AcDbLine
 62
7
  6
CONTINUOUS
 10
1.7359984051
 20
6.236761331
 11
1.7358915092
 21
6.2367599447
  0
LINE
  5
32D
100
AcDbEntity
  8
ALL_ASSEMBLY_MEMBERS
100
AcDbLine
 62
7
  6
CONTINUOUS
 10
1.7362192346
 20
6.2367613271
 11
1.735830977
 21
6.2367587494
  0
LINE
  5
32E
100
AcDbEntity
  8
ALL_ASSEMBLY_MEMBERS
100
AcDbLine
 62
7
  6
CONTINUOUS
 10
8.5593589916
 20
6.236758186
 11
8.5591518916
 21
6.2367570192
  0
LINE
  5
32F
100
AcDbEntity
  8
ALL_ASSEMBLY_MEMBERS
100
AcDbLine
 62
7
  6
CONTINUOUS
 10
8.5591519039
 20
6.2367570194
 11
8.5605431664
 21
6.2367607181
  0
LINE
  5
330
100
AcDbEntity
  8
ALL_ASSEMBLY_MEMBERS
100
AcDbLine
 62
7
  6
CONTINUOUS
 10
8.5600741201
 20
6.2367611792
 11
8.5602232198
 21
6.2367615633
  0
LINE
  5
331
100
AcDbEntity
  8
ALL_ASSEMBLY_MEMBERS
100
AcDbLine
 62
7
  6
CONTINUOUS
 10
1.7376020704
 20
6.2163615053
 11
1.7273422916
 21
6.2163479381
  0
LINE
  5
332
100
AcDbEntity
  8
ALL_ASSEMBLY_MEMBERS
100
AcDbLine
 62
7
  6
CONTINUOUS
 10
1.7360777674
 20
6.2367618763
 11
1.7364202716
 21
6.2367616616
  0
LINE
  5
333
100
AcDbEntity
  8
ALL_ASSEMBLY_MEMBERS
100
AcDbLine
 62
7
  6
CONTINUOUS
 10
8.5590982401
 20
6.2163615053
 11
8.569358019
 21
6.2163479381
  0
LINE
  5
334
100
AcDbEntity
  8
ALL_ASSEMBLY_MEMBERS
100
AcDbLine
 62
7
  6
CONTINUOUS
 10
8.5605940752
 20
6.2367619968
 11
8.5603442719
 21
6.2367617133
  0
LWPOLYLINE
  5
335
100
AcDbEntity
  8
ALL_ASSEMBLY_MEMBERS
100
AcDbPolyline
 62
7
  6
CONTINUOUS
 90
3
 70
0
 10
8.5604386468
 20
6.236761635
 10
8.5605049489
 20
6.2367613061
 10
8.5605431664
 20
6.2367607181
  0
LINE
  5
336
100
AcDbEntity
  8
ALL_ASSEMBLY_MEMBERS
100
AcDbLine
 62
7
  6
CONTINUOUS
 10
1.7361571442
 20
6.2367607181
 11
1.7375484065
 21
6.2367570194
  0
LINE
  5
337
100
AcDbEntity
  8
ALL_ASSEMBLY_MEMBERS
100
AcDbLine
 62
7
  6
CONTINUOUS
 10
1.7373255488
 20
6.2367581642
 11
1.7375484065
 21
6.2367570194
  0
LINE
  5
338
100
AcDbEntity
  8
ALL_ASSEMBLY_MEMBERS
100
AcDbLine
 62
7
  6
CONTINUOUS
 10
1.7374085786
 20
6.2367578409
 11
1.7373039292
 21
6.2367583757
  0
LINE
  5
339
100
AcDbEntity
  8
ALL_ASSEMBLY_MEMBERS
100
AcDbLine
 62
7
  6
CONTINUOUS
 10
8.5605431664
 20
6.2367607181
 11
8.5608668611
 21
6.2367588044
  0
LWPOLYLINE
  5
33A
100
AcDbEntity
  8
ALL_ASSEMBLY_MEMBERS
100
AcDbPolyline
 62
7
  6
CONTINUOUS
 90
3
 70
0
 10
8.5608668611
 20
6.2367588044
 10
8.5608358797
 20
6.2367594491
 10
8.5607363428
 20
6.2367609766
  0
LWPOLYLINE
  5
33B
100
AcDbEntity
  8
ALL_ASSEMBLY_MEMBERS
100
AcDbPolyline
 62
7
  6
CONTINUOUS
 90
3
 70
0
 10
8.5727896803
 20
6.2362230392
 10
8.571789642
 20
6.2362738907
 10
8.5693821037
 20
6.2364129515
  0
LWPOLYLINE
  5
33C
100
AcDbEntity
  8
ALL_ASSEMBLY_MEMBERS
100
AcDbPolyline
 62
7
  6
CONTINUOUS
 90
7
 70
0
 10
8.5693821037
 20
6.2364129515
 10
8.5680695051
 20
6.2364826151
 10
8.56669055
 20
6.2365494794
 10
8.5652669557
 20
6.2366122354
 10
8.5638064313
 20
6.2366696674
 10
8.5623026206
 20
6.2367203603
 10
8.560871295
 20
6.2367587054
  0
LWPOLYLINE
  5
33D
100
AcDbEntity
  8
ALL_ASSEMBLY_MEMBERS
100
AcDbPolyline
 62
7
  6
CONTINUOUS
 90
15
 70
0
 10
2.7168703479
 20
6.5218859994
 10
2.716031199
 20
6.521847558
 10
2.7149000447
 20
6.5216824113
 10
2.7137951329
 20
6.5213892561
 10
2.712730907
 20
6.520971926
 10
2.7117212737
 20
6.5204358769
 10
2.7107794256
 20
6.5197881157
 10
2.7099176726
 20
6.5190371123
 10
2.7091472747
 20
6.5181926849
 10
2.7084782942
 20
6.5172658692
 10
2.7079194685
 20
6.5162687753
 10
2.7074780971
 20
6.5152144335
 10
2.7071599447
 20
6.5141166215
 10
2.7069691656
 20
6.5129896826
 10
2.7069082459
 20
6.5119245068
  0
LWPOLYLINE
  5
33E
100
AcDbEntity
  8
ALL_ASSEMBLY_MEMBERS
100
AcDbPolyline
 62
7
  6
CONTINUOUS
 90
10
 70
0
 10
3.6423306032
 20
6.5218871771
 10
3.5420986012
 20
6.5222350016
 10
3.4383746693
 20
6.5225232359
 10
3.3346970131
 20
6.5227236446
 10
3.231066689
 20
6.5228249439
 10
3.1274842456
 20
6.5228251467
 10
3.0239488033
 20
6.5227237626
 10
2.9204607878
 20
6.5225230493
 10
2.8170211541
 20
6.5222353616
 10
2.7168703228
 20
6.5218875829
  0
LWPOLYLINE
  5
33F
100
AcDbEntity
  8
ALL_ASSEMBLY_MEMBERS
100
AcDbPolyline
 62
7
  6
CONTINUOUS
 90
10
 70
0
 10
7.5798297882
 20
6.5218865961
 10
7.479427526
 20
6.5222335575
 10
7.3755757228
 20
6.5225225808
 10
7.2718130473
 20
6.522726861
 10
7.1681407462
 20
6.522832292
 10
7.064558739
 20
6.5228284026
 10
6.9610659306
 20
6.5227206497
 10
6.8576627433
 20
6.5225188962
 10
6.7543508805
 20
6.5222332569
 10
6.6543709575
 20
6.5218880041
  0
LINE
  5
340
100
AcDbEntity
  8
ALL_ASSEMBLY_MEMBERS
100
AcDbLine
 62
7
  6
CONTINUOUS
 10
7.5939249639
 20
5.5695259729
 11
7.5799345665
 21
5.5765079135
  0
LWPOLYLINE
  5
341
100
AcDbEntity
  8
ALL_ASSEMBLY_MEMBERS
100
AcDbPolyline
 62
7
  6
CONTINUOUS
 90
3
 70
0
 10
7.6050511814
 20
5.5668471693
 10
7.6038469112
 20
5.5676491822
 10
7.6026376994
 20
5.5684544162
  0
LINE
  5
342
100
AcDbEntity
  8
ALL_ASSEMBLY_MEMBERS
100
AcDbLine
 62
7
  6
CONTINUOUS
 10
7.6085495609
 20
5.5645138588
 11
7.6062444404
 21
5.5660488854
  0
LINE
  5
343
100
AcDbEntity
  8
ALL_ASSEMBLY_MEMBERS
100
AcDbLine
 62
7
  6
CONTINUOUS
 10
7.601428048
 20
5.5692633433
 11
7.5990539952
 21
5.5708420363
  0
LINE
  5
344
100
AcDbEntity
  8
ALL_ASSEMBLY_MEMBERS
100
AcDbLine
 62
7
  6
CONTINUOUS
 10
7.5990539952
 20
5.5708420363
 11
7.5978987339
 21
5.5716117716
  0
LINE
  5
345
100
AcDbEntity
  8
ALL_ASSEMBLY_MEMBERS
100
AcDbLine
 62
7
  6
CONTINUOUS
 10
7.6126461273
 20
5.5617845588
 11
7.6096511006
 21
5.5637771516
  0
LINE
  5
346
100
AcDbEntity
  8
ALL_ASSEMBLY_MEMBERS
100
AcDbLine
 62
7
  6
CONTINUOUS
 10
6.8090701722
 20
5.9867625334
 11
6.8546126487
 21
5.9138945711
  0
LINE
  5
347
100
AcDbEntity
  8
ALL_ASSEMBLY_MEMBERS
100
AcDbLine
 62
7
  6
CONTINUOUS
 10
6.8089218535
 20
6.0021878817
 11
6.8516167957
 21
5.9338759743
  0
LINE
  5
348
100
AcDbEntity
  8
ALL_ASSEMBLY_MEMBERS
100
AcDbLine
 62
7
  6
CONTINUOUS
 10
6.6374312577
 20
6.5260194533
 11
6.6444146275
 21
6.5120265559
  0
LWPOLYLINE
  5
349
100
AcDbEntity
  8
ALL_ASSEMBLY_MEMBERS
100
AcDbPolyline
 62
7
  6
CONTINUOUS
 90
8
 70
0
 10
7.6135281698
 20
6.5371981829
 10
7.6137041433
 20
6.4857213662
 10
7.6138669431
 20
6.4338084166
 10
7.6140149048
 20
6.3814605617
 10
7.6141456279
 20
6.3290168968
 10
7.6142582273
 20
6.2761410515
 10
7.6143520945
 20
6.221820828
 10
7.6143899918
 20
6.1923603233
  0
LINE
  5
34A
100
AcDbEntity
  8
ALL_ASSEMBLY_MEMBERS
100
AcDbLine
 62
7
  6
CONTINUOUS
 10
7.5842782007
 20
6.1915930696
 11
7.5833504233
 21
6.5069345154
  0
LINE
  5
34B
100
AcDbEntity
  8
ALL_ASSEMBLY_MEMBERS
100
AcDbLine
 62
7
  6
CONTINUOUS
 10
7.6135528327
 20
6.5371982671
 11
7.6143853668
 21
6.1923603176
  0
LWPOLYLINE
  5
34C
100
AcDbEntity
  8
ALL_ASSEMBLY_MEMBERS
100
AcDbPolyline
 62
7
  6
CONTINUOUS
 90
9
 70
0
 10
7.5842573808
 20
6.2006024484
 10
7.5841919588
 20
6.237521191
 10
7.5841135595
 20
6.2746389131
 10
7.5840225806
 20
6.3119654064
 10
7.5839195275
 20
6.3494896428
 10
7.5838032775
 20
6.3877006899
 10
7.5836733401
 20
6.4267608475
 10
7.5835303713
 20
6.4665058517
 10
7.5833746112
 20
6.5069346149
  0
LWPOLYLINE
  5
34D
100
AcDbEntity
  8
ALL_ASSEMBLY_MEMBERS
100
AcDbPolyline
 62
7
  6
CONTINUOUS
 90
7
 70
0
 10
7.5906476884
 20
6.1917555173
 10
7.5905737708
 20
6.2380919875
 10
7.5904676132
 20
6.2902557577
 10
7.5903353818
 20
6.3440449169
 10
7.5901767782
 20
6.3994594536
 10
7.5899917644
 20
6.4564992706
 10
7.589792769
 20
6.5119237214
  0
LINE
  5
34E
100
AcDbEntity
  8
ALL_ASSEMBLY_MEMBERS
100
AcDbLine
 62
7
  6
CONTINUOUS
 10
7.416350202
 20
6.1791925109
 11
7.416350176
 21
5.91919661
  0
LWPOLYLINE
  5
34F
100
AcDbEntity
  8
ALL_ASSEMBLY_MEMBERS
100
AcDbPolyline
 62
7
  6
CONTINUOUS
 90
9
 70
0
 10
7.614391698
 20
5.9060268361
 10
7.6143036652
 20
5.8469393166
 10
7.6142284448
 20
5.8073321154
 10
7.6141414533
 20
5.7675707411
 10
7.6140431772
 20
5.7276759883
 10
7.6139327141
 20
5.6871403956
 10
7.6138097042
 20
5.6457955818
 10
7.6136747701
 20
5.6038120476
 10
7.6135281697
 20
5.5611909381
  0
LINE
  5
350
100
AcDbEntity
  8
ALL_ASSEMBLY_MEMBERS
100
AcDbLine
 62
7
  6
CONTINUOUS
 10
7.614385732
 20
5.9060268434
 11
7.6135532033
 21
5.5611908527
  0
LINE
  5
351
100
AcDbEntity
  8
ALL_ASSEMBLY_MEMBERS
100
AcDbLine
 62
7
  6
CONTINUOUS
 10
7.5833512308
 20
5.5914546023
 11
7.5842790027
 21
5.9067955423
  0
LWPOLYLINE
  5
352
100
AcDbEntity
  8
ALL_ASSEMBLY_MEMBERS
100
AcDbPolyline
 62
7
  6
CONTINUOUS
 90
7
 70
0
 10
7.5897927661
 20
5.5864646073
 10
7.5899907449
 20
5.6415923032
 10
7.5901758718
 20
5.6986331904
 10
7.590334595
 20
5.7540487671
 10
7.5904669508
 20
5.8078389354
 10
7.5905732372
 20
5.8600036847
 10
7.590647743
 20
5.9066327566
  0
LWPOLYLINE
  5
353
100
AcDbEntity
  8
ALL_ASSEMBLY_MEMBERS
100
AcDbPolyline
 62
7
  6
CONTINUOUS
 90
8
 70
0
 10
7.5833746113
 20
5.5914545061
 10
7.5835511738
 20
5.6375279025
 10
7.5837177218
 20
5.6846434522
 10
7.5838719033
 20
5.7328006538
 10
7.5840104884
 20
5.7817906538
 10
7.5841315689
 20
5.8318207346
 10
7.5842336285
 20
5.8835147237
 10
7.5842680568
 20
5.9067955594
  0
LINE
  5
354
100
AcDbEntity
  8
ALL_ASSEMBLY_MEMBERS
100
AcDbLine
 62
7
  6
CONTINUOUS
 10
8.6415419361
 20
5.9844427566
 11
8.5811017234
 21
5.8673340368
  0
LINE
  5
355
100
AcDbEntity
  8
ALL_ASSEMBLY_MEMBERS
100
AcDbLine
 62
7
  6
CONTINUOUS
 10
8.6417459625
 20
5.9847859169
 11
8.5812525319
 21
5.8675733668
  0
LINE
  5
356
100
AcDbEntity
  8
ALL_ASSEMBLY_MEMBERS
100
AcDbLine
 62
7
  6
CONTINUOUS
 10
8.6376275326
 20
5.9989093892
 11
8.569358019
 21
5.8820411829
  0
LINE
  5
357
100
AcDbEntity
  8
ALL_ASSEMBLY_MEMBERS
100
AcDbLine
 62
7
  6
CONTINUOUS
 10
8.6381197938
 20
5.9844427566
 11
8.5694011265
 21
5.8668056599
  0
LINE
  5
358
100
AcDbEntity
  8
ALL_ASSEMBLY_MEMBERS
100
AcDbLine
 62
7
  6
CONTINUOUS
 10
6.6402750321
 20
6.5288631811
 11
6.6542653985
 21
6.5218814254
  0
LINE
  5
359
100
AcDbEntity
  8
ALL_ASSEMBLY_MEMBERS
100
AcDbLine
 62
7
  6
CONTINUOUS
 10
7.613528171
 20
5.5611913264
 11
7.5967689693
 21
5.5723700879
  0
LINE
  5
35A
100
AcDbEntity
  8
ALL_ASSEMBLY_MEMBERS
100
AcDbLine
 62
7
  6
CONTINUOUS
 10
6.6206714682
 20
6.5371979495
 11
6.6374311761
 21
6.5260187279
  0
LINE
  5
35B
100
AcDbEntity
  8
ALL_ASSEMBLY_MEMBERS
100
AcDbLine
 62
7
  6
CONTINUOUS
 10
7.5897920722
 20
5.5864647035
 11
7.5833746094
 21
5.5914540356
  0
LINE
  5
35C
100
AcDbEntity
  8
ALL_ASSEMBLY_MEMBERS
100
AcDbLine
 62
7
  6
CONTINUOUS
 10
6.6444088059
 20
6.5119247548
 11
6.6508262741
 21
6.5069353906
  0
LWPOLYLINE
  5
35D
100
AcDbEntity
  8
ALL_ASSEMBLY_MEMBERS
100
AcDbPolyline
 62
7
  6
CONTINUOUS
 90
4
 70
0
 10
7.5883655737
 20
5.5875627558
 10
7.5863942223
 20
5.589123877
 10
7.5850228869
 20
5.5901945212
 10
7.5833746094
 20
5.5914540356
  0
LWPOLYLINE
  5
35E
100
AcDbEntity
  8
ALL_ASSEMBLY_MEMBERS
100
AcDbPolyline
 62
7
  6
CONTINUOUS
 90
4
 70
0
 10
6.6458353263
 20
6.5108268065
 10
6.6478066793
 20
6.5092656462
 10
6.6491780087
 20
6.5081949608
 10
6.6508262741
 20
6.5069353906
  0
LWPOLYLINE
  5
35F
100
AcDbEntity
  8
ALL_ASSEMBLY_MEMBERS
100
AcDbPolyline
 62
7
  6
CONTINUOUS
 90
3
 70
0
 10
7.5897927282
 20
5.5864544892
 10
7.5894517045
 20
5.5867285343
 10
7.5883655737
 20
5.5875627558
  0
LWPOLYLINE
  5
360
100
AcDbEntity
  8
ALL_ASSEMBLY_MEMBERS
100
AcDbPolyline
 62
7
  6
CONTINUOUS
 90
3
 70
0
 10
6.6444081498
 20
6.5119349912
 10
6.6447491853
 20
6.5116610113
 10
6.6458353263
 20
6.5108268065
  0
LINE
  5
361
100
AcDbEntity
  8
ALL_ASSEMBLY_MEMBERS
100
AcDbLine
 62
7
  6
CONTINUOUS
 10
7.6836236825
 20
5.4745080748
 11
7.6828460534
 21
5.4752832716
  0
LINE
  5
362
100
AcDbEntity
  8
ALL_ASSEMBLY_MEMBERS
100
AcDbLine
 62
7
  6
CONTINUOUS
 10
6.5505767051
 20
6.6238811031
 11
6.5513546467
 21
6.6231055952
  0
LINE
  5
363
100
AcDbEntity
  8
ALL_ASSEMBLY_MEMBERS
100
AcDbLine
 62
7
  6
CONTINUOUS
 10
6.542413608
 20
6.6157180703
 11
6.5431855694
 21
6.6149436305
  0
LINE
  5
364
100
AcDbEntity
  8
ALL_ASSEMBLY_MEMBERS
100
AcDbLine
 62
7
  6
CONTINUOUS
 10
7.691786652
 20
5.4826710435
 11
7.6910147249
 21
5.4834453647
  0
LWPOLYLINE
  5
365
100
AcDbEntity
  8
ALL_ASSEMBLY_MEMBERS
100
AcDbPolyline
 62
7
  6
CONTINUOUS
 90
3
 70
0
 10
6.6543670354
 20
6.5218879893
 10
6.6543814882
 20
6.5218704739
 10
6.6544692523
 20
6.5217611809
  0
LWPOLYLINE
  5
366
100
AcDbEntity
  8
ALL_ASSEMBLY_MEMBERS
100
AcDbPolyline
 62
7
  6
CONTINUOUS
 90
3
 70
0
 10
6.6561525788
 20
6.5195915083
 10
6.6583890734
 20
6.5167311289
 10
6.6593606704
 20
6.5154698527
  0
LINE
  5
367
100
AcDbEntity
  8
ALL_ASSEMBLY_MEMBERS
100
AcDbLine
 62
7
  6
CONTINUOUS
 10
6.6543709719
 20
6.5218877964
 11
6.6593606704
 21
6.5154698527
  0
LINE
  5
368
100
AcDbEntity
  8
ALL_ASSEMBLY_MEMBERS
100
AcDbLine
 62
7
  6
CONTINUOUS
 10
6.6546324121
 20
6.5215502383
 11
6.6548751866
 21
6.5212347537
  0
LINE
  5
369
100
AcDbEntity
  8
ALL_ASSEMBLY_MEMBERS
100
AcDbLine
 62
7
  6
CONTINUOUS
 10
6.6290959116
 20
6.5456220932
 11
6.6298520896
 21
6.5445034374
  0
LINE
  5
36A
100
AcDbEntity
  8
ALL_ASSEMBLY_MEMBERS
100
AcDbLine
 62
7
  6
CONTINUOUS
 10
6.6393235441
 20
6.5302738811
 11
6.6402744239
 21
6.5288631401
  0
LINE
  5
36B
100
AcDbEntity
  8
ALL_ASSEMBLY_MEMBERS
100
AcDbLine
 62
7
  6
CONTINUOUS
 10
6.6290959116
 20
6.5456220932
 11
6.6402744239
 21
6.5288631401
  0
LWPOLYLINE
  5
36C
100
AcDbEntity
  8
ALL_ASSEMBLY_MEMBERS
100
AcDbPolyline
 62
7
  6
CONTINUOUS
 90
15
 70
0
 10
7.5897911958
 20
6.5119236972
 10
7.5897593556
 20
6.5126844731
 10
7.589600746
 20
6.5138289664
 10
7.5893111877
 20
6.514947513
 10
7.5888945476
 20
6.5160251849
 10
7.5883563888
 20
6.5170475964
 10
7.5877038977
 20
6.5180010971
 10
7.5869457861
 20
6.5188729591
 10
7.5860921751
 20
6.5196515441
 10
7.585154462
 20
6.5203264579
 10
7.5841451682
 20
6.5208886903
 10
7.5830777671
 20
6.5213307378
 10
7.5819665108
 20
6.5216466999
 10
7.5808262423
 20
6.5218323599
 10
7.5798297816
 20
6.5218858949
  0
LWPOLYLINE
  5
36D
100
AcDbEntity
  8
ALL_ASSEMBLY_MEMBERS
100
AcDbPolyline
 62
7
  6
CONTINUOUS
 90
19
 70
0
 10
8.6417459625
 20
5.9847859169
 10
8.6420363479
 20
5.9854115993
 10
8.64226799
 20
5.9860091883
 10
8.6424512435
 20
5.9865806096
 10
8.6425925491
 20
5.9871198203
 10
8.6426970904
 20
5.9876130156
 10
8.6427722669
 20
5.9880525026
 10
8.6428282666
 20
5.9884566862
 10
8.6428726931
 20
5.9888514401
 10
8.642908573
 20
5.9892423127
 10
8.6429385133
 20
5.9896389085
 10
8.642965256
 20
5.9900677041
 10
8.6429895092
 20
5.990538637
 10
8.6430114095
 20
5.9910540525
 10
8.6430312485
 20
5.9916213621
 10
8.6430490451
 20
5.9922431003
 10
8.64306471
 20
5.9929172953
 10
8.6430781155
 20
5.9936361838
 10
8.6430982572
 20
5.99518484
  0
LWPOLYLINE
  5
36E
100
AcDbEntity
  8
ALL_ASSEMBLY_MEMBERS
100
AcDbPolyline
 62
7
  6
CONTINUOUS
 90
3
 70
0
 10
7.579833926
 20
5.5765015529
 10
7.5798194946
 20
5.576519071
 10
7.5797317632
 20
5.5766283674
  0
LWPOLYLINE
  5
36F
100
AcDbEntity
  8
ALL_ASSEMBLY_MEMBERS
100
AcDbPolyline
 62
7
  6
CONTINUOUS
 90
3
 70
0
 10
7.578048486
 20
5.5787980267
 10
7.5758119281
 20
5.5816583561
 10
7.5748403078
 20
5.5829196079
  0
LINE
  5
370
100
AcDbEntity
  8
ALL_ASSEMBLY_MEMBERS
100
AcDbLine
 62
7
  6
CONTINUOUS
 10
7.579829974
 20
5.5765017496
 11
7.5748403078
 21
5.5829196079
  0
LINE
  5
371
100
AcDbEntity
  8
ALL_ASSEMBLY_MEMBERS
100
AcDbLine
 62
7
  6
CONTINUOUS
 10
7.5795686355
 20
5.5768393122
 11
7.579325889
 21
5.5771547977
  0
LINE
  5
372
100
AcDbEntity
  8
ALL_ASSEMBLY_MEMBERS
100
AcDbLine
 62
7
  6
CONTINUOUS
 10
7.6051038853
 20
5.5527672129
 11
7.6043517958
 21
5.5538802152
  0
LINE
  5
373
100
AcDbEntity
  8
ALL_ASSEMBLY_MEMBERS
100
AcDbLine
 62
7
  6
CONTINUOUS
 10
7.5948797157
 20
5.5681097553
 11
7.5939251774
 21
5.5695260273
  0
LINE
  5
374
100
AcDbEntity
  8
ALL_ASSEMBLY_MEMBERS
100
AcDbLine
 62
7
  6
CONTINUOUS
 10
7.6051038853
 20
5.5527672129
 11
7.5939251774
 21
5.5695260273
  0
LINE
  5
375
100
AcDbEntity
  8
ALL_ASSEMBLY_MEMBERS
100
AcDbLine
 62
7
  6
CONTINUOUS
 10
7.5967689678
 20
5.5723696791
 11
7.5897856972
 21
5.5863627156
  0
LWPOLYLINE
  5
376
100
AcDbEntity
  8
ALL_ASSEMBLY_MEMBERS
100
AcDbPolyline
 62
7
  6
CONTINUOUS
 90
18
 70
0
 10
8.643066966
 20
6.1053617041
 10
8.643051558
 20
6.1060471427
 10
8.6430339949
 20
6.1066797486
 10
8.643014369
 20
6.1072572685
 10
8.6429926733
 20
6.1077819469
 10
8.6429686503
 20
6.1082607593
 10
8.6429421993
 20
6.1086957945
 10
8.642912654
 20
6.1090970392
 10
8.6428773598
 20
6.1094910637
 10
8.6428338662
 20
6.1098869491
 10
8.6427792114
 20
6.1102908038
 10
8.6427056222
 20
6.1107306208
 10
8.6426026622
 20
6.1112259022
 10
8.6424627924
 20
6.1117683575
 10
8.6422805642
 20
6.1123440522
 10
8.6420490163
 20
6.1129474966
 10
8.6417575431
 20
6.1135802392
 10
8.6417082627
 20
6.1136769868
  0
LINE
  5
377
100
AcDbEntity
  8
ALL_ASSEMBLY_MEMBERS
100
AcDbLine
 62
7
  6
CONTINUOUS
 10
8.6430909473
 20
6.1038634863
 11
8.643066966
 21
6.1053617041
  0
LINE
  5
378
100
AcDbEntity
  8
ALL_ASSEMBLY_MEMBERS
100
AcDbLine
 62
7
  6
CONTINUOUS
 10
8.6431062164
 20
6.1022310279
 11
8.6430909473
 21
6.1038634863
  0
LINE
  5
379
100
AcDbEntity
  8
ALL_ASSEMBLY_MEMBERS
100
AcDbLine
 62
7
  6
CONTINUOUS
 10
8.643114667
 20
6.0996249849
 11
8.6431062164
 21
6.1022310279
  0
LINE
  5
37A
100
AcDbEntity
  8
ALL_ASSEMBLY_MEMBERS
100
AcDbLine
 62
7
  6
CONTINUOUS
 10
8.6376275326
 20
6.0994797318
 11
8.6376275326
 21
5.9989093892
  0
LINE
  5
37B
100
AcDbEntity
  8
ALL_ASSEMBLY_MEMBERS
100
AcDbLine
 62
7
  6
CONTINUOUS
 10
8.6390304063
 20
6.0994797318
 11
8.6390304063
 21
5.9989093892
  0
LINE
  5
37C
100
AcDbEntity
  8
ALL_ASSEMBLY_MEMBERS
100
AcDbLine
 62
7
  6
CONTINUOUS
 10
8.6431100933
 20
5.9968455877
 11
8.643114667
 21
6.0996249849
  0
LINE
  5
37D
100
AcDbEntity
  8
ALL_ASSEMBLY_MEMBERS
100
AcDbLine
 62
7
  6
CONTINUOUS
 10
8.6430982572
 20
5.99518484
 11
8.6431100933
 21
5.9968455877
  0
LINE
  5
37E
100
AcDbEntity
  8
ALL_ASSEMBLY_MEMBERS
100
AcDbLine
 62
7
  6
CONTINUOUS
 10
8.5811017234
 20
6.2310550842
 11
8.5812510758
 21
6.2308185754
  0
LINE
  5
37F
100
AcDbEntity
  8
ALL_ASSEMBLY_MEMBERS
100
AcDbLine
 62
7
  6
CONTINUOUS
 10
8.6376275326
 20
6.0994797318
 11
8.569358019
 21
6.2163479381
  0
LINE
  5
380
100
AcDbEntity
  8
ALL_ASSEMBLY_MEMBERS
100
AcDbLine
 62
7
  6
CONTINUOUS
 10
8.6381197938
 20
6.1139463644
 11
8.5694011265
 21
6.2315834611
  0
LWPOLYLINE
  5
381
100
AcDbEntity
  8
ALL_ASSEMBLY_MEMBERS
100
AcDbPolyline
 62
7
  6
CONTINUOUS
 90
23
 70
0
 10
8.5812526015
 20
6.230815651
 10
8.5810847095
 20
6.2311273059
 10
8.5807811097
 20
6.2316323007
 10
8.5804519231
 20
6.2321135603
 10
8.5800996341
 20
6.2325694752
 10
8.5797263542
 20
6.2329992641
 10
8.5793341844
 20
6.2334023063
 10
8.5789257717
 20
6.2337776426
 10
8.5785031863
 20
6.2341250957
 10
8.5780685338
 20
6.2344445561
 10
8.5776246104
 20
6.2347356007
 10
8.5771733834
 20
6.2349985742
 10
8.5767167857
 20
6.2352339063
 10
8.576257578
 20
6.2354417535
 10
8.5757957722
 20
6.2356235569
 10
8.5753346817
 20
6.2357794027
 10
8.5748821767
 20
6.2359086095
 10
8.5744364536
 20
6.2360138171
 10
8.5740021581
 20
6.2360959574
 10
8.5735970083
 20
6.2361549337
 10
8.5732212404
 20
6.2361947187
 10
8.5728758256
 20
6.2362188519
 10
8.5727896803
 20
6.2362230392
  0
LINE
  5
382
100
AcDbEntity
  8
ALL_ASSEMBLY_MEMBERS
100
AcDbLine
 62
7
  6
CONTINUOUS
 10
8.6415419361
 20
6.1139463644
 11
8.5811017234
 21
6.2310550842
  0
LINE
  5
383
100
AcDbEntity
  8
ALL_ASSEMBLY_MEMBERS
100
AcDbLine
 62
7
  6
CONTINUOUS
 10
8.6417083594
 20
6.113676779
 11
8.5812524983
 21
6.2308158191
  0
ARC
  5
384
100
AcDbEntity
  8
ALL_ASSEMBLY_MEMBERS
100
AcDbCircle
 62
7
  6
CONTINUOUS
 10
5.1471001553
 20
-1.404455287
 40
4.5946544021
100
AcDbArc
 50
88.7528919725
 51
91.2471080275
  0
ARC
  5
385
100
AcDbEntity
  8
ALL_ASSEMBLY_MEMBERS
100
AcDbCircle
 62
7
  6
CONTINUOUS
 10
5.1471001553
 20
1.6554228834
 40
2.5000018243
100
AcDbArc
 50
78.4630495013
 51
101.5369504731
  0
ARC
  5
386
100
AcDbEntity
  8
ALL_ASSEMBLY_MEMBERS
100
AcDbCircle
 62
7
  6
CONTINUOUS
 10
-136.8263755041
 20
5.9844327044
 40
144.4241599434
100
AcDbArc
 50
0.082319472
 51
0.2148583193
  0
ARC
  5
387
100
AcDbEntity
  8
ALL_ASSEMBLY_MEMBERS
100
AcDbCircle
 62
7
  6
CONTINUOUS
 10
-136.8251929401
 20
6.1139533167
 40
144.422977376
100
AcDbArc
 50
359.785141326
 51
359.9176806076
  0
ARC
  5
388
100
AcDbEntity
  8
ALL_ASSEMBLY_MEMBERS
100
AcDbCircle
 62
7
  6
CONTINUOUS
 10
5.1471001553
 20
4.7991945605
 40
2.5
100
AcDbArc
 50
258.4630409672
 51
281.5369590328
  0
ARC
  5
389
100
AcDbEntity
  8
ALL_ASSEMBLY_MEMBERS
100
AcDbCircle
 62
7
  6
CONTINUOUS
 10
3.6241058484
 20
5.6046908099
 40
0.0477609138
100
AcDbArc
 50
312.5855427834
 51
317.4115961348
  0
ARC
  5
38A
100
AcDbEntity
  8
ALL_ASSEMBLY_MEMBERS
100
AcDbCircle
 62
7
  6
CONTINUOUS
 10
2.7350945086
 20
5.6046906099
 40
0.0477608689
100
AcDbArc
 50
222.5886185571
 51
227.4145795236
  0
ARC
  5
38B
100
AcDbEntity
  8
ALL_ASSEMBLY_MEMBERS
100
AcDbCircle
 62
7
  6
CONTINUOUS
 10
3.7444309494
 20
5.4843637675
 40
0.01
100
AcDbArc
 50
270.0286597767
 51
359.9713403685
  0
ARC
  5
38C
100
AcDbEntity
  8
ALL_ASSEMBLY_MEMBERS
100
AcDbCircle
 62
7
  6
CONTINUOUS
 10
2.614769351
 20
5.4843637675
 40
0.01
100
AcDbArc
 50
180.0286610069
 51
269.9713402238
  0
ARC
  5
38D
100
AcDbEntity
  8
ALL_ASSEMBLY_MEMBERS
100
AcDbCircle
 62
7
  6
CONTINUOUS
 10
1.6673456764
 20
5.9892646772
 40
0.0100039463
100
AcDbArc
 50
179.998337308
 51
208.816227385
  0
ARC
  5
38E
100
AcDbEntity
  8
ALL_ASSEMBLY_MEMBERS
100
AcDbCircle
 62
7
  6
CONTINUOUS
 10
1.6673456764
 20
6.1091244439
 40
0.0100039462
100
AcDbArc
 50
151.1837725514
 51
180.0016627547
  0
ARC
  5
38F
100
AcDbEntity
  8
ALL_ASSEMBLY_MEMBERS
100
AcDbCircle
 62
7
  6
CONTINUOUS
 10
1.6639232831
 20
6.1091244669
 40
0.0100036953
100
AcDbArc
 50
152.9936396499
 51
180.001794786
  0
ARC
  5
390
100
AcDbEntity
  8
ALL_ASSEMBLY_MEMBERS
100
AcDbCircle
 62
7
  6
CONTINUOUS
 10
1.6639232828
 20
5.9892646541
 40
0.0100036949
100
AcDbArc
 50
179.99820507
 51
207.004985527
  0
ARC
  5
391
100
AcDbEntity
  8
ALL_ASSEMBLY_MEMBERS
100
AcDbCircle
 62
7
  6
CONTINUOUS
 10
1.7360545665
 20
5.8716195322
 40
0.0099911824
100
AcDbArc
 50
208.8028143357
 51
263.724486296
  0
ARC
  5
392
100
AcDbEntity
  8
ALL_ASSEMBLY_MEMBERS
100
AcDbCircle
 62
7
  6
CONTINUOUS
 10
1.7360545664
 20
6.2267695889
 40
0.009991182
100
AcDbArc
 50
96.2755610071
 51
151.1971857555
  0
ARC
  5
393
100
AcDbEntity
  8
ALL_ASSEMBLY_MEMBERS
100
AcDbCircle
 62
7
  6
CONTINUOUS
 10
1.724353047
 20
6.226242485
 40
0.0099896515
100
AcDbArc
 50
92.6166637962
 51
151.2010347262
  0
ARC
  5
394
100
AcDbEntity
  8
ALL_ASSEMBLY_MEMBERS
100
AcDbCircle
 62
7
  6
CONTINUOUS
 10
1.7243530455
 20
5.8721466357
 40
0.0099896504
100
AcDbArc
 50
208.7989679218
 51
267.3701348938
  0
ARC
  5
395
100
AcDbEntity
  8
ALL_ASSEMBLY_MEMBERS
100
AcDbCircle
 62
7
  6
CONTINUOUS
 10
1.6638979489
 20
5.9892505208
 40
0.0099747059
100
AcDbArc
 50
206.9987302325
 51
208.8158179445
  0
ARC
  5
396
100
AcDbEntity
  8
ALL_ASSEMBLY_MEMBERS
100
AcDbCircle
 62
7
  6
CONTINUOUS
 10
1.6638979343
 20
6.109138608
 40
0.0099746893
100
AcDbArc
 50
151.1841809537
 51
152.9998921469
  0
ARC
  5
397
100
AcDbEntity
  8
ALL_ASSEMBLY_MEMBERS
100
AcDbCircle
 62
7
  6
CONTINUOUS
 10
1.7360614659
 20
6.2267881832
 40
0.0099731251
100
AcDbArc
 50
91.3364196093
 51
96.3266384829
  0
ARC
  5
398
100
AcDbEntity
  8
ALL_ASSEMBLY_MEMBERS
100
AcDbCircle
 62
7
  6
CONTINUOUS
 10
1.7360614644
 20
5.8716009206
 40
0.0099731078
100
AcDbArc
 50
263.6734075501
 51
268.6644682749
  0
ARC
  5
399
100
AcDbEntity
  8
ALL_ASSEMBLY_MEMBERS
100
AcDbCircle
 62
7
  6
CONTINUOUS
 10
1.7374678466
 20
5.8709576136
 40
0.0093259003
100
AcDbArc
 50
251.6168628438
 51
270.2439171609
  0
ARC
  5
39A
100
AcDbEntity
  8
ALL_ASSEMBLY_MEMBERS
100
AcDbCircle
 62
7
  6
CONTINUOUS
 10
1.7374678468
 20
6.2274315445
 40
0.0093258686
100
AcDbArc
 50
89.7560876329
 51
108.3831456683
  0
ARC
  5
39B
100
AcDbEntity
  8
ALL_ASSEMBLY_MEMBERS
100
AcDbCircle
 62
7
  6
CONTINUOUS
 10
2.614769351
 20
6.6140253535
 40
0.01
100
AcDbArc
 50
90.0286597762
 51
179.9713389931
  0
ARC
  5
39C
100
AcDbEntity
  8
ALL_ASSEMBLY_MEMBERS
100
AcDbCircle
 62
7
  6
CONTINUOUS
 10
3.3020062924
 20
5.9845772977
 40
0.1866050102
100
AcDbArc
 50
5.0014369289
 51
5.4152669718
  0
ARC
  5
39D
100
AcDbEntity
  8
ALL_ASSEMBLY_MEMBERS
100
AcDbCircle
 62
7
  6
CONTINUOUS
 10
3.3378862258
 20
5.9877015306
 40
0.1505893171
100
AcDbArc
 50
3.8565251078
 51
5.0074108707
  0
ARC
  5
39E
100
AcDbEntity
  8
ALL_ASSEMBLY_MEMBERS
100
AcDbCircle
 62
7
  6
CONTINUOUS
 10
3.3712221005
 20
5.9900235433
 40
0.1171727774
100
AcDbArc
 50
3.0507791173
 51
3.8200261553
  0
ARC
  5
39F
100
AcDbEntity
  8
ALL_ASSEMBLY_MEMBERS
100
AcDbCircle
 62
7
  6
CONTINUOUS
 10
3.3730579241
 20
6.1082628684
 40
0.1153341462
100
AcDbArc
 50
356.2806012522
 51
356.7620092887
  0
ARC
  5
3A0
100
AcDbEntity
  8
ALL_ASSEMBLY_MEMBERS
100
AcDbCircle
 62
7
  6
CONTINUOUS
 10
3.4791501553
 20
6.1063265982
 40
0.01
100
AcDbArc
 50
0.0
 51
32.0053832081
  0
ARC
  5
3A1
100
AcDbEntity
  8
ALL_ASSEMBLY_MEMBERS
100
AcDbCircle
 62
7
  6
CONTINUOUS
 10
3.4791501553
 20
5.9920625228
 40
0.01
100
AcDbArc
 50
327.994616816
 51
360.0
  0
ARC
  5
3A2
100
AcDbEntity
  8
ALL_ASSEMBLY_MEMBERS
100
AcDbCircle
 62
7
  6
CONTINUOUS
 10
3.4336076789
 20
6.1791945605
 40
0.01
100
AcDbArc
 50
32.0053832081
 51
90.0
  0
ARC
  5
3A3
100
AcDbEntity
  8
ALL_ASSEMBLY_MEMBERS
100
AcDbCircle
 62
7
  6
CONTINUOUS
 10
3.4336076789
 20
5.9191945605
 40
0.01
100
AcDbArc
 50
270.0000000001
 51
327.9946163745
  0
ARC
  5
3A4
100
AcDbEntity
  8
ALL_ASSEMBLY_MEMBERS
100
AcDbCircle
 62
7
  6
CONTINUOUS
 10
3.6241033228
 20
6.4937010516
 40
0.0477607896
100
AcDbArc
 50
42.5844058164
 51
47.4104640128
  0
ARC
  5
3A5
100
AcDbEntity
  8
ALL_ASSEMBLY_MEMBERS
100
AcDbCircle
 62
7
  6
CONTINUOUS
 10
2.7350928424
 20
6.4936978055
 40
0.0477601439
100
AcDbArc
 50
132.5835360395
 51
137.4096900245
  0
ARC
  5
3A6
100
AcDbEntity
  8
ALL_ASSEMBLY_MEMBERS
100
AcDbCircle
 62
7
  6
CONTINUOUS
 10
3.7444309494
 20
6.6140253535
 40
0.01
100
AcDbArc
 50
0.0286596315
 51
89.9713402233
  0
ARC
  5
3A7
100
AcDbEntity
  8
ALL_ASSEMBLY_MEMBERS
100
AcDbCircle
 62
7
  6
CONTINUOUS
 10
6.9236423866
 20
5.9901262525
 40
0.1153341463
100
AcDbArc
 50
176.2806012526
 51
176.7620092883
  0
ARC
  5
3A8
100
AcDbEntity
  8
ALL_ASSEMBLY_MEMBERS
100
AcDbCircle
 62
7
  6
CONTINUOUS
 10
6.6725969878
 20
5.6046880694
 40
0.0477607896
100
AcDbArc
 50
222.5844058165
 51
227.4104640127
  0
ARC
  5
3A9
100
AcDbEntity
  8
ALL_ASSEMBLY_MEMBERS
100
AcDbCircle
 62
7
  6
CONTINUOUS
 10
7.5616074682
 20
5.6046913155
 40
0.0477601439
100
AcDbArc
 50
312.5835360396
 51
317.4096900244
  0
ARC
  5
3AA
100
AcDbEntity
  8
ALL_ASSEMBLY_MEMBERS
100
AcDbCircle
 62
7
  6
CONTINUOUS
 10
8.6293546342
 20
5.9892646771
 40
0.0100039462
100
AcDbArc
 50
331.1837725515
 51
0.0016627547
  0
ARC
  5
3AB
100
AcDbEntity
  8
ALL_ASSEMBLY_MEMBERS
100
AcDbCircle
 62
7
  6
CONTINUOUS
 10
8.6327770274
 20
5.9892646541
 40
0.0100036953
100
AcDbArc
 50
332.9936396499
 51
0.0017947859
  0
ARC
  5
3AC
100
AcDbEntity
  8
ALL_ASSEMBLY_MEMBERS
100
AcDbCircle
 62
7
  6
CONTINUOUS
 10
6.8175501553
 20
5.9920625228
 40
0.01
100
AcDbArc
 50
180.0
 51
212.0053832081
  0
ARC
  5
3AD
100
AcDbEntity
  8
ALL_ASSEMBLY_MEMBERS
100
AcDbCircle
 62
7
  6
CONTINUOUS
 10
6.8630926317
 20
5.9191945605
 40
0.01
100
AcDbArc
 50
212.0053832081
 51
270.0
  0
ARC
  5
3AE
100
AcDbEntity
  8
ALL_ASSEMBLY_MEMBERS
100
AcDbCircle
 62
7
  6
CONTINUOUS
 10
6.5522693611
 20
5.4843637675
 40
0.01
100
AcDbArc
 50
180.0286596315
 51
269.9713402233
  0
ARC
  5
3AF
100
AcDbEntity
  8
ALL_ASSEMBLY_MEMBERS
100
AcDbCircle
 62
7
  6
CONTINUOUS
 10
7.6819309596
 20
5.4843637675
 40
0.01
100
AcDbArc
 50
270.0286597763
 51
359.9713389931
  0
ARC
  5
3B0
100
AcDbEntity
  8
ALL_ASSEMBLY_MEMBERS
100
AcDbCircle
 62
7
  6
CONTINUOUS
 10
8.5606457445
 20
5.8716195319
 40
0.009991182
100
AcDbArc
 50
276.2755591563
 51
331.1971856453
  0
ARC
  5
3B1
100
AcDbEntity
  8
ALL_ASSEMBLY_MEMBERS
100
AcDbCircle
 62
7
  6
CONTINUOUS
 10
8.572348231
 20
5.8721450507
 40
0.0099878906
100
AcDbArc
 50
272.6115348662
 51
331.206330262
  0
ARC
  5
3B2
100
AcDbEntity
  8
ALL_ASSEMBLY_MEMBERS
100
AcDbCircle
 62
7
  6
CONTINUOUS
 10
8.6328023762
 20
5.989250513
 40
0.0099746893
100
AcDbArc
 50
331.1841809543
 51
332.9998921463
  0
ARC
  5
3B3
100
AcDbEntity
  8
ALL_ASSEMBLY_MEMBERS
100
AcDbCircle
 62
7
  6
CONTINUOUS
 10
8.5606388446
 20
5.8716009378
 40
0.0099731251
100
AcDbArc
 50
271.3364196092
 51
276.3266384832
  0
ARC
  5
3B4
100
AcDbEntity
  8
ALL_ASSEMBLY_MEMBERS
100
AcDbCircle
 62
7
  6
CONTINUOUS
 10
8.5592324638
 20
5.8709575765
 40
0.0093258686
100
AcDbArc
 50
269.7560876329
 51
288.3831456682
  0
ARC
  5
3B5
100
AcDbEntity
  8
ALL_ASSEMBLY_MEMBERS
100
AcDbCircle
 62
7
  6
CONTINUOUS
 10
6.9946940179
 20
6.1138118233
 40
0.1866050099
100
AcDbArc
 50
185.0014369286
 51
185.4152669721
  0
ARC
  5
3B6
100
AcDbEntity
  8
ALL_ASSEMBLY_MEMBERS
100
AcDbCircle
 62
7
  6
CONTINUOUS
 10
6.9588140847
 20
6.1106875904
 40
0.1505893171
100
AcDbArc
 50
183.8565251077
 51
185.0074108707
  0
ARC
  5
3B7
100
AcDbEntity
  8
ALL_ASSEMBLY_MEMBERS
100
AcDbCircle
 62
7
  6
CONTINUOUS
 10
6.9254782101
 20
6.1083655777
 40
0.1171727774
100
AcDbArc
 50
183.0507791175
 51
183.8200261552
  0
ARC
  5
3B8
100
AcDbEntity
  8
ALL_ASSEMBLY_MEMBERS
100
AcDbCircle
 62
7
  6
CONTINUOUS
 10
6.6725944622
 20
6.4936983111
 40
0.0477609138
100
AcDbArc
 50
132.5855427834
 51
137.4115961349
  0
ARC
  5
3B9
100
AcDbEntity
  8
ALL_ASSEMBLY_MEMBERS
100
AcDbCircle
 62
7
  6
CONTINUOUS
 10
7.5616058019
 20
6.4936985111
 40
0.0477608689
100
AcDbArc
 50
42.5886185572
 51
47.4145795235
  0
ARC
  5
3BA
100
AcDbEntity
  8
ALL_ASSEMBLY_MEMBERS
100
AcDbCircle
 62
7
  6
CONTINUOUS
 10
8.6293546341
 20
6.1091244438
 40
0.0100039463
100
AcDbArc
 50
359.9983373079
 51
28.8162273851
  0
ARC
  5
3BB
100
AcDbEntity
  8
ALL_ASSEMBLY_MEMBERS
100
AcDbCircle
 62
7
  6
CONTINUOUS
 10
8.6327770278
 20
6.1091244669
 40
0.0100036949
100
AcDbArc
 50
359.9982050699
 51
27.004985527
  0
ARC
  5
3BC
100
AcDbEntity
  8
ALL_ASSEMBLY_MEMBERS
100
AcDbCircle
 62
7
  6
CONTINUOUS
 10
6.8175501553
 20
6.1063265982
 40
0.01
100
AcDbArc
 50
147.994616816
 51
180.0000000004
  0
ARC
  5
3BD
100
AcDbEntity
  8
ALL_ASSEMBLY_MEMBERS
100
AcDbCircle
 62
7
  6
CONTINUOUS
 10
6.8630926317
 20
6.1791945605
 40
0.01
100
AcDbArc
 50
90.0000000001
 51
147.9946163745
  0
ARC
  5
3BE
100
AcDbEntity
  8
ALL_ASSEMBLY_MEMBERS
100
AcDbCircle
 62
7
  6
CONTINUOUS
 10
6.5522693611
 20
6.6140253535
 40
0.01
100
AcDbArc
 50
90.0286597767
 51
179.9713403685
  0
ARC
  5
3BF
100
AcDbEntity
  8
ALL_ASSEMBLY_MEMBERS
100
AcDbCircle
 62
7
  6
CONTINUOUS
 10
7.6819309596
 20
6.6140253535
 40
0.01
100
AcDbArc
 50
0.0286610069
 51
89.9713402237
  0
ARC
  5
3C0
100
AcDbEntity
  8
ALL_ASSEMBLY_MEMBERS
100
AcDbCircle
 62
7
  6
CONTINUOUS
 10
8.5606457441
 20
6.2267695885
 40
0.0099911824
100
AcDbArc
 50
28.8028158846
 51
83.7244870149
  0
ARC
  5
3C1
100
AcDbEntity
  8
ALL_ASSEMBLY_MEMBERS
100
AcDbCircle
 62
7
  6
CONTINUOUS
 10
8.5723482364
 20
6.2262440767
 40
0.0099878824
100
AcDbArc
 50
28.7936525484
 51
87.3752824443
  0
ARC
  5
3C2
100
AcDbEntity
  8
ALL_ASSEMBLY_MEMBERS
100
AcDbCircle
 62
7
  6
CONTINUOUS
 10
8.6328023616
 20
6.1091386002
 40
0.0099747059
100
AcDbArc
 50
26.9987302327
 51
28.8158179436
  0
ARC
  5
3C3
100
AcDbEntity
  8
ALL_ASSEMBLY_MEMBERS
100
AcDbCircle
 62
7
  6
CONTINUOUS
 10
8.5606388462
 20
6.2267882004
 40
0.0099731078
100
AcDbArc
 50
83.6734075499
 51
88.6644682749
  0
ARC
  5
3C4
100
AcDbEntity
  8
ALL_ASSEMBLY_MEMBERS
100
AcDbCircle
 62
7
  6
CONTINUOUS
 10
8.559232464
 20
6.2274315074
 40
0.0093259003
100
AcDbArc
 50
71.6168628439
 51
90.2439171608
  0
ARC
  5
3C5
100
AcDbEntity
  8
ALL_ASSEMBLY_MEMBERS
100
AcDbCircle
 62
7
  6
CONTINUOUS
 10
147.1218932507
 20
5.9844358043
 40
144.422977376
100
AcDbArc
 50
179.785141326
 51
179.9176806076
  0
ARC
  5
3C6
100
AcDbEntity
  8
ALL_ASSEMBLY_MEMBERS
100
AcDbCircle
 62
7
  6
CONTINUOUS
 10
147.1230758141
 20
6.1139564166
 40
144.4241599429
100
AcDbArc
 50
180.082319472
 51
180.2148583193
  0
SPLINE
  5
3C7
100
AcDbEntity
  8
ALL_ASSEMBLY_MEMBERS
100
AcDbSpline
 62
7
  6
CONTINUOUS
 70
0
 71
3
 72
15
 73
11
 74
0
 42
0.0000001
 43
0.0000001
 44
0.0000000001
 40
0.0
 40
0.0
 40
0.0
 40
0.0
 40
0.1253851385
 40
0.2507546538
 40
0.3760763578
 40
0.5013111867
 40
0.6264063948
 40
0.7512890226
 40
0.8758618586
 40
1.0
 40
1.0
 40
1.0
 40
1.0
 10
7.416350202
 20
6.1791926228
 30
0.0
 10
7.4640953884
 20
6.1788953031
 30
0.0
 10
7.5595930829
 20
6.1798552574
 30
0.0
 10
7.7027221824
 20
6.1848855271
 30
0.0
 10
7.8456812095
 20
6.1923788517
 30
0.0
 10
7.9884560643
 20
6.2011969974
 30
0.0
 10
8.1310506095
 20
6.2102114362
 30
0.0
 10
8.2734497422
 20
6.2183182961
 30
0.0
 10
8.4155877859
 20
6.2244233845
 30
0.0
 10
8.5102864856
 20
6.2264501938
 30
0.0
 10
8.5575565997
 20
6.2267795082
 30
0.0
  0
SPLINE
  5
3C8
100
AcDbEntity
  8
ALL_ASSEMBLY_MEMBERS
100
AcDbSpline
 62
7
  6
CONTINUOUS
 70
0
 71
3
 72
9
 73
5
 74
0
 42
0.0000001
 43
0.0000001
 44
0.0000000001
 40
0.0
 40
0.0
 40
0.0
 40
0.0
 40
0.25040695
 40
1.0
 40
1.0
 40
1.0
 40
1.0
 10
8.5590982401
 20
6.2163615053
 30
0.0
 10
8.5590972025
 20
6.2172422394
 30
0.0
 10
8.5589541043
 20
6.2207586215
 30
0.0
 10
8.5582941659
 20
6.2242482995
 30
0.0
 10
8.5575565997
 20
6.2267795082
 30
0.0
  0
LINE
  5
3C9
100
AcDbEntity
  8
ALL_ASSEMBLY_MEMBERS
100
AcDbLine
 62
7
  6
CONTINUOUS
 10
8.5812525123
 20
5.8675733365
 11
8.5811017234
 21
5.8673340368
  0
SPLINE
  5
3CA
100
AcDbEntity
  8
ALL_ASSEMBLY_MEMBERS
100
AcDbSpline
 62
7
  6
CONTINUOUS
 70
0
 71
3
 72
11
 73
7
 74
0
 42
0.0000001
 43
0.0000001
 44
0.0000000001
 40
0.0
 40
0.0
 40
0.0
 40
0.0
 40
0.246745113
 40
0.4955062362
 40
0.7469039017
 40
1.0
 40
1.0
 40
1.0
 40
1.0
 10
8.562173562
 20
5.862107618
 30
0.0
 10
8.5629195203
 20
5.8623555845
 30
0.0
 10
8.5643601831
 20
5.8630473915
 30
0.0
 10
8.5662039672
 20
5.8645879757
 30
0.0
 10
8.5676337855
 20
5.8665433626
 30
0.0
 10
8.5682555567
 20
5.8680446949
 30
0.0
 10
8.5684744817
 20
5.8688207316
 30
0.0
  0
LINE
  5
3CB
100
AcDbEntity
  8
ALL_ASSEMBLY_MEMBERS
100
AcDbLine
 62
7
  6
CONTINUOUS
 10
8.5811017234
 20
5.8673340368
 11
8.5793544946
 21
5.8672411488
  0
LINE
  5
3CC
100
AcDbEntity
  8
ALL_ASSEMBLY_MEMBERS
100
AcDbLine
 62
7
  6
CONTINUOUS
 10
8.5793544946
 20
5.8672411488
 11
8.576635867
 21
5.8670877042
  0
LINE
  5
3CD
100
AcDbEntity
  8
ALL_ASSEMBLY_MEMBERS
100
AcDbLine
 62
7
  6
CONTINUOUS
 10
8.576635867
 20
5.8670877042
 11
8.5694011265
 21
5.8668056599
  0
SPLINE
  5
3CE
100
AcDbEntity
  8
ALL_ASSEMBLY_MEMBERS
100
AcDbSpline
 62
7
  6
CONTINUOUS
 70
0
 71
3
 72
11
 73
7
 74
0
 42
0.0000001
 43
0.0000001
 44
0.0000000001
 40
0.0
 40
0.0
 40
0.0
 40
0.0
 40
0.2467453671
 40
0.4955069127
 40
0.7469043156
 40
1.0
 40
1.0
 40
1.0
 40
1.0
 10
8.5621735709
 20
6.2362814964
 30
0.0
 10
8.56291953
 20
6.2360335296
 30
0.0
 10
8.5643601943
 20
6.2353417211
 30
0.0
 10
8.5662039827
 20
6.23380114
 30
0.0
 10
8.5676337996
 20
6.2318457509
 30
0.0
 10
8.5682555578
 20
6.2303444159
 30
0.0
 10
8.5684744826
 20
6.2295683805
 30
0.0
  0
LINE
  5
3CF
100
AcDbEntity
  8
ALL_ASSEMBLY_MEMBERS
100
AcDbLine
 62
7
  6
CONTINUOUS
 10
8.6417082753
 20
6.1136769381
 11
8.6415419361
 21
6.1139463644
  0
SPLINE
  5
3D0
100
AcDbEntity
  8
ALL_ASSEMBLY_MEMBERS
100
AcDbSpline
 62
7
  6
CONTINUOUS
 70
0
 71
3
 72
11
 73
7
 74
0
 42
0.0000001
 43
0.0000001
 44
0.0000000001
 40
0.0
 40
0.0
 40
0.0
 40
0.0
 40
0.2499378632
 40
0.4998910189
 40
0.7499847309
 40
1.0
 40
1.0
 40
1.0
 40
1.0
 10
6.8632130959
 20
6.1791945605
 30
0.0
 10
6.862699739
 20
6.1780402279
 30
0.0
 10
6.8617714449
 20
6.1756860838
 30
0.0
 10
6.8607075426
 20
6.1720416052
 30
0.0
 10
6.8600173027
 20
6.1683068374
 30
0.0
 10
6.8598459405
 20
6.1657768744
 30
0.0
 10
6.8598459098
 20
6.1645131467
 30
0.0
  0
SPLINE
  5
3D1
100
AcDbEntity
  8
ALL_ASSEMBLY_MEMBERS
100
AcDbSpline
 62
7
  6
CONTINUOUS
 70
0
 71
3
 72
18
 73
14
 74
0
 42
0.0000001
 43
0.0000001
 44
0.0000000001
 40
0.0
 40
0.0
 40
0.0
 40
0.0
 40
0.1798572154
 40
0.3546881797
 40
0.5178626348
 40
0.664160331
 40
0.7890203752
 40
0.842180969
 40
0.8886049889
 40
0.9278810682
 40
0.9596385841
 40
0.9837031105
 40
1.0
 40
1.0
 40
1.0
 40
1.0
 10
6.8632130963
 20
5.9191945605
 30
0.0
 10
6.8632130963
 20
5.9185994049
 30
0.0
 10
6.8632173602
 20
5.9174257215
 30
0.0
 10
6.8632359338
 20
5.9157121763
 30
0.0
 10
6.8632663783
 20
5.9141098621
 30
0.0
 10
6.8633074178
 20
5.9126732027
 30
0.0
 10
6.8633510379
 20
5.9116008556
 30
0.0
 10
6.8633916757
 20
5.9108592622
 30
0.0
 10
6.8634221275
 20
5.9104007538
 30
0.0
 10
6.8634539416
 20
5.91001339
 30
0.0
 10
6.8634866342
 20
5.9097003016
 30
0.0
 10
6.8635200801
 20
5.9094640956
 30
0.0
 10
6.8635462459
 20
5.9093327355
 30
0.0
 10
6.8635618712
 20
5.9092811216
 30
0.0
  0
LINE
  5
3D2
100
AcDbEntity
  8
ALL_ASSEMBLY_MEMBERS
100
AcDbLine
 62
7
  6
CONTINUOUS
 10
6.8635618712
 20
5.9092811216
 11
6.8636142234
 21
5.9091945605
  0
LINE
  5
3D3
100
AcDbEntity
  8
ALL_ASSEMBLY_MEMBERS
100
AcDbLine
 62
7
  6
CONTINUOUS
 10
7.4163501553
 20
5.9091945605
 11
7.4162562637
 21
5.9092811217
  0
LINE
  5
3D4
100
AcDbEntity
  8
ALL_ASSEMBLY_MEMBERS
100
AcDbLine
 62
7
  6
CONTINUOUS
 10
7.4162562637
 20
5.9092811217
 11
7.415990457
 21
5.9105344124
  0
SPLINE
  5
3D5
100
AcDbEntity
  8
ALL_ASSEMBLY_MEMBERS
100
AcDbSpline
 62
7
  6
CONTINUOUS
 70
0
 71
3
 72
12
 73
8
 74
0
 42
0.0000001
 43
0.0000001
 44
0.0000000001
 40
0.0
 40
0.0
 40
0.0
 40
0.0
 40
0.0843007229
 40
0.1840090986
 40
0.4231255899
 40
0.7018221277
 40
1.0
 40
1.0
 40
1.0
 40
1.0
 10
7.415990457
 20
5.9105344124
 30
0.0
 10
7.4159603503
 20
5.9107762189
 30
0.0
 10
7.4159048943
 20
5.9113053026
 30
0.0
 10
7.4158067939
 20
5.9125244846
 30
0.0
 10
7.4157137423
 20
5.9143073427
 30
0.0
 10
7.4156461103
 20
5.9166651413
 30
0.0
 10
7.4156307499
 20
5.9183326691
 30
0.0
 10
7.4156307499
 20
5.9191945605
 30
0.0
  0
LINE
  5
3D6
100
AcDbEntity
  8
ALL_ASSEMBLY_MEMBERS
100
AcDbLine
 62
7
  6
CONTINUOUS
 10
7.4170972548
 20
5.9091966474
 11
7.4167336191
 21
5.9105352333
  0
SPLINE
  5
3D7
100
AcDbEntity
  8
ALL_ASSEMBLY_MEMBERS
100
AcDbSpline
 62
7
  6
CONTINUOUS
 70
0
 71
3
 72
12
 73
8
 74
0
 42
0.0000001
 43
0.0000001
 44
0.0000000001
 40
0.0
 40
0.0
 40
0.0
 40
0.0
 40
0.0842945731
 40
0.1840002964
 40
0.4231191858
 40
0.7018219243
 40
1.0
 40
1.0
 40
1.0
 40
1.0
 10
7.4167336191
 20
5.9105352333
 30
0.0
 10
7.4167028295
 20
5.9107769997
 30
0.0
 10
7.4166458899
 20
5.9113060393
 30
0.0
 10
7.4165443983
 20
5.9125252441
 30
0.0
 10
7.416446437
 20
5.9143083214
 30
0.0
 10
7.4163723657
 20
5.9166665652
 30
0.0
 10
7.4163524836
 20
5.9183344972
 30
0.0
 10
7.4163501553
 20
5.91919661
 30
0.0
  0
SPLINE
  5
3D8
100
AcDbEntity
  8
ALL_ASSEMBLY_MEMBERS
100
AcDbSpline
 62
7
  6
CONTINUOUS
 70
0
 71
3
 72
21
 73
17
 74
0
 42
0.0000001
 43
0.0000001
 44
0.0000000001
 40
0.0
 40
0.0
 40
0.0
 40
0.0
 40
0.1877506514
 40
0.369155671
 40
0.5364358455
 40
0.6836852387
 40
0.7481701014
 40
0.8058676486
 40
0.8563610921
 40
0.899293643
 40
0.9344787471
 40
0.9621682501
 40
0.9734561454
 40
0.9832780199
 40
0.9919630349
 40
1.0
 40
1.0
 40
1.0
 40
1.0
 10
8.5575566174
 20
6.2267795084
 30
0.0
 10
8.5575508529
 20
6.2274267316
 30
0.0
 10
8.5575606452
 20
6.2286995793
 30
0.0
 10
8.5576360985
 20
6.2305477321
 30
0.0
 10
8.5577713805
 20
6.2322524706
 30
0.0
 10
8.5579335746
 20
6.2335497194
 30
0.0
 10
8.5580939358
 20
6.234464787
 30
0.0
 10
8.5582194743
 20
6.2350468818
 30
0.0
 10
8.5583541887
 20
6.2355503824
 30
0.0
 10
8.5584967025
 20
6.235970795
 30
0.0
 10
8.5586461775
 20
6.2363040645
 30
0.0
 10
8.5587833357
 20
6.2365220253
 30
0.0
 10
8.5588986911
 20
6.2366452279
 30
0.0
 10
8.5589807012
 20
6.2367080811
 30
0.0
 10
8.5590643607
 20
6.2367472554
 30
0.0
 10
8.5591221955
 20
6.2367567378
 30
0.0
 10
8.5591499007
 20
6.236757007
 30
0.0
  0
LINE
  5
3D9
100
AcDbEntity
  8
ALL_ASSEMBLY_MEMBERS
100
AcDbLine
 62
7
  6
CONTINUOUS
 10
7.4170561364
 20
6.1891925863
 11
7.4167130971
 21
6.187853932
  0
SPLINE
  5
3DA
100
AcDbEntity
  8
ALL_ASSEMBLY_MEMBERS
100
AcDbSpline
 62
7
  6
CONTINUOUS
 70
0
 71
3
 72
12
 73
8
 74
0
 42
0.0000001
 43
0.0000001
 44
0.0000000001
 40
0.0
 40
0.0
 40
0.0
 40
0.0
 40
0.0842535194
 40
0.1839368705
 40
0.4230502395
 40
0.7017797543
 40
1.0
 40
1.0
 40
1.0
 40
1.0
 10
7.4167130971
 20
6.187853932
 30
0.0
 10
7.4166840241
 20
6.187612112
 30
0.0
 10
7.4166302547
 20
6.1870830218
 30
0.0
 10
7.4165343703
 20
6.1858637674
 30
0.0
 10
7.4164417292
 20
6.1840807315
 30
0.0
 10
7.4163715115
 20
6.181722579
 30
0.0
 10
7.4163524929
 20
6.1800547194
 30
0.0
 10
7.4163501552
 20
6.1791926231
 30
0.0
  0
LINE
  5
3DB
100
AcDbEntity
  8
ALL_ASSEMBLY_MEMBERS
100
AcDbLine
 62
7
  6
CONTINUOUS
 10
7.4163501553
 20
6.1891945605
 11
7.4159865772
 21
6.1878554027
  0
SPLINE
  5
3DC
100
AcDbEntity
  8
ALL_ASSEMBLY_MEMBERS
100
AcDbSpline
 62
7
  6
CONTINUOUS
 70
0
 71
3
 72
12
 73
8
 74
0
 42
0.0000001
 43
0.0000001
 44
0.0000000001
 40
0.0
 40
0.0
 40
0.0
 40
0.0
 40
0.0843046801
 40
0.1840169966
 40
0.4231392751
 40
0.7018348845
 40
1.0
 40
1.0
 40
1.0
 40
1.0
 10
7.4159865772
 20
6.1878554027
 30
0.0
 10
7.4159557744
 20
6.1876136236
 30
0.0
 10
7.4158987964
 20
6.1870845728
 30
0.0
 10
7.4157971937
 20
6.1858653948
 30
0.0
 10
7.4156990286
 20
6.1840824313
 30
0.0
 10
7.4156246447
 20
6.1817243913
 30
0.0
 10
7.4156045157
 20
6.1800566235
 30
0.0
 10
7.4156020534
 20
6.1791946017
 30
0.0
  0
LINE
  5
3DD
100
AcDbEntity
  8
ALL_ASSEMBLY_MEMBERS
100
AcDbLine
 62
7
  6
CONTINUOUS
 10
6.8636142233
 20
6.1891945605
 11
6.8634136628
 21
6.1878547192
  0
LINE
  5
3DE
100
AcDbEntity
  8
ALL_ASSEMBLY_MEMBERS
100
AcDbLine
 62
7
  6
CONTINUOUS
 10
6.8634136628
 20
6.1878547192
 11
6.8632130958
 21
6.1791945605
  0
SPLINE
  5
3DF
100
AcDbEntity
  8
ALL_ASSEMBLY_MEMBERS
100
AcDbSpline
 62
7
  6
CONTINUOUS
 70
0
 71
3
 72
13
 73
9
 74
0
 42
0.0000001
 43
0.0000001
 44
0.0000000001
 40
0.0
 40
0.0
 40
0.0
 40
0.0
 40
0.0677796958
 40
0.1447204369
 40
0.2368743469
 40
0.3476144393
 40
0.630808326
 40
1.0
 40
1.0
 40
1.0
 40
1.0
 10
8.559149903
 20
5.8616321086
 30
0.0
 10
8.5591127234
 20
5.8616324698
 30
0.0
 10
8.5590330178
 20
5.8616501285
 30
0.0
 10
8.5589218292
 20
5.8617205907
 30
0.0
 10
8.5588142444
 20
5.8618314092
 30
0.0
 10
8.5586615939
 20
5.8620510043
 30
0.0
 10
8.5584860653
 20
5.8624337946
 30
0.0
 10
8.5583765996
 20
5.8627748014
 30
0.0
 10
8.5583214009
 20
5.8629696585
 30
0.0
  0
SPLINE
  5
3E0
100
AcDbEntity
  8
ALL_ASSEMBLY_MEMBERS
100
AcDbSpline
 62
7
  6
CONTINUOUS
 70
0
 71
3
 72
13
 73
9
 74
0
 42
0.0000001
 43
0.0000001
 44
0.0000000001
 40
0.0
 40
0.0
 40
0.0
 40
0.0
 40
0.085812273
 40
0.186308653
 40
0.3001470621
 40
0.4255517363
 40
0.7032165772
 40
1.0
 40
1.0
 40
1.0
 40
1.0
 10
8.5583214009
 20
5.8629696585
 30
0.0
 10
8.5582536095
 20
5.863208969
 30
0.0
 10
8.5581287496
 20
5.8637348643
 30
0.0
 10
8.5579742853
 20
5.8645912827
 30
0.0
 10
8.5578406932
 20
5.8655671715
 30
0.0
 10
8.557687762
 20
5.8670578256
 30
0.0
 10
8.557570338
 20
5.8690839378
 30
0.0
 10
8.5575489548
 20
5.8707494125
 30
0.0
 10
8.5575566159
 20
5.8716096061
 30
0.0
  0
SPLINE
  5
3E1
100
AcDbEntity
  8
ALL_ASSEMBLY_MEMBERS
100
AcDbSpline
 62
7
  6
CONTINUOUS
 70
0
 71
3
 72
15
 73
11
 74
0
 42
0.0000001
 43
0.0000001
 44
0.0000000001
 40
0.0
 40
0.0
 40
0.0
 40
0.0
 40
0.323245375
 40
0.4786170866
 40
0.6226681427
 40
0.7506983341
 40
0.8585868538
 40
0.9426038494
 40
0.9747825581
 40
1.0
 40
1.0
 40
1.0
 40
1.0
 10
8.5575566174
 20
6.2267795084
 30
0.0
 10
8.5587207244
 20
6.2271271506
 30
0.0
 10
8.5604491006
 20
6.2276262722
 30
0.0
 10
8.5627063822
 20
6.2282441012
 30
0.0
 10
8.5642603266
 20
6.2286520443
 30
0.0
 10
8.5656461048
 20
6.2289974126
 30
0.0
 10
8.5668175316
 20
6.2292689919
 30
0.0
 10
8.5676424208
 20
6.2294400093
 30
0.0
 10
8.5681663588
 20
6.2295295259
 30
0.0
 10
8.568380194
 20
6.2295587519
 30
0.0
 10
8.5684744826
 20
6.2295683805
 30
0.0
  0
SPLINE
  5
3E2
100
AcDbEntity
  8
ALL_ASSEMBLY_MEMBERS
100
AcDbSpline
 62
7
  6
CONTINUOUS
 70
0
 71
3
 72
15
 73
11
 74
0
 42
0.0000001
 43
0.0000001
 44
0.0000000001
 40
0.0
 40
0.0
 40
0.0
 40
0.0
 40
0.3232455192
 40
0.4786173068
 40
0.6226684403
 40
0.7506987214
 40
0.8585872631
 40
0.9426040646
 40
0.9747826333
 40
1.0
 40
1.0
 40
1.0
 40
1.0
 10
8.5575566159
 20
5.8716096061
 30
0.0
 10
8.5587207246
 20
5.8712619688
 30
0.0
 10
8.5604491042
 20
5.8707628577
 30
0.0
 10
8.5627063882
 20
5.8701450351
 30
0.0
 10
8.5642603351
 20
5.869737099
 30
0.0
 10
8.5656461177
 20
5.8693917467
 30
0.0
 10
8.5668175451
 20
5.8691201738
 30
0.0
 10
8.5676424269
 20
5.8689491288
 30
0.0
 10
8.5681663596
 20
5.8688595912
 30
0.0
 10
8.5683801933
 20
5.8688303597
 30
0.0
 10
8.5684744817
 20
5.8688207316
 30
0.0
  0
SPLINE
  5
3E3
100
AcDbEntity
  8
ALL_ASSEMBLY_MEMBERS
100
AcDbSpline
 62
7
  6
CONTINUOUS
 70
0
 71
3
 72
11
 73
7
 74
0
 42
0.0000001
 43
0.0000001
 44
0.0000000001
 40
0.0
 40
0.0
 40
0.0
 40
0.0
 40
0.2499864973
 40
0.500011056
 40
0.7500233705
 40
1.0
 40
1.0
 40
1.0
 40
1.0
 10
6.8598459098
 20
5.9338759743
 30
0.0
 10
6.8598459222
 20
5.9326123922
 30
0.0
 10
6.860017338
 20
5.9300829311
 30
0.0
 10
6.8607073388
 20
5.9263483318
 30
0.0
 10
6.86177115
 20
5.9227036633
 30
0.0
 10
6.8626996792
 20
5.9203490806
 30
0.0
 10
6.8632130962
 20
5.9191945605
 30
0.0
  0
LINE
  5
3E4
100
AcDbEntity
  8
ALL_ASSEMBLY_MEMBERS
100
AcDbLine
 62
7
  6
CONTINUOUS
 10
8.5591040255
 20
6.0491945605
 11
8.5590916901
 21
6.2163615031
  0
SPLINE
  5
3E5
100
AcDbEntity
  8
ALL_ASSEMBLY_MEMBERS
100
AcDbSpline
 62
7
  6
CONTINUOUS
 70
0
 71
3
 72
9
 73
5
 74
0
 42
0.0000001
 43
0.0000001
 44
0.0000000001
 40
0.0
 40
0.0
 40
0.0
 40
0.0
 40
0.2502009798
 40
1.0
 40
1.0
 40
1.0
 40
1.0
 10
8.557556598
 20
5.8716096063
 30
0.0
 10
8.5578027517
 20
5.8724543792
 30
0.0
 10
8.5586762387
 20
5.875861147
 30
0.0
 10
8.5590951318
 20
5.8793907296
 30
0.0
 10
8.5590982401
 20
5.8820276157
 30
0.0
  0
SPLINE
  5
3E6
100
AcDbEntity
  8
ALL_ASSEMBLY_MEMBERS
100
AcDbSpline
 62
7
  6
CONTINUOUS
 70
0
 71
3
 72
15
 73
11
 74
0
 42
0.0000001
 43
0.0000001
 44
0.0000000001
 40
0.0
 40
0.0
 40
0.0
 40
0.0
 40
0.1241384684
 40
0.2487116212
 40
0.3735940783
 40
0.4986890972
 40
0.6239237134
 40
0.7492452014
 40
0.8746144674
 40
1.0
 40
1.0
 40
1.0
 40
1.0
 10
8.557556598
 20
5.8716096063
 30
0.0
 10
8.5102863584
 20
5.8719389094
 30
0.0
 10
8.4155874138
 20
5.8739658432
 30
0.0
 10
8.2734491846
 20
5.8800708511
 30
0.0
 10
8.131050065
 20
5.888177717
 30
0.0
 10
7.9884557354
 20
5.897192154
 30
0.0
 10
7.8456811117
 20
5.9060102756
 30
0.0
 10
7.7027223397
 20
5.9135035851
 30
0.0
 10
7.5595932657
 20
5.9185339048
 30
0.0
 10
7.4640955135
 20
5.919493821
 30
0.0
 10
7.416350176
 20
5.919196498
 30
0.0
  0
LINE
  5
3E7
100
AcDbEntity
  8
ALL_ASSEMBLY_MEMBERS
100
AcDbLine
 62
7
  6
CONTINUOUS
 10
8.5590969178
 20
5.8820276162
 11
8.5591092438
 21
6.0491945605
  0
SPLINE
  5
3E8
100
AcDbEntity
  8
ALL_ASSEMBLY_MEMBERS
100
AcDbSpline
 62
7
  6
CONTINUOUS
 70
0
 71
3
 72
21
 73
17
 74
0
 42
0.0000001
 43
0.0000001
 44
0.0000000001
 40
0.0
 40
0.0
 40
0.0
 40
0.0
 40
0.0045448132
 40
0.0088029401
 40
0.0147012835
 40
0.0224038764
 40
0.0320548665
 40
0.0577395898
 40
0.0927800215
 40
0.1379945436
 40
0.1937971966
 40
0.2599835275
 40
0.4192461321
 40
0.6032710963
 40
0.7995143841
 40
1.0
 40
1.0
 40
1.0
 40
1.0
 10
8.6393585804
 20
6.1091241535
 30
0.0
 10
8.6393439234
 20
6.1091241506
 30
0.0
 10
8.6393233282
 20
6.1090949976
 30
0.0
 10
8.639306829
 20
6.1090533405
 30
0.0
 10
8.639290275
 20
6.1089970452
 30
0.0
 10
8.6392744558
 20
6.1089241142
 30
0.0
 10
8.639250702
 20
6.1087871356
 30
0.0
 10
8.6392231634
 20
6.1085618775
 30
0.0
 10
8.6391929168
 20
6.1082214827
 30
0.0
 10
8.6391641306
 20
6.1077836335
 30
0.0
 10
8.6391372388
 20
6.1072450535
 30
0.0
 10
8.639102698
 20
6.1063386652
 30
0.0
 10
8.6390704555
 20
6.1050184574
 30
0.0
 10
8.6390459236
 20
6.1032786358
 30
0.0
 10
8.6390328565
 20
6.1014057438
 30
0.0
 10
8.6390304064
 20
6.1001262957
 30
0.0
 10
8.6390304063
 20
6.0994797318
 30
0.0
  0
SPLINE
  5
3E9
100
AcDbEntity
  8
ALL_ASSEMBLY_MEMBERS
100
AcDbSpline
 62
7
  6
CONTINUOUS
 70
0
 71
3
 72
21
 73
17
 74
0
 42
0.0000001
 43
0.0000001
 44
0.0000000001
 40
0.0
 40
0.0
 40
0.0
 40
0.0
 40
0.2004850227
 40
0.3967290965
 40
0.5807516058
 40
0.7400110565
 40
0.8061989987
 40
0.8620040749
 40
0.9072199129
 40
0.9422604606
 40
0.9679450652
 40
0.9775960106
 40
0.9852985932
 40
0.9911969987
 40
0.9954551947
 40
1.0
 40
1.0
 40
1.0
 40
1.0
 10
8.6431088968
 20
6.0994797318
 30
0.0
 10
8.6431088967
 20
6.1001262938
 30
0.0
 10
8.6431064467
 20
6.1014057425
 30
0.0
 10
8.6430933796
 20
6.1032786272
 30
0.0
 10
8.643068848
 20
6.1050184333
 30
0.0
 10
8.6430366062
 20
6.1063386283
 30
0.0
 10
8.6430020658
 20
6.1072450194
 30
0.0
 10
8.6429751735
 20
6.1077836167
 30
0.0
 10
8.6429463867
 20
6.1082214783
 30
0.0
 10
8.6429161397
 20
6.1085618773
 30
0.0
 10
8.6428886011
 20
6.1087871353
 30
0.0
 10
8.6428648474
 20
6.1089241133
 30
0.0
 10
8.6428490282
 20
6.1089970443
 30
0.0
 10
8.6428324741
 20
6.10905334
 30
0.0
 10
8.6428159753
 20
6.1090949977
 30
0.0
 10
8.6427953796
 20
6.1091241507
 30
0.0
 10
8.6427807227
 20
6.1091241535
 30
0.0
  0
SPLINE
  5
3EA
100
AcDbEntity
  8
ALL_ASSEMBLY_MEMBERS
100
AcDbSpline
 62
7
  6
CONTINUOUS
 70
0
 71
3
 72
13
 73
9
 74
0
 42
0.0000001
 43
0.0000001
 44
0.0000000001
 40
0.0
 40
0.0
 40
0.0
 40
0.0
 40
0.2483327995
 40
0.373262903
 40
0.4982186239
 40
0.6234253146
 40
0.7490899919
 40
1.0
 40
1.0
 40
1.0
 40
1.0
 10
6.8636142234
 20
5.9091945605
 30
0.0
 10
6.8626651739
 20
5.9091945605
 30
0.0
 10
6.8612278798
 20
5.9094100194
 30
0.0
 10
6.8594458
 20
5.9100935663
 30
0.0
 10
6.8581927216
 20
5.910800971
 30
0.0
 10
6.8570533399
 20
5.9116843649
 30
0.0
 10
6.8557226663
 20
5.9130716211
 30
0.0
 10
6.8549563692
 20
5.9143204531
 30
0.0
 10
6.8545781397
 20
5.9152016054
 30
0.0
  0
LINE
  5
3EB
100
AcDbEntity
  8
ALL_ASSEMBLY_MEMBERS
100
AcDbLine
 62
7
  6
CONTINUOUS
 10
6.8632130963
 20
5.9191945605
 11
6.8545781397
 21
5.9152016054
  0
LINE
  5
3EC
100
AcDbEntity
  8
ALL_ASSEMBLY_MEMBERS
100
AcDbLine
 62
7
  6
CONTINUOUS
 10
6.8632130958
 20
6.1791945605
 11
6.8545781397
 21
6.1831875157
  0
SPLINE
  5
3ED
100
AcDbEntity
  8
ALL_ASSEMBLY_MEMBERS
100
AcDbSpline
 62
7
  6
CONTINUOUS
 70
0
 71
3
 72
13
 73
9
 74
0
 42
0.0000001
 43
0.0000001
 44
0.0000000001
 40
0.0
 40
0.0
 40
0.0
 40
0.0
 40
0.2483327658
 40
0.3732628307
 40
0.4982185235
 40
0.6234252141
 40
0.7490899326
 40
1.0
 40
1.0
 40
1.0
 40
1.0
 10
6.8636142233
 20
6.1891945605
 30
0.0
 10
6.8626651739
 20
6.1891945605
 30
0.0
 10
6.8612278801
 20
6.1889791018
 30
0.0
 10
6.8594458007
 20
6.1882955551
 30
0.0
 10
6.8581927224
 20
6.1875881507
 30
0.0
 10
6.8570533406
 20
6.1867047568
 30
0.0
 10
6.8557226669
 20
6.1853175003
 30
0.0
 10
6.8549563692
 20
6.1840686682
 30
0.0
 10
6.8545781397
 20
6.1831875157
 30
0.0
  0
SPLINE
  5
3EE
100
AcDbEntity
  8
ALL_ASSEMBLY_MEMBERS
100
AcDbSpline
 62
7
  6
CONTINUOUS
 70
0
 71
3
 72
21
 73
17
 74
0
 42
0.0000001
 43
0.0000001
 44
0.0000000001
 40
0.0
 40
0.0
 40
0.0
 40
0.0
 40
0.0045448132
 40
0.0088029401
 40
0.0147012835
 40
0.0224038764
 40
0.0320548665
 40
0.0577395898
 40
0.0927800215
 40
0.1379945436
 40
0.1937971966
 40
0.2599835275
 40
0.4192461321
 40
0.6032710963
 40
0.7995143841
 40
1.0
 40
1.0
 40
1.0
 40
1.0
 10
8.6427807227
 20
5.9892649675
 30
0.0
 10
8.6427953797
 20
5.9892649704
 30
0.0
 10
8.6428159749
 20
5.9892941234
 30
0.0
 10
8.6428324741
 20
5.9893357805
 30
0.0
 10
8.6428490281
 20
5.9893920758
 30
0.0
 10
8.6428648472
 20
5.9894650068
 30
0.0
 10
8.6428886011
 20
5.9896019854
 30
0.0
 10
8.6429161397
 20
5.9898272435
 30
0.0
 10
8.6429463863
 20
5.9901676383
 30
0.0
 10
8.6429751725
 20
5.9906054875
 30
0.0
 10
8.6430020643
 20
5.9911440675
 30
0.0
 10
8.6430366051
 20
5.9920504558
 30
0.0
 10
8.6430688476
 20
5.9933706636
 30
0.0
 10
8.6430933795
 20
5.9951104852
 30
0.0
 10
8.6431064466
 20
5.9969833772
 30
0.0
 10
8.6431088967
 20
5.9982628253
 30
0.0
 10
8.6431088968
 20
5.9989093892
 30
0.0
  0
SPLINE
  5
3EF
100
AcDbEntity
  8
ALL_ASSEMBLY_MEMBERS
100
AcDbSpline
 62
7
  6
CONTINUOUS
 70
0
 71
3
 72
14
 73
10
 74
0
 42
0.0000001
 43
0.0000001
 44
0.0000000001
 40
0.0
 40
0.0
 40
0.0
 40
0.0
 40
0.0509359247
 40
0.1206372213
 40
0.2118505008
 40
0.3262311704
 40
0.4641336846
 40
0.6243662194
 40
1.0
 40
1.0
 40
1.0
 40
1.0
 10
6.8090701722
 20
5.9867625334
 30
0.0
 10
6.8089804571
 20
5.986906079
 30
0.0
 10
6.8088216974
 20
5.9872783963
 30
0.0
 10
6.8086469074
 20
5.98796125
 30
0.0
 10
6.80850698
 20
5.9888666365
 30
0.0
 10
6.8084081031
 20
5.9900043593
 30
0.0
 10
6.8083549925
 20
5.9913746765
 30
0.0
 10
6.8083494429
 20
5.9936141245
 30
0.0
 10
6.8084219082
 20
5.9953943771
 30
0.0
 10
6.8084923676
 20
5.9966407313
 30
0.0
  0
LINE
  5
3F0
100
AcDbEntity
  8
ALL_ASSEMBLY_MEMBERS
100
AcDbLine
 62
7
  6
CONTINUOUS
 10
6.8085511672
 20
5.9976079983
 11
6.8089218535
 21
6.0021878817
  0
SPLINE
  5
3F1
100
AcDbEntity
  8
ALL_ASSEMBLY_MEMBERS
100
AcDbSpline
 62
7
  6
CONTINUOUS
 70
0
 71
3
 72
11
 73
7
 74
0
 42
0.0000001
 43
0.0000001
 44
0.0000000001
 40
0.0
 40
0.0
 40
0.0
 40
0.0
 40
0.2646030355
 40
0.5088939044
 40
0.7480510224
 40
1.0
 40
1.0
 40
1.0
 40
1.0
 10
6.8545781397
 20
5.9152016054
 30
0.0
 10
6.854525587
 20
5.9150930874
 30
0.0
 10
6.8544426897
 20
5.9148743645
 30
0.0
 10
6.8544006452
 20
5.9145321807
 30
0.0
 10
6.8544545531
 20
5.9141968814
 30
0.0
 10
6.8545518011
 20
5.9139919275
 30
0.0
 10
6.8546126487
 20
5.9138945711
 30
0.0
  0
SPLINE
  5
3F2
100
AcDbEntity
  8
ALL_ASSEMBLY_MEMBERS
100
AcDbSpline
 62
7
  6
CONTINUOUS
 70
0
 71
3
 72
21
 73
17
 74
0
 42
0.0000001
 43
0.0000001
 44
0.0000000001
 40
0.0
 40
0.0
 40
0.0
 40
0.0
 40
0.2004850227
 40
0.3967290965
 40
0.5807516058
 40
0.7400110565
 40
0.8061989987
 40
0.8620040749
 40
0.9072199129
 40
0.9422604606
 40
0.9679450652
 40
0.9775960106
 40
0.9852985932
 40
0.9911969987
 40
0.9954551947
 40
1.0
 40
1.0
 40
1.0
 40
1.0
 10
8.6390304063
 20
5.9989093892
 30
0.0
 10
8.6390304064
 20
5.9982628272
 30
0.0
 10
8.6390328564
 20
5.9969833785
 30
0.0
 10
8.6390459235
 20
5.9951104938
 30
0.0
 10
8.6390704551
 20
5.9933706877
 30
0.0
 10
8.6391026969
 20
5.9920504927
 30
0.0
 10
8.6391372373
 20
5.9911441016
 30
0.0
 10
8.6391641296
 20
5.9906055043
 30
0.0
 10
8.6391929164
 20
5.9901676427
 30
0.0
 10
8.6392231634
 20
5.9898272437
 30
0.0
 10
8.639250702
 20
5.9896019857
 30
0.0
 10
8.6392744557
 20
5.9894650077
 30
0.0
 10
8.6392902749
 20
5.9893920767
 30
0.0
 10
8.639306829
 20
5.989335781
 30
0.0
 10
8.6393233278
 20
5.9892941233
 30
0.0
 10
8.6393439234
 20
5.9892649703
 30
0.0
 10
8.6393585804
 20
5.9892649675
 30
0.0
  0
SPLINE
  5
3F3
100
AcDbEntity
  8
ALL_ASSEMBLY_MEMBERS
100
AcDbSpline
 62
7
  6
CONTINUOUS
 70
0
 71
3
 72
11
 73
7
 74
0
 42
0.0000001
 43
0.0000001
 44
0.0000000001
 40
0.0
 40
0.0
 40
0.0
 40
0.0
 40
0.250381497
 40
0.5004483027
 40
0.7502988585
 40
1.0
 40
1.0
 40
1.0
 40
1.0
 10
6.8516167957
 20
5.9338759743
 30
0.0
 10
6.8514666861
 20
5.932290755
 30
0.0
 10
6.8513879653
 20
5.9290977858
 30
0.0
 10
6.8518816265
 20
5.9243403428
 30
0.0
 10
6.8529351542
 20
5.9196804851
 30
0.0
 10
6.8539784255
 20
5.9166719915
 30
0.0
 10
6.8545781397
 20
5.9152016054
 30
0.0
  0
SPLINE
  5
3F4
100
AcDbEntity
  8
ALL_ASSEMBLY_MEMBERS
100
AcDbSpline
 62
7
  6
CONTINUOUS
 70
0
 71
3
 72
14
 73
10
 74
0
 42
0.0000001
 43
0.0000001
 44
0.0000000001
 40
0.0
 40
0.0
 40
0.0
 40
0.0
 40
0.3758769089
 40
0.5356901608
 40
0.6731486979
 40
0.7872611518
 40
0.8784904988
 40
0.9485059684
 40
1.0
 40
1.0
 40
1.0
 40
1.0
 10
6.8084714947
 20
6.1021295272
 30
0.0
 10
6.8084079652
 20
6.1033291868
 30
0.0
 10
6.8083446989
 20
6.1050410079
 30
0.0
 10
6.8083592806
 20
6.1071927234
 30
0.0
 10
6.8084163102
 20
6.1085067302
 30
0.0
 10
6.8085166331
 20
6.1095982172
 30
0.0
 10
6.8086557342
 20
6.1104684223
 30
0.0
 10
6.8088278596
 20
6.1111270706
 30
0.0
 10
6.8089829456
 20
6.1114870235
 30
0.0
 10
6.8090701722
 20
6.1116265876
 30
0.0
  0
SPLINE
  5
3F5
100
AcDbEntity
  8
ALL_ASSEMBLY_MEMBERS
100
AcDbSpline
 62
7
  6
CONTINUOUS
 70
0
 71
3
 72
11
 73
7
 74
0
 42
0.0000001
 43
0.0000001
 44
0.0000000001
 40
0.0
 40
0.0
 40
0.0
 40
0.0
 40
0.2496507597
 40
0.4994315531
 40
0.749574891
 40
1.0
 40
1.0
 40
1.0
 40
1.0
 10
6.8545781397
 20
6.1831875157
 30
0.0
 10
6.8539785578
 20
6.1817174229
 30
0.0
 10
6.8529355466
 20
6.1787096659
 30
0.0
 10
6.8518816622
 20
6.174050169
 30
0.0
 10
6.8513882581
 20
6.1692923691
 30
0.0
 10
6.8514667743
 20
6.1660986517
 30
0.0
 10
6.8516167957
 20
6.1645131467
 30
0.0
  0
SPLINE
  5
3F6
100
AcDbEntity
  8
ALL_ASSEMBLY_MEMBERS
100
AcDbSpline
 62
7
  6
CONTINUOUS
 70
0
 71
3
 72
11
 73
7
 74
0
 42
0.0000001
 43
0.0000001
 44
0.0000000001
 40
0.0
 40
0.0
 40
0.0
 40
0.0
 40
0.2519489766
 40
0.4911060969
 40
0.7353969734
 40
1.0
 40
1.0
 40
1.0
 40
1.0
 10
6.8546126487
 20
6.1844945499
 30
0.0
 10
6.8545518011
 20
6.1843971935
 30
0.0
 10
6.8544545531
 20
6.1841922396
 30
0.0
 10
6.8544006453
 20
6.1838569403
 30
0.0
 10
6.8544426896
 20
6.1835147565
 30
0.0
 10
6.854525587
 20
6.1832960337
 30
0.0
 10
6.8545781397
 20
6.1831875157
 30
0.0
  0
SPLINE
  5
3F7
100
AcDbEntity
  8
ALL_ASSEMBLY_MEMBERS
100
AcDbSpline
 62
7
  6
CONTINUOUS
 70
0
 71
3
 72
17
 73
13
 74
0
 42
0.0000001
 43
0.0000001
 44
0.0000000001
 40
0.0
 40
0.0
 40
0.0
 40
0.0
 40
0.1847688369
 40
0.3619449387
 40
0.526288492
 40
0.6718069975
 40
0.7932828588
 40
0.8879250976
 40
0.9251531837
 40
0.9559622819
 40
0.980753108
 40
1.0
 40
1.0
 40
1.0
 40
1.0
 10
8.6376275326
 20
5.9989093892
 30
0.0
 10
8.6377153431
 20
5.9980197047
 30
0.0
 10
8.6378799545
 20
5.9962761478
 30
0.0
 10
8.6380899935
 20
5.9937382954
 30
0.0
 10
8.6382501547
 20
5.9913871061
 30
0.0
 10
8.6383517576
 20
5.9893023305
 30
0.0
 10
8.638389823
 20
5.9875527727
 30
0.0
 10
8.6383695639
 20
5.9863264553
 30
0.0
 10
8.6383163108
 20
5.9855409694
 30
0.0
 10
8.638266471
 20
5.9850943678
 30
0.0
 10
8.6382048119
 20
5.9847373066
 30
0.0
 10
8.6381504585
 20
5.9845306896
 30
0.0
 10
8.6381197938
 20
5.9844427566
 30
0.0
  0
SPLINE
  5
3F8
100
AcDbEntity
  8
ALL_ASSEMBLY_MEMBERS
100
AcDbSpline
 62
7
  6
CONTINUOUS
 70
0
 71
3
 72
9
 73
5
 74
0
 42
0.0000001
 43
0.0000001
 44
0.0000000001
 40
0.0
 40
0.0
 40
0.0
 40
0.0
 40
0.4981033807
 40
1.0
 40
1.0
 40
1.0
 40
1.0
 10
8.5684744844
 20
5.8688207337
 30
0.0
 10
8.5689752576
 20
5.8709705026
 30
0.0
 10
8.5696382741
 20
5.8753733704
 30
0.0
 10
8.5695782466
 20
5.8798279792
 30
0.0
 10
8.569358019
 20
5.8820411829
 30
0.0
  0
LINE
  5
3F9
100
AcDbEntity
  8
ALL_ASSEMBLY_MEMBERS
100
AcDbLine
 62
7
  6
CONTINUOUS
 10
8.569358019
 20
5.8820411829
 11
8.5693790561
 21
6.0491945605
  0
SPLINE
  5
3FA
100
AcDbEntity
  8
ALL_ASSEMBLY_MEMBERS
100
AcDbSpline
 62
7
  6
CONTINUOUS
 70
0
 71
3
 72
12
 73
8
 74
0
 42
0.0000001
 43
0.0000001
 44
0.0000000001
 40
0.0
 40
0.0
 40
0.0
 40
0.0
 40
0.1026567112
 40
0.2051907935
 40
0.4251883548
 40
0.6859178949
 40
1.0
 40
1.0
 40
1.0
 40
1.0
 10
8.5694011265
 20
5.8668056599
 30
0.0
 10
8.5694275167
 20
5.8668814868
 30
0.0
 10
8.5694645353
 20
5.8670391426
 30
0.0
 10
8.5694689093
 20
5.8673740697
 30
0.0
 10
8.5693296624
 20
5.867819856
 30
0.0
 10
8.5689769634
 20
5.86833773
 30
0.0
 10
8.5686579247
 20
5.8686573608
 30
0.0
 10
8.5684744844
 20
5.8688207337
 30
0.0
  0
SPLINE
  5
3FB
100
AcDbEntity
  8
ALL_ASSEMBLY_MEMBERS
100
AcDbSpline
 62
7
  6
CONTINUOUS
 70
0
 71
3
 72
17
 73
13
 74
0
 42
0.0000001
 43
0.0000001
 44
0.0000000001
 40
0.0
 40
0.0
 40
0.0
 40
0.0
 40
0.0192468953
 40
0.0440375401
 40
0.0748467772
 40
0.1120749602
 40
0.206716126
 40
0.3281900689
 40
0.4737101794
 40
0.638055129
 40
0.8152307338
 40
1.0
 40
1.0
 40
1.0
 40
1.0
 10
8.6381197938
 20
6.1139463644
 30
0.0
 10
8.6381504587
 20
6.1138584315
 30
0.0
 10
8.6382048122
 20
6.1136518154
 30
0.0
 10
8.6382664704
 20
6.1132947542
 30
0.0
 10
8.638316311
 20
6.1128481525
 30
0.0
 10
8.6383695637
 20
6.1120626705
 30
0.0
 10
8.6383898221
 20
6.1108363672
 30
0.0
 10
8.6383517587
 20
6.109086816
 30
0.0
 10
8.6382501569
 20
6.1070020351
 30
0.0
 10
8.6380899933
 20
6.1046508338
 30
0.0
 10
8.6378799559
 20
6.1021129748
 30
0.0
 10
8.6377153421
 20
6.1003694185
 30
0.0
 10
8.6376275326
 20
6.0994797318
 30
0.0
  0
SPLINE
  5
3FC
100
AcDbEntity
  8
ALL_ASSEMBLY_MEMBERS
100
AcDbSpline
 62
7
  6
CONTINUOUS
 70
0
 71
3
 72
13
 73
9
 74
0
 42
0.0000001
 43
0.0000001
 44
0.0000000001
 40
0.0
 40
0.0
 40
0.0
 40
0.0
 40
0.3139553602
 40
0.4506015082
 40
0.5750684265
 40
0.7949093592
 40
0.8973775265
 40
1.0
 40
1.0
 40
1.0
 40
1.0
 10
8.568474485
 20
6.2295683827
 30
0.0
 10
8.5686579608
 20
6.2297317439
 30
0.0
 10
8.5689088304
 20
6.2299824215
 30
0.0
 10
8.5691763562
 20
6.2303455063
 30
0.0
 10
8.5693623239
 20
6.2306730015
 30
0.0
 10
8.5694689311
 20
6.2310151523
 30
0.0
 10
8.5694645656
 20
6.2313499619
 30
0.0
 10
8.5694275258
 20
6.2315076249
 30
0.0
 10
8.5694011265
 20
6.2315834611
 30
0.0
  0
LINE
  5
3FD
100
AcDbEntity
  8
ALL_ASSEMBLY_MEMBERS
100
AcDbLine
 62
7
  6
CONTINUOUS
 10
8.5693790561
 20
6.0491945605
 11
8.569358019
 21
6.2163479381
  0
SPLINE
  5
3FE
100
AcDbEntity
  8
ALL_ASSEMBLY_MEMBERS
100
AcDbSpline
 62
7
  6
CONTINUOUS
 70
0
 71
3
 72
9
 73
5
 74
0
 42
0.0000001
 43
0.0000001
 44
0.0000000001
 40
0.0
 40
0.0
 40
0.0
 40
0.0
 40
0.5019465568
 40
1.0
 40
1.0
 40
1.0
 40
1.0
 10
8.569358019
 20
6.2163479381
 30
0.0
 10
8.5695782567
 20
6.2185613624
 30
0.0
 10
8.5696382742
 20
6.2230159766
 30
0.0
 10
8.5689751888
 20
6.2274188257
 30
0.0
 10
8.568474485
 20
6.2295683827
 30
0.0
  0
LINE
  5
3FF
100
AcDbEntity
  8
ALL_ASSEMBLY_MEMBERS
100
AcDbLine
 62
7
  6
CONTINUOUS
 10
8.6415419361
 20
5.9844427566
 11
8.6417082196
 21
5.9847120751
  0
LINE
  5
400
100
AcDbEntity
  8
ALL_ASSEMBLY_MEMBERS
100
AcDbLine
 62
7
  6
CONTINUOUS
 10
8.5694011265
 20
6.2315834611
 11
8.5766149804
 21
6.2313024982
  0
LINE
  5
401
100
AcDbEntity
  8
ALL_ASSEMBLY_MEMBERS
100
AcDbLine
 62
7
  6
CONTINUOUS
 10
8.5766149804
 20
6.2313024982
 11
8.5811017234
 21
6.2310550842
  0
SPLINE
  5
402
100
AcDbEntity
  8
ALL_ASSEMBLY_MEMBERS
100
AcDbSpline
 62
7
  6
CONTINUOUS
 70
0
 71
3
 72
15
 73
11
 74
0
 42
0.0000001
 43
0.0000001
 44
0.0000000001
 40
0.0
 40
0.0
 40
0.0
 40
0.0
 40
0.1253851385
 40
0.2507546538
 40
0.3760763578
 40
0.5013111867
 40
0.6264063948
 40
0.7512890226
 40
0.8758618586
 40
1.0
 40
1.0
 40
1.0
 40
1.0
 10
2.8803501086
 20
5.9191964982
 30
0.0
 10
2.8326049221
 20
5.9194938179
 30
0.0
 10
2.7371072277
 20
5.9185338636
 30
0.0
 10
2.5939781282
 20
5.9135035939
 30
0.0
 10
2.4510191011
 20
5.9060102693
 30
0.0
 10
2.3082442463
 20
5.8971921236
 30
0.0
 10
2.1656497011
 20
5.8881776848
 30
0.0
 10
2.0232505684
 20
5.8800708249
 30
0.0
 10
1.8811125247
 20
5.8739657365
 30
0.0
 10
1.7864138249
 20
5.8719389272
 30
0.0
 10
1.7391437109
 20
5.8716096128
 30
0.0
  0
SPLINE
  5
403
100
AcDbEntity
  8
ALL_ASSEMBLY_MEMBERS
100
AcDbSpline
 62
7
  6
CONTINUOUS
 70
0
 71
3
 72
9
 73
5
 74
0
 42
0.0000001
 43
0.0000001
 44
0.0000000001
 40
0.0
 40
0.0
 40
0.0
 40
0.0
 40
0.25040695
 40
1.0
 40
1.0
 40
1.0
 40
1.0
 10
1.7376020704
 20
5.8820276157
 30
0.0
 10
1.737603108
 20
5.8811468816
 30
0.0
 10
1.7377462063
 20
5.8776304995
 30
0.0
 10
1.7384061446
 20
5.8741408215
 30
0.0
 10
1.7391437109
 20
5.8716096128
 30
0.0
  0
LINE
  5
404
100
AcDbEntity
  8
ALL_ASSEMBLY_MEMBERS
100
AcDbLine
 62
7
  6
CONTINUOUS
 10
1.7154477982
 20
6.2308157845
 11
1.7155985871
 21
6.2310550842
  0
SPLINE
  5
405
100
AcDbEntity
  8
ALL_ASSEMBLY_MEMBERS
100
AcDbSpline
 62
7
  6
CONTINUOUS
 70
0
 71
3
 72
11
 73
7
 74
0
 42
0.0000001
 43
0.0000001
 44
0.0000000001
 40
0.0
 40
0.0
 40
0.0
 40
0.0
 40
0.246745113
 40
0.4955062362
 40
0.7469039017
 40
1.0
 40
1.0
 40
1.0
 40
1.0
 10
1.7345267486
 20
6.236281503
 30
0.0
 10
1.7337807903
 20
6.2360335365
 30
0.0
 10
1.7323401275
 20
6.2353417295
 30
0.0
 10
1.7304963434
 20
6.2338011453
 30
0.0
 10
1.7290665251
 20
6.2318457584
 30
0.0
 10
1.7284447538
 20
6.2303444261
 30
0.0
 10
1.7282258289
 20
6.2295683894
 30
0.0
  0
LINE
  5
406
100
AcDbEntity
  8
ALL_ASSEMBLY_MEMBERS
100
AcDbLine
 62
7
  6
CONTINUOUS
 10
1.7155985871
 20
6.2310550842
 11
1.717345816
 21
6.2311479722
  0
LINE
  5
407
100
AcDbEntity
  8
ALL_ASSEMBLY_MEMBERS
100
AcDbLine
 62
7
  6
CONTINUOUS
 10
1.717345816
 20
6.2311479722
 11
1.7200644436
 21
6.2313014168
  0
LINE
  5
408
100
AcDbEntity
  8
ALL_ASSEMBLY_MEMBERS
100
AcDbLine
 62
7
  6
CONTINUOUS
 10
1.7200644436
 20
6.2313014168
 11
1.727299184
 21
6.2315834611
  0
SPLINE
  5
409
100
AcDbEntity
  8
ALL_ASSEMBLY_MEMBERS
100
AcDbSpline
 62
7
  6
CONTINUOUS
 70
0
 71
3
 72
11
 73
7
 74
0
 42
0.0000001
 43
0.0000001
 44
0.0000000001
 40
0.0
 40
0.0
 40
0.0
 40
0.0
 40
0.2467453671
 40
0.4955069127
 40
0.7469043156
 40
1.0
 40
1.0
 40
1.0
 40
1.0
 10
1.7345267397
 20
5.8621076246
 30
0.0
 10
1.7337807806
 20
5.8623555914
 30
0.0
 10
1.7323401162
 20
5.8630473999
 30
0.0
 10
1.7304963279
 20
5.864587981
 30
0.0
 10
1.729066511
 20
5.8665433701
 30
0.0
 10
1.7284447528
 20
5.8680447051
 30
0.0
 10
1.728225828
 20
5.8688207405
 30
0.0
  0
LINE
  5
40A
100
AcDbEntity
  8
ALL_ASSEMBLY_MEMBERS
100
AcDbLine
 62
7
  6
CONTINUOUS
 10
1.6549920353
 20
5.9847121829
 11
1.6551583745
 21
5.9844427566
  0
SPLINE
  5
40B
100
AcDbEntity
  8
ALL_ASSEMBLY_MEMBERS
100
AcDbSpline
 62
7
  6
CONTINUOUS
 70
0
 71
3
 72
11
 73
7
 74
0
 42
0.0000001
 43
0.0000001
 44
0.0000000001
 40
0.0
 40
0.0
 40
0.0
 40
0.0
 40
0.2499378632
 40
0.4998910189
 40
0.7499847309
 40
1.0
 40
1.0
 40
1.0
 40
1.0
 10
3.4334872146
 20
5.9191945605
 30
0.0
 10
3.4340005715
 20
5.9203488931
 30
0.0
 10
3.4349288656
 20
5.9227030372
 30
0.0
 10
3.435992768
 20
5.9263475158
 30
0.0
 10
3.4366830078
 20
5.9300822836
 30
0.0
 10
3.4368543701
 20
5.9326122466
 30
0.0
 10
3.4368544008
 20
5.9338759743
 30
0.0
  0
SPLINE
  5
40C
100
AcDbEntity
  8
ALL_ASSEMBLY_MEMBERS
100
AcDbSpline
 62
7
  6
CONTINUOUS
 70
0
 71
3
 72
18
 73
14
 74
0
 42
0.0000001
 43
0.0000001
 44
0.0000000001
 40
0.0
 40
0.0
 40
0.0
 40
0.0
 40
0.1798572154
 40
0.3546881797
 40
0.5178626348
 40
0.664160331
 40
0.7890203752
 40
0.842180969
 40
0.8886049889
 40
0.9278810682
 40
0.9596385841
 40
0.9837031105
 40
1.0
 40
1.0
 40
1.0
 40
1.0
 10
3.4334872143
 20
6.1791945605
 30
0.0
 10
3.4334872142
 20
6.1797897161
 30
0.0
 10
3.4334829503
 20
6.1809633995
 30
0.0
 10
3.4334643767
 20
6.1826769447
 30
0.0
 10
3.4334339323
 20
6.1842792589
 30
0.0
 10
3.4333928927
 20
6.1857159183
 30
0.0
 10
3.4333492726
 20
6.1867882654
 30
0.0
 10
3.4333086348
 20
6.1875298588
 30
0.0
 10
3.433278183
 20
6.1879883672
 30
0.0
 10
3.433246369
 20
6.188375731
 30
0.0
 10
3.4332136763
 20
6.1886888194
 30
0.0
 10
3.4331802305
 20
6.1889250254
 30
0.0
 10
3.4331540646
 20
6.1890563855
 30
0.0
 10
3.4331384393
 20
6.1891079994
 30
0.0
  0
LINE
  5
40D
100
AcDbEntity
  8
ALL_ASSEMBLY_MEMBERS
100
AcDbLine
 62
7
  6
CONTINUOUS
 10
3.4331384393
 20
6.1891079994
 11
3.4330860872
 21
6.1891945605
  0
LINE
  5
40E
100
AcDbEntity
  8
ALL_ASSEMBLY_MEMBERS
100
AcDbLine
 62
7
  6
CONTINUOUS
 10
2.8803501553
 20
6.1891945605
 11
2.8804440469
 21
6.1891079993
  0
LINE
  5
40F
100
AcDbEntity
  8
ALL_ASSEMBLY_MEMBERS
100
AcDbLine
 62
7
  6
CONTINUOUS
 10
2.8804440469
 20
6.1891079993
 11
2.8807098536
 21
6.1878547086
  0
SPLINE
  5
410
100
AcDbEntity
  8
ALL_ASSEMBLY_MEMBERS
100
AcDbSpline
 62
7
  6
CONTINUOUS
 70
0
 71
3
 72
12
 73
8
 74
0
 42
0.0000001
 43
0.0000001
 44
0.0000000001
 40
0.0
 40
0.0
 40
0.0
 40
0.0
 40
0.0843007229
 40
0.1840090986
 40
0.4231255899
 40
0.7018221277
 40
1.0
 40
1.0
 40
1.0
 40
1.0
 10
2.8807098536
 20
6.1878547086
 30
0.0
 10
2.8807399602
 20
6.1876129021
 30
0.0
 10
2.8807954163
 20
6.1870838184
 30
0.0
 10
2.8808935167
 20
6.1858646364
 30
0.0
 10
2.8809865683
 20
6.1840817783
 30
0.0
 10
2.8810542003
 20
6.1817239797
 30
0.0
 10
2.8810695607
 20
6.1800564519
 30
0.0
 10
2.8810695607
 20
6.1791945605
 30
0.0
  0
LINE
  5
411
100
AcDbEntity
  8
ALL_ASSEMBLY_MEMBERS
100
AcDbLine
 62
7
  6
CONTINUOUS
 10
2.8796030557
 20
6.1891924737
 11
2.8799666915
 21
6.1878538877
  0
SPLINE
  5
412
100
AcDbEntity
  8
ALL_ASSEMBLY_MEMBERS
100
AcDbSpline
 62
7
  6
CONTINUOUS
 70
0
 71
3
 72
12
 73
8
 74
0
 42
0.0000001
 43
0.0000001
 44
0.0000000001
 40
0.0
 40
0.0
 40
0.0
 40
0.0
 40
0.0842945731
 40
0.1840002964
 40
0.4231191858
 40
0.7018219243
 40
1.0
 40
1.0
 40
1.0
 40
1.0
 10
2.8799666915
 20
6.1878538877
 30
0.0
 10
2.8799974811
 20
6.1876121213
 30
0.0
 10
2.8800544207
 20
6.1870830817
 30
0.0
 10
2.8801559122
 20
6.1858638769
 30
0.0
 10
2.8802538736
 20
6.1840807996
 30
0.0
 10
2.8803279449
 20
6.1817225558
 30
0.0
 10
2.8803478269
 20
6.1800546238
 30
0.0
 10
2.8803501553
 20
6.179192511
 30
0.0
  0
SPLINE
  5
413
100
AcDbEntity
  8
ALL_ASSEMBLY_MEMBERS
100
AcDbSpline
 62
7
  6
CONTINUOUS
 70
0
 71
3
 72
21
 73
17
 74
0
 42
0.0000001
 43
0.0000001
 44
0.0000000001
 40
0.0
 40
0.0
 40
0.0
 40
0.0
 40
0.1877506514
 40
0.369155671
 40
0.5364358455
 40
0.6836852387
 40
0.7481701014
 40
0.8058676486
 40
0.8563610921
 40
0.899293643
 40
0.9344787471
 40
0.9621682501
 40
0.9734561454
 40
0.9832780199
 40
0.9919630349
 40
1.0
 40
1.0
 40
1.0
 40
1.0
 10
1.7391436932
 20
5.8716096126
 30
0.0
 10
1.7391494577
 20
5.8709623894
 30
0.0
 10
1.7391396654
 20
5.8696895417
 30
0.0
 10
1.7390642121
 20
5.8678413889
 30
0.0
 10
1.73892893
 20
5.8661366504
 30
0.0
 10
1.7387667359
 20
5.8648394016
 30
0.0
 10
1.7386063748
 20
5.863924334
 30
0.0
 10
1.7384808362
 20
5.8633422392
 30
0.0
 10
1.7383461219
 20
5.8628387386
 30
0.0
 10
1.7382036081
 20
5.862418326
 30
0.0
 10
1.738054133
 20
5.8620850565
 30
0.0
 10
1.7379169749
 20
5.8618670957
 30
0.0
 10
1.7378016194
 20
5.8617438931
 30
0.0
 10
1.7377196093
 20
5.8616810399
 30
0.0
 10
1.7376359498
 20
5.8616418656
 30
0.0
 10
1.7375781151
 20
5.8616323832
 30
0.0
 10
1.7375504099
 20
5.861632114
 30
0.0
  0
LINE
  5
414
100
AcDbEntity
  8
ALL_ASSEMBLY_MEMBERS
100
AcDbLine
 62
7
  6
CONTINUOUS
 10
2.8796441742
 20
5.9091965347
 11
2.8799872135
 21
5.910535189
  0
SPLINE
  5
415
100
AcDbEntity
  8
ALL_ASSEMBLY_MEMBERS
100
AcDbSpline
 62
7
  6
CONTINUOUS
 70
0
 71
3
 72
12
 73
8
 74
0
 42
0.0000001
 43
0.0000001
 44
0.0000000001
 40
0.0
 40
0.0
 40
0.0
 40
0.0
 40
0.0842535194
 40
0.1839368705
 40
0.4230502395
 40
0.7017797543
 40
1.0
 40
1.0
 40
1.0
 40
1.0
 10
2.8799872135
 20
5.910535189
 30
0.0
 10
2.8800162864
 20
5.910777009
 30
0.0
 10
2.8800700559
 20
5.9113060992
 30
0.0
 10
2.8801659402
 20
5.9125253536
 30
0.0
 10
2.8802585813
 20
5.9143083895
 30
0.0
 10
2.880328799
 20
5.916666542
 30
0.0
 10
2.8803478176
 20
5.9183344016
 30
0.0
 10
2.8803501554
 20
5.9191964979
 30
0.0
  0
LINE
  5
416
100
AcDbEntity
  8
ALL_ASSEMBLY_MEMBERS
100
AcDbLine
 62
7
  6
CONTINUOUS
 10
2.8803501553
 20
5.9091945605
 11
2.8807137334
 21
5.9105337183
  0
SPLINE
  5
417
100
AcDbEntity
  8
ALL_ASSEMBLY_MEMBERS
100
AcDbSpline
 62
7
  6
CONTINUOUS
 70
0
 71
3
 72
12
 73
8
 74
0
 42
0.0000001
 43
0.0000001
 44
0.0000000001
 40
0.0
 40
0.0
 40
0.0
 40
0.0
 40
0.0843046801
 40
0.1840169966
 40
0.4231392751
 40
0.7018348845
 40
1.0
 40
1.0
 40
1.0
 40
1.0
 10
2.8807137334
 20
5.9105337183
 30
0.0
 10
2.8807445362
 20
5.9107754974
 30
0.0
 10
2.8808015141
 20
5.9113045482
 30
0.0
 10
2.8809031169
 20
5.9125237262
 30
0.0
 10
2.8810012819
 20
5.9143066897
 30
0.0
 10
2.8810756658
 20
5.9166647297
 30
0.0
 10
2.8810957948
 20
5.9183324975
 30
0.0
 10
2.8810982572
 20
5.9191945193
 30
0.0
  0
LINE
  5
418
100
AcDbEntity
  8
ALL_ASSEMBLY_MEMBERS
100
AcDbLine
 62
7
  6
CONTINUOUS
 10
3.4330860872
 20
5.9091945605
 11
3.4332866478
 21
5.9105344018
  0
LINE
  5
419
100
AcDbEntity
  8
ALL_ASSEMBLY_MEMBERS
100
AcDbLine
 62
7
  6
CONTINUOUS
 10
3.4332866478
 20
5.9105344018
 11
3.4334872147
 21
5.9191945605
  0
SPLINE
  5
41A
100
AcDbEntity
  8
ALL_ASSEMBLY_MEMBERS
100
AcDbSpline
 62
7
  6
CONTINUOUS
 70
0
 71
3
 72
13
 73
9
 74
0
 42
0.0000001
 43
0.0000001
 44
0.0000000001
 40
0.0
 40
0.0
 40
0.0
 40
0.0
 40
0.0677796958
 40
0.1447204369
 40
0.2368743469
 40
0.3476144393
 40
0.630808326
 40
1.0
 40
1.0
 40
1.0
 40
1.0
 10
1.7375504076
 20
6.2367570124
 30
0.0
 10
1.7375875872
 20
6.2367566512
 30
0.0
 10
1.7376672928
 20
6.2367389925
 30
0.0
 10
1.7377784814
 20
6.2366685303
 30
0.0
 10
1.7378860662
 20
6.2365577118
 30
0.0
 10
1.7380387167
 20
6.2363381167
 30
0.0
 10
1.7382142452
 20
6.2359553265
 30
0.0
 10
1.7383237109
 20
6.2356143196
 30
0.0
 10
1.7383789097
 20
6.2354194625
 30
0.0
  0
SPLINE
  5
41B
100
AcDbEntity
  8
ALL_ASSEMBLY_MEMBERS
100
AcDbSpline
 62
7
  6
CONTINUOUS
 70
0
 71
3
 72
13
 73
9
 74
0
 42
0.0000001
 43
0.0000001
 44
0.0000000001
 40
0.0
 40
0.0
 40
0.0
 40
0.0
 40
0.085812273
 40
0.186308653
 40
0.3001470621
 40
0.4255517363
 40
0.7032165772
 40
1.0
 40
1.0
 40
1.0
 40
1.0
 10
1.7383789097
 20
6.2354194625
 30
0.0
 10
1.7384467011
 20
6.235180152
 30
0.0
 10
1.738571561
 20
6.2346542567
 30
0.0
 10
1.7387260252
 20
6.2337978383
 30
0.0
 10
1.7388596174
 20
6.2328219495
 30
0.0
 10
1.7390125485
 20
6.2313312954
 30
0.0
 10
1.7391299726
 20
6.2293051832
 30
0.0
 10
1.7391513558
 20
6.2276397085
 30
0.0
 10
1.7391436947
 20
6.2267795149
 30
0.0
  0
SPLINE
  5
41C
100
AcDbEntity
  8
ALL_ASSEMBLY_MEMBERS
100
AcDbSpline
 62
7
  6
CONTINUOUS
 70
0
 71
3
 72
15
 73
11
 74
0
 42
0.0000001
 43
0.0000001
 44
0.0000000001
 40
0.0
 40
0.0
 40
0.0
 40
0.0
 40
0.323245375
 40
0.4786170866
 40
0.6226681427
 40
0.7506983341
 40
0.8585868538
 40
0.9426038494
 40
0.9747825581
 40
1.0
 40
1.0
 40
1.0
 40
1.0
 10
1.7391436932
 20
5.8716096126
 30
0.0
 10
1.7379795862
 20
5.8712619704
 30
0.0
 10
1.73625121
 20
5.8707628488
 30
0.0
 10
1.7339939283
 20
5.8701450198
 30
0.0
 10
1.7324399839
 20
5.8697370767
 30
0.0
 10
1.7310542057
 20
5.8693917084
 30
0.0
 10
1.729882779
 20
5.8691201291
 30
0.0
 10
1.7290578898
 20
5.8689491117
 30
0.0
 10
1.7285339518
 20
5.8688595951
 30
0.0
 10
1.7283201166
 20
5.8688303691
 30
0.0
 10
1.728225828
 20
5.8688207405
 30
0.0
  0
SPLINE
  5
41D
100
AcDbEntity
  8
ALL_ASSEMBLY_MEMBERS
100
AcDbSpline
 62
7
  6
CONTINUOUS
 70
0
 71
3
 72
15
 73
11
 74
0
 42
0.0000001
 43
0.0000001
 44
0.0000000001
 40
0.0
 40
0.0
 40
0.0
 40
0.0
 40
0.3232455192
 40
0.4786173068
 40
0.6226684403
 40
0.7506987214
 40
0.8585872631
 40
0.9426040646
 40
0.9747826333
 40
1.0
 40
1.0
 40
1.0
 40
1.0
 10
1.7391436947
 20
6.2267795149
 30
0.0
 10
1.737979586
 20
6.2271271522
 30
0.0
 10
1.7362512063
 20
6.2276262633
 30
0.0
 10
1.7339939223
 20
6.2282440859
 30
0.0
 10
1.7324399755
 20
6.228652022
 30
0.0
 10
1.7310541929
 20
6.2289973743
 30
0.0
 10
1.7298827655
 20
6.2292689472
 30
0.0
 10
1.7290578836
 20
6.2294399922
 30
0.0
 10
1.7285339509
 20
6.2295295298
 30
0.0
 10
1.7283201172
 20
6.2295587613
 30
0.0
 10
1.7282258289
 20
6.2295683894
 30
0.0
  0
SPLINE
  5
41E
100
AcDbEntity
  8
ALL_ASSEMBLY_MEMBERS
100
AcDbSpline
 62
7
  6
CONTINUOUS
 70
0
 71
3
 72
11
 73
7
 74
0
 42
0.0000001
 43
0.0000001
 44
0.0000000001
 40
0.0
 40
0.0
 40
0.0
 40
0.0
 40
0.2499864973
 40
0.500011056
 40
0.7500233705
 40
1.0
 40
1.0
 40
1.0
 40
1.0
 10
3.4368544008
 20
6.1645131467
 30
0.0
 10
3.4368543883
 20
6.1657767288
 30
0.0
 10
3.4366829725
 20
6.1683061899
 30
0.0
 10
3.4359929718
 20
6.1720407892
 30
0.0
 10
3.4349291606
 20
6.1756854577
 30
0.0
 10
3.4340006314
 20
6.1780400404
 30
0.0
 10
3.4334872144
 20
6.1791945605
 30
0.0
  0
LINE
  5
41F
100
AcDbEntity
  8
ALL_ASSEMBLY_MEMBERS
100
AcDbLine
 62
7
  6
CONTINUOUS
 10
1.7375962851
 20
6.0491945605
 11
1.7376086204
 21
5.8820276179
  0
SPLINE
  5
420
100
AcDbEntity
  8
ALL_ASSEMBLY_MEMBERS
100
AcDbSpline
 62
7
  6
CONTINUOUS
 70
0
 71
3
 72
9
 73
5
 74
0
 42
0.0000001
 43
0.0000001
 44
0.0000000001
 40
0.0
 40
0.0
 40
0.0
 40
0.0
 40
0.2502009798
 40
1.0
 40
1.0
 40
1.0
 40
1.0
 10
1.7391437125
 20
6.2267795147
 30
0.0
 10
1.7388975588
 20
6.2259347418
 30
0.0
 10
1.7380240719
 20
6.222527974
 30
0.0
 10
1.7376051788
 20
6.2189983914
 30
0.0
 10
1.7376020704
 20
6.2163615053
 30
0.0
  0
SPLINE
  5
421
100
AcDbEntity
  8
ALL_ASSEMBLY_MEMBERS
100
AcDbSpline
 62
7
  6
CONTINUOUS
 70
0
 71
3
 72
15
 73
11
 74
0
 42
0.0000001
 43
0.0000001
 44
0.0000000001
 40
0.0
 40
0.0
 40
0.0
 40
0.0
 40
0.1241384684
 40
0.2487116212
 40
0.3735940783
 40
0.4986890972
 40
0.6239237134
 40
0.7492452014
 40
0.8746144674
 40
1.0
 40
1.0
 40
1.0
 40
1.0
 10
1.7391437125
 20
6.2267795147
 30
0.0
 10
1.7864139522
 20
6.2264502116
 30
0.0
 10
1.8811128967
 20
6.2244232778
 30
0.0
 10
2.0232511259
 20
6.2183182699
 30
0.0
 10
2.1656502456
 20
6.210211404
 30
0.0
 10
2.3082445752
 20
6.201196967
 30
0.0
 10
2.4510191989
 20
6.1923788454
 30
0.0
 10
2.5939779708
 20
6.1848855359
 30
0.0
 10
2.7371070448
 20
6.1798552162
 30
0.0
 10
2.8326047971
 20
6.1788953
 30
0.0
 10
2.8803501346
 20
6.179192623
 30
0.0
  0
LINE
  5
422
100
AcDbEntity
  8
ALL_ASSEMBLY_MEMBERS
100
AcDbLine
 62
7
  6
CONTINUOUS
 10
1.7376033928
 20
6.2163615048
 11
1.7375910668
 21
6.0491945605
  0
SPLINE
  5
423
100
AcDbEntity
  8
ALL_ASSEMBLY_MEMBERS
100
AcDbSpline
 62
7
  6
CONTINUOUS
 70
0
 71
3
 72
21
 73
17
 74
0
 42
0.0000001
 43
0.0000001
 44
0.0000000001
 40
0.0
 40
0.0
 40
0.0
 40
0.0
 40
0.0045448132
 40
0.0088029401
 40
0.0147012835
 40
0.0224038764
 40
0.0320548665
 40
0.0577395898
 40
0.0927800215
 40
0.1379945436
 40
0.1937971966
 40
0.2599835275
 40
0.4192461321
 40
0.6032710963
 40
0.7995143841
 40
1.0
 40
1.0
 40
1.0
 40
1.0
 10
1.6573417302
 20
5.9892649675
 30
0.0
 10
1.6573563871
 20
5.9892649704
 30
0.0
 10
1.6573769824
 20
5.9892941234
 30
0.0
 10
1.6573934816
 20
5.9893357805
 30
0.0
 10
1.6574100355
 20
5.9893920758
 30
0.0
 10
1.6574258547
 20
5.9894650068
 30
0.0
 10
1.6574496085
 20
5.9896019854
 30
0.0
 10
1.6574771471
 20
5.9898272435
 30
0.0
 10
1.6575073937
 20
5.9901676383
 30
0.0
 10
1.6575361799
 20
5.9906054875
 30
0.0
 10
1.6575630718
 20
5.9911440675
 30
0.0
 10
1.6575976125
 20
5.9920504558
 30
0.0
 10
1.6576298551
 20
5.9933706636
 30
0.0
 10
1.657654387
 20
5.9951104852
 30
0.0
 10
1.6576674541
 20
5.9969833772
 30
0.0
 10
1.6576699041
 20
5.9982628253
 30
0.0
 10
1.6576699043
 20
5.9989093892
 30
0.0
  0
SPLINE
  5
424
100
AcDbEntity
  8
ALL_ASSEMBLY_MEMBERS
100
AcDbSpline
 62
7
  6
CONTINUOUS
 70
0
 71
3
 72
21
 73
17
 74
0
 42
0.0000001
 43
0.0000001
 44
0.0000000001
 40
0.0
 40
0.0
 40
0.0
 40
0.0
 40
0.2004850227
 40
0.3967290965
 40
0.5807516058
 40
0.7400110565
 40
0.8061989987
 40
0.8620040749
 40
0.9072199129
 40
0.9422604606
 40
0.9679450652
 40
0.9775960106
 40
0.9852985932
 40
0.9911969987
 40
0.9954551947
 40
1.0
 40
1.0
 40
1.0
 40
1.0
 10
1.6535914137
 20
5.9989093892
 30
0.0
 10
1.6535914139
 20
5.9982628272
 30
0.0
 10
1.6535938639
 20
5.9969833785
 30
0.0
 10
1.653606931
 20
5.9951104938
 30
0.0
 10
1.6536314626
 20
5.9933706877
 30
0.0
 10
1.6536637044
 20
5.9920504927
 30
0.0
 10
1.6536982448
 20
5.9911441016
 30
0.0
 10
1.6537251371
 20
5.9906055043
 30
0.0
 10
1.6537539239
 20
5.9901676427
 30
0.0
 10
1.6537841709
 20
5.9898272437
 30
0.0
 10
1.6538117095
 20
5.9896019857
 30
0.0
 10
1.6538354631
 20
5.9894650077
 30
0.0
 10
1.6538512824
 20
5.9893920767
 30
0.0
 10
1.6538678364
 20
5.989335781
 30
0.0
 10
1.6538843352
 20
5.9892941233
 30
0.0
 10
1.6539049309
 20
5.9892649703
 30
0.0
 10
1.6539195879
 20
5.9892649675
 30
0.0
  0
SPLINE
  5
425
100
AcDbEntity
  8
ALL_ASSEMBLY_MEMBERS
100
AcDbSpline
 62
7
  6
CONTINUOUS
 70
0
 71
3
 72
13
 73
9
 74
0
 42
0.0000001
 43
0.0000001
 44
0.0000000001
 40
0.0
 40
0.0
 40
0.0
 40
0.0
 40
0.2483327995
 40
0.373262903
 40
0.4982186239
 40
0.6234253146
 40
0.7490899919
 40
1.0
 40
1.0
 40
1.0
 40
1.0
 10
3.4330860872
 20
6.1891945605
 30
0.0
 10
3.4340351367
 20
6.1891945605
 30
0.0
 10
3.4354724308
 20
6.1889791016
 30
0.0
 10
3.4372545106
 20
6.1882955547
 30
0.0
 10
3.438507589
 20
6.18758815
 30
0.0
 10
3.4396469707
 20
6.1867047561
 30
0.0
 10
3.4409776443
 20
6.1853174999
 30
0.0
 10
3.4417439414
 20
6.1840686679
 30
0.0
 10
3.4421221708
 20
6.1831875156
 30
0.0
  0
LINE
  5
426
100
AcDbEntity
  8
ALL_ASSEMBLY_MEMBERS
100
AcDbLine
 62
7
  6
CONTINUOUS
 10
3.4334872143
 20
6.1791945605
 11
3.4421221708
 21
6.1831875156
  0
LINE
  5
427
100
AcDbEntity
  8
ALL_ASSEMBLY_MEMBERS
100
AcDbLine
 62
7
  6
CONTINUOUS
 10
3.4334872147
 20
5.9191945605
 11
3.4421221709
 21
5.9152016053
  0
SPLINE
  5
428
100
AcDbEntity
  8
ALL_ASSEMBLY_MEMBERS
100
AcDbSpline
 62
7
  6
CONTINUOUS
 70
0
 71
3
 72
13
 73
9
 74
0
 42
0.0000001
 43
0.0000001
 44
0.0000000001
 40
0.0
 40
0.0
 40
0.0
 40
0.0
 40
0.2483327658
 40
0.3732628307
 40
0.4982185235
 40
0.6234252141
 40
0.7490899326
 40
1.0
 40
1.0
 40
1.0
 40
1.0
 10
3.4330860872
 20
5.9091945605
 30
0.0
 10
3.4340351366
 20
5.9091945605
 30
0.0
 10
3.4354724304
 20
5.9094100192
 30
0.0
 10
3.4372545099
 20
5.9100935659
 30
0.0
 10
3.4385075881
 20
5.9108009703
 30
0.0
 10
3.43964697
 20
5.9116843642
 30
0.0
 10
3.4409776436
 20
5.9130716207
 30
0.0
 10
3.4417439414
 20
5.9143204528
 30
0.0
 10
3.4421221709
 20
5.9152016053
 30
0.0
  0
SPLINE
  5
429
100
AcDbEntity
  8
ALL_ASSEMBLY_MEMBERS
100
AcDbSpline
 62
7
  6
CONTINUOUS
 70
0
 71
3
 72
21
 73
17
 74
0
 42
0.0000001
 43
0.0000001
 44
0.0000000001
 40
0.0
 40
0.0
 40
0.0
 40
0.0
 40
0.0045448132
 40
0.0088029401
 40
0.0147012835
 40
0.0224038764
 40
0.0320548665
 40
0.0577395898
 40
0.0927800215
 40
0.1379945436
 40
0.1937971966
 40
0.2599835275
 40
0.4192461321
 40
0.6032710963
 40
0.7995143841
 40
1.0
 40
1.0
 40
1.0
 40
1.0
 10
1.6539195879
 20
6.1091241535
 30
0.0
 10
1.6539049309
 20
6.1091241506
 30
0.0
 10
1.6538843356
 20
6.1090949976
 30
0.0
 10
1.6538678365
 20
6.1090533405
 30
0.0
 10
1.6538512825
 20
6.1089970452
 30
0.0
 10
1.6538354633
 20
6.1089241142
 30
0.0
 10
1.6538117095
 20
6.1087871356
 30
0.0
 10
1.6537841709
 20
6.1085618775
 30
0.0
 10
1.6537539243
 20
6.1082214827
 30
0.0
 10
1.6537251381
 20
6.1077836335
 30
0.0
 10
1.6536982462
 20
6.1072450535
 30
0.0
 10
1.6536637055
 20
6.1063386652
 30
0.0
 10
1.6536314629
 20
6.1050184574
 30
0.0
 10
1.653606931
 20
6.1032786358
 30
0.0
 10
1.6535938639
 20
6.1014057438
 30
0.0
 10
1.6535914139
 20
6.1001262957
 30
0.0
 10
1.6535914137
 20
6.0994797318
 30
0.0
  0
SPLINE
  5
42A
100
AcDbEntity
  8
ALL_ASSEMBLY_MEMBERS
100
AcDbSpline
 62
7
  6
CONTINUOUS
 70
0
 71
3
 72
14
 73
10
 74
0
 42
0.0000001
 43
0.0000001
 44
0.0000000001
 40
0.0
 40
0.0
 40
0.0
 40
0.0
 40
0.0509359247
 40
0.1206372213
 40
0.2118505008
 40
0.3262311704
 40
0.4641336846
 40
0.6243662194
 40
1.0
 40
1.0
 40
1.0
 40
1.0
 10
3.4876301383
 20
6.1116265876
 30
0.0
 10
3.4877198535
 20
6.111483042
 30
0.0
 10
3.4878786132
 20
6.1111107247
 30
0.0
 10
3.4880534032
 20
6.110427871
 30
0.0
 10
3.4881933305
 20
6.1095224845
 30
0.0
 10
3.4882922075
 20
6.1083847617
 30
0.0
 10
3.4883453181
 20
6.1070144445
 30
0.0
 10
3.4883508677
 20
6.1047749965
 30
0.0
 10
3.4882784024
 20
6.1029947439
 30
0.0
 10
3.4882079429
 20
6.1017483897
 30
0.0
  0
LINE
  5
42B
100
AcDbEntity
  8
ALL_ASSEMBLY_MEMBERS
100
AcDbLine
 62
7
  6
CONTINUOUS
 10
3.4881491433
 20
6.1007811227
 11
3.487778457
 21
6.0962012393
  0
SPLINE
  5
42C
100
AcDbEntity
  8
ALL_ASSEMBLY_MEMBERS
100
AcDbSpline
 62
7
  6
CONTINUOUS
 70
0
 71
3
 72
11
 73
7
 74
0
 42
0.0000001
 43
0.0000001
 44
0.0000000001
 40
0.0
 40
0.0
 40
0.0
 40
0.0
 40
0.2646030355
 40
0.5088939044
 40
0.7480510224
 40
1.0
 40
1.0
 40
1.0
 40
1.0
 10
3.4421221709
 20
6.1831875156
 30
0.0
 10
3.4421747236
 20
6.1832960336
 30
0.0
 10
3.4422576209
 20
6.1835147565
 30
0.0
 10
3.4422996653
 20
6.1838569403
 30
0.0
 10
3.4422457575
 20
6.1841922396
 30
0.0
 10
3.4421485095
 20
6.1843971935
 30
0.0
 10
3.4420876619
 20
6.1844945499
 30
0.0
  0
SPLINE
  5
42D
100
AcDbEntity
  8
ALL_ASSEMBLY_MEMBERS
100
AcDbSpline
 62
7
  6
CONTINUOUS
 70
0
 71
3
 72
21
 73
17
 74
0
 42
0.0000001
 43
0.0000001
 44
0.0000000001
 40
0.0
 40
0.0
 40
0.0
 40
0.0
 40
0.2004850227
 40
0.3967290965
 40
0.5807516058
 40
0.7400110565
 40
0.8061989987
 40
0.8620040749
 40
0.9072199129
 40
0.9422604606
 40
0.9679450652
 40
0.9775960106
 40
0.9852985932
 40
0.9911969987
 40
0.9954551947
 40
1.0
 40
1.0
 40
1.0
 40
1.0
 10
1.6576699043
 20
6.0994797318
 30
0.0
 10
1.6576699041
 20
6.1001262938
 30
0.0
 10
1.6576674541
 20
6.1014057425
 30
0.0
 10
1.6576543871
 20
6.1032786272
 30
0.0
 10
1.6576298555
 20
6.1050184333
 30
0.0
 10
1.6575976136
 20
6.1063386283
 30
0.0
 10
1.6575630732
 20
6.1072450194
 30
0.0
 10
1.6575361809
 20
6.1077836167
 30
0.0
 10
1.6575073941
 20
6.1082214783
 30
0.0
 10
1.6574771472
 20
6.1085618773
 30
0.0
 10
1.6574496086
 20
6.1087871353
 30
0.0
 10
1.6574258549
 20
6.1089241133
 30
0.0
 10
1.6574100357
 20
6.1089970443
 30
0.0
 10
1.6573934816
 20
6.10905334
 30
0.0
 10
1.6573769828
 20
6.1090949977
 30
0.0
 10
1.6573563871
 20
6.1091241507
 30
0.0
 10
1.6573417302
 20
6.1091241535
 30
0.0
  0
SPLINE
  5
42E
100
AcDbEntity
  8
ALL_ASSEMBLY_MEMBERS
100
AcDbSpline
 62
7
  6
CONTINUOUS
 70
0
 71
3
 72
11
 73
7
 74
0
 42
0.0000001
 43
0.0000001
 44
0.0000000001
 40
0.0
 40
0.0
 40
0.0
 40
0.0
 40
0.250381497
 40
0.5004483027
 40
0.7502988585
 40
1.0
 40
1.0
 40
1.0
 40
1.0
 10
3.4450835149
 20
6.1645131467
 30
0.0
 10
3.4452336245
 20
6.166098366
 30
0.0
 10
3.4453123452
 20
6.1692913352
 30
0.0
 10
3.4448186841
 20
6.1740487782
 30
0.0
 10
3.4437651563
 20
6.1787086359
 30
0.0
 10
3.442721885
 20
6.1817171295
 30
0.0
 10
3.4421221709
 20
6.1831875156
 30
0.0
  0
SPLINE
  5
42F
100
AcDbEntity
  8
ALL_ASSEMBLY_MEMBERS
100
AcDbSpline
 62
7
  6
CONTINUOUS
 70
0
 71
3
 72
14
 73
10
 74
0
 42
0.0000001
 43
0.0000001
 44
0.0000000001
 40
0.0
 40
0.0
 40
0.0
 40
0.0
 40
0.3758769089
 40
0.5356901608
 40
0.6731486979
 40
0.7872611518
 40
0.8784904988
 40
0.9485059684
 40
1.0
 40
1.0
 40
1.0
 40
1.0
 10
3.4882288159
 20
5.9962595938
 30
0.0
 10
3.4882923453
 20
5.9950599342
 30
0.0
 10
3.4883556117
 20
5.9933481131
 30
0.0
 10
3.48834103
 20
5.9911963976
 30
0.0
 10
3.4882840003
 20
5.9898823908
 30
0.0
 10
3.4881836775
 20
5.9887909038
 30
0.0
 10
3.4880445764
 20
5.9879206988
 30
0.0
 10
3.4878724509
 20
5.9872620504
 30
0.0
 10
3.4877173649
 20
5.9869020975
 30
0.0
 10
3.4876301383
 20
5.9867625334
 30
0.0
  0
SPLINE
  5
430
100
AcDbEntity
  8
ALL_ASSEMBLY_MEMBERS
100
AcDbSpline
 62
7
  6
CONTINUOUS
 70
0
 71
3
 72
11
 73
7
 74
0
 42
0.0000001
 43
0.0000001
 44
0.0000000001
 40
0.0
 40
0.0
 40
0.0
 40
0.0
 40
0.2496507597
 40
0.4994315531
 40
0.749574891
 40
1.0
 40
1.0
 40
1.0
 40
1.0
 10
3.4421221709
 20
5.9152016053
 30
0.0
 10
3.4427217528
 20
5.9166716981
 30
0.0
 10
3.443764764
 20
5.9196794551
 30
0.0
 10
3.4448186484
 20
5.924338952
 30
0.0
 10
3.4453120525
 20
5.9290967519
 30
0.0
 10
3.4452335362
 20
5.9322904693
 30
0.0
 10
3.4450835149
 20
5.9338759743
 30
0.0
  0
SPLINE
  5
431
100
AcDbEntity
  8
ALL_ASSEMBLY_MEMBERS
100
AcDbSpline
 62
7
  6
CONTINUOUS
 70
0
 71
3
 72
11
 73
7
 74
0
 42
0.0000001
 43
0.0000001
 44
0.0000000001
 40
0.0
 40
0.0
 40
0.0
 40
0.0
 40
0.2519489766
 40
0.4911060969
 40
0.7353969734
 40
1.0
 40
1.0
 40
1.0
 40
1.0
 10
3.4420876619
 20
5.9138945711
 30
0.0
 10
3.4421485095
 20
5.9139919275
 30
0.0
 10
3.4422457575
 20
5.9141968814
 30
0.0
 10
3.4422996653
 20
5.9145321807
 30
0.0
 10
3.4422576209
 20
5.9148743645
 30
0.0
 10
3.4421747236
 20
5.9150930873
 30
0.0
 10
3.4421221709
 20
5.9152016053
 30
0.0
  0
SPLINE
  5
432
100
AcDbEntity
  8
ALL_ASSEMBLY_MEMBERS
100
AcDbSpline
 62
7
  6
CONTINUOUS
 70
0
 71
3
 72
17
 73
13
 74
0
 42
0.0000001
 43
0.0000001
 44
0.0000000001
 40
0.0
 40
0.0
 40
0.0
 40
0.0
 40
0.1847688369
 40
0.3619449387
 40
0.526288492
 40
0.6718069975
 40
0.7932828588
 40
0.8879250976
 40
0.9251531837
 40
0.9559622819
 40
0.980753108
 40
1.0
 40
1.0
 40
1.0
 40
1.0
 10
1.659072778
 20
6.0994797318
 30
0.0
 10
1.6589849675
 20
6.1003694163
 30
0.0
 10
1.658820356
 20
6.1021129732
 30
0.0
 10
1.6586103171
 20
6.1046508256
 30
0.0
 10
1.6584501559
 20
6.1070020149
 30
0.0
 10
1.6583485529
 20
6.1090867905
 30
0.0
 10
1.6583104876
 20
6.1108363483
 30
0.0
 10
1.6583307467
 20
6.1120626657
 30
0.0
 10
1.6583839998
 20
6.1128481516
 30
0.0
 10
1.6584338395
 20
6.1132947532
 30
0.0
 10
1.6584954986
 20
6.1136518144
 30
0.0
 10
1.6585498521
 20
6.1138584314
 30
0.0
 10
1.6585805168
 20
6.1139463644
 30
0.0
  0
SPLINE
  5
433
100
AcDbEntity
  8
ALL_ASSEMBLY_MEMBERS
100
AcDbSpline
 62
7
  6
CONTINUOUS
 70
0
 71
3
 72
9
 73
5
 74
0
 42
0.0000001
 43
0.0000001
 44
0.0000000001
 40
0.0
 40
0.0
 40
0.0
 40
0.0
 40
0.4981033807
 40
1.0
 40
1.0
 40
1.0
 40
1.0
 10
1.7282258261
 20
6.2295683873
 30
0.0
 10
1.7277250529
 20
6.2274186184
 30
0.0
 10
1.7270620364
 20
6.2230157506
 30
0.0
 10
1.7271220639
 20
6.2185611418
 30
0.0
 10
1.7273422916
 20
6.2163479381
 30
0.0
  0
LINE
  5
434
100
AcDbEntity
  8
ALL_ASSEMBLY_MEMBERS
100
AcDbLine
 62
7
  6
CONTINUOUS
 10
1.7273422916
 20
6.2163479381
 11
1.7273212545
 21
6.0491945605
  0
SPLINE
  5
435
100
AcDbEntity
  8
ALL_ASSEMBLY_MEMBERS
100
AcDbSpline
 62
7
  6
CONTINUOUS
 70
0
 71
3
 72
12
 73
8
 74
0
 42
0.0000001
 43
0.0000001
 44
0.0000000001
 40
0.0
 40
0.0
 40
0.0
 40
0.0
 40
0.1026567112
 40
0.2051907935
 40
0.4251883548
 40
0.6859178949
 40
1.0
 40
1.0
 40
1.0
 40
1.0
 10
1.727299184
 20
6.2315834611
 30
0.0
 10
1.7272727939
 20
6.2315076342
 30
0.0
 10
1.7272357753
 20
6.2313499785
 30
0.0
 10
1.7272314012
 20
6.2310150513
 30
0.0
 10
1.7273706482
 20
6.230569265
 30
0.0
 10
1.7277233472
 20
6.230051391
 30
0.0
 10
1.7280423859
 20
6.2297317602
 30
0.0
 10
1.7282258261
 20
6.2295683873
 30
0.0
  0
SPLINE
  5
436
100
AcDbEntity
  8
ALL_ASSEMBLY_MEMBERS
100
AcDbSpline
 62
7
  6
CONTINUOUS
 70
0
 71
3
 72
17
 73
13
 74
0
 42
0.0000001
 43
0.0000001
 44
0.0000000001
 40
0.0
 40
0.0
 40
0.0
 40
0.0
 40
0.0192468953
 40
0.0440375401
 40
0.0748467772
 40
0.1120749602
 40
0.206716126
 40
0.3281900689
 40
0.4737101794
 40
0.638055129
 40
0.8152307338
 40
1.0
 40
1.0
 40
1.0
 40
1.0
 10
1.6585805168
 20
5.9844427566
 30
0.0
 10
1.6585498519
 20
5.9845306895
 30
0.0
 10
1.6584954984
 20
5.9847373056
 30
0.0
 10
1.6584338401
 20
5.9850943668
 30
0.0
 10
1.6583839996
 20
5.9855409685
 30
0.0
 10
1.6583307468
 20
5.9863264505
 30
0.0
 10
1.6583104885
 20
5.9875527538
 30
0.0
 10
1.6583485518
 20
5.989302305
 30
0.0
 10
1.6584501537
 20
5.9913870859
 30
0.0
 10
1.6586103172
 20
5.9937382872
 30
0.0
 10
1.6588203546
 20
5.9962761462
 30
0.0
 10
1.6589849685
 20
5.9980197025
 30
0.0
 10
1.659072778
 20
5.9989093892
 30
0.0
  0
SPLINE
  5
437
100
AcDbEntity
  8
ALL_ASSEMBLY_MEMBERS
100
AcDbSpline
 62
7
  6
CONTINUOUS
 70
0
 71
3
 72
13
 73
9
 74
0
 42
0.0000001
 43
0.0000001
 44
0.0000000001
 40
0.0
 40
0.0
 40
0.0
 40
0.0
 40
0.3139553602
 40
0.4506015082
 40
0.5750684265
 40
0.7949093592
 40
0.8973775265
 40
1.0
 40
1.0
 40
1.0
 40
1.0
 10
1.7282258256
 20
5.8688207383
 30
0.0
 10
1.7280423497
 20
5.8686573771
 30
0.0
 10
1.7277914802
 20
5.8684066996
 30
0.0
 10
1.7275239543
 20
5.8680436147
 30
0.0
 10
1.7273379866
 20
5.8677161195
 30
0.0
 10
1.7272313795
 20
5.8673739687
 30
0.0
 10
1.727235745
 20
5.8670391591
 30
0.0
 10
1.7272727847
 20
5.8668814961
 30
0.0
 10
1.727299184
 20
5.8668056599
 30
0.0
  0
LINE
  5
438
100
AcDbEntity
  8
ALL_ASSEMBLY_MEMBERS
100
AcDbLine
 62
7
  6
CONTINUOUS
 10
1.7273212545
 20
6.0491945605
 11
1.7273422916
 21
5.8820411829
  0
SPLINE
  5
439
100
AcDbEntity
  8
ALL_ASSEMBLY_MEMBERS
100
AcDbSpline
 62
7
  6
CONTINUOUS
 70
0
 71
3
 72
9
 73
5
 74
0
 42
0.0000001
 43
0.0000001
 44
0.0000000001
 40
0.0
 40
0.0
 40
0.0
 40
0.0
 40
0.5019465568
 40
1.0
 40
1.0
 40
1.0
 40
1.0
 10
1.7273422916
 20
5.8820411829
 30
0.0
 10
1.7271220538
 20
5.8798277586
 30
0.0
 10
1.7270620363
 20
5.8753731444
 30
0.0
 10
1.7277251217
 20
5.8709702953
 30
0.0
 10
1.7282258256
 20
5.8688207383
 30
0.0
  0
LINE
  5
43A
100
AcDbEntity
  8
ALL_ASSEMBLY_MEMBERS
100
AcDbLine
 62
7
  6
CONTINUOUS
 10
1.6551583745
 20
6.1139463644
 11
1.6549920909
 21
6.1136770459
  0
LINE
  5
43B
100
AcDbEntity
  8
ALL_ASSEMBLY_MEMBERS
100
AcDbLine
 62
7
  6
CONTINUOUS
 10
1.727299184
 20
5.8668056599
 11
1.7200853302
 21
5.8670866228
  0
LINE
  5
43C
100
AcDbEntity
  8
ALL_ASSEMBLY_MEMBERS
100
AcDbLine
 62
7
  6
CONTINUOUS
 10
1.7200853302
 20
5.8670866228
 11
1.7155985871
 21
5.8673340368
  0
LINE
  5
43D
100
AcDbEntity
  8
ALL_ASSEMBLY_MEMBERS
100
AcDbLine
 62
7
  6
CONTINUOUS
 10
7.6919309583
 20
6.6140303557
 11
7.6920755495
 21
6.1953246019
  0
SPLINE
  5
43E
100
AcDbEntity
  8
ALL_ASSEMBLY_MEMBERS
100
AcDbSpline
 62
7
  6
CONTINUOUS
 70
0
 71
3
 72
9
 73
5
 74
0
 42
0.0000001
 43
0.0000001
 44
0.0000000001
 40
0.0
 40
0.0
 40
0.0
 40
0.0
 40
0.4999999987
 40
1.0
 40
1.0
 40
1.0
 40
1.0
 10
6.5522643591
 20
6.6240253522
 30
0.0
 10
6.7405225128
 20
6.6241195204
 30
0.0
 10
7.1171001544
 20
6.6242443546
 30
0.0
 10
7.4936778033
 20
6.6241195204
 30
0.0
 10
7.6819359617
 20
6.6240253522
 30
0.0
  0
SPLINE
  5
43F
100
AcDbEntity
  8
ALL_ASSEMBLY_MEMBERS
100
AcDbSpline
 62
7
  6
CONTINUOUS
 70
0
 71
3
 72
9
 73
5
 74
0
 42
0.0000001
 43
0.0000001
 44
0.0000000001
 40
0.0
 40
0.0
 40
0.0
 40
0.0
 40
0.5
 40
1.0
 40
1.0
 40
1.0
 40
1.0
 10
6.5422693624
 20
5.4843587655
 30
0.0
 10
6.5421751947
 20
5.6726169197
 30
0.0
 10
6.5420503623
 20
6.0491945605
 30
0.0
 10
6.5421751947
 20
6.4257722013
 30
0.0
 10
6.5422693624
 20
6.6140303555
 30
0.0
  0
SPLINE
  5
440
100
AcDbEntity
  8
ALL_ASSEMBLY_MEMBERS
100
AcDbSpline
 62
7
  6
CONTINUOUS
 70
0
 71
3
 72
9
 73
5
 74
0
 42
0.0000001
 43
0.0000001
 44
0.0000000001
 40
0.0
 40
0.0
 40
0.0
 40
0.0
 40
0.5000000013
 40
1.0
 40
1.0
 40
1.0
 40
1.0
 10
7.6819359617
 20
5.4743637688
 30
0.0
 10
7.4936778033
 20
5.4742696006
 30
0.0
 10
7.1171001544
 20
5.4741447664
 30
0.0
 10
6.7405225128
 20
5.4742696006
 30
0.0
 10
6.5522643591
 20
5.4743637688
 30
0.0
  0
LINE
  5
441
100
AcDbEntity
  8
ALL_ASSEMBLY_MEMBERS
100
AcDbLine
 62
7
  6
CONTINUOUS
 10
7.6920755494
 20
5.9030639484
 11
7.6919309583
 21
5.4843587653
  0
LINE
  5
442
100
AcDbEntity
  8
ALL_ASSEMBLY_MEMBERS
100
AcDbLine
 62
7
  6
CONTINUOUS
 10
7.6910114557
 20
5.4834486752
 11
7.6135281697
 21
5.5611909381
  0
LINE
  5
443
100
AcDbEntity
  8
ALL_ASSEMBLY_MEMBERS
100
AcDbLine
 62
7
  6
CONTINUOUS
 10
7.6828474471
 20
6.6231072451
 11
7.6051039038
 21
6.5456226644
  0
SPLINE
  5
444
100
AcDbEntity
  8
ALL_ASSEMBLY_MEMBERS
100
AcDbSpline
 62
7
  6
CONTINUOUS
 70
0
 71
3
 72
9
 73
5
 74
0
 42
0.0000001
 43
0.0000001
 44
0.0000000001
 40
0.0
 40
0.0
 40
0.0
 40
0.0
 40
0.4999999709
 40
1.0
 40
1.0
 40
1.0
 40
1.0
 10
6.6290964897
 20
6.5456520184
 30
0.0
 10
6.7917637421
 20
6.5462073656
 30
0.0
 10
7.1171002374
 20
6.5469422988
 30
0.0
 10
7.4424367326
 20
6.5462073652
 30
0.0
 10
7.605104004
 20
6.5456520179
 30
0.0
  0
LINE
  5
445
100
AcDbEntity
  8
ALL_ASSEMBLY_MEMBERS
100
AcDbLine
 62
7
  6
CONTINUOUS
 10
6.5513546467
 20
6.6231055952
 11
6.6290965909
 21
6.5456223803
  0
LINE
  5
446
100
AcDbEntity
  8
ALL_ASSEMBLY_MEMBERS
100
AcDbLine
 62
7
  6
CONTINUOUS
 10
7.6910128503
 20
6.614941847
 11
7.6135281698
 21
6.5371981829
  0
LINE
  5
447
100
AcDbEntity
  8
ALL_ASSEMBLY_MEMBERS
100
AcDbLine
 62
7
  6
CONTINUOUS
 10
7.5833746112
 20
6.5069346149
 11
7.267023402
 21
6.1891211393
  0
LINE
  5
448
100
AcDbEntity
  8
ALL_ASSEMBLY_MEMBERS
100
AcDbLine
 62
7
  6
CONTINUOUS
 10
6.6508258753
 20
6.5069345887
 11
6.9671699283
 21
6.1891282123
  0
LINE
  5
449
100
AcDbEntity
  8
ALL_ASSEMBLY_MEMBERS
100
AcDbLine
 62
7
  6
CONTINUOUS
 10
6.6508256601
 20
5.5914545298
 11
6.9671725919
 21
5.9092634893
  0
SPLINE
  5
44A
100
AcDbEntity
  8
ALL_ASSEMBLY_MEMBERS
100
AcDbSpline
 62
7
  6
CONTINUOUS
 70
0
 71
3
 72
9
 73
5
 74
0
 42
0.0000001
 43
0.0000001
 44
0.0000000001
 40
0.0
 40
0.0
 40
0.0
 40
0.0
 40
0.5
 40
1.0
 40
1.0
 40
1.0
 40
1.0
 10
6.6508543327
 20
6.5069344717
 30
0.0
 10
6.6502270082
 20
6.3543553952
 30
0.0
 10
6.6493974734
 20
6.0491945597
 30
0.0
 10
6.6502270082
 20
5.7440337242
 30
0.0
 10
6.6508543327
 20
5.5914546477
 30
0.0
  0
SPLINE
  5
44B
100
AcDbEntity
  8
ALL_ASSEMBLY_MEMBERS
100
AcDbSpline
 62
7
  6
CONTINUOUS
 70
0
 71
3
 72
12
 73
8
 74
0
 42
0.0000001
 43
0.0000001
 44
0.0000000001
 40
0.0
 40
0.0
 40
0.0
 40
0.0
 40
0.2499999882
 40
0.3750000028
 40
0.5000000058
 40
0.7500000042
 40
1.0
 40
1.0
 40
1.0
 40
1.0
 10
6.6402750321
 20
6.5288631811
 30
0.0
 10
6.7197455422
 20
6.529153531
 30
0.0
 10
6.8389516232
 20
6.5295150723
 30
0.0
 10
6.9978935143
 20
6.5297812171
 30
0.0
 10
7.1568356153
 20
6.5298737218
 30
0.0
 10
7.3555132503
 20
6.5296363785
 30
0.0
 10
7.5144546684
 20
6.5291538591
 30
0.0
 10
7.5939251806
 20
6.5288634447
 30
0.0
  0
LINE
  5
44C
100
AcDbEntity
  8
ALL_ASSEMBLY_MEMBERS
100
AcDbLine
 62
7
  6
CONTINUOUS
 10
6.543189149
 20
6.6149400948
 11
6.6206720369
 21
6.5371982398
  0
SPLINE
  5
44D
100
AcDbEntity
  8
ALL_ASSEMBLY_MEMBERS
100
AcDbSpline
 62
7
  6
CONTINUOUS
 70
0
 71
3
 72
12
 73
8
 74
0
 42
0.0000001
 43
0.0000001
 44
0.0000000001
 40
0.0
 40
0.0
 40
0.0
 40
0.0
 40
0.2499999882
 40
0.3750000028
 40
0.5000000059
 40
0.7500000042
 40
1.0
 40
1.0
 40
1.0
 40
1.0
 10
6.6374315259
 20
5.5723693388
 30
0.0
 10
6.6371411767
 20
5.651839846
 30
0.0
 10
6.6367796321
 20
5.7710459229
 30
0.0
 10
6.6365135113
 20
5.9299878083
 30
0.0
 10
6.6364209737
 20
6.0889299036
 30
0.0
 10
6.636658357
 20
6.2876075315
 30
0.0
 10
6.6371408472
 20
6.4465489439
 30
0.0
 10
6.6374312577
 20
6.5260194533
 30
0.0
  0
SPLINE
  5
44E
100
AcDbEntity
  8
ALL_ASSEMBLY_MEMBERS
100
AcDbSpline
 62
7
  6
CONTINUOUS
 70
0
 71
3
 72
13
 73
9
 74
0
 42
0.0000001
 43
0.0000001
 44
0.0000000001
 40
0.0
 40
0.0
 40
0.0
 40
0.0
 40
0.2499999794
 40
0.3749999891
 40
0.4999999884
 40
0.624999997
 40
0.7500000123
 40
1.0
 40
1.0
 40
1.0
 40
1.0
 10
7.5939249639
 20
5.5695259729
 30
0.0
 10
7.5144544841
 20
5.5692355455
 30
0.0
 10
7.3952484492
 20
5.5688734422
 30
0.0
 10
7.2363066168
 20
5.5686083523
 30
0.0
 10
7.1171000781
 20
5.5685392991
 30
0.0
 10
6.997893541
 20
5.568611022
 30
0.0
 10
6.8389516961
 20
5.5688725906
 30
0.0
 10
6.7197456555
 20
5.5692349894
 30
0.0
 10
6.6402751737
 20
5.5695255747
 30
0.0
  0
SPLINE
  5
44F
100
AcDbEntity
  8
ALL_ASSEMBLY_MEMBERS
100
AcDbSpline
 62
7
  6
CONTINUOUS
 70
0
 71
3
 72
9
 73
5
 74
0
 42
0.0000001
 43
0.0000001
 44
0.0000000001
 40
0.0
 40
0.0
 40
0.0
 40
0.0
 40
0.5000000001
 40
1.0
 40
1.0
 40
1.0
 40
1.0
 10
6.6206426803
 20
5.5611909076
 30
0.0
 10
6.6200873369
 20
5.7238581559
 30
0.0
 10
6.6193524178
 20
6.0491946238
 30
0.0
 10
6.6200873372
 20
6.3745310918
 30
0.0
 10
6.6206426808
 20
6.53719834
 30
0.0
  0
LINE
  5
450
100
AcDbEntity
  8
ALL_ASSEMBLY_MEMBERS
100
AcDbLine
 62
7
  6
CONTINUOUS
 10
6.5431890813
 20
5.4834490292
 11
6.620672327
 21
5.5611910089
  0
SPLINE
  5
451
100
AcDbEntity
  8
ALL_ASSEMBLY_MEMBERS
100
AcDbSpline
 62
7
  6
CONTINUOUS
 70
0
 71
3
 72
13
 73
9
 74
0
 42
0.0000001
 43
0.0000001
 44
0.0000000001
 40
0.0
 40
0.0
 40
0.0
 40
0.0
 40
0.1200885075
 40
0.2446507839
 40
0.4999999127
 40
0.755348993
 40
0.8799113136
 40
1.0
 40
1.0
 40
1.0
 40
1.0
 10
6.620672571
 20
5.5611900225
 30
0.0
 10
6.6208093492
 20
5.5607137255
 30
0.0
 10
6.6211598572
 20
5.5597629095
 30
0.0
 10
6.6221174458
 20
5.5579304072
 30
0.0
 10
6.6237565205
 20
5.5558498254
 30
0.0
 10
6.6258370906
 20
5.5542107355
 30
0.0
 10
6.6276695861
 20
5.5532531326
 30
0.0
 10
6.6286204002
 20
5.5529026167
 30
0.0
 10
6.6290966967
 20
5.5527658341
 30
0.0
  0
SPLINE
  5
452
100
AcDbEntity
  8
ALL_ASSEMBLY_MEMBERS
100
AcDbSpline
 62
7
  6
CONTINUOUS
 70
0
 71
3
 72
13
 73
9
 74
0
 42
0.0000001
 43
0.0000001
 44
0.0000000001
 40
0.0
 40
0.0
 40
0.0
 40
0.0
 40
0.1202352421
 40
0.2448319776
 40
0.4999990608
 40
0.7551665914
 40
0.8797639043
 40
1.0
 40
1.0
 40
1.0
 40
1.0
 10
6.6508256856
 20
5.5914544347
 30
0.0
 10
6.6509561062
 20
5.5909675129
 30
0.0
 10
6.6512974479
 20
5.5899950931
 30
0.0
 10
6.6522494864
 20
5.5881221914
 30
0.0
 10
6.6539055977
 20
5.5860002305
 30
0.0
 10
6.6560275908
 20
5.5843441573
 30
0.0
 10
6.657900515
 20
5.5833921459
 30
0.0
 10
6.6588729458
 20
5.5830508173
 30
0.0
 10
6.6593598729
 20
5.5829204029
 30
0.0
  0
SPLINE
  5
453
100
AcDbEntity
  8
ALL_ASSEMBLY_MEMBERS
100
AcDbSpline
 62
7
  6
CONTINUOUS
 70
0
 71
3
 72
13
 73
9
 74
0
 42
0.0000001
 43
0.0000001
 44
0.0000000001
 40
0.0
 40
0.0
 40
0.0
 40
0.0
 40
0.1200886775
 40
0.2446510845
 40
0.5000004804
 40
0.7553495387
 40
0.8799116317
 40
1.0
 40
1.0
 40
1.0
 40
1.0
 10
7.6051038656
 20
5.5527672396
 30
0.0
 10
7.6055801616
 20
5.5529040194
 30
0.0
 10
7.6065309754
 20
5.5532545296
 30
0.0
 10
7.6083634728
 20
5.5542121213
 30
0.0
 10
7.6104440469
 20
5.5558511975
 30
0.0
 10
7.6120831303
 20
5.5579317644
 30
0.0
 10
7.6130407255
 20
5.5597642556
 30
0.0
 10
7.6133912371
 20
5.5607150662
 30
0.0
 10
7.6135280175
 20
5.5611913607
 30
0.0
  0
SPLINE
  5
454
100
AcDbEntity
  8
ALL_ASSEMBLY_MEMBERS
100
AcDbSpline
 62
7
  6
CONTINUOUS
 70
0
 71
3
 72
13
 73
9
 74
0
 42
0.0000001
 43
0.0000001
 44
0.0000000001
 40
0.0
 40
0.0
 40
0.0
 40
0.0
 40
0.1202353318
 40
0.2448321505
 40
0.4999992659
 40
0.7551667006
 40
0.8797639677
 40
1.0
 40
1.0
 40
1.0
 40
1.0
 10
7.5748403285
 20
5.5829201215
 30
0.0
 10
7.5753272548
 20
5.5830505427
 30
0.0
 10
7.5762996839
 20
5.5833918863
 30
0.0
 10
7.5781726034
 20
5.5843439308
 30
0.0
 10
7.5802945851
 20
5.5860000523
 30
0.0
 10
7.5819506748
 20
5.5881220607
 30
0.0
 10
7.5829026963
 20
5.5899949987
 30
0.0
 10
7.5832440289
 20
5.5909674367
 30
0.0
 10
7.5833744449
 20
5.5914543675
 30
0.0
  0
SPLINE
  5
455
100
AcDbEntity
  8
ALL_ASSEMBLY_MEMBERS
100
AcDbSpline
 62
7
  6
CONTINUOUS
 70
0
 71
3
 72
13
 73
9
 74
0
 42
0.0000001
 43
0.0000001
 44
0.0000000001
 40
0.0
 40
0.0
 40
0.0
 40
0.0
 40
0.1200884601
 40
0.2446507168
 40
0.4999999134
 40
0.7553490974
 40
0.8799114019
 40
1.0
 40
1.0
 40
1.0
 40
1.0
 10
6.6290958924
 20
6.5456221192
 30
0.0
 10
6.6286195941
 20
6.5454853394
 30
0.0
 10
6.6276687756
 20
6.5451348278
 30
0.0
 10
6.6258362692
 20
6.5441772302
 30
0.0
 10
6.6237556846
 20
6.5425381415
 30
0.0
 10
6.6221165959
 20
6.5404575568
 30
0.0
 10
6.6211589974
 20
6.5386250501
 30
0.0
 10
6.6208084849
 20
6.5376742311
 30
0.0
 10
6.6206717044
 20
6.5371979324
 30
0.0
  0
SPLINE
  5
456
100
AcDbEntity
  8
ALL_ASSEMBLY_MEMBERS
100
AcDbSpline
 62
7
  6
CONTINUOUS
 70
0
 71
3
 72
13
 73
9
 74
0
 42
0.0000001
 43
0.0000001
 44
0.0000000001
 40
0.0
 40
0.0
 40
0.0
 40
0.0
 40
0.1202347345
 40
0.2448311383
 40
0.4999979255
 40
0.7551656955
 40
0.8797633756
 40
1.0
 40
1.0
 40
1.0
 40
1.0
 10
6.6593601624
 20
6.5154690589
 30
0.0
 10
6.6588732439
 20
6.5153386345
 30
0.0
 10
6.6579008307
 20
6.5149972846
 30
0.0
 10
6.6560279427
 20
6.5140452292
 30
0.0
 10
6.6539060014
 20
6.5123890951
 30
0.0
 10
6.6522499522
 20
6.510267082
 30
0.0
 10
6.6512979574
 20
6.508394144
 30
0.0
 10
6.6509566368
 20
6.5074217065
 30
0.0
 10
6.6508262262
 20
6.5069347761
 30
0.0
  0
SPLINE
  5
457
100
AcDbEntity
  8
ALL_ASSEMBLY_MEMBERS
100
AcDbSpline
 62
7
  6
CONTINUOUS
 70
0
 71
3
 72
13
 73
9
 74
0
 42
0.0000001
 43
0.0000001
 44
0.0000000001
 40
0.0
 40
0.0
 40
0.0
 40
0.0
 40
0.120088349
 40
0.2446505015
 40
0.4999995492
 40
0.7553488139
 40
0.8799112497
 40
1.0
 40
1.0
 40
1.0
 40
1.0
 10
7.6135281989
 20
6.5371988556
 30
0.0
 10
7.6133914169
 20
6.537675157
 30
0.0
 10
7.6130409001
 20
6.5386259815
 30
0.0
 10
7.61208329
 20
6.5404584986
 30
0.0
 10
7.6104441817
 20
6.5425390943
 30
0.0
 10
7.6083635741
 20
6.5441781892
 30
0.0
 10
7.6065310482
 20
6.5451357904
 30
0.0
 10
7.6055802193
 20
6.5454863033
 30
0.0
 10
7.6051039158
 20
6.5456230838
 30
0.0
  0
SPLINE
  5
458
100
AcDbEntity
  8
ALL_ASSEMBLY_MEMBERS
100
AcDbSpline
 62
7
  6
CONTINUOUS
 70
0
 71
3
 72
13
 73
9
 74
0
 42
0.0000001
 43
0.0000001
 44
0.0000000001
 40
0.0
 40
0.0
 40
0.0
 40
0.0
 40
0.1202351341
 40
0.2448318971
 40
0.4999990377
 40
0.7551666535
 40
0.8797640113
 40
1.0
 40
1.0
 40
1.0
 40
1.0
 10
7.5833747388
 20
6.5069345086
 30
0.0
 10
7.5832443116
 20
6.507421446
 30
0.0
 10
7.582902954
 20
6.5083938972
 30
0.0
 10
7.5819508769
 20
6.5102668597
 30
0.0
 10
7.5802947073
 20
6.5123888922
 30
0.0
 10
7.5781726423
 20
6.5140450235
 30
0.0
 10
7.576299657
 20
6.5149970735
 30
0.0
 10
7.5753271948
 20
6.5153384179
 30
0.0
 10
7.574840252
 20
6.5154688388
 30
0.0
  0
LINE
  5
459
100
AcDbEntity
  8
ALL_ASSEMBLY_MEMBERS
100
AcDbLine
 62
7
  6
CONTINUOUS
 10
7.5748402805
 20
6.5154688312
 11
7.2471116029
 21
6.1891945609
  0
LINE
  5
45A
100
AcDbEntity
  8
ALL_ASSEMBLY_MEMBERS
100
AcDbLine
 62
7
  6
CONTINUOUS
 10
7.5748403395
 20
5.5829201245
 11
7.2471113859
 21
5.9091945603
  0
SPLINE
  5
45B
100
AcDbEntity
  8
ALL_ASSEMBLY_MEMBERS
100
AcDbSpline
 62
7
  6
CONTINUOUS
 70
0
 71
3
 72
9
 73
5
 74
0
 42
0.0000001
 43
0.0000001
 44
0.0000000001
 40
0.0
 40
0.0
 40
0.0
 40
0.0
 40
0.4999999597
 40
1.0
 40
1.0
 40
1.0
 40
1.0
 10
6.659360187
 20
5.5829506781
 30
0.0
 10
6.8119392849
 20
5.5823233414
 30
0.0
 10
7.1171001881
 20
5.5814937777
 30
0.0
 10
7.4222610913
 20
5.5823233415
 30
0.0
 10
7.5748402138
 20
5.5829506782
 30
0.0
  0
LINE
  5
45C
100
AcDbEntity
  8
ALL_ASSEMBLY_MEMBERS
100
AcDbLine
 62
7
  6
CONTINUOUS
 10
6.6593600616
 20
5.5829201911
 11
6.9870888934
 21
5.9091945603
  0
LINE
  5
45D
100
AcDbEntity
  8
ALL_ASSEMBLY_MEMBERS
100
AcDbLine
 62
7
  6
CONTINUOUS
 10
7.6828460534
 20
5.4752832716
 11
7.6051037671
 21
5.5527667899
  0
LINE
  5
45E
100
AcDbEntity
  8
ALL_ASSEMBLY_MEMBERS
100
AcDbLine
 62
7
  6
CONTINUOUS
 10
6.6593601076
 20
6.5154690442
 11
6.9870889579
 21
6.1891945606
  0
SPLINE
  5
45F
100
AcDbEntity
  8
ALL_ASSEMBLY_MEMBERS
100
AcDbSpline
 62
7
  6
CONTINUOUS
 70
0
 71
3
 72
9
 73
5
 74
0
 42
0.0000001
 43
0.0000001
 44
0.0000000001
 40
0.0
 40
0.0
 40
0.0
 40
0.0
 40
0.5000000403
 40
1.0
 40
1.0
 40
1.0
 40
1.0
 10
7.5748401635
 20
6.5154403712
 30
0.0
 10
7.4222610558
 20
6.5160677006
 30
0.0
 10
7.1171001822
 20
6.5168972536
 30
0.0
 10
6.8119393087
 20
6.5160677006
 30
0.0
 10
6.6593602255
 20
6.5154403713
 30
0.0
  0
LINE
  5
460
100
AcDbEntity
  8
ALL_ASSEMBLY_MEMBERS
100
AcDbLine
 62
7
  6
CONTINUOUS
 10
6.551354585
 20
5.4752835228
 11
6.6290964033
 21
5.5527663621
  0
SPLINE
  5
461
100
AcDbEntity
  8
ALL_ASSEMBLY_MEMBERS
100
AcDbSpline
 62
7
  6
CONTINUOUS
 70
0
 71
3
 72
9
 73
5
 74
0
 42
0.0000001
 43
0.0000001
 44
0.0000000001
 40
0.0
 40
0.0
 40
0.0
 40
0.0
 40
0.5000000293
 40
1.0
 40
1.0
 40
1.0
 40
1.0
 10
7.6051038682
 20
5.5527371919
 30
0.0
 10
7.4424365884
 20
5.5521818442
 30
0.0
 10
7.1171000764
 20
5.5514469103
 30
0.0
 10
6.7917635645
 20
5.5521818447
 30
0.0
 10
6.6290963037
 20
5.5527371925
 30
0.0
  0
LINE
  5
462
100
AcDbEntity
  8
ALL_ASSEMBLY_MEMBERS
100
AcDbLine
 62
7
  6
CONTINUOUS
 10
7.5833746113
 20
5.5914545061
 11
7.2670308498
 21
5.9092604797
  0
LINE
  5
463
100
AcDbEntity
  8
ALL_ASSEMBLY_MEMBERS
100
AcDbLine
 62
7
  6
CONTINUOUS
 10
2.6047693522
 20
5.4843587653
 11
2.604624761
 21
5.9030645191
  0
SPLINE
  5
464
100
AcDbEntity
  8
ALL_ASSEMBLY_MEMBERS
100
AcDbSpline
 62
7
  6
CONTINUOUS
 70
0
 71
3
 72
9
 73
5
 74
0
 42
0.0000001
 43
0.0000001
 44
0.0000000001
 40
0.0
 40
0.0
 40
0.0
 40
0.0
 40
0.4999999987
 40
1.0
 40
1.0
 40
1.0
 40
1.0
 10
3.7444359515
 20
5.4743637688
 30
0.0
 10
3.5561777978
 20
5.4742696006
 30
0.0
 10
3.1796001562
 20
5.4741447664
 30
0.0
 10
2.8030225073
 20
5.4742696006
 30
0.0
 10
2.6147643489
 20
5.4743637688
 30
0.0
  0
SPLINE
  5
465
100
AcDbEntity
  8
ALL_ASSEMBLY_MEMBERS
100
AcDbSpline
 62
7
  6
CONTINUOUS
 70
0
 71
3
 72
9
 73
5
 74
0
 42
0.0000001
 43
0.0000001
 44
0.0000000001
 40
0.0
 40
0.0
 40
0.0
 40
0.0
 40
0.5
 40
1.0
 40
1.0
 40
1.0
 40
1.0
 10
3.7544309482
 20
6.6140303555
 30
0.0
 10
3.7545251158
 20
6.4257722013
 30
0.0
 10
3.7546499483
 20
6.0491945605
 30
0.0
 10
3.7545251158
 20
5.6726169197
 30
0.0
 10
3.7544309482
 20
5.4843587655
 30
0.0
  0
SPLINE
  5
466
100
AcDbEntity
  8
ALL_ASSEMBLY_MEMBERS
100
AcDbSpline
 62
7
  6
CONTINUOUS
 70
0
 71
3
 72
9
 73
5
 74
0
 42
0.0000001
 43
0.0000001
 44
0.0000000001
 40
0.0
 40
0.0
 40
0.0
 40
0.0
 40
0.5000000013
 40
1.0
 40
1.0
 40
1.0
 40
1.0
 10
2.6147643489
 20
6.6240253522
 30
0.0
 10
2.8030225073
 20
6.6241195204
 30
0.0
 10
3.1796001562
 20
6.6242443546
 30
0.0
 10
3.5561777978
 20
6.6241195204
 30
0.0
 10
3.7444359515
 20
6.6240253522
 30
0.0
  0
LINE
  5
467
100
AcDbEntity
  8
ALL_ASSEMBLY_MEMBERS
100
AcDbLine
 62
7
  6
CONTINUOUS
 10
2.6046247611
 20
6.1953251726
 11
2.6047693522
 21
6.6140303557
  0
LINE
  5
468
100
AcDbEntity
  8
ALL_ASSEMBLY_MEMBERS
100
AcDbLine
 62
7
  6
CONTINUOUS
 10
2.6056888548
 20
6.6149404458
 11
2.6831721408
 21
6.5371981829
  0
LINE
  5
469
100
AcDbEntity
  8
ALL_ASSEMBLY_MEMBERS
100
AcDbLine
 62
7
  6
CONTINUOUS
 10
2.6138528635
 20
5.4752818759
 11
2.6915964067
 21
5.5527664566
  0
SPLINE
  5
46A
100
AcDbEntity
  8
ALL_ASSEMBLY_MEMBERS
100
AcDbSpline
 62
7
  6
CONTINUOUS
 70
0
 71
3
 72
9
 73
5
 74
0
 42
0.0000001
 43
0.0000001
 44
0.0000000001
 40
0.0
 40
0.0
 40
0.0
 40
0.0
 40
0.4999999709
 40
1.0
 40
1.0
 40
1.0
 40
1.0
 10
3.6676038209
 20
5.5527371026
 30
0.0
 10
3.5049365684
 20
5.5521817554
 30
0.0
 10
3.1796000732
 20
5.5514468222
 30
0.0
 10
2.8542635779
 20
5.5521817558
 30
0.0
 10
2.6915963065
 20
5.5527371031
 30
0.0
  0
LINE
  5
46B
100
AcDbEntity
  8
ALL_ASSEMBLY_MEMBERS
100
AcDbLine
 62
7
  6
CONTINUOUS
 10
3.7453456638
 20
5.4752835258
 11
3.6676037197
 21
5.5527667407
  0
LINE
  5
46C
100
AcDbEntity
  8
ALL_ASSEMBLY_MEMBERS
100
AcDbLine
 62
7
  6
CONTINUOUS
 10
2.6056874602
 20
5.483447274
 11
2.6831721408
 21
5.5611909381
  0
LINE
  5
46D
100
AcDbEntity
  8
ALL_ASSEMBLY_MEMBERS
100
AcDbLine
 62
7
  6
CONTINUOUS
 10
2.7133256993
 20
5.5914545061
 11
3.0296769086
 21
5.9092679817
  0
LINE
  5
46E
100
AcDbEntity
  8
ALL_ASSEMBLY_MEMBERS
100
AcDbLine
 62
7
  6
CONTINUOUS
 10
3.6458744353
 20
5.5914545323
 11
3.3295303823
 21
5.9092609087
  0
LINE
  5
46F
100
AcDbEntity
  8
ALL_ASSEMBLY_MEMBERS
100
AcDbLine
 62
7
  6
CONTINUOUS
 10
3.6458746504
 20
6.5069345912
 11
3.3295277187
 21
6.1891256317
  0
SPLINE
  5
470
100
AcDbEntity
  8
ALL_ASSEMBLY_MEMBERS
100
AcDbSpline
 62
7
  6
CONTINUOUS
 70
0
 71
3
 72
9
 73
5
 74
0
 42
0.0000001
 43
0.0000001
 44
0.0000000001
 40
0.0
 40
0.0
 40
0.0
 40
0.0
 40
0.5
 40
1.0
 40
1.0
 40
1.0
 40
1.0
 10
3.6458459779
 20
5.5914546493
 30
0.0
 10
3.6464733024
 20
5.7440337258
 30
0.0
 10
3.6473028371
 20
6.0491945613
 30
0.0
 10
3.6464733024
 20
6.3543553968
 30
0.0
 10
3.6458459779
 20
6.5069344733
 30
0.0
  0
SPLINE
  5
471
100
AcDbEntity
  8
ALL_ASSEMBLY_MEMBERS
100
AcDbSpline
 62
7
  6
CONTINUOUS
 70
0
 71
3
 72
12
 73
8
 74
0
 42
0.0000001
 43
0.0000001
 44
0.0000000001
 40
0.0
 40
0.0
 40
0.0
 40
0.0
 40
0.2499999882
 40
0.3750000028
 40
0.5000000058
 40
0.7500000042
 40
1.0
 40
1.0
 40
1.0
 40
1.0
 10
3.6564252784
 20
5.5695259399
 30
0.0
 10
3.5769547684
 20
5.56923559
 30
0.0
 10
3.4577486873
 20
5.5688740487
 30
0.0
 10
3.2988067963
 20
5.568607904
 30
0.0
 10
3.1398646953
 20
5.5685153992
 30
0.0
 10
2.9411870602
 20
5.5687527425
 30
0.0
 10
2.7822456422
 20
5.5692352619
 30
0.0
 10
2.7027751299
 20
5.5695256763
 30
0.0
  0
LINE
  5
472
100
AcDbEntity
  8
ALL_ASSEMBLY_MEMBERS
100
AcDbLine
 62
7
  6
CONTINUOUS
 10
3.7535111615
 20
5.4834490262
 11
3.6760282736
 21
5.5611908812
  0
SPLINE
  5
473
100
AcDbEntity
  8
ALL_ASSEMBLY_MEMBERS
100
AcDbSpline
 62
7
  6
CONTINUOUS
 70
0
 71
3
 72
12
 73
8
 74
0
 42
0.0000001
 43
0.0000001
 44
0.0000000001
 40
0.0
 40
0.0
 40
0.0
 40
0.0
 40
0.2499999882
 40
0.3750000028
 40
0.5000000059
 40
0.7500000042
 40
1.0
 40
1.0
 40
1.0
 40
1.0
 10
3.6592687847
 20
6.5260197822
 30
0.0
 10
3.6595591339
 20
6.446549275
 30
0.0
 10
3.6599206785
 20
6.3273431981
 30
0.0
 10
3.6601867993
 20
6.1684013127
 30
0.0
 10
3.6602793369
 20
6.0094592174
 30
0.0
 10
3.6600419536
 20
5.8107815895
 30
0.0
 10
3.6595594633
 20
5.6518401771
 30
0.0
 10
3.6592690529
 20
5.5723696677
 30
0.0
  0
SPLINE
  5
474
100
AcDbEntity
  8
ALL_ASSEMBLY_MEMBERS
100
AcDbSpline
 62
7
  6
CONTINUOUS
 70
0
 71
3
 72
13
 73
9
 74
0
 42
0.0000001
 43
0.0000001
 44
0.0000000001
 40
0.0
 40
0.0
 40
0.0
 40
0.0
 40
0.2499999794
 40
0.3749999891
 40
0.4999999884
 40
0.624999997
 40
0.7500000123
 40
1.0
 40
1.0
 40
1.0
 40
1.0
 10
2.7027753467
 20
6.5288631481
 30
0.0
 10
2.7822458264
 20
6.5291535755
 30
0.0
 10
2.9014518614
 20
6.5295156788
 30
0.0
 10
3.0603936938
 20
6.5297807687
 30
0.0
 10
3.1796002325
 20
6.5298498219
 30
0.0
 10
3.2988067696
 20
6.529778099
 30
0.0
 10
3.4577486144
 20
6.5295165305
 30
0.0
 10
3.5769546551
 20
6.5291541316
 30
0.0
 10
3.6564251369
 20
6.5288635463
 30
0.0
  0
SPLINE
  5
475
100
AcDbEntity
  8
ALL_ASSEMBLY_MEMBERS
100
AcDbSpline
 62
7
  6
CONTINUOUS
 70
0
 71
3
 72
9
 73
5
 74
0
 42
0.0000001
 43
0.0000001
 44
0.0000000001
 40
0.0
 40
0.0
 40
0.0
 40
0.0
 40
0.5000000001
 40
1.0
 40
1.0
 40
1.0
 40
1.0
 10
3.6760576302
 20
6.5371982134
 30
0.0
 10
3.6766129737
 20
6.3745309651
 30
0.0
 10
3.6773478928
 20
6.0491944972
 30
0.0
 10
3.6766129733
 20
5.7238580292
 30
0.0
 10
3.6760576298
 20
5.561190781
 30
0.0
  0
LINE
  5
476
100
AcDbEntity
  8
ALL_ASSEMBLY_MEMBERS
100
AcDbLine
 62
7
  6
CONTINUOUS
 10
3.7535112293
 20
6.6149400918
 11
3.6760279836
 21
6.5371981121
  0
SPLINE
  5
477
100
AcDbEntity
  8
ALL_ASSEMBLY_MEMBERS
100
AcDbSpline
 62
7
  6
CONTINUOUS
 70
0
 71
3
 72
13
 73
9
 74
0
 42
0.0000001
 43
0.0000001
 44
0.0000000001
 40
0.0
 40
0.0
 40
0.0
 40
0.0
 40
0.1200885075
 40
0.2446507839
 40
0.4999999127
 40
0.755348993
 40
0.8799113136
 40
1.0
 40
1.0
 40
1.0
 40
1.0
 10
3.6760277396
 20
6.5371990985
 30
0.0
 10
3.6758909613
 20
6.5376753955
 30
0.0
 10
3.6755404534
 20
6.5386262115
 30
0.0
 10
3.6745828648
 20
6.5404587138
 30
0.0
 10
3.67294379
 20
6.5425392956
 30
0.0
 10
3.67086322
 20
6.5441783856
 30
0.0
 10
3.6690307244
 20
6.5451359884
 30
0.0
 10
3.6680799103
 20
6.5454865043
 30
0.0
 10
3.6676036138
 20
6.5456232869
 30
0.0
  0
SPLINE
  5
478
100
AcDbEntity
  8
ALL_ASSEMBLY_MEMBERS
100
AcDbSpline
 62
7
  6
CONTINUOUS
 70
0
 71
3
 72
13
 73
9
 74
0
 42
0.0000001
 43
0.0000001
 44
0.0000000001
 40
0.0
 40
0.0
 40
0.0
 40
0.0
 40
0.1202352421
 40
0.2448319776
 40
0.4999990608
 40
0.7551665914
 40
0.8797639043
 40
1.0
 40
1.0
 40
1.0
 40
1.0
 10
3.645874625
 20
6.5069346863
 30
0.0
 10
3.6457442044
 20
6.5074216081
 30
0.0
 10
3.6454028626
 20
6.5083940279
 30
0.0
 10
3.6444508241
 20
6.5102669296
 30
0.0
 10
3.6427947129
 20
6.5123888905
 30
0.0
 10
3.6406727198
 20
6.5140449637
 30
0.0
 10
3.6387997955
 20
6.5149969751
 30
0.0
 10
3.6378273648
 20
6.5153383037
 30
0.0
 10
3.6373404377
 20
6.5154687181
 30
0.0
  0
SPLINE
  5
479
100
AcDbEntity
  8
ALL_ASSEMBLY_MEMBERS
100
AcDbSpline
 62
7
  6
CONTINUOUS
 70
0
 71
3
 72
13
 73
9
 74
0
 42
0.0000001
 43
0.0000001
 44
0.0000000001
 40
0.0
 40
0.0
 40
0.0
 40
0.0
 40
0.1200886775
 40
0.2446510845
 40
0.5000004804
 40
0.7553495387
 40
0.8799116317
 40
1.0
 40
1.0
 40
1.0
 40
1.0
 10
2.691596445
 20
6.5456218814
 30
0.0
 10
2.6911201489
 20
6.5454851016
 30
0.0
 10
2.6901693351
 20
6.5451345914
 30
0.0
 10
2.6883368377
 20
6.5441769997
 30
0.0
 10
2.6862562637
 20
6.5425379235
 30
0.0
 10
2.6846171802
 20
6.5404573566
 30
0.0
 10
2.683659585
 20
6.5386248654
 30
0.0
 10
2.6833090735
 20
6.5376740548
 30
0.0
 10
2.6831722931
 20
6.5371977603
 30
0.0
  0
SPLINE
  5
47A
100
AcDbEntity
  8
ALL_ASSEMBLY_MEMBERS
100
AcDbSpline
 62
7
  6
CONTINUOUS
 70
0
 71
3
 72
13
 73
9
 74
0
 42
0.0000001
 43
0.0000001
 44
0.0000000001
 40
0.0
 40
0.0
 40
0.0
 40
0.0
 40
0.1202353318
 40
0.2448321505
 40
0.4999992659
 40
0.7551667006
 40
0.8797639677
 40
1.0
 40
1.0
 40
1.0
 40
1.0
 10
2.7218599821
 20
6.5154689995
 30
0.0
 10
2.7213730557
 20
6.5153385783
 30
0.0
 10
2.7204006266
 20
6.5149972347
 30
0.0
 10
2.7185277072
 20
6.5140451902
 30
0.0
 10
2.7164057255
 20
6.5123890687
 30
0.0
 10
2.7147496358
 20
6.5102670603
 30
0.0
 10
2.7137976143
 20
6.5083941223
 30
0.0
 10
2.7134562817
 20
6.5074216843
 30
0.0
 10
2.7133258657
 20
6.5069347535
 30
0.0
  0
SPLINE
  5
47B
100
AcDbEntity
  8
ALL_ASSEMBLY_MEMBERS
100
AcDbSpline
 62
7
  6
CONTINUOUS
 70
0
 71
3
 72
13
 73
9
 74
0
 42
0.0000001
 43
0.0000001
 44
0.0000000001
 40
0.0
 40
0.0
 40
0.0
 40
0.0
 40
0.1200884601
 40
0.2446507168
 40
0.4999999134
 40
0.7553490974
 40
0.8799114019
 40
1.0
 40
1.0
 40
1.0
 40
1.0
 10
3.6676044182
 20
5.5527670018
 30
0.0
 10
3.6680807164
 20
5.5529037816
 30
0.0
 10
3.669031535
 20
5.5532542932
 30
0.0
 10
3.6708640414
 20
5.5542118908
 30
0.0
 10
3.6729446259
 20
5.5558509795
 30
0.0
 10
3.6745837147
 20
5.5579315642
 30
0.0
 10
3.6755413131
 20
5.5597640709
 30
0.0
 10
3.6758918256
 20
5.5607148899
 30
0.0
 10
3.6760286061
 20
5.5611911886
 30
0.0
  0
SPLINE
  5
47C
100
AcDbEntity
  8
ALL_ASSEMBLY_MEMBERS
100
AcDbSpline
 62
7
  6
CONTINUOUS
 70
0
 71
3
 72
13
 73
9
 74
0
 42
0.0000001
 43
0.0000001
 44
0.0000000001
 40
0.0
 40
0.0
 40
0.0
 40
0.0
 40
0.1202347345
 40
0.2448311383
 40
0.4999979255
 40
0.7551656955
 40
0.8797633756
 40
1.0
 40
1.0
 40
1.0
 40
1.0
 10
3.6373401482
 20
5.5829200621
 30
0.0
 10
3.6378270667
 20
5.5830504865
 30
0.0
 10
3.6387994799
 20
5.5833918364
 30
0.0
 10
3.6406723678
 20
5.5843438918
 30
0.0
 10
3.6427943091
 20
5.5860000259
 30
0.0
 10
3.6444503584
 20
5.588122039
 30
0.0
 10
3.6454023532
 20
5.589994977
 30
0.0
 10
3.6457436738
 20
5.5909674145
 30
0.0
 10
3.6458740843
 20
5.5914543449
 30
0.0
  0
SPLINE
  5
47D
100
AcDbEntity
  8
ALL_ASSEMBLY_MEMBERS
100
AcDbSpline
 62
7
  6
CONTINUOUS
 70
0
 71
3
 72
13
 73
9
 74
0
 42
0.0000001
 43
0.0000001
 44
0.0000000001
 40
0.0
 40
0.0
 40
0.0
 40
0.0
 40
0.120088349
 40
0.2446505015
 40
0.4999995492
 40
0.7553488139
 40
0.8799112497
 40
1.0
 40
1.0
 40
1.0
 40
1.0
 10
2.6831721116
 20
5.5611902654
 30
0.0
 10
2.6833088937
 20
5.560713964
 30
0.0
 10
2.6836594105
 20
5.5597631395
 30
0.0
 10
2.6846170205
 20
5.5579306224
 30
0.0
 10
2.6862561289
 20
5.5558500267
 30
0.0
 10
2.6883367364
 20
5.5542109318
 30
0.0
 10
2.6901692624
 20
5.5532533306
 30
0.0
 10
2.6911200912
 20
5.5529028177
 30
0.0
 10
2.6915963948
 20
5.5527660372
 30
0.0
  0
SPLINE
  5
47E
100
AcDbEntity
  8
ALL_ASSEMBLY_MEMBERS
100
AcDbSpline
 62
7
  6
CONTINUOUS
 70
0
 71
3
 72
13
 73
9
 74
0
 42
0.0000001
 43
0.0000001
 44
0.0000000001
 40
0.0
 40
0.0
 40
0.0
 40
0.0
 40
0.1202351341
 40
0.2448318971
 40
0.4999990377
 40
0.7551666535
 40
0.8797640113
 40
1.0
 40
1.0
 40
1.0
 40
1.0
 10
2.7133255718
 20
5.5914546124
 30
0.0
 10
2.7134559989
 20
5.590967675
 30
0.0
 10
2.7137973566
 20
5.5899952238
 30
0.0
 10
2.7147494337
 20
5.5881222613
 30
0.0
 10
2.7164056033
 20
5.5860002288
 30
0.0
 10
2.7185276682
 20
5.5843440975
 30
0.0
 10
2.7204006535
 20
5.5833920475
 30
0.0
 10
2.7213731158
 20
5.5830507031
 30
0.0
 10
2.7218600586
 20
5.5829202822
 30
0.0
  0
LINE
  5
47F
100
AcDbEntity
  8
ALL_ASSEMBLY_MEMBERS
100
AcDbLine
 62
7
  6
CONTINUOUS
 10
2.72186003
 20
5.5829202898
 11
3.0495887077
 21
5.9091945601
  0
LINE
  5
480
100
AcDbEntity
  8
ALL_ASSEMBLY_MEMBERS
100
AcDbLine
 62
7
  6
CONTINUOUS
 10
2.7218599711
 20
6.5154689965
 11
3.0495889247
 21
6.1891945607
  0
SPLINE
  5
481
100
AcDbEntity
  8
ALL_ASSEMBLY_MEMBERS
100
AcDbSpline
 62
7
  6
CONTINUOUS
 70
0
 71
3
 72
9
 73
5
 74
0
 42
0.0000001
 43
0.0000001
 44
0.0000000001
 40
0.0
 40
0.0
 40
0.0
 40
0.0
 40
0.4999999597
 40
1.0
 40
1.0
 40
1.0
 40
1.0
 10
3.6373401236
 20
6.5154384429
 30
0.0
 10
3.4847610256
 20
6.5160657796
 30
0.0
 10
3.1796001224
 20
6.5168953433
 30
0.0
 10
2.8744392193
 20
6.5160657795
 30
0.0
 10
2.7218600967
 20
6.5154384428
 30
0.0
  0
LINE
  5
482
100
AcDbEntity
  8
ALL_ASSEMBLY_MEMBERS
100
AcDbLine
 62
7
  6
CONTINUOUS
 10
3.6373402489
 20
6.5154689299
 11
3.3096114172
 21
6.1891945607
  0
LINE
  5
483
100
AcDbEntity
  8
ALL_ASSEMBLY_MEMBERS
100
AcDbLine
 62
7
  6
CONTINUOUS
 10
2.6138542572
 20
6.6231058494
 11
2.6915965434
 21
6.5456223311
  0
LINE
  5
484
100
AcDbEntity
  8
ALL_ASSEMBLY_MEMBERS
100
AcDbLine
 62
7
  6
CONTINUOUS
 10
3.6373402029
 20
5.5829200768
 11
3.3096113526
 21
5.9091945604
  0
SPLINE
  5
485
100
AcDbEntity
  8
ALL_ASSEMBLY_MEMBERS
100
AcDbSpline
 62
7
  6
CONTINUOUS
 70
0
 71
3
 72
9
 73
5
 74
0
 42
0.0000001
 43
0.0000001
 44
0.0000000001
 40
0.0
 40
0.0
 40
0.0
 40
0.0
 40
0.5000000403
 40
1.0
 40
1.0
 40
1.0
 40
1.0
 10
2.721860147
 20
5.5829487498
 30
0.0
 10
2.8744392548
 20
5.5823214204
 30
0.0
 10
3.1796001283
 20
5.5814918674
 30
0.0
 10
3.4847610019
 20
5.5823214204
 30
0.0
 10
3.6373400851
 20
5.5829487497
 30
0.0
  0
LINE
  5
486
100
AcDbEntity
  8
ALL_ASSEMBLY_MEMBERS
100
AcDbLine
 62
7
  6
CONTINUOUS
 10
3.7453457256
 20
6.6231055982
 11
3.6676039072
 21
6.5456227589
  0
SPLINE
  5
487
100
AcDbEntity
  8
ALL_ASSEMBLY_MEMBERS
100
AcDbSpline
 62
7
  6
CONTINUOUS
 70
0
 71
3
 72
9
 73
5
 74
0
 42
0.0000001
 43
0.0000001
 44
0.0000000001
 40
0.0
 40
0.0
 40
0.0
 40
0.0
 40
0.5000000293
 40
1.0
 40
1.0
 40
1.0
 40
1.0
 10
2.6915964424
 20
6.5456519291
 30
0.0
 10
2.8542637222
 20
6.5462072768
 30
0.0
 10
3.1796002341
 20
6.5469422107
 30
0.0
 10
3.5049367461
 20
6.5462072763
 30
0.0
 10
3.6676040068
 20
6.5456519285
 30
0.0
  0
LINE
  5
488
100
AcDbEntity
  8
ALL_ASSEMBLY_MEMBERS
100
AcDbLine
 62
7
  6
CONTINUOUS
 10
2.7133256993
 20
6.5069346149
 11
3.0296694608
 21
6.1891286413
  0
SPLINE
  5
489
100
AcDbEntity
  8
ALL_ASSEMBLY_MEMBERS
100
AcDbSpline
 62
7
  6
CONTINUOUS
 70
0
 71
3
 72
11
 73
7
 74
0
 42
0.0000001
 43
0.0000001
 44
0.0000000001
 40
0.0
 40
0.0
 40
0.0
 40
0.0
 40
0.2491015402
 40
0.5000000483
 40
0.7508985315
 40
1.0
 40
1.0
 40
1.0
 40
1.0
 10
5.6471001553
 20
3.102445436
 30
0.0
 10
5.5644197315
 20
3.0932351273
 30
0.0
 10
5.3979029343
 20
3.0794539144
 30
0.0
 10
5.1471000928
 20
3.0725817064
 30
0.0
 10
4.8962972859
 20
3.0794542977
 30
0.0
 10
4.7297805418
 20
3.0932357581
 30
0.0
 10
4.6471001553
 20
3.1024461847
 30
0.0
  0
SPLINE
  5
48A
100
AcDbEntity
  8
ALL_ASSEMBLY_MEMBERS
100
AcDbSpline
 62
7
  6
CONTINUOUS
 70
0
 71
3
 72
9
 73
5
 74
0
 42
0.0000001
 43
0.0000001
 44
0.0000000001
 40
0.0
 40
0.0
 40
0.0
 40
0.0
 40
0.2507902382
 40
1.0
 40
1.0
 40
1.0
 40
1.0
 10
5.3221001553
 20
3.1868634061
 30
0.0
 10
5.3438698101
 20
3.1860324891
 30
0.0
 10
5.4306491528
 20
3.1820988139
 30
0.0
 10
5.5173167356
 20
3.1756821942
 30
0.0
 10
5.5821001553
 20
3.1694558875
 30
0.0
  0
SPLINE
  5
48B
100
AcDbEntity
  8
ALL_ASSEMBLY_MEMBERS
100
AcDbSpline
 62
7
  6
CONTINUOUS
 70
0
 71
3
 72
9
 73
5
 74
0
 42
0.0000001
 43
0.0000001
 44
0.0000000001
 40
0.0
 40
0.0
 40
0.0
 40
0.0
 40
0.24908159
 40
1.0
 40
1.0
 40
1.0
 40
1.0
 10
4.7096001553
 20
3.1692149014
 30
0.0
 10
4.7313443512
 20
3.1713171156
 30
0.0
 10
4.818702924
 20
3.1791136444
 30
0.0
 10
4.9062891415
 20
3.1843514924
 30
0.0
 10
4.9721001553
 20
3.1868634061
 30
0.0
  0
SPLINE
  5
48C
100
AcDbEntity
  8
ALL_ASSEMBLY_MEMBERS
100
AcDbSpline
 62
7
  6
CONTINUOUS
 70
0
 71
3
 72
11
 73
7
 74
0
 42
0.0000001
 43
0.0000001
 44
0.0000000001
 40
0.0
 40
0.0
 40
0.0
 40
0.0
 40
0.249270732
 40
0.4999834456
 40
0.7507044707
 40
1.0
 40
1.0
 40
1.0
 40
1.0
 10
4.7096001553
 20
3.1305887797
 30
0.0
 10
4.781849213
 20
3.1233964145
 30
0.0
 10
4.9271532005
 20
3.1126189367
 30
0.0
 10
5.1458314835
 20
3.1072004754
 30
0.0
 10
5.3645200169
 20
3.1124952137
 30
0.0
 10
5.5098397485
 20
3.1231901491
 30
0.0
 10
5.5821001553
 20
3.1303413009
 30
0.0
  0
SPLINE
  5
48D
100
AcDbEntity
  8
ALL_ASSEMBLY_MEMBERS
100
AcDbSpline
 62
7
  6
CONTINUOUS
 70
0
 71
3
 72
15
 73
11
 74
0
 42
0.0000001
 43
0.0000001
 44
0.0000000001
 40
0.0
 40
0.0
 40
0.0
 40
0.0
 40
0.1242035291
 40
0.2491077548
 40
0.3744475363
 40
0.5
 40
0.6255524637
 40
0.7508922452
 40
0.8757964709
 40
1.0
 40
1.0
 40
1.0
 40
1.0
 10
5.6471001553
 20
3.1967206142
 30
0.0
 10
5.6058701293
 20
3.2012983366
 30
0.0
 10
5.5230431171
 20
3.209310508
 30
0.0
 10
5.3982590491
 20
3.2178921078
 30
0.0
 10
5.272834747
 20
3.223047735
 30
0.0
 10
5.1471001553
 20
3.2247684593
 30
0.0
 10
5.0213655635
 20
3.223047735
 30
0.0
 10
4.8959412615
 20
3.2178921078
 30
0.0
 10
4.7711571934
 20
3.209310508
 30
0.0
 10
4.6883301813
 20
3.2012983366
 30
0.0
 10
4.6471001553
 20
3.1967206142
 30
0.0
  0
ENDSEC
  0
SECTION
  2
OBJECTS
  0
DICTIONARY
  5
C
100
AcDbDictionary
280
0
281
1
  3
ACAD_GROUP
350
D
  3
ACAD_MLINESTYLE
350
17
  3
ACAD_LAYOUT
350
1A
  3
ACAD_PLOTSETTINGS
350
19
  3
ACAD_PLOTSTYLENAME
350
E
  0
DICTIONARY
  5
D
102
{ACAD_REACTORS
330
C
102
}
100
AcDbDictionary
280
0
281
1
  0
ACDBDICTIONARYWDFLT
  5
E
102
{ACAD_REACTORS
330
C
102
}
100
AcDbDictionary
281
1
  3
Normal
350
F
100
AcDbDictionaryWithDefault
340
F
  0
DICTIONARY
  5
17
102
{ACAD_REACTORS
330
C
102
}
100
AcDbDictionary
280
0
281
1
  3
Standard
350
18
  0
DICTIONARY
  5
19
102
{ACAD_REACTORS
330
C
102
}
100
AcDbDictionary
281
1
  0
DICTIONARY
  5
1A
102
{ACAD_REACTORS
330
C
102
}
100
AcDbDictionary
281
1
  3
Model
350
48E
  3
Layout1
350
48F
  0
ACDBPLACEHOLDER
  5
F
102
{ACAD_REACTORS
330
E
102
}
  0
MLINESTYLE
  5
18
102
{ACAD_REACTORS
330
17
102
}
100
AcDbMlineStyle
  2
STANDARD
 70
0
  3

 62
256
 51
90.0
 52
90.0
 71
2
 49
0.5
 62
256
  6
BYLAYER
 49
-0.5
 62
256
  6
BYLAYER
  0
LAYOUT
  5
48E
102
{ACAD_REACTORS
330
1A
102
}
100
AcDbPlotSettings
  1

  2
none_device
  4
ANSI_A_(11.00_x_8.50_Inches)
  6

 40
0.0
 41
0.0
 42
0.0
 43
0.0
 44
279.4
 45
215.9
 46
0.0
 47
0.0
 48
0.0
 49
0.0
140
0.0
141
0.0
142
1.0
143
1.0
 70
1024
 72
0
 73
0
 74
0
  7

 75
0
147
1.0
148
0.0
149
0.0
100
AcDbLayout
  1
Model
 70
0
 71
0
 10
0.0
 20
0.0
 11
11.0
 21
8.5
 12
0.0
 22
0.0
 32
0.0
 14
0.0
 24
0.0
 34
0.0
 15
0.0
 25
0.0
 35
0.0
146
0.0
 13
0.0
 23
0.0
 33
0.0
 16
1.0
 26
0.0
 36
0.0
 17
0.0
 27
1.0
 37
0.0
 76
0
330
230
345
0
346
0
  0
LAYOUT
  5
48F
102
{ACAD_REACTORS
330
1A
102
}
100
AcDbPlotSettings
  1

  2
none_device
  4
ANSI_A_(11.00_x_8.50_Inches)
  6

 40
0.0
 41
0.0
 42
0.0
 43
0.0
 44
279.4
 45
215.9
 46
0.0
 47
0.0
 48
0.0
 49
0.0
140
0.0
141
0.0
142
1.0
143
1.0
 70
0
 72
0
 73
0
 74
0
  7

 75
0
147
1.0
148
0.0
149
0.0
100
AcDbLayout
  1
Layout1
 70
0
 71
1
 10
0.0
 20
0.0
 11
11.0
 21
8.5
 12
0.0
 22
0.0
 32
0.0
 14
0.0
 24
0.0
 34
0.0
 15
0.0
 25
0.0
 35
0.0
146
0.0
 13
0.0
 23
0.0
 33
0.0
 16
1.0
 26
0.0
 36
0.0
 17
0.0
 27
1.0
 37
0.0
 76
0
330
231
345
0
346
0
  0
ENDSEC
  0
EOF
