999
DXF file: E:\BT Custom\CADOUTPUT\_TOP.dxf
999
Pro/ENGINEER 2018400 by Parametric Technology Corporation
  0
SECTION
  2
HEADER
  9
$ACADVER
  1
AC1018
  9
$DWGCODEPAGE
  3
ANSI_1252
  9
$EXTMAX
 10
22.0
 20
17.0
 30
0.0
  9
$EXTMIN
 10
0.0
 20
0.0
 30
0.0
  9
$LIMMIN
 10
0.0
 20
0.0
  9
$LIMMAX
 10
22.0
 20
17.0
  9
$VIEWCTR
 10
11.0
 20
8.5
  9
$VIEWSIZE
 40
17.0
  9
$CLAYER
  8
0
  9
$LTSCALE
 40
1.21
  9
$CELTYPE
  6
BYLAYER
  9
$DIMSCALE
 40
1.0
  9
$DIMASZ
 40
0.1
  9
$DIMEXO
 40
0.0625
  9
$DIMDLI
 40
0.836
  9
$DIMEXE
 40
0.125
  9
$DIMCEN
 40
0.198
  9
$DIMLFAC
 40
1.0
  9
$DIMBLK
  1
_FILLED
  9
$DIMALT
 70
1
  9
$DIMALTD
 70
2
  9
$DIMALTTD
 70
2
  9
$DIMALTF
 40
25.4
  9
$DIMTXT
 40
0.08
  9
$DIMTOL
 70
1
  9
$DIMLIM
 70
0
  9
$DIMTFAC
 40
1.0
  9
$DIMTP
 40
0.001
  9
$DIMTM
 40
0.001
  9
$DIMGAP
 40
0.09
  9
$DIMDSEP
 70
46
  9
$AUNITS
 70
0
  9
$PDMODE
 70
3
  9
$PDSIZE
 40
0.06
  9
$HANDSEED
  5
5C5
  9
$TILEMODE
 70
1
  9
$MEASUREMENT
 70
0
  9
$INSUNITS
 70
1
  0
ENDSEC
  0
SECTION
  2
CLASSES
  0
CLASS
  1
ACDBDICTIONARYWDFLT
  2
AcDbDictionaryWithDefault
  3
AutoCAD 2000
 90
0
 91
1
280
0
281
0
  0
CLASS
  1
ACDBPLACEHOLDER
  2
AcDbPlaceHolder
  3
AutoCAD 2000
 90
0
 91
1
280
0
281
0
  0
CLASS
  1
LAYOUT
  2
AcDbLayout
  3
AutoCAD 2000
 90
0
 91
0
280
0
281
0
  0
ENDSEC
  0
SECTION
  2
TABLES
  0
TABLE
  2
VPORT
  5
8
100
AcDbSymbolTable
 70
2
  0
VPORT
  5
1F4
100
AcDbSymbolTableRecord
100
AcDbViewportTableRecord
  2
*ACTIVE
 70
0
 10
0.0
 20
0.0
 11
1.0
 21
1.0
 12
11.0
 22
8.5
 13
0.0
 23
0.0
 14
1.0
 24
1.0
 15
0.0
 25
0.0
 16
0.0
 26
0.0
 36
1.0
 17
0.0
 27
0.0
 37
0.0
 40
17.0
 41
1.2941176471
 42
50.0
 43
0.0
 44
0.0
 50
0.0
 51
0.0
 71
0
 72
100
 73
1
 74
1
 75
0
 76
0
 77
0
 78
0
  0
ENDTAB
  0
TABLE
  2
LTYPE
  5
5
100
AcDbSymbolTable
 70
6
  0
LTYPE
  5
14
100
AcDbSymbolTableRecord
100
AcDbLinetypeTableRecord
  2
BYBLOCK
 70
0
  3

 72
65
 73
0
 40
0.0
  0
LTYPE
  5
15
100
AcDbSymbolTableRecord
100
AcDbLinetypeTableRecord
  2
BYLAYER
 70
0
  3

 72
65
 73
0
 40
0.0
  0
LTYPE
  5
16
100
AcDbSymbolTableRecord
100
AcDbLinetypeTableRecord
  2
CONTINUOUS
 70
64
  3
Solid line
 72
65
 73
0
 40
0.0
  0
LTYPE
  5
1F5
100
AcDbSymbolTableRecord
100
AcDbLinetypeTableRecord
  2
CENTER
 70
64
  3
____ _ ____ _ ____ _ ____ _ ____ _ ____ _ ____
 72
65
 73
4
 40
0.6
 49
0.375
 74
0
 49
-0.075
 74
0
 49
0.075
 74
0
 49
-0.075
 74
0
  0
LTYPE
  5
1F6
100
AcDbSymbolTableRecord
100
AcDbLinetypeTableRecord
  2
HIDDEN
 70
64
  3
- - - - - - - - - - - - - - - - - - - -
 72
65
 73
2
 40
0.2
 49
0.1
 74
0
 49
-0.1
 74
0
  0
LTYPE
  5
1F7
100
AcDbSymbolTableRecord
100
AcDbLinetypeTableRecord
  2
PHANTOM
 70
64
  3
_____ _ _ _____ _ _ _____ _ _ _____
 72
65
 73
6
 40
0.8
 49
0.45
 74
0
 49
-0.05
 74
0
 49
0.1
 74
0
 49
-0.05
 74
0
 49
0.1
 74
0
 49
-0.05
 74
0
  0
LTYPE
  5
1F8
100
AcDbSymbolTableRecord
100
AcDbLinetypeTableRecord
  2
DOT
 70
64
  3
. . . . . . . . . . . . . . . . . . . .
 72
65
 73
2
 40
0.2
 49
0.1
 74
0
 49
-0.1
 74
0
  0
LTYPE
  5
1F9
100
AcDbSymbolTableRecord
100
AcDbLinetypeTableRecord
  2
DASHED
 70
64
  3
- - - - - - - - - - - - - - - - - - - -
 72
65
 73
2
 40
0.2
 49
0.1
 74
0
 49
-0.1
 74
0
  0
ENDTAB
  0
TABLE
  2
LAYER
  5
2
100
AcDbSymbolTable
 70
36
  0
LAYER
  5
10
100
AcDbSymbolTableRecord
100
AcDbLayerTableRecord
  2
0
 70
0
 62
7
  6
CONTINUOUS
370
-3
390
F
  0
LAYER
  5
1FA
100
AcDbSymbolTableRecord
100
AcDbLayerTableRecord
  2
DEFAULT_1
 70
0
 62
7
  6
CENTER
370
-3
390
F
  0
LAYER
  5
1FB
100
AcDbSymbolTableRecord
100
AcDbLayerTableRecord
  2
DEFAULT_2
 70
0
 62
8
  6
HIDDEN
370
-3
390
F
  0
LAYER
  5
1FC
100
AcDbSymbolTableRecord
100
AcDbLayerTableRecord
  2
DEFAULT_3
 70
0
 62
7
  6
PHANTOM
370
-3
390
F
  0
LAYER
  5
1FD
100
AcDbSymbolTableRecord
100
AcDbLayerTableRecord
  2
ALL_FEATURES
 70
0
 62
7
  6
CONTINUOUS
370
-3
390
F
  0
LAYER
  5
1FE
100
AcDbSymbolTableRecord
100
AcDbLayerTableRecord
  2
AXES_FEATURES
 70
0
 62
7
  6
CONTINUOUS
370
-3
390
F
  0
LAYER
  5
1FF
100
AcDbSymbolTableRecord
100
AcDbLayerTableRecord
  2
DIMENSIONS
 70
0
 62
7
  6
CONTINUOUS
370
-3
390
F
  0
ENDTAB
  0
TABLE
  2
STYLE
  5
3
100
AcDbSymbolTable
 70
1
  0
STYLE
  5
11
100
AcDbSymbolTableRecord
100
AcDbTextStyleTableRecord
  2
STANDARD
 70
0
 40
0.0
 41
0.8
 50
0.0
 71
0
 42
0.2
  3
txt
  4

  0
STYLE
  5
200
100
AcDbSymbolTableRecord
100
AcDbTextStyleTableRecord
  2
TEXTSTYLE_1
 70
0
 40
0.0
 41
0.8
 50
0.0
 71
0
 42
0.2
  3
gdt
  4

  0
ENDTAB
  0
TABLE
  2
VIEW
  5
6
100
AcDbSymbolTable
 70
0
  0
ENDTAB
  0
TABLE
  2
UCS
  5
7
100
AcDbSymbolTable
 70
0
  0
ENDTAB
  0
TABLE
  2
APPID
  5
9
100
AcDbSymbolTable
 70
1
  0
APPID
  5
201
100
AcDbSymbolTableRecord
100
AcDbRegAppTableRecord
  2
ACAD
 70
0
  0
ENDTAB
  0
TABLE
  2
BLOCK_RECORD
  5
1
100
AcDbSymbolTable
 70
0
  0
BLOCK_RECORD
  5
202
100
AcDbSymbolTableRecord
100
AcDbBlockTableRecord
  2
*Model_Space
  0
BLOCK_RECORD
  5
203
100
AcDbSymbolTableRecord
100
AcDbBlockTableRecord
  2
*Paper_Space
  0
BLOCK_RECORD
  5
204
100
AcDbSymbolTableRecord
100
AcDbBlockTableRecord
  2
_FILLED
  0
ENDTAB
  0
TABLE
  2
DIMSTYLE
  5
A
100
AcDbSymbolTable
 70
1
100
AcDbDimStyleTable
 71
0
  0
DIMSTYLE
105
205
100
AcDbSymbolTableRecord
100
AcDbDimStyleTableRecord
  2
STANDARD
 70
0
  3

  4

 40
1.0
 41
0.1
 42
0.0625
 43
0.38
 44
0.125
 45
0.0
 46
0.0
 47
0.001
 48
0.001
140
0.08
141
0.09
142
0.0
143
25.4
144
1.0
145
0.0
146
1.0
147
0.09
 71
1.0
 72
0.0
 73
1
 74
1
 75
0
 76
0
 77
0
 78
4
 79
1
170
1
171
2
172
0
173
0
174
0
175
0
176
0
177
0
178
0
270
2
179
3
271
3
272
3
273
2
274
2
275
0
280
0
281
0
282
0
283
1
284
4
285
0
286
0
287
3
288
0
340
11
278
46
341
204
342
204
343
204
344
204
  0
ENDTAB
  0
ENDSEC
  0
SECTION
  2
BLOCKS
  0
BLOCK
  5
20
100
AcDbEntity
  8
0
100
AcDbBlockBegin
  2
*Model_Space
 70
0
 10
0.0
 20
0.0
 30
0.0
  3
*Model_Space
  1

  0
ENDBLK
  5
21
100
AcDbEntity
  8
0
100
AcDbBlockEnd
  0
BLOCK
  5
1C
100
AcDbEntity
  8
0
100
AcDbBlockBegin
  2
*Paper_Space
 70
0
 10
0.0
 20
0.0
 30
0.0
  3
*Paper_Space
  1

  0
ENDBLK
  5
1D
100
AcDbEntity
  8
0
100
AcDbBlockEnd
  0
BLOCK
  5
206
100
AcDbEntity
  8
0
100
AcDbBlockBegin
  2
_FILLED
 70
64
 10
0.0
 20
0.0
  3
_FILLED
  1

  0
SOLID
  5
207
100
AcDbEntity
  8
0
  6
BYBLOCK
 62
0
100
AcDbTrace
 10
0.0
 20
0.0
 11
-1.0
 21
0.2
 12
-1.0
 22
-0.2
 13
-1.0
 23
-0.2
  0
ENDBLK
  5
208
100
AcDbEntity
  8
0
  6
BYBLOCK
 62
0
100
AcDbBlockEnd
  0
ENDSEC
  0
SECTION
  2
ENTITIES
  0
LWPOLYLINE
  5
209
100
AcDbEntity
  8
0
100
AcDbPolyline
 62
7
  6
CONTINUOUS
 90
3
 70
0
 10
3.99810539
 20
11.88184226
 10
3.9974570033
 20
11.8804630413
 10
3.9962842479
 20
11.8768062043
  0
LINE
  5
20A
100
AcDbEntity
  8
0
100
AcDbLine
 62
7
  6
CONTINUOUS
 10
3.9981019297
 20
11.8818355262
 11
4.119013585
 21
12.116113477
  0
LINE
  5
20B
100
AcDbEntity
  8
0
100
AcDbLine
 62
9
  6
CONTINUOUS
 10
3.9984347767
 20
11.8823746975
 11
4.119315202
 21
12.1165921371
  0
LINE
  5
20C
100
AcDbEntity
  8
0
100
AcDbLine
 62
9
  6
CONTINUOUS
 10
4.1427163958
 20
12.117648891
 11
4.0052790613
 21
11.8823746975
  0
LINE
  5
20D
100
AcDbEntity
  8
0
100
AcDbLine
 62
9
  6
CONTINUOUS
 10
4.0062635837
 20
11.8534414325
 11
4.1428026109
 21
12.087177845
  0
LINE
  5
20E
100
AcDbEntity
  8
0
100
AcDbLine
 62
9
  6
CONTINUOUS
 10
3.9981027073
 20
11.8818370239
 11
3.9984347767
 21
11.8823746975
  0
LINE
  5
20F
100
AcDbEntity
  8
0
100
AcDbLine
 62
9
  6
CONTINUOUS
 10
4.119315202
 20
12.1165921371
 11
4.1190150148
 21
12.1161162473
  0
LINE
  5
210
100
AcDbEntity
  8
0
100
AcDbLine
 62
7
  6
CONTINUOUS
 10
3.9955939655
 20
11.871226519
 11
3.9954479299
 21
11.8677520386
  0
LWPOLYLINE
  5
211
100
AcDbEntity
  8
0
100
AcDbPolyline
 62
7
  6
CONTINUOUS
 90
3
 70
0
 10
3.9962842479
 20
11.8768062043
 10
3.9958110669
 20
11.8739133744
 10
3.9955939655
 20
11.871226519
  0
LWPOLYLINE
  5
212
100
AcDbEntity
  8
0
100
AcDbPolyline
 62
7
  6
CONTINUOUS
 90
3
 70
0
 10
3.9955834008
 20
11.6347016819
 10
3.9957952366
 20
11.6319738863
 10
3.9962508594
 20
11.6290868628
  0
LWPOLYLINE
  5
213
100
AcDbEntity
  8
0
100
AcDbPolyline
 62
7
  6
CONTINUOUS
 90
3
 70
0
 10
3.9953444705
 20
11.6429417585
 10
3.9954398226
 20
11.6382638724
 10
3.9955834008
 20
11.6347016819
  0
LINE
  5
214
100
AcDbEntity
  8
0
100
AcDbLine
 62
7
  6
CONTINUOUS
 10
3.9952976124
 20
11.6483592364
 11
3.9953444705
 21
11.6429417585
  0
LINE
  5
215
100
AcDbEntity
  8
0
100
AcDbLine
 62
7
  6
CONTINUOUS
 10
3.9952892733
 20
11.8534414325
 11
3.9952976124
 21
11.6483592364
  0
LINE
  5
216
100
AcDbEntity
  8
0
100
AcDbLine
 62
9
  6
CONTINUOUS
 10
3.9953008552
 20
11.8534414325
 11
3.9953008552
 21
11.6523007471
  0
LINE
  5
217
100
AcDbEntity
  8
0
100
AcDbLine
 62
9
  6
CONTINUOUS
 10
4.0034578363
 20
11.6523007471
 11
4.0034578363
 21
11.8534414325
  0
LINE
  5
218
100
AcDbEntity
  8
0
100
AcDbLine
 62
9
  6
CONTINUOUS
 10
4.0062635837
 20
11.8534414325
 11
4.0062635837
 21
11.6523007471
  0
LWPOLYLINE
  5
219
100
AcDbEntity
  8
0
100
AcDbPolyline
 62
7
  6
CONTINUOUS
 90
3
 70
0
 10
3.9953497837
 20
11.8631764185
 10
3.9952998575
 20
11.8578548854
 10
3.9952892733
 20
11.8534414325
  0
LINE
  5
21A
100
AcDbEntity
  8
0
100
AcDbLine
 62
7
  6
CONTINUOUS
 10
3.9954479299
 20
11.8677520386
 11
3.9953497837
 21
11.8631764185
  0
LINE
  5
21B
100
AcDbEntity
  8
0
100
AcDbLine
 62
7
  6
CONTINUOUS
 10
9.8059132745
 20
13.0011582049
 11
9.8066115456
 21
13.0015338555
  0
LINE
  5
21C
100
AcDbEntity
  8
0
100
AcDbLine
 62
7
  6
CONTINUOUS
 10
9.8159221629
 20
13.004927572
 11
9.8066115456
 21
13.0015338555
  0
LINE
  5
21D
100
AcDbEntity
  8
0
100
AcDbLine
 62
7
  6
CONTINUOUS
 10
11.8356788196
 20
1.717793989
 11
11.8398086286
 21
1.7182008397
  0
LINE
  5
21E
100
AcDbEntity
  8
0
100
AcDbLine
 62
9
  6
CONTINUOUS
 10
11.8356787111
 20
1.7177926633
 11
11.8341627519
 21
1.7176527665
  0
LINE
  5
21F
100
AcDbEntity
  8
0
100
AcDbLine
 62
7
  6
CONTINUOUS
 10
11.8356787111
 20
1.7177926633
 11
10.2589580568
 21
1.7177926942
  0
LINE
  5
220
100
AcDbEntity
  8
0
100
AcDbLine
 62
7
  6
CONTINUOUS
 10
10.2589577148
 20
1.717793336
 11
10.2548239454
 21
1.7181941731
  0
LWPOLYLINE
  5
221
100
AcDbEntity
  8
0
100
AcDbPolyline
 62
7
  6
CONTINUOUS
 90
3
 70
0
 10
10.2548251549
 20
1.7182088119
 10
10.2576057888
 20
1.7177935945
 10
10.2604587486
 20
1.7176603453
  0
LINE
  5
222
100
AcDbEntity
  8
0
100
AcDbLine
 62
7
  6
CONTINUOUS
 10
3.9962508594
 20
11.6290868628
 11
3.9974128246
 21
11.6253837877
  0
LWPOLYLINE
  5
223
100
AcDbEntity
  8
0
100
AcDbPolyline
 62
7
  6
CONTINUOUS
 90
3
 70
0
 10
6.1002205982
 20
11.4712567743
 10
6.1008494265
 20
11.1625917591
 10
6.1019331126
 20
10.827412296
  0
LINE
  5
224
100
AcDbEntity
  8
0
100
AcDbLine
 62
7
  6
CONTINUOUS
 10
6.1008515712
 20
12.3439548736
 11
6.1002203699
 21
12.0346294872
  0
LINE
  5
225
100
AcDbEntity
  8
0
100
AcDbLine
 62
7
  6
CONTINUOUS
 10
6.1019331286
 20
12.678334174
 11
6.1008515712
 21
12.3439548736
  0
LINE
  5
226
100
AcDbEntity
  8
0
100
AcDbLine
 62
9
  6
CONTINUOUS
 10
7.6636749418
 20
11.6588577322
 11
7.5782850575
 21
11.5222339173
  0
LINE
  5
227
100
AcDbEntity
  8
0
100
AcDbLine
 62
7
  6
CONTINUOUS
 10
7.5722933515
 20
11.4822711109
 11
7.6633783044
 21
11.6280070355
  0
LINE
  5
228
100
AcDbEntity
  8
0
100
AcDbLine
 62
7
  6
CONTINUOUS
 10
10.3338306138
 20
12.9010083382
 11
10.3162250745
 21
12.8898497819
  0
LINE
  5
229
100
AcDbEntity
  8
0
100
AcDbLine
 62
9
  6
CONTINUOUS
 10
6.4488183278
 20
12.0128671028
 11
6.4488182918
 21
11.4928730696
  0
LINE
  5
22A
100
AcDbEntity
  8
0
100
AcDbLine
 62
7
  6
CONTINUOUS
 10
10.3162250745
 20
12.8898497819
 11
10.3162171287
 21
12.8898425178
  0
LWPOLYLINE
  5
22B
100
AcDbEntity
  8
0
100
AcDbPolyline
 62
7
  6
CONTINUOUS
 90
4
 70
0
 10
4.1190134463
 20
11.3896289084
 10
4.1193239449
 20
11.3890507457
 10
4.1215257781
 20
11.3858735869
 10
4.1241852663
 20
11.3832697463
  0
LINE
  5
22C
100
AcDbEntity
  8
0
100
AcDbLine
 62
7
  6
CONTINUOUS
 10
3.9981004037
 20
11.6239096103
 11
4.1190136514
 21
11.389628574
  0
LINE
  5
22D
100
AcDbEntity
  8
0
100
AcDbLine
 62
9
  6
CONTINUOUS
 10
4.119315202
 20
11.3891500425
 11
3.9984347767
 21
11.623367482
  0
LINE
  5
22E
100
AcDbEntity
  8
0
100
AcDbLine
 62
7
  6
CONTINUOUS
 10
3.9974128246
 20
11.6253837877
 11
3.9981055657
 21
11.6238995784
  0
LWPOLYLINE
  5
22F
100
AcDbEntity
  8
0
100
AcDbPolyline
 62
7
  6
CONTINUOUS
 90
5
 70
0
 10
6.1019353325
 20
10.8274043749
 10
6.103433464
 20
10.8198940818
 10
6.1075903583
 20
10.8135524712
 10
6.1138092116
 20
10.8092137981
 10
6.1218590341
 20
10.8074884211
  0
LINE
  5
230
100
AcDbEntity
  8
0
100
AcDbLine
 62
7
  6
CONTINUOUS
 10
9.7923966198
 20
12.9867622959
 11
9.7928583891
 21
12.9876895415
  0
LINE
  5
231
100
AcDbEntity
  8
0
100
AcDbLine
 62
7
  6
CONTINUOUS
 10
10.3162171289
 20
12.889842518
 11
10.3106888527
 21
12.8837067257
  0
LINE
  5
232
100
AcDbEntity
  8
0
100
AcDbLine
 62
9
  6
CONTINUOUS
 10
4.1190150241
 20
11.3896259143
 11
4.119315202
 21
11.3891500425
  0
LINE
  5
233
100
AcDbEntity
  8
0
100
AcDbLine
 62
9
  6
CONTINUOUS
 10
3.9984347767
 20
11.623367482
 11
3.9981038361
 21
11.6239029704
  0
LINE
  5
234
100
AcDbEntity
  8
0
100
AcDbLine
 62
9
  6
CONTINUOUS
 10
4.0052790613
 20
11.623367482
 11
4.1427163958
 21
11.3880932886
  0
LINE
  5
235
100
AcDbEntity
  8
0
100
AcDbLine
 62
9
  6
CONTINUOUS
 10
4.1428000269
 20
11.4185687581
 11
4.0062635837
 21
11.6523007471
  0
LINE
  5
236
100
AcDbEntity
  8
0
100
AcDbLine
 62
9
  6
CONTINUOUS
 10
7.5618268293
 20
11.9835082622
 11
7.5618268293
 21
11.5222339174
  0
LINE
  5
237
100
AcDbEntity
  8
0
100
AcDbLine
 62
9
  6
CONTINUOUS
 10
7.5782850575
 20
11.9835082622
 11
7.5782850575
 21
11.5222339173
  0
LINE
  5
238
100
AcDbEntity
  8
0
100
AcDbLine
 62
9
  6
CONTINUOUS
 10
7.6636749418
 20
11.6588577322
 11
7.6636749418
 21
11.8468844473
  0
LINE
  5
239
100
AcDbEntity
  8
0
100
AcDbLine
 62
7
  6
CONTINUOUS
 10
7.6664183383
 20
11.6386070143
 11
7.6664183383
 21
11.8671351653
  0
LWPOLYLINE
  5
23A
100
AcDbEntity
  8
0
100
AcDbPolyline
 62
7
  6
CONTINUOUS
 90
4
 70
0
 10
7.9927024136
 20
10.8274073849
 10
7.9943814938
 20
11.4424949021
 10
7.9943693887
 20
12.0656903893
 10
7.9927052391
 20
12.6783307369
  0
LINE
  5
23B
100
AcDbEntity
  8
0
100
AcDbLine
 62
7
  6
CONTINUOUS
 10
10.3106888527
 20
12.8837067257
 11
10.302652713
 21
12.8665817838
  0
LINE
  5
23C
100
AcDbEntity
  8
0
100
AcDbLine
 62
9
  6
CONTINUOUS
 10
11.4773183383
 20
12.1875385488
 11
11.244951937
 21
11.9551721478
  0
LINE
  5
23D
100
AcDbEntity
  8
0
100
AcDbLine
 62
9
  6
CONTINUOUS
 10
10.8450172801
 20
11.5552374907
 11
10.6126508792
 21
11.3228710898
  0
LINE
  5
23E
100
AcDbEntity
  8
0
100
AcDbLine
 62
9
  6
CONTINUOUS
 10
10.6173183383
 20
11.3182036307
 11
10.8496847395
 21
11.5505700317
  0
LINE
  5
23F
100
AcDbEntity
  8
0
100
AcDbLine
 62
9
  6
CONTINUOUS
 10
11.2496193964
 20
11.9505046889
 11
11.4819857973
 21
12.1828710898
  0
LWPOLYLINE
  5
240
100
AcDbEntity
  8
0
100
AcDbPolyline
 62
7
  6
CONTINUOUS
 90
4
 70
0
 10
11.8250424452
 20
3.2805858197
 10
11.7454625032
 20
3.3253934866
 10
11.6550490048
 20
3.3866438364
 10
11.5949207829
 20
3.4568783202
  0
LINE
  5
241
100
AcDbEntity
  8
0
100
AcDbLine
 62
7
  6
CONTINUOUS
 10
9.7887704952
 20
12.9729340487
 11
9.7923966198
 21
12.9867622959
  0
LWPOLYLINE
  5
242
100
AcDbEntity
  8
0
100
AcDbPolyline
 62
7
  6
CONTINUOUS
 90
3
 70
0
 10
9.7924140409
 20
12.9867986089
 10
9.7889931438
 20
12.9751556953
 10
9.7888307439
 20
12.9739013495
  0
LINE
  5
243
100
AcDbEntity
  8
0
100
AcDbLine
 62
7
  6
CONTINUOUS
 10
10.302652713
 20
12.8665817838
 11
10.3026533077
 21
12.8665840722
  0
LWPOLYLINE
  5
244
100
AcDbEntity
  8
0
100
AcDbPolyline
 62
7
  6
CONTINUOUS
 90
3
 70
0
 10
12.2904060599
 20
10.4904174139
 10
12.2960574084
 20
10.4928363133
 10
12.3014498956
 20
10.4964660575
  0
LWPOLYLINE
  5
245
100
AcDbEntity
  8
0
100
AcDbPolyline
 62
7
  6
CONTINUOUS
 90
5
 70
0
 10
7.9927028892
 20
12.6783386585
 10
7.9912047217
 20
12.685849172
 10
7.9870477208
 20
12.6921908876
 10
7.9808287157
 20
12.6965295984
 10
7.9727789407
 20
12.6982549212
  0
LINE
  5
246
100
AcDbEntity
  8
0
100
AcDbLine
 62
7
  6
CONTINUOUS
 10
9.7799578017
 20
10.5442965284
 11
9.7803745873
 21
10.5318610835
  0
LINE
  5
247
100
AcDbEntity
  8
0
100
AcDbLine
 62
7
  6
CONTINUOUS
 10
9.548177696
 20
10.3068710898
 11
9.548177696
 21
13.1868710898
  0
LINE
  5
248
100
AcDbEntity
  8
0
100
AcDbLine
 62
7
  6
CONTINUOUS
 10
9.8221042412
 20
13.0275911209
 11
9.8221040134
 21
13.0104462609
  0
LINE
  5
249
100
AcDbEntity
  8
0
100
AcDbLine
 62
9
  6
CONTINUOUS
 10
9.8342843998
 20
10.4879675919
 11
9.8342844168
 21
10.4927930416
  0
LINE
  5
24A
100
AcDbEntity
  8
0
100
AcDbLine
 62
9
  6
CONTINUOUS
 10
9.8441823162
 20
13.0066453559
 11
9.8441823132
 21
13.0022513737
  0
LWPOLYLINE
  5
24B
100
AcDbEntity
  8
0
100
AcDbPolyline
 62
7
  6
CONTINUOUS
 90
4
 70
0
 10
9.7881623943
 20
12.9514570386
 10
9.7881113054
 20
12.5978643666
 10
9.7858147873
 20
12.1826416929
 10
9.7825656525
 20
11.7497430098
  0
LWPOLYLINE
  5
24C
100
AcDbEntity
  8
0
100
AcDbPolyline
 62
7
  6
CONTINUOUS
 90
4
 70
0
 10
9.7825656531
 20
11.7497431286
 10
9.78003755
 20
11.3176477372
 10
9.7790932778
 20
10.9010303067
 10
9.7799579762
 20
10.5442964812
  0
LINE
  5
24D
100
AcDbEntity
  8
0
100
AcDbLine
 62
7
  6
CONTINUOUS
 10
9.7884387543
 20
12.9637934827
 11
9.788162406
 21
12.9514570567
  0
LINE
  5
24E
100
AcDbEntity
  8
0
100
AcDbLine
 62
7
  6
CONTINUOUS
 10
9.7887697559
 20
12.9730029844
 11
9.7884387543
 21
12.9637934827
  0
LINE
  5
24F
100
AcDbEntity
  8
0
100
AcDbLine
 62
7
  6
CONTINUOUS
 10
9.7888312413
 20
12.97390566
 11
9.7887710205
 21
12.9730137953
  0
LINE
  5
250
100
AcDbEntity
  8
0
100
AcDbLine
 62
7
  6
CONTINUOUS
 10
10.3026531839
 20
12.8665836039
 11
10.3001866579
 21
12.8468806998
  0
LINE
  5
251
100
AcDbEntity
  8
0
100
AcDbLine
 62
7
  6
CONTINUOUS
 10
12.3014498956
 20
10.4964660575
 11
12.3063121377
 21
10.5015353545
  0
LINE
  5
252
100
AcDbEntity
  8
0
100
AcDbLine
 62
7
  6
CONTINUOUS
 10
9.7810175486
 20
10.5202889917
 11
9.7809254216
 21
10.5213106899
  0
LINE
  5
253
100
AcDbEntity
  8
0
100
AcDbLine
 62
7
  6
CONTINUOUS
 10
9.7803745873
 20
10.5318610835
 11
9.7809253091
 21
10.5213141858
  0
LWPOLYLINE
  5
254
100
AcDbEntity
  8
0
100
AcDbPolyline
 62
7
  6
CONTINUOUS
 90
3
 70
0
 10
10.3329529137
 20
11.6024073671
 10
10.354784071
 20
11.0931264721
 10
10.3794984337
 20
10.523060278
  0
LINE
  5
255
100
AcDbEntity
  8
0
100
AcDbLine
 62
7
  6
CONTINUOUS
 10
10.3794984337
 20
10.523060278
 11
10.4039800963
 21
9.8886201954
  0
LWPOLYLINE
  5
256
100
AcDbEntity
  8
0
100
AcDbPolyline
 62
7
  6
CONTINUOUS
 90
12
 70
0
 10
10.4039823428
 20
9.8886182359
 10
10.4284557624
 20
9.1540416194
 10
10.4523290217
 20
8.4283251287
 10
10.4783402482
 20
7.7219179966
 10
10.5050073515
 20
7.0336634526
 10
10.5284387285
 20
6.3691977477
 10
10.5454699026
 20
5.7361258736
 10
10.5544629228
 20
5.1333891521
 10
10.5554090485
 20
4.5551511362
 10
10.5486356178
 20
3.9961603053
 10
10.5332467164
 20
3.464169798
 10
10.5094097972
 20
3.0602739367
  0
LWPOLYLINE
  5
257
100
AcDbEntity
  8
0
100
AcDbPolyline
 62
7
  6
CONTINUOUS
 90
4
 70
0
 10
10.3001866556
 20
12.8468809491
 10
10.3061711869
 20
12.4674518388
 10
10.3172482509
 20
12.0372678525
 10
10.3329529479
 20
11.6024065059
  0
LINE
  5
258
100
AcDbEntity
  8
0
100
AcDbLine
 62
7
  6
CONTINUOUS
 10
10.2393179926
 20
1.7369194803
 11
10.2393183035
 21
3.2307873048
  0
LINE
  5
259
100
AcDbEntity
  8
0
100
AcDbLine
 62
9
  6
CONTINUOUS
 10
10.3587070745
 20
12.8941748963
 11
10.358707073
 21
12.9059580365
  0
LINE
  5
25A
100
AcDbEntity
  8
0
100
AcDbLine
 62
7
  6
CONTINUOUS
 10
12.3063121377
 20
10.5015353545
 11
12.3094541368
 21
10.5064961931
  0
LINE
  5
25B
100
AcDbEntity
  8
0
100
AcDbLine
 62
9
  6
CONTINUOUS
 10
7.5782850575
 20
11.9835082622
 11
7.6636749418
 21
11.8468844473
  0
LINE
  5
25C
100
AcDbEntity
  8
0
100
AcDbLine
 62
7
  6
CONTINUOUS
 10
7.6633783044
 20
11.8777351441
 11
7.5722933515
 21
12.0234710686
  0
LINE
  5
25D
100
AcDbEntity
  8
0
100
AcDbLine
 62
7
  6
CONTINUOUS
 10
9.7810174892
 20
10.5202905983
 11
9.7816551728
 21
10.5165710975
  0
LINE
  5
25E
100
AcDbEntity
  8
0
100
AcDbLine
 62
7
  6
CONTINUOUS
 10
10.5973183383
 20
11.3228710898
 11
10.5973183383
 21
12.1828710898
  0
LINE
  5
25F
100
AcDbEntity
  8
0
100
AcDbLine
 62
9
  6
CONTINUOUS
 10
10.6126508792
 20
12.1828710898
 11
10.6126508792
 21
11.3228710898
  0
LINE
  5
260
100
AcDbEntity
  8
0
100
AcDbLine
 62
9
  6
CONTINUOUS
 10
10.6173183383
 20
12.2028710898
 11
10.6173183383
 21
12.1875385488
  0
LINE
  5
261
100
AcDbEntity
  8
0
100
AcDbLine
 62
9
  6
CONTINUOUS
 10
10.6173183383
 20
11.3182036307
 11
10.6173183383
 21
11.3028710898
  0
LINE
  5
262
100
AcDbEntity
  8
0
100
AcDbLine
 62
9
  6
CONTINUOUS
 10
10.8450172801
 20
11.5552374907
 11
10.8450172803
 21
11.9505046885
  0
LINE
  5
263
100
AcDbEntity
  8
0
100
AcDbLine
 62
9
  6
CONTINUOUS
 10
10.8496847392
 20
11.9551721479
 11
10.8496847392
 21
11.5505700317
  0
LINE
  5
264
100
AcDbEntity
  8
0
100
AcDbLine
 62
9
  6
CONTINUOUS
 10
11.0473181912
 20
11.3028710898
 11
11.0473183373
 21
1.7177932639
  0
LINE
  5
265
100
AcDbEntity
  8
0
100
AcDbLine
 62
9
  6
CONTINUOUS
 10
11.0473182374
 20
12.8941769382
 11
11.0473191415
 21
12.2028710898
  0
LINE
  5
266
100
AcDbEntity
  8
0
100
AcDbLine
 62
9
  6
CONTINUOUS
 10
11.0473183775
 20
13.0022502874
 11
11.0473232181
 21
12.9059581217
  0
LINE
  5
267
100
AcDbEntity
  8
0
100
AcDbLine
 62
7
  6
CONTINUOUS
 10
10.5094100807
 20
3.060269898
 11
10.5091366125
 21
3.0568761385
  0
LINE
  5
268
100
AcDbEntity
  8
0
100
AcDbLine
 62
7
  6
CONTINUOUS
 10
12.3094541368
 20
10.5064961931
 11
12.3102988696
 21
10.5082501586
  0
LINE
  5
269
100
AcDbEntity
  8
0
100
AcDbLine
 62
7
  6
CONTINUOUS
 10
12.3086454374
 20
10.5050300083
 11
12.3094516645
 21
10.5064987657
  0
LINE
  5
26A
100
AcDbEntity
  8
0
100
AcDbLine
 62
7
  6
CONTINUOUS
 10
9.7816551728
 20
10.5165710975
 11
9.7862729256
 21
10.5045455322
  0
LWPOLYLINE
  5
26B
100
AcDbEntity
  8
0
100
AcDbPolyline
 62
7
  6
CONTINUOUS
 90
3
 70
0
 10
11.5949207829
 20
3.4568783202
 10
11.5631413289
 20
3.5750885118
 10
11.5571087505
 20
3.6123988826
  0
LINE
  5
26C
100
AcDbEntity
  8
0
100
AcDbLine
 62
7
  6
CONTINUOUS
 10
11.5855001709
 20
3.0568748169
 11
11.5852144564
 21
3.0604209645
  0
LWPOLYLINE
  5
26D
100
AcDbEntity
  8
0
100
AcDbPolyline
 62
7
  6
CONTINUOUS
 90
11
 70
0
 10
11.5852120165
 20
3.0604256084
 10
11.5614382846
 20
3.4630205226
 10
11.5460314739
 20
3.9945890603
 10
11.5392366933
 20
4.5534756124
 10
11.5401615284
 20
5.131947374
 10
11.5491456665
 20
5.7351262736
 10
11.5661811161
 20
6.3686725347
 10
11.5896248247
 20
7.0335499044
 10
11.6163064075
 20
7.7221859111
 10
11.6423303432
 20
8.4289769235
 10
11.6662179348
 20
9.1551480225
  0
LINE
  5
26E
100
AcDbEntity
  8
0
100
AcDbLine
 62
9
  6
CONTINUOUS
 10
11.2449519374
 20
11.5505700317
 11
11.2449519374
 21
11.9551721479
  0
LINE
  5
26F
100
AcDbEntity
  8
0
100
AcDbLine
 62
9
  6
CONTINUOUS
 10
11.2496193964
 20
11.9505046889
 11
11.2496193963
 21
11.555237491
  0
LINE
  5
270
100
AcDbEntity
  8
0
100
AcDbLine
 62
9
  6
CONTINUOUS
 10
11.4773183383
 20
11.3028710898
 11
11.4773183383
 21
11.3182036307
  0
LINE
  5
271
100
AcDbEntity
  8
0
100
AcDbLine
 62
9
  6
CONTINUOUS
 10
11.4773183383
 20
12.1875385488
 11
11.4773183383
 21
12.2028710898
  0
LINE
  5
272
100
AcDbEntity
  8
0
100
AcDbLine
 62
9
  6
CONTINUOUS
 10
11.4819857973
 20
11.3228710898
 11
11.4819857973
 21
12.1828710898
  0
LINE
  5
273
100
AcDbEntity
  8
0
100
AcDbLine
 62
7
  6
CONTINUOUS
 10
11.4973183383
 20
12.1828710898
 11
11.4973183383
 21
11.3228710898
  0
LINE
  5
274
100
AcDbEntity
  8
0
100
AcDbLine
 62
9
  6
CONTINUOUS
 10
11.7359296067
 20
12.8945226484
 11
11.7359296078
 21
12.9059580303
  0
LINE
  5
275
100
AcDbEntity
  8
0
100
AcDbLine
 62
7
  6
CONTINUOUS
 10
11.6662179348
 20
9.1551480225
 11
11.6908331962
 21
9.8935707434
  0
LWPOLYLINE
  5
276
100
AcDbEntity
  8
0
100
AcDbPolyline
 62
7
  6
CONTINUOUS
 90
4
 70
0
 10
11.7616837279
 20
11.6024064849
 10
11.7774568329
 20
12.0394568131
 10
11.7885106702
 20
12.4696778173
 10
11.7944500311
 20
12.8468812219
  0
LINE
  5
277
100
AcDbEntity
  8
0
100
AcDbLine
 62
7
  6
CONTINUOUS
 10
11.6908331962
 20
9.8935707434
 11
11.7152098539
 21
10.5247798287
  0
LWPOLYLINE
  5
278
100
AcDbEntity
  8
0
100
AcDbPolyline
 62
7
  6
CONTINUOUS
 90
3
 70
0
 10
11.7152098539
 20
10.5247798287
 10
11.7399303141
 20
11.0948842707
 10
11.7616837673
 20
11.6024074786
  0
LINE
  5
279
100
AcDbEntity
  8
0
100
AcDbLine
 62
7
  6
CONTINUOUS
 10
10.53753335
 20
3.6123576591
 11
10.5315894716
 21
3.5755454385
  0
LWPOLYLINE
  5
27A
100
AcDbEntity
  8
0
100
AcDbPolyline
 62
7
  6
CONTINUOUS
 90
5
 70
0
 10
10.5315894716
 20
3.5755454385
 10
10.4998745173
 20
3.4572217345
 10
10.4400374371
 20
3.3870060367
 10
10.3496909866
 20
3.3257030018
 10
10.2695968054
 20
3.2805871811
  0
LINE
  5
27B
100
AcDbEntity
  8
0
100
AcDbLine
 62
7
  6
CONTINUOUS
 10
12.3102988696
 20
10.5082501586
 11
12.3129162673
 21
10.5162642399
  0
LINE
  5
27C
100
AcDbEntity
  8
0
100
AcDbLine
 62
7
  6
CONTINUOUS
 10
14.5223433251
 20
12.0234710686
 11
14.4312583722
 21
11.8777351441
  0
LINE
  5
27D
100
AcDbEntity
  8
0
100
AcDbLine
 62
9
  6
CONTINUOUS
 10
14.4309617348
 20
11.8468844473
 11
14.5163516191
 21
11.9835082622
  0
LINE
  5
27E
100
AcDbEntity
  8
0
100
AcDbLine
 62
7
  6
CONTINUOUS
 10
9.7862729256
 20
10.5045455322
 11
9.7858416452
 21
10.5052828292
  0
LINE
  5
27F
100
AcDbEntity
  8
0
100
AcDbLine
 62
9
  6
CONTINUOUS
 10
12.2603623255
 20
10.4879675919
 11
12.2603616417
 21
10.4927912907
  0
LINE
  5
280
100
AcDbEntity
  8
0
100
AcDbLine
 62
7
  6
CONTINUOUS
 10
11.8553185069
 20
3.2307873963
 11
11.8553183754
 21
1.7369187254
  0
LINE
  5
281
100
AcDbEntity
  8
0
100
AcDbLine
 62
9
  6
CONTINUOUS
 10
12.2504539952
 20
13.0066453559
 11
12.2504539946
 21
13.0022513765
  0
LINE
  5
282
100
AcDbEntity
  8
0
100
AcDbLine
 62
7
  6
CONTINUOUS
 10
12.2725325892
 20
13.0276005191
 11
12.272532378
 21
13.0104462543
  0
LWPOLYLINE
  5
283
100
AcDbEntity
  8
0
100
AcDbPolyline
 62
7
  6
CONTINUOUS
 90
4
 70
0
 10
12.3146778258
 20
10.5443240977
 10
12.3155434305
 20
10.8991615742
 10
12.3146071072
 20
11.315769985
 10
12.3120710234
 20
11.7497431366
  0
LINE
  5
284
100
AcDbEntity
  8
0
100
AcDbLine
 62
7
  6
CONTINUOUS
 10
12.3142171818
 20
10.5310628852
 11
12.3146794385
 21
10.5443241373
  0
LINE
  5
285
100
AcDbEntity
  8
0
100
AcDbLine
 62
7
  6
CONTINUOUS
 10
12.3137111728
 20
10.5213230101
 11
12.3142171818
 21
10.5310628852
  0
LINE
  5
286
100
AcDbEntity
  8
0
100
AcDbLine
 62
7
  6
CONTINUOUS
 10
12.3137109118
 20
10.5213148859
 11
12.3136515832
 21
10.5205314391
  0
LINE
  5
287
100
AcDbEntity
  8
0
100
AcDbLine
 62
7
  6
CONTINUOUS
 10
12.3129162673
 20
10.5162642399
 11
12.3136517845
 21
10.5205370674
  0
LINE
  5
288
100
AcDbEntity
  8
0
100
AcDbLine
 62
7
  6
CONTINUOUS
 10
12.3058659651
 20
12.9730083632
 11
12.3058110392
 21
12.973860509
  0
LINE
  5
289
100
AcDbEntity
  8
0
100
AcDbLine
 62
7
  6
CONTINUOUS
 10
12.3062354497
 20
12.9628480072
 11
12.3058669537
 21
12.9729999329
  0
LINE
  5
28A
100
AcDbEntity
  8
0
100
AcDbLine
 62
7
  6
CONTINUOUS
 10
12.3064741833
 20
12.9514572846
 11
12.3062354497
 21
12.9628480072
  0
LWPOLYLINE
  5
28B
100
AcDbEntity
  8
0
100
AcDbPolyline
 62
7
  6
CONTINUOUS
 90
4
 70
0
 10
12.3120710242
 20
11.7497430071
 10
12.3088351511
 20
12.1807536162
 10
12.306531503
 20
12.5959765778
 10
12.3064744039
 20
12.9514572326
  0
LINE
  5
28C
100
AcDbEntity
  8
0
100
AcDbLine
 62
7
  6
CONTINUOUS
 10
12.5464589806
 20
13.1868710898
 11
12.5464589806
 21
10.3068710898
  0
LINE
  5
28D
100
AcDbEntity
  8
0
100
AcDbLine
 62
7
  6
CONTINUOUS
 10
11.7944500284
 20
12.8468809303
 11
11.791983547
 21
12.8665836299
  0
LWPOLYLINE
  5
28E
100
AcDbEntity
  8
0
100
AcDbPolyline
 62
7
  6
CONTINUOUS
 90
5
 70
0
 10
15.9727861847
 20
10.8074872853
 10
15.9802966095
 20
10.8089855199
 10
15.9866382422
 20
10.8131425424
 10
15.990976881
 20
10.8193615281
 10
15.9927021574
 20
10.8274112781
  0
LINE
  5
28F
100
AcDbEntity
  8
0
100
AcDbLine
 62
9
  6
CONTINUOUS
 10
10.4239537542
 20
9.8986189513
 11
11.6706828872
 21
9.8986179715
  0
LINE
  5
290
100
AcDbEntity
  8
0
100
AcDbLine
 62
7
  6
CONTINUOUS
 10
11.79198437
 20
12.8665804047
 11
11.7911916158
 21
12.8693285081
  0
LINE
  5
291
100
AcDbEntity
  8
0
100
AcDbLine
 62
7
  6
CONTINUOUS
 10
11.7919844845
 20
12.8665799387
 11
11.791983547
 21
12.8665836299
  0
LINE
  5
292
100
AcDbEntity
  8
0
100
AcDbLine
 62
7
  6
CONTINUOUS
 10
12.3058113327
 20
12.9738579726
 11
12.3050615852
 21
12.9784061072
  0
LWPOLYLINE
  5
293
100
AcDbEntity
  8
0
100
AcDbPolyline
 62
7
  6
CONTINUOUS
 90
4
 70
0
 10
14.101934263
 20
12.6783347946
 10
14.1002551827
 20
12.0632472774
 10
14.1002672879
 20
11.4400517902
 10
14.1019314374
 20
10.8274114427
  0
LWPOLYLINE
  5
294
100
AcDbEntity
  8
0
100
AcDbPolyline
 62
7
  6
CONTINUOUS
 90
3
 70
0
 10
12.2818850579
 20
10.4886015861
 10
12.2848300426
 20
10.4890264461
 10
12.2904060599
 20
10.4904174139
  0
LINE
  5
295
100
AcDbEntity
  8
0
100
AcDbLine
 62
7
  6
CONTINUOUS
 10
12.2811395756
 20
10.4885556133
 11
12.2818886778
 21
10.4886019954
  0
LINE
  5
296
100
AcDbEntity
  8
0
100
AcDbLine
 62
7
  6
CONTINUOUS
 10
12.2707198946
 20
10.4881895438
 11
12.281089458
 21
10.4885540102
  0
LINE
  5
297
100
AcDbEntity
  8
0
100
AcDbLine
 62
7
  6
CONTINUOUS
 10
12.2603627656
 20
10.4879691992
 11
12.2707198946
 21
10.4881895438
  0
LINE
  5
298
100
AcDbEntity
  8
0
100
AcDbLine
 62
9
  6
CONTINUOUS
 10
9.7799577195
 20
10.5442964774
 11
9.7842860853
 21
10.5443066797
  0
LINE
  5
299
100
AcDbEntity
  8
0
100
AcDbLine
 62
7
  6
CONTINUOUS
 10
12.4864589806
 20
10.2468710898
 11
11.7044868182
 21
10.2468710898
  0
LINE
  5
29A
100
AcDbEntity
  8
0
100
AcDbLine
 62
7
  6
CONTINUOUS
 10
10.3901526793
 20
10.2468710898
 11
9.608177696
 21
10.2468710898
  0
LINE
  5
29B
100
AcDbEntity
  8
0
100
AcDbLine
 62
9
  6
CONTINUOUS
 10
9.8126749398
 20
10.4488993651
 11
10.3823592584
 21
10.4488993395
  0
LINE
  5
29C
100
AcDbEntity
  8
0
100
AcDbLine
 62
9
  6
CONTINUOUS
 10
11.7122820251
 20
10.4488993395
 11
12.281960769
 21
10.4488993651
  0
LINE
  5
29D
100
AcDbEntity
  8
0
100
AcDbLine
 62
9
  6
CONTINUOUS
 10
11.7129464694
 20
10.4661197312
 11
12.2809607642
 21
10.4661240138
  0
LINE
  5
29E
100
AcDbEntity
  8
0
100
AcDbLine
 62
7
  6
CONTINUOUS
 10
9.8136736368
 20
10.4661225454
 11
10.3816948586
 21
10.4661225251
  0
LINE
  5
29F
100
AcDbEntity
  8
0
100
AcDbLine
 62
7
  6
CONTINUOUS
 10
9.8342843998
 20
10.4879675919
 11
10.3808521653
 21
10.4879676
  0
LINE
  5
2A0
100
AcDbEntity
  8
0
100
AcDbLine
 62
7
  6
CONTINUOUS
 10
11.7137894637
 20
10.4879676
 11
12.2603623255
 21
10.4879675919
  0
LINE
  5
2A1
100
AcDbEntity
  8
0
100
AcDbLine
 62
9
  6
CONTINUOUS
 10
12.2603616417
 20
10.4927912907
 11
11.7139755855
 21
10.4927913161
  0
LINE
  5
2A2
100
AcDbEntity
  8
0
100
AcDbLine
 62
9
  6
CONTINUOUS
 10
10.3806660185
 20
10.492793067
 11
9.8342844168
 21
10.4927930416
  0
LINE
  5
2A3
100
AcDbEntity
  8
0
100
AcDbLine
 62
9
  6
CONTINUOUS
 10
12.3146778258
 20
10.5443240977
 11
12.3103499855
 21
10.5443340891
  0
LINE
  5
2A4
100
AcDbEntity
  8
0
100
AcDbLine
 62
7
  6
CONTINUOUS
 10
9.823038639
 20
10.4882204354
 11
9.8342843985
 21
10.4879671115
  0
LINE
  5
2A5
100
AcDbEntity
  8
0
100
AcDbLine
 62
7
  6
CONTINUOUS
 10
9.8134188052
 20
10.4885554999
 11
9.823038639
 21
10.4882204354
  0
LINE
  5
2A6
100
AcDbEntity
  8
0
100
AcDbLine
 62
7
  6
CONTINUOUS
 10
9.8134104217
 20
10.4885556244
 11
9.8125533945
 21
10.488612695
  0
LINE
  5
2A7
100
AcDbEntity
  8
0
100
AcDbLine
 62
7
  6
CONTINUOUS
 10
9.8133557938
 20
10.4885576143
 11
9.7999154598
 21
10.4921457975
  0
LINE
  5
2A8
100
AcDbEntity
  8
0
100
AcDbLine
 62
7
  6
CONTINUOUS
 10
9.7999397413
 20
10.4921341208
 11
9.8125594353
 21
10.488612579
  0
LINE
  5
2A9
100
AcDbEntity
  8
0
100
AcDbLine
 62
9
  6
CONTINUOUS
 10
10.6126508792
 20
12.1828710898
 11
10.8450172803
 21
11.9505046885
  0
LINE
  5
2AA
100
AcDbEntity
  8
0
100
AcDbLine
 62
9
  6
CONTINUOUS
 10
11.2449519374
 20
11.5505700316
 11
11.4773183383
 21
11.3182036307
  0
LINE
  5
2AB
100
AcDbEntity
  8
0
100
AcDbLine
 62
9
  6
CONTINUOUS
 10
11.4819857973
 20
11.3228710898
 11
11.2496193963
 21
11.555237491
  0
LINE
  5
2AC
100
AcDbEntity
  8
0
100
AcDbLine
 62
9
  6
CONTINUOUS
 10
10.8496847392
 20
11.9551721479
 11
10.6173183383
 21
12.1875385488
  0
LINE
  5
2AD
100
AcDbEntity
  8
0
100
AcDbLine
 62
7
  6
CONTINUOUS
 10
12.3050615852
 20
12.9784061072
 11
12.3018029865
 21
12.9876376459
  0
LINE
  5
2AE
100
AcDbEntity
  8
0
100
AcDbLine
 62
7
  6
CONTINUOUS
 10
14.4282183383
 20
11.6386070143
 11
14.4282183383
 21
11.8671351653
  0
LINE
  5
2AF
100
AcDbEntity
  8
0
100
AcDbLine
 62
9
  6
CONTINUOUS
 10
14.4309617348
 20
11.8468844473
 11
14.4309617348
 21
11.6588577322
  0
LINE
  5
2B0
100
AcDbEntity
  8
0
100
AcDbLine
 62
9
  6
CONTINUOUS
 10
14.5163516191
 20
11.5222339174
 11
14.5163516191
 21
11.9835082622
  0
LINE
  5
2B1
100
AcDbEntity
  8
0
100
AcDbLine
 62
9
  6
CONTINUOUS
 10
14.5328098473
 20
11.5222339174
 11
14.5328098473
 21
11.9835082622
  0
LINE
  5
2B2
100
AcDbEntity
  8
0
100
AcDbLine
 62
7
  6
CONTINUOUS
 10
17.9587888179
 20
11.3787673314
 11
17.9352822612
 21
11.3777055471
  0
LINE
  5
2B3
100
AcDbEntity
  8
0
100
AcDbLine
 62
7
  6
CONTINUOUS
 10
17.9753214746
 20
11.3891500425
 11
17.9519202808
 21
11.3880932886
  0
LINE
  5
2B4
100
AcDbEntity
  8
0
100
AcDbLine
 62
7
  6
CONTINUOUS
 10
17.9352822612
 20
11.3777055471
 11
17.9349049201
 21
11.3776920792
  0
LWPOLYLINE
  5
2B5
100
AcDbEntity
  8
0
100
AcDbPolyline
 62
7
  6
CONTINUOUS
 90
4
 70
0
 10
6.1218557971
 20
10.8074870308
 10
6.7369445139
 20
10.8058079282
 10
7.3601392811
 20
10.8058200481
 10
7.9727771767
 20
10.8074842043
  0
LWPOLYLINE
  5
2B6
100
AcDbEntity
  8
0
100
AcDbPolyline
 62
7
  6
CONTINUOUS
 90
4
 70
0
 10
14.1218544202
 20
10.807485868
 10
14.7362042019
 20
10.8058142699
 10
15.3594009837
 20
10.805813835
 10
15.9727782566
 20
10.8074850459
  0
LINE
  5
2B7
100
AcDbEntity
  8
0
100
AcDbLine
 62
7
  6
CONTINUOUS
 10
4.1593544324
 20
11.3777055161
 11
4.1597195249
 21
11.3776923732
  0
LINE
  5
2B8
100
AcDbEntity
  8
0
100
AcDbLine
 62
7
  6
CONTINUOUS
 10
4.1593544324
 20
11.3777055161
 11
4.1359527076
 21
11.3787622904
  0
LINE
  5
2B9
100
AcDbEntity
  8
0
100
AcDbLine
 62
7
  6
CONTINUOUS
 10
4.1427163958
 20
11.3880932886
 11
4.119315202
 21
11.3891500425
  0
LINE
  5
2BA
100
AcDbEntity
  8
0
100
AcDbLine
 62
7
  6
CONTINUOUS
 10
11.7911916158
 20
12.8693285081
 11
11.7827602881
 21
12.8852387129
  0
LINE
  5
2BB
100
AcDbEntity
  8
0
100
AcDbLine
 62
7
  6
CONTINUOUS
 10
12.3018029865
 20
12.9876376459
 11
12.3018968684
 21
12.9874533821
  0
LWPOLYLINE
  5
2BC
100
AcDbEntity
  8
0
100
AcDbPolyline
 62
7
  6
CONTINUOUS
 90
5
 70
0
 10
14.1019337874
 20
10.827403521
 10
14.1034319549
 20
10.8198930075
 10
14.1075889558
 20
10.8135512919
 10
14.1138079609
 20
10.8092125811
 10
14.1218577359
 20
10.8074872584
  0
LINE
  5
2BD
100
AcDbEntity
  8
0
100
AcDbLine
 62
9
  6
CONTINUOUS
 10
18.0883730929
 20
11.6523007471
 11
17.9518340657
 21
11.4185643346
  0
LINE
  5
2BE
100
AcDbEntity
  8
0
100
AcDbLine
 62
9
  6
CONTINUOUS
 10
17.9519202808
 20
11.3880932886
 11
18.0893576152
 21
11.623367482
  0
LINE
  5
2BF
100
AcDbEntity
  8
0
100
AcDbLine
 62
9
  6
CONTINUOUS
 10
18.0965339653
 20
11.623905148
 11
18.0962018998
 21
11.623367482
  0
LINE
  5
2C0
100
AcDbEntity
  8
0
100
AcDbLine
 62
9
  6
CONTINUOUS
 10
17.9753214746
 20
11.3891500425
 11
17.9756216618
 21
11.3896259323
  0
LWPOLYLINE
  5
2C1
100
AcDbEntity
  8
0
100
AcDbPolyline
 62
7
  6
CONTINUOUS
 90
5
 70
0
 10
7.972785105
 20
10.8074867715
 10
7.9802955329
 20
10.8089849735
 10
7.9866371693
 20
10.813141989
 10
7.9909757929
 20
10.8193609821
 10
7.9927010234
 20
10.8274107063
  0
LWPOLYLINE
  5
2C2
100
AcDbEntity
  8
0
100
AcDbPolyline
 62
7
  6
CONTINUOUS
 90
4
 70
0
 10
4.1632189687
 20
11.3777462002
 10
4.8615048863
 20
11.402589461
 10
5.6292797533
 20
11.4477941694
 10
6.4474063375
 20
11.4728750384
  0
LINE
  5
2C3
100
AcDbEntity
  8
0
100
AcDbLine
 62
7
  6
CONTINUOUS
 10
17.9347630064
 20
11.3777408066
 11
17.9348891414
 21
11.377743464
  0
LINE
  5
2C4
100
AcDbEntity
  8
0
100
AcDbLine
 62
7
  6
CONTINUOUS
 10
17.9347630064
 20
11.3777408066
 11
17.9342038957
 21
11.3776859958
  0
LINE
  5
2C5
100
AcDbEntity
  8
0
100
AcDbLine
 62
9
  6
CONTINUOUS
 10
12.3330204393
 20
11.7496873519
 11
12.3112467404
 21
11.7495401017
  0
LINE
  5
2C6
100
AcDbEntity
  8
0
100
AcDbLine
 62
7
  6
CONTINUOUS
 10
4.160668521
 20
11.3777358004
 11
4.1631330786
 21
11.3777455611
  0
LINE
  5
2C7
100
AcDbEntity
  8
0
100
AcDbLine
 62
9
  6
CONTINUOUS
 10
17.9518340759
 20
11.4185643347
 11
17.9313145079
 21
11.4185372003
  0
LINE
  5
2C8
100
AcDbEntity
  8
0
100
AcDbLine
 62
7
  6
CONTINUOUS
 10
11.4773183383
 20
11.3028710898
 11
10.6173183383
 21
11.3028710898
  0
LINE
  5
2C9
100
AcDbEntity
  8
0
100
AcDbLine
 62
9
  6
CONTINUOUS
 10
10.6173183383
 20
11.3182036307
 11
11.4773183383
 21
11.3182036307
  0
LINE
  5
2CA
100
AcDbEntity
  8
0
100
AcDbLine
 62
9
  6
CONTINUOUS
 10
10.5973183383
 20
11.3228710898
 11
10.6126508792
 21
11.3228710898
  0
LINE
  5
2CB
100
AcDbEntity
  8
0
100
AcDbLine
 62
9
  6
CONTINUOUS
 10
11.4819857973
 20
11.3228710898
 11
11.4973183383
 21
11.3228710898
  0
LINE
  5
2CC
100
AcDbEntity
  8
0
100
AcDbLine
 62
7
  6
CONTINUOUS
 10
14.539303275
 20
11.4728710898
 11
15.6474159519
 21
11.4728755523
  0
LINE
  5
2CD
100
AcDbEntity
  8
0
100
AcDbLine
 62
9
  6
CONTINUOUS
 10
6.4503048443
 20
11.4928710857
 11
7.5550924569
 21
11.4928710898
  0
LINE
  5
2CE
100
AcDbEntity
  8
0
100
AcDbLine
 62
9
  6
CONTINUOUS
 10
7.5618268293
 20
11.5222339174
 11
7.5782850575
 21
11.5222339174
  0
LINE
  5
2CF
100
AcDbEntity
  8
0
100
AcDbLine
 62
9
  6
CONTINUOUS
 10
14.5163516191
 20
11.5222339305
 11
14.5328098473
 21
11.5222339305
  0
LINE
  5
2D0
100
AcDbEntity
  8
0
100
AcDbLine
 62
9
  6
CONTINUOUS
 10
11.2449519374
 20
11.5505700316
 11
10.8496847395
 21
11.5505700317
  0
LINE
  5
2D1
100
AcDbEntity
  8
0
100
AcDbLine
 62
9
  6
CONTINUOUS
 10
10.8450172802
 20
11.5552374907
 11
11.2496193964
 21
11.5552374907
  0
LINE
  5
2D2
100
AcDbEntity
  8
0
100
AcDbLine
 62
9
  6
CONTINUOUS
 10
18.0962018998
 20
11.623367482
 11
18.0893576152
 21
11.623367482
  0
LINE
  5
2D3
100
AcDbEntity
  8
0
100
AcDbLine
 62
9
  6
CONTINUOUS
 10
4.0052790613
 20
11.623367482
 11
3.9984347767
 21
11.623367482
  0
LINE
  5
2D4
100
AcDbEntity
  8
0
100
AcDbLine
 62
9
  6
CONTINUOUS
 10
3.9959572035
 20
11.6330119037
 11
4.0028014881
 21
11.6330119037
  0
LINE
  5
2D5
100
AcDbEntity
  8
0
100
AcDbLine
 62
9
  6
CONTINUOUS
 10
18.0918351885
 20
11.6330119037
 11
18.0986794731
 21
11.6330119037
  0
LINE
  5
2D6
100
AcDbEntity
  8
0
100
AcDbLine
 62
9
  6
CONTINUOUS
 10
3.9952892733
 20
11.652300747
 11
3.9953008552
 21
11.652300747
  0
LINE
  5
2D7
100
AcDbEntity
  8
0
100
AcDbLine
 62
9
  6
CONTINUOUS
 10
4.0034578363
 20
11.6523007471
 11
4.0062635837
 21
11.6523007471
  0
LINE
  5
2D8
100
AcDbEntity
  8
0
100
AcDbLine
 62
9
  6
CONTINUOUS
 10
18.0993358213
 20
11.6523007471
 11
18.0993474033
 21
11.6523007471
  0
LINE
  5
2D9
100
AcDbEntity
  8
0
100
AcDbLine
 62
9
  6
CONTINUOUS
 10
18.0883730929
 20
11.652300747
 11
18.0911788403
 21
11.652300747
  0
LINE
  5
2DA
100
AcDbEntity
  8
0
100
AcDbLine
 62
9
  6
CONTINUOUS
 10
7.6636749418
 20
11.6588577319
 11
7.6664183383
 21
11.6588577319
  0
LINE
  5
2DB
100
AcDbEntity
  8
0
100
AcDbLine
 62
9
  6
CONTINUOUS
 10
14.4282183383
 20
11.6588577322
 11
14.4309617348
 21
11.6588577322
  0
LINE
  5
2DC
100
AcDbEntity
  8
0
100
AcDbLine
 62
9
  6
CONTINUOUS
 10
4.142750646
 20
11.7528710898
 11
6.4488183278
 21
11.7528710898
  0
LINE
  5
2DD
100
AcDbEntity
  8
0
100
AcDbLine
 62
9
  6
CONTINUOUS
 10
15.6458183487
 20
11.7528710898
 11
17.9518860306
 21
11.7528710898
  0
LINE
  5
2DE
100
AcDbEntity
  8
0
100
AcDbLine
 62
7
  6
CONTINUOUS
 10
17.9338483541
 20
11.3777359193
 11
17.9344308053
 21
11.3777368403
  0
LINE
  5
2DF
100
AcDbEntity
  8
0
100
AcDbLine
 62
9
  6
CONTINUOUS
 10
4.1428026105
 20
11.4185643309
 11
4.1633221686
 21
11.4185371973
  0
LINE
  5
2E0
100
AcDbEntity
  8
0
100
AcDbLine
 62
7
  6
CONTINUOUS
 10
6.4473312956
 20
11.4728752434
 11
7.5553334067
 21
11.4728710898
  0
LINE
  5
2E1
100
AcDbEntity
  8
0
100
AcDbLine
 62
7
  6
CONTINUOUS
 10
4.1602008442
 20
11.3777368734
 11
4.160668521
 21
11.3777358004
  0
LINE
  5
2E2
100
AcDbEntity
  8
0
100
AcDbLine
 62
7
  6
CONTINUOUS
 10
17.9315035701
 20
11.3777455613
 11
17.9338483541
 21
11.3777359193
  0
LINE
  5
2E3
100
AcDbEntity
  8
0
100
AcDbLine
 62
9
  6
CONTINUOUS
 10
9.7615951258
 20
11.7496874947
 11
9.7833899362
 21
11.7495401017
  0
LINE
  5
2E4
100
AcDbEntity
  8
0
100
AcDbLine
 62
7
  6
CONTINUOUS
 10
17.9315062311
 20
11.3777455368
 11
17.9314218251
 21
11.3777461614
  0
LINE
  5
2E5
100
AcDbEntity
  8
0
100
AcDbLine
 62
7
  6
CONTINUOUS
 10
4.1597195249
 20
11.3776923732
 11
4.1604327811
 21
11.3776859647
  0
LINE
  5
2E6
100
AcDbEntity
  8
0
100
AcDbLine
 62
7
  6
CONTINUOUS
 10
4.1597355517
 20
11.3777437552
 11
4.1599074661
 21
11.3777402122
  0
LWPOLYLINE
  5
2E7
100
AcDbEntity
  8
0
100
AcDbPolyline
 62
7
  6
CONTINUOUS
 90
4
 70
0
 10
15.6473125563
 20
11.4728752624
 10
16.4663208072
 20
11.4477416109
 10
17.2340930797
 20
11.4025370343
 10
17.9314177043
 20
11.3777461867
  0
LINE
  5
2E8
100
AcDbEntity
  8
0
100
AcDbLine
 62
7
  6
CONTINUOUS
 10
11.7827602881
 20
12.8852387129
 11
11.778414859
 21
12.8898469775
  0
LINE
  5
2E9
100
AcDbEntity
  8
0
100
AcDbLine
 62
9
  6
CONTINUOUS
 10
15.6458183487
 20
11.4928750768
 11
15.6458183848
 21
12.01286911
  0
LWPOLYLINE
  5
2EA
100
AcDbEntity
  8
0
100
AcDbPolyline
 62
7
  6
CONTINUOUS
 90
3
 70
0
 10
15.992703548
 20
10.8274080055
 10
15.9937851053
 20
11.161787306
 10
15.9943981685
 20
11.4622239304
  0
LWPOLYLINE
  5
2EB
100
AcDbEntity
  8
0
100
AcDbPolyline
 62
7
  6
CONTINUOUS
 90
3
 70
0
 10
18.0965312866
 20
11.6238999196
 10
18.0971796733
 20
11.6252791383
 10
18.0983524287
 20
11.6289359752
  0
LINE
  5
2EC
100
AcDbEntity
  8
0
100
AcDbLine
 62
9
  6
CONTINUOUS
 10
18.0962018998
 20
11.623367482
 11
17.9753214746
 21
11.3891500425
  0
LINE
  5
2ED
100
AcDbEntity
  8
0
100
AcDbLine
 62
7
  6
CONTINUOUS
 10
18.0965347468
 20
11.6239066533
 11
17.9756230915
 21
11.3896287026
  0
LWPOLYLINE
  5
2EE
100
AcDbEntity
  8
0
100
AcDbPolyline
 62
7
  6
CONTINUOUS
 90
5
 70
0
 10
14.1218515716
 20
12.6982554081
 10
14.1143411436
 20
12.6967572061
 10
14.1079995072
 20
12.6926001906
 10
14.1036608837
 20
12.6863811974
 10
14.1019356531
 20
12.6783314733
  0
LWPOLYLINE
  5
2EF
100
AcDbEntity
  8
0
100
AcDbPolyline
 62
7
  6
CONTINUOUS
 90
4
 70
0
 10
17.9314177079
 20
12.1279959794
 10
17.2331317886
 20
12.1031527185
 10
16.4653569218
 20
12.0579480101
 10
15.647230339
 20
12.0328671412
  0
LINE
  5
2F0
100
AcDbEntity
  8
0
100
AcDbLine
 62
7
  6
CONTINUOUS
 10
4.1593544154
 20
12.1280366325
 11
4.1597317564
 21
12.1280501004
  0
LINE
  5
2F1
100
AcDbEntity
  8
0
100
AcDbLine
 62
7
  6
CONTINUOUS
 10
4.1598736702
 20
12.128001373
 11
4.1597475352
 21
12.1279987155
  0
LINE
  5
2F2
100
AcDbEntity
  8
0
100
AcDbLine
 62
7
  6
CONTINUOUS
 10
4.1598736702
 20
12.128001373
 11
4.1604327809
 21
12.1280561837
  0
LINE
  5
2F3
100
AcDbEntity
  8
0
100
AcDbLine
 62
7
  6
CONTINUOUS
 10
17.9339681556
 20
12.1280063792
 11
17.931503598
 21
12.1279966185
  0
LINE
  5
2F4
100
AcDbEntity
  8
0
100
AcDbLine
 62
9
  6
CONTINUOUS
 10
4.1428026007
 20
12.0871778448
 11
4.1633221686
 21
12.0872049793
  0
LINE
  5
2F5
100
AcDbEntity
  8
0
100
AcDbLine
 62
9
  6
CONTINUOUS
 10
14.4309617348
 20
11.8468844477
 11
14.4282183383
 21
11.8468844477
  0
LINE
  5
2F6
100
AcDbEntity
  8
0
100
AcDbLine
 62
9
  6
CONTINUOUS
 10
7.6664183383
 20
11.8468844473
 11
7.6636749418
 21
11.8468844473
  0
LINE
  5
2F7
100
AcDbEntity
  8
0
100
AcDbLine
 62
9
  6
CONTINUOUS
 10
18.0993474033
 20
11.8534414325
 11
18.0993358213
 21
11.8534414325
  0
LINE
  5
2F8
100
AcDbEntity
  8
0
100
AcDbLine
 62
9
  6
CONTINUOUS
 10
18.0911788403
 20
11.8534414325
 11
18.0883730929
 21
11.8534414325
  0
LINE
  5
2F9
100
AcDbEntity
  8
0
100
AcDbLine
 62
9
  6
CONTINUOUS
 10
3.9953008552
 20
11.8534414325
 11
3.9952892733
 21
11.8534414325
  0
LINE
  5
2FA
100
AcDbEntity
  8
0
100
AcDbLine
 62
9
  6
CONTINUOUS
 10
4.0062635837
 20
11.8534414325
 11
4.0034578363
 21
11.8534414325
  0
LINE
  5
2FB
100
AcDbEntity
  8
0
100
AcDbLine
 62
9
  6
CONTINUOUS
 10
18.0986794731
 20
11.8727302759
 11
18.0918351885
 21
11.8727302759
  0
LINE
  5
2FC
100
AcDbEntity
  8
0
100
AcDbLine
 62
9
  6
CONTINUOUS
 10
4.0028014881
 20
11.8727302759
 11
3.9959572035
 21
11.8727302759
  0
LINE
  5
2FD
100
AcDbEntity
  8
0
100
AcDbLine
 62
9
  6
CONTINUOUS
 10
3.9984347767
 20
11.8823746975
 11
4.0052790613
 21
11.8823746975
  0
LINE
  5
2FE
100
AcDbEntity
  8
0
100
AcDbLine
 62
9
  6
CONTINUOUS
 10
18.0893576152
 20
11.8823746975
 11
18.0962018998
 21
11.8823746975
  0
LINE
  5
2FF
100
AcDbEntity
  8
0
100
AcDbLine
 62
9
  6
CONTINUOUS
 10
11.2496193964
 20
11.9505046889
 11
10.8450172802
 21
11.9505046889
  0
LINE
  5
300
100
AcDbEntity
  8
0
100
AcDbLine
 62
9
  6
CONTINUOUS
 10
10.8496847392
 20
11.9551721479
 11
11.244951937
 21
11.9551721478
  0
LINE
  5
301
100
AcDbEntity
  8
0
100
AcDbLine
 62
9
  6
CONTINUOUS
 10
14.5328098473
 20
11.9835082622
 11
14.5163516191
 21
11.9835082622
  0
LINE
  5
302
100
AcDbEntity
  8
0
100
AcDbLine
 62
9
  6
CONTINUOUS
 10
7.5782850575
 20
11.9835082491
 11
7.5618268293
 21
11.9835082491
  0
LINE
  5
303
100
AcDbEntity
  8
0
100
AcDbLine
 62
9
  6
CONTINUOUS
 10
15.6443318322
 20
12.0128710938
 11
14.5395442197
 21
12.0128710898
  0
LINE
  5
304
100
AcDbEntity
  8
0
100
AcDbLine
 62
7
  6
CONTINUOUS
 10
7.5553333855
 20
12.0328710898
 11
6.4472207247
 21
12.0328666272
  0
LINE
  5
305
100
AcDbEntity
  8
0
100
AcDbLine
 62
9
  6
CONTINUOUS
 10
11.4973183383
 20
12.1828710898
 11
11.4819857973
 21
12.1828710898
  0
LINE
  5
306
100
AcDbEntity
  8
0
100
AcDbLine
 62
9
  6
CONTINUOUS
 10
10.6126508792
 20
12.1828710898
 11
10.5973183383
 21
12.1828710898
  0
LINE
  5
307
100
AcDbEntity
  8
0
100
AcDbLine
 62
9
  6
CONTINUOUS
 10
11.4773183383
 20
12.1875385488
 11
10.6173183383
 21
12.1875385488
  0
LINE
  5
308
100
AcDbEntity
  8
0
100
AcDbLine
 62
7
  6
CONTINUOUS
 10
10.6173183383
 20
12.2028710898
 11
11.4773183383
 21
12.2028710898
  0
LINE
  5
309
100
AcDbEntity
  8
0
100
AcDbLine
 62
7
  6
CONTINUOUS
 10
4.1607883224
 20
12.1280062603
 11
4.1602058713
 21
12.1280053393
  0
LINE
  5
30A
100
AcDbEntity
  8
0
100
AcDbLine
 62
9
  6
CONTINUOUS
 10
17.951834066
 20
12.0871778486
 11
17.9313145079
 21
12.0872049822
  0
LINE
  5
30B
100
AcDbEntity
  8
0
100
AcDbLine
 62
7
  6
CONTINUOUS
 10
15.647305381
 20
12.0328669361
 11
14.5393032698
 21
12.0328710898
  0
LINE
  5
30C
100
AcDbEntity
  8
0
100
AcDbLine
 62
7
  6
CONTINUOUS
 10
17.9344358324
 20
12.1280053061
 11
17.9339681556
 21
12.1280063792
  0
LINE
  5
30D
100
AcDbEntity
  8
0
100
AcDbLine
 62
7
  6
CONTINUOUS
 10
4.1631331065
 20
12.1279966183
 11
4.1607883224
 21
12.1280062603
  0
LINE
  5
30E
100
AcDbEntity
  8
0
100
AcDbLine
 62
7
  6
CONTINUOUS
 10
4.1631304455
 20
12.1279966428
 11
4.1632148515
 21
12.1279960181
  0
LINE
  5
30F
100
AcDbEntity
  8
0
100
AcDbLine
 62
7
  6
CONTINUOUS
 10
17.9349171517
 20
12.1280498063
 11
17.9342038955
 21
12.1280562149
  0
LINE
  5
310
100
AcDbEntity
  8
0
100
AcDbLine
 62
7
  6
CONTINUOUS
 10
17.9349011249
 20
12.1279984244
 11
17.9347292105
 21
12.1280019673
  0
LWPOLYLINE
  5
311
100
AcDbEntity
  8
0
100
AcDbPolyline
 62
7
  6
CONTINUOUS
 90
4
 70
0
 10
6.4473241203
 20
12.0328669171
 10
5.6283158681
 20
12.0580005687
 10
4.8605435953
 20
12.1032051453
 10
4.1632189723
 20
12.1279959928
  0
LINE
  5
312
100
AcDbEntity
  8
0
100
AcDbLine
 62
7
  6
CONTINUOUS
 10
17.9352822441
 20
12.1280366635
 11
17.9349171517
 21
12.1280498063
  0
LINE
  5
313
100
AcDbEntity
  8
0
100
AcDbLine
 62
7
  6
CONTINUOUS
 10
11.7784130337
 20
12.8898486418
 11
11.778414859
 21
12.8898469775
  0
LWPOLYLINE
  5
314
100
AcDbEntity
  8
0
100
AcDbPolyline
 62
7
  6
CONTINUOUS
 90
3
 70
0
 10
15.9944160694
 20
12.0344898159
 10
15.9937872501
 20
12.3431504205
 10
15.9927035639
 20
12.6783298836
  0
LINE
  5
315
100
AcDbEntity
  8
0
100
AcDbLine
 62
7
  6
CONTINUOUS
 10
10.3587070725
 20
12.9059580209
 11
10.3338306138
 21
12.9010083382
  0
LINE
  5
316
100
AcDbEntity
  8
0
100
AcDbLine
 62
7
  6
CONTINUOUS
 10
4.119315202
 20
12.1165921371
 11
4.1427163958
 21
12.117648891
  0
LINE
  5
317
100
AcDbEntity
  8
0
100
AcDbLine
 62
7
  6
CONTINUOUS
 10
4.1358478587
 20
12.1269748482
 11
4.1593544154
 21
12.1280366325
  0
LINE
  5
318
100
AcDbEntity
  8
0
100
AcDbLine
 62
7
  6
CONTINUOUS
 10
9.7666526363
 20
12.972610151
 11
9.7839480966
 21
12.9726722338
  0
LINE
  5
319
100
AcDbEntity
  8
0
100
AcDbLine
 62
9
  6
CONTINUOUS
 10
9.7881623943
 20
12.9514570386
 11
9.792786129
 21
12.9514614448
  0
LINE
  5
31A
100
AcDbEntity
  8
0
100
AcDbLine
 62
9
  6
CONTINUOUS
 10
11.7359296067
 20
12.8945226484
 11
11.0473182375
 21
12.8941749058
  0
LINE
  5
31B
100
AcDbEntity
  8
0
100
AcDbLine
 62
9
  6
CONTINUOUS
 10
11.0473183799
 20
12.8945226205
 11
10.3587070745
 21
12.8941748963
  0
LINE
  5
31C
100
AcDbEntity
  8
0
100
AcDbLine
 62
7
  6
CONTINUOUS
 10
10.358707073
 20
12.9059580858
 11
11.7359296078
 21
12.9059580858
  0
LINE
  5
31D
100
AcDbEntity
  8
0
100
AcDbLine
 62
9
  6
CONTINUOUS
 10
9.8441823132
 20
13.0022513737
 11
12.2504539946
 21
13.0022513765
  0
LINE
  5
31E
100
AcDbEntity
  8
0
100
AcDbLine
 62
7
  6
CONTINUOUS
 10
12.2504539952
 20
13.0066453559
 11
9.8441823162
 21
13.0066453559
  0
LINE
  5
31F
100
AcDbEntity
  8
0
100
AcDbLine
 62
7
  6
CONTINUOUS
 10
12.2725325892
 20
13.0275911236
 11
11.0473183297
 21
13.0276005676
  0
LINE
  5
320
100
AcDbEntity
  8
0
100
AcDbLine
 62
9
  6
CONTINUOUS
 10
11.0473183297
 20
13.0276005645
 11
9.8221042412
 21
13.0276005132
  0
LINE
  5
321
100
AcDbEntity
  8
0
100
AcDbLine
 62
9
  6
CONTINUOUS
 10
12.3064742459
 20
12.9514572386
 11
12.3018546279
 21
12.9514615951
  0
LWPOLYLINE
  5
322
100
AcDbEntity
  8
0
100
AcDbPolyline
 62
7
  6
CONTINUOUS
 90
4
 70
0
 10
7.9727822564
 20
12.6982563116
 10
7.3584324747
 20
12.6999279096
 10
6.7352356928
 20
12.6999283446
 10
6.12185842
 20
12.6982571337
  0
LWPOLYLINE
  5
323
100
AcDbEntity
  8
0
100
AcDbPolyline
 62
7
  6
CONTINUOUS
 90
4
 70
0
 10
15.9727808795
 20
12.6982551488
 10
15.3576921627
 20
12.6999342514
 10
14.7344973954
 20
12.6999221315
 10
14.1218594999
 20
12.6982579752
  0
LINE
  5
324
100
AcDbEntity
  8
0
100
AcDbLine
 62
7
  6
CONTINUOUS
 10
12.3279738972
 20
12.9726095491
 11
12.3106885303
 21
12.9726720853
  0
LINE
  5
325
100
AcDbEntity
  8
0
100
AcDbLine
 62
7
  6
CONTINUOUS
 10
17.9519202808
 20
12.117648891
 11
17.9753214746
 21
12.1165921371
  0
LINE
  5
326
100
AcDbEntity
  8
0
100
AcDbLine
 62
7
  6
CONTINUOUS
 10
17.9352822441
 20
12.1280366635
 11
17.9586839689
 21
12.1269798891
  0
LINE
  5
327
100
AcDbEntity
  8
0
100
AcDbLine
 62
7
  6
CONTINUOUS
 10
11.7589575275
 20
12.9017459269
 11
11.735933713
 21
12.905958111
  0
LINE
  5
328
100
AcDbEntity
  8
0
100
AcDbLine
 62
7
  6
CONTINUOUS
 10
12.2868609908
 20
13.0021156619
 11
12.2887609415
 21
13.0011331938
  0
LINE
  5
329
100
AcDbEntity
  8
0
100
AcDbLine
 62
7
  6
CONTINUOUS
 10
11.7784130317
 20
12.8898486437
 11
11.7589575275
 21
12.9017459269
  0
LINE
  5
32A
100
AcDbEntity
  8
0
100
AcDbLine
 62
7
  6
CONTINUOUS
 10
14.4312583722
 20
11.6280070355
 11
14.522343325
 21
11.482271111
  0
LINE
  5
32B
100
AcDbEntity
  8
0
100
AcDbLine
 62
9
  6
CONTINUOUS
 10
14.5163516191
 20
11.5222339174
 11
14.4309617348
 21
11.6588577322
  0
LWPOLYLINE
  5
32C
100
AcDbEntity
  8
0
100
AcDbPolyline
 62
7
  6
CONTINUOUS
 90
5
 70
0
 10
6.1218504919
 20
12.6982548943
 10
6.114340067
 20
12.6967566596
 10
6.1079984344
 20
12.6925996371
 10
6.1036597956
 20
12.6863806515
 10
6.1019345191
 20
12.6783309014
  0
LINE
  5
32D
100
AcDbEntity
  8
0
100
AcDbLine
 62
7
  6
CONTINUOUS
 10
9.8208356646
 20
13.0057842929
 11
9.8159221629
 21
13.004927572
  0
LINE
  5
32E
100
AcDbEntity
  8
0
100
AcDbLine
 62
7
  6
CONTINUOUS
 10
9.8208324493
 20
13.0057841988
 11
9.8216466567
 21
13.0058417767
  0
LINE
  5
32F
100
AcDbEntity
  8
0
100
AcDbLine
 62
7
  6
CONTINUOUS
 10
9.8321046434
 20
13.0063153457
 11
9.8216521706
 21
13.0058419166
  0
LINE
  5
330
100
AcDbEntity
  8
0
100
AcDbLine
 62
7
  6
CONTINUOUS
 10
9.8441823155
 20
13.0066452884
 11
9.8321046434
 21
13.0063153457
  0
LINE
  5
331
100
AcDbEntity
  8
0
100
AcDbLine
 62
7
  6
CONTINUOUS
 10
12.2735832606
 20
13.0445194289
 11
9.8210488076
 21
13.0445242866
  0
LINE
  5
332
100
AcDbEntity
  8
0
100
AcDbLine
 62
7
  6
CONTINUOUS
 10
9.608177696
 20
13.2468710898
 11
12.4864589806
 21
13.2468710898
  0
LINE
  5
333
100
AcDbEntity
  8
0
100
AcDbLine
 62
7
  6
CONTINUOUS
 10
12.2633966437
 20
13.006273596
 11
12.2504539963
 21
13.0066453383
  0
LINE
  5
334
100
AcDbEntity
  8
0
100
AcDbLine
 62
7
  6
CONTINUOUS
 10
12.2729850493
 20
13.0058419027
 11
12.2633966437
 21
13.006273596
  0
LINE
  5
335
100
AcDbEntity
  8
0
100
AcDbLine
 62
7
  6
CONTINUOUS
 10
12.27299361
 20
13.0058416851
 11
12.2738383413
 21
13.0057799608
  0
LINE
  5
336
100
AcDbEntity
  8
0
100
AcDbLine
 62
7
  6
CONTINUOUS
 10
12.2727833628
 20
13.0058421868
 11
12.2868609908
 21
13.0021156619
  0
LINE
  5
337
100
AcDbEntity
  8
0
100
AcDbLine
 62
7
  6
CONTINUOUS
 10
12.2868609908
 20
13.0021156619
 11
12.2738327033
 21
13.0057801269
  0
LWPOLYLINE
  5
338
100
AcDbEntity
  8
0
100
AcDbPolyline
 62
7
  6
CONTINUOUS
 90
5
 70
0
 10
15.9927013441
 20
12.6783378047
 10
15.9912032126
 20
12.6858480978
 10
15.9870463183
 20
12.6921897084
 10
15.980827465
 20
12.6965283814
 10
15.9727776424
 20
12.6982537584
  0
LWPOLYLINE
  5
339
100
AcDbEntity
  8
0
100
AcDbPolyline
 62
7
  6
CONTINUOUS
 90
3
 70
0
 10
18.0983524287
 20
11.6289359752
 10
18.0988256097
 20
11.6318288052
 10
18.099042711
 20
11.6345156605
  0
LWPOLYLINE
  5
33A
100
AcDbEntity
  8
0
100
AcDbPolyline
 62
7
  6
CONTINUOUS
 90
3
 70
0
 10
18.0992922061
 20
11.8628004211
 10
18.099196854
 20
11.8674783072
 10
18.0990532757
 20
11.8710404977
  0
LINE
  5
33B
100
AcDbEntity
  8
0
100
AcDbLine
 62
7
  6
CONTINUOUS
 10
18.0993390642
 20
11.8573829431
 11
18.0992922061
 21
11.8628004211
  0
LINE
  5
33C
100
AcDbEntity
  8
0
100
AcDbLine
 62
9
  6
CONTINUOUS
 10
18.0883730929
 20
11.6523007471
 11
18.0883730929
 21
11.8534414325
  0
LINE
  5
33D
100
AcDbEntity
  8
0
100
AcDbLine
 62
9
  6
CONTINUOUS
 10
18.0911788403
 20
11.8534414325
 11
18.0911788403
 21
11.6523007471
  0
LINE
  5
33E
100
AcDbEntity
  8
0
100
AcDbLine
 62
9
  6
CONTINUOUS
 10
18.0993358213
 20
11.6523007471
 11
18.0993358213
 21
11.8534414325
  0
LINE
  5
33F
100
AcDbEntity
  8
0
100
AcDbLine
 62
7
  6
CONTINUOUS
 10
18.0993474033
 20
11.6523007471
 11
18.0993390642
 21
11.8573829431
  0
LWPOLYLINE
  5
340
100
AcDbEntity
  8
0
100
AcDbPolyline
 62
7
  6
CONTINUOUS
 90
3
 70
0
 10
18.0992868928
 20
11.642565761
 10
18.099336819
 20
11.6478872942
 10
18.0993474033
 20
11.6523007471
  0
LINE
  5
341
100
AcDbEntity
  8
0
100
AcDbLine
 62
7
  6
CONTINUOUS
 10
18.0991887467
 20
11.6379901409
 11
18.0992868928
 21
11.642565761
  0
LINE
  5
342
100
AcDbEntity
  8
0
100
AcDbLine
 62
7
  6
CONTINUOUS
 10
18.099042711
 20
11.6345156605
 11
18.0991887467
 21
11.6379901409
  0
LWPOLYLINE
  5
343
100
AcDbEntity
  8
0
100
AcDbPolyline
 62
7
  6
CONTINUOUS
 90
3
 70
0
 10
18.0990532757
 20
11.8710404977
 10
18.09884144
 20
11.8737682933
 10
18.0983858171
 20
11.8766553167
  0
LINE
  5
344
100
AcDbEntity
  8
0
100
AcDbLine
 62
9
  6
CONTINUOUS
 10
17.9756216525
 20
12.1161162652
 11
17.9753214746
 21
12.1165921371
  0
LINE
  5
345
100
AcDbEntity
  8
0
100
AcDbLine
 62
9
  6
CONTINUOUS
 10
18.0962018998
 20
11.8823746975
 11
18.0965328429
 21
11.8818392043
  0
LINE
  5
346
100
AcDbEntity
  8
0
100
AcDbLine
 62
9
  6
CONTINUOUS
 10
17.9518366497
 20
12.0871734215
 11
18.0883730929
 21
11.8534414325
  0
LINE
  5
347
100
AcDbEntity
  8
0
100
AcDbLine
 62
9
  6
CONTINUOUS
 10
18.0893576152
 20
11.8823746975
 11
17.9519202808
 21
12.117648891
  0
LWPOLYLINE
  5
348
100
AcDbEntity
  8
0
100
AcDbPolyline
 62
7
  6
CONTINUOUS
 90
4
 70
0
 10
17.9756232303
 20
12.1161132712
 10
17.9753127316
 20
12.1166914339
 10
17.9731108985
 20
12.1198685927
 10
17.9704514103
 20
12.1224724333
  0
LINE
  5
349
100
AcDbEntity
  8
0
100
AcDbLine
 62
9
  6
CONTINUOUS
 10
17.9753214746
 20
12.1165921371
 11
18.0962018998
 21
11.8823746975
  0
LINE
  5
34A
100
AcDbEntity
  8
0
100
AcDbLine
 62
7
  6
CONTINUOUS
 10
18.0965362754
 20
11.8818325644
 11
17.9756230252
 21
12.1161136056
  0
LINE
  5
34B
100
AcDbEntity
  8
0
100
AcDbLine
 62
7
  6
CONTINUOUS
 10
18.097223852
 20
11.8803583919
 11
18.0965311108
 21
11.8818426011
  0
LINE
  5
34C
100
AcDbEntity
  8
0
100
AcDbLine
 62
7
  6
CONTINUOUS
 10
18.0983858171
 20
11.8766553167
 11
18.097223852
 21
11.8803583919
  0
ARC
  5
34D
100
AcDbEntity
  8
0
100
AcDbCircle
 62
9
  6
CONTINUOUS
 10
-228.1908271297
 20
11.7525286788
 40
236.1994173023
100
AcDbArc
 50
359.7687506227
 51
0.2314157222
  0
ARC
  5
34E
100
AcDbEntity
  8
0
100
AcDbCircle
 62
9
  6
CONTINUOUS
 10
7.0473182506
 20
-245.3247712013
 40
258.0724064756
100
AcDbArc
 50
89.7833114686
 51
90.2166886577
  0
ARC
  5
34F
100
AcDbEntity
  8
0
100
AcDbCircle
 62
9
  6
CONTINUOUS
 10
7.0478300884
 20
-224.468051067
 40
237.1821866149
100
AcDbArc
 50
89.7697495739
 51
90.2304974179
  0
ARC
  5
350
100
AcDbEntity
  8
0
100
AcDbCircle
 62
9
  6
CONTINUOUS
 10
7.0473183062
 20
-188.3712891969
 40
201.0587323044
100
AcDbArc
 50
89.7391141742
 51
90.2608856049
  0
ARC
  5
351
100
AcDbEntity
  8
0
100
AcDbCircle
 62
9
  6
CONTINUOUS
 10
-13.5044918453
 20
4.3989142546
 40
24.0765702791
100
AcDbArc
 50
357.9210235824
 51
358.9164149788
  0
ARC
  5
352
100
AcDbEntity
  8
0
100
AcDbCircle
 62
9
  6
CONTINUOUS
 10
8.976534401
 20
5.4639979366
 40
2.565512188
100
AcDbArc
 50
299.486281742
 51
300.5605168105
  0
ARC
  5
353
100
AcDbEntity
  8
0
100
AcDbCircle
 62
9
  6
CONTINUOUS
 10
9.2459551475
 20
5.0037811274
 40
2.0322373998
100
AcDbArc
 50
300.616908525
 51
301.3602451584
  0
ARC
  5
354
100
AcDbEntity
  8
0
100
AcDbCircle
 62
9
  6
CONTINUOUS
 10
4.3953095549
 20
9.679585273
 40
6.0326197285
100
AcDbArc
 50
2.0807922501
 51
2.4515505899
  0
ARC
  5
355
100
AcDbEntity
  8
0
100
AcDbCircle
 62
7
  6
CONTINUOUS
 10
5.9176567296
 20
10.6232095039
 40
0.02
100
AcDbArc
 50
180.0286610069
 51
269.9713402259
  0
ARC
  5
356
100
AcDbEntity
  8
0
100
AcDbCircle
 62
9
  6
CONTINUOUS
 10
7.0782647442
 20
11.4928448828
 40
0.4768277145
100
AcDbArc
 50
359.0954311384
 51
0.0031490444
  0
ARC
  5
357
100
AcDbEntity
  8
0
100
AcDbCircle
 62
9
  6
CONTINUOUS
 10
7.344718634
 20
11.628352878
 40
0.3204117233
100
AcDbArc
 50
4.2082562538
 51
5.4631290066
  0
ARC
  5
358
100
AcDbEntity
  8
0
100
AcDbCircle
 62
9
  6
CONTINUOUS
 10
7.4390062701
 20
11.6351099025
 40
0.2258825233
100
AcDbArc
 50
2.7140426867
 51
4.2539644327
  0
ARC
  5
359
100
AcDbEntity
  8
0
100
AcDbCircle
 62
9
  6
CONTINUOUS
 10
6.1589801607
 20
10.8645368311
 40
0.096473204
100
AcDbArc
 50
222.612809549
 51
227.3911589536
  0
ARC
  5
35A
100
AcDbEntity
  8
0
100
AcDbCircle
 62
9
  6
CONTINUOUS
 10
4.1602650013
 20
11.3977778498
 40
0.0200403613
100
AcDbArc
 50
208.8930199468
 51
267.4027642135
  0
ARC
  5
35B
100
AcDbEntity
  8
0
100
AcDbCircle
 62
9
  6
CONTINUOUS
 10
10.5301636811
 20
10.4399474132
 40
1.2476528598
100
AcDbArc
 50
336.2584459934
 51
336.3924300383
  0
ARC
  5
35C
100
AcDbEntity
  8
0
100
AcDbCircle
 62
7
  6
CONTINUOUS
 10
9.608177696
 20
10.3068710898
 40
0.06
100
AcDbArc
 50
180.0
 51
270.0
  0
ARC
  5
35D
100
AcDbEntity
  8
0
100
AcDbCircle
 62
7
  6
CONTINUOUS
 10
9.819292195
 20
10.5239743084
 40
0.03833305
100
AcDbArc
 50
196.6430483447
 51
202.8085909525
  0
ARC
  5
35E
100
AcDbEntity
  8
0
100
AcDbCircle
 62
7
  6
CONTINUOUS
 10
9.8169114091
 20
10.5229900579
 40
0.0357568845
100
AcDbArc
 50
202.8336417503
 51
209.6778629451
  0
ARC
  5
35F
100
AcDbEntity
  8
0
100
AcDbCircle
 62
7
  6
CONTINUOUS
 10
8.1769799266
 20
10.6232095039
 40
0.02
100
AcDbArc
 50
270.0286597767
 51
359.9713403663
  0
ARC
  5
360
100
AcDbEntity
  8
0
100
AcDbCircle
 62
9
  6
CONTINUOUS
 10
10.9311452091
 20
11.6366979606
 40
0.1185488436
100
AcDbArc
 50
223.4046831746
 51
226.595316864
  0
ARC
  5
361
100
AcDbEntity
  8
0
100
AcDbCircle
 62
9
  6
CONTINUOUS
 10
10.6987422595
 20
11.4042901749
 40
0.1184936624
100
AcDbArc
 50
224.9983464794
 51
226.5944058158
  0
ARC
  5
362
100
AcDbEntity
  8
0
100
AcDbCircle
 62
9
  6
CONTINUOUS
 10
10.6981698293
 20
11.40374298
 40
0.1177019687
100
AcDbArc
 50
223.4002261195
 51
225.0070216241
  0
ARC
  5
363
100
AcDbEntity
  8
0
100
AcDbCircle
 62
9
  6
CONTINUOUS
 10
7.9356521302
 20
10.8645338169
 40
0.0964740452
100
AcDbArc
 50
312.6127806691
 51
317.3911980114
  0
ARC
  5
364
100
AcDbEntity
  8
0
100
AcDbCircle
 62
7
  6
CONTINUOUS
 10
7.5553333855
 20
11.4928710898
 40
0.02
100
AcDbArc
 50
270.0
 51
327.9946120741
  0
ARC
  5
365
100
AcDbEntity
  8
0
100
AcDbCircle
 62
7
  6
CONTINUOUS
 10
7.6464183383
 20
11.6386070143
 40
0.02
100
AcDbArc
 50
327.9946167887
 51
360.0
  0
ARC
  5
366
100
AcDbEntity
  8
0
100
AcDbCircle
 62
7
  6
CONTINUOUS
 10
10.6173183383
 20
11.3228710898
 40
0.02
100
AcDbArc
 50
180.0
 51
270.0
  0
ARC
  5
367
100
AcDbEntity
  8
0
100
AcDbCircle
 62
9
  6
CONTINUOUS
 10
7.5542835701
 20
11.4910291715
 40
0.0181580829
100
AcDbArc
 50
270.0209267758
 51
273.2186375834
  0
ARC
  5
368
100
AcDbEntity
  8
0
100
AcDbCircle
 62
9
  6
CONTINUOUS
 10
-250.0334152944
 20
11.7528711762
 40
258.0754978921
100
AcDbArc
 50
359.7833140911
 51
0.2166862649
  0
ARC
  5
369
100
AcDbEntity
  8
0
100
AcDbCircle
 62
9
  6
CONTINUOUS
 10
-193.0844696423
 20
11.7528710257
 40
201.0663712538
100
AcDbArc
 50
359.7391381981
 51
0.260861462
  0
ARC
  5
36A
100
AcDbEntity
  8
0
100
AcDbCircle
 62
9
  6
CONTINUOUS
 10
7.0989366634
 20
12.0130549464
 40
0.456155832
100
AcDbArc
 50
359.9769090289
 51
0.9656562015
  0
ARC
  5
36B
100
AcDbEntity
  8
0
100
AcDbCircle
 62
9
  6
CONTINUOUS
 10
6.1589823818
 20
12.6412069821
 40
0.0964735262
100
AcDbArc
 50
132.6109369137
 51
137.3894857263
  0
ARC
  5
36C
100
AcDbEntity
  8
0
100
AcDbCircle
 62
9
  6
CONTINUOUS
 10
4.0165502387
 20
11.8725805433
 40
0.0206020958
100
AcDbArc
 50
160.4978740542
 51
170.2301651626
  0
ARC
  5
36D
100
AcDbEntity
  8
0
100
AcDbCircle
 62
9
  6
CONTINUOUS
 10
4.1602650012
 20
12.1079643297
 40
0.0200403614
100
AcDbArc
 50
92.5972884901
 51
151.1069799842
  0
ARC
  5
36E
100
AcDbEntity
  8
0
100
AcDbCircle
 62
7
  6
CONTINUOUS
 10
5.9176567296
 20
12.8825326757
 40
0.02
100
AcDbArc
 50
90.0286597762
 51
179.971338994
  0
ARC
  5
36F
100
AcDbEntity
  8
0
100
AcDbCircle
 62
9
  6
CONTINUOUS
 10
10.9311452091
 20
11.8690442189
 40
0.1185488436
100
AcDbArc
 50
133.4046831746
 51
136.5953168639
  0
ARC
  5
370
100
AcDbEntity
  8
0
100
AcDbCircle
 62
9
  6
CONTINUOUS
 10
10.6987374234
 20
12.1014471685
 40
0.1184936624
100
AcDbArc
 50
134.9983464795
 51
136.5944058157
  0
ARC
  5
371
100
AcDbEntity
  8
0
100
AcDbCircle
 62
9
  6
CONTINUOUS
 10
10.6981902285
 20
12.1020195988
 40
0.1177019687
100
AcDbArc
 50
133.4002261196
 51
135.0070216239
  0
ARC
  5
372
100
AcDbEntity
  8
0
100
AcDbCircle
 62
9
  6
CONTINUOUS
 10
7.9356559731
 20
12.641204231
 40
0.0964743044
100
AcDbArc
 50
42.6133957589
 51
47.3917414632
  0
ARC
  5
373
100
AcDbEntity
  8
0
100
AcDbCircle
 62
9
  6
CONTINUOUS
 10
10.3673126598
 20
12.849159485
 40
0.0582214887
100
AcDbArc
 50
166.5542270486
 51
171.6828416353
  0
ARC
  5
374
100
AcDbEntity
  8
0
100
AcDbCircle
 62
9
  6
CONTINUOUS
 10
7.5533760486
 20
12.0124876151
 40
0.0207591485
100
AcDbArc
 50
29.8674287512
 51
45.017217523
  0
ARC
  5
375
100
AcDbEntity
  8
0
100
AcDbCircle
 62
7
  6
CONTINUOUS
 10
7.5553333667
 20
12.0128711198
 40
0.02
100
AcDbArc
 50
32.0052952658
 51
89.9999462708
  0
ARC
  5
376
100
AcDbEntity
  8
0
100
AcDbCircle
 62
7
  6
CONTINUOUS
 10
7.6464183383
 20
11.8671351653
 40
0.02
100
AcDbArc
 50
0.0
 51
32.0053832082
  0
ARC
  5
377
100
AcDbEntity
  8
0
100
AcDbCircle
 62
7
  6
CONTINUOUS
 10
10.6173183383
 20
12.1828710898
 40
0.02
100
AcDbArc
 50
90.0
 51
180.0
  0
ARC
  5
378
100
AcDbEntity
  8
0
100
AcDbCircle
 62
9
  6
CONTINUOUS
 10
7.5545825672
 20
12.0131964253
 40
0.0193599009
100
AcDbArc
 50
23.3093658642
 51
29.826510685
  0
ARC
  5
379
100
AcDbEntity
  8
0
100
AcDbCircle
 62
9
  6
CONTINUOUS
 10
7.5542879424
 20
12.0148676273
 40
0.0180034626
100
AcDbArc
 50
86.7675764997
 51
89.9928093683
  0
ARC
  5
37A
100
AcDbEntity
  8
0
100
AcDbCircle
 62
9
  6
CONTINUOUS
 10
9.8355375333
 20
13.8969793834
 40
2.2059122789
100
AcDbArc
 50
331.8126578293
 51
332.039152425
  0
ARC
  5
37B
100
AcDbEntity
  8
0
100
AcDbCircle
 62
7
  6
CONTINUOUS
 10
9.608177696
 20
13.1868710898
 40
0.06
100
AcDbArc
 50
90.0
 51
180.0
  0
ARC
  5
37C
100
AcDbEntity
  8
0
100
AcDbCircle
 62
7
  6
CONTINUOUS
 10
9.8231958642
 20
12.9700555478
 40
0.0355722008
100
AcDbArc
 50
112.9949801731
 51
117.7808434066
  0
ARC
  5
37D
100
AcDbEntity
  8
0
100
AcDbCircle
 62
7
  6
CONTINUOUS
 10
8.1769799266
 20
12.8825326757
 40
0.02
100
AcDbArc
 50
0.0286596315
 51
89.971340223
  0
ARC
  5
37E
100
AcDbEntity
  8
0
100
AcDbCircle
 62
9
  6
CONTINUOUS
 10
7.0473183313
 20
268.8306389953
 40
258.0725321695
100
AcDbArc
 50
269.7833115021
 51
270.2166887038
  0
ARC
  5
37F
100
AcDbEntity
  8
0
100
AcDbCircle
 62
9
  6
CONTINUOUS
 10
7.0469800043
 20
246.9856239034
 40
236.1940246806
100
AcDbArc
 50
269.7687442484
 51
270.2314199144
  0
ARC
  5
380
100
AcDbEntity
  8
0
100
AcDbCircle
 62
9
  6
CONTINUOUS
 10
7.0473182131
 20
211.8819914437
 40
201.0637036484
100
AcDbArc
 50
269.7391349639
 51
270.2608647634
  0
ARC
  5
381
100
AcDbEntity
  8
0
100
AcDbCircle
 62
9
  6
CONTINUOUS
 10
15.0473183453
 20
-245.3248968164
 40
258.0725321701
100
AcDbArc
 50
89.7833115021
 51
90.2166887038
  0
ARC
  5
382
100
AcDbEntity
  8
0
100
AcDbCircle
 62
9
  6
CONTINUOUS
 10
15.0476566723
 20
-223.4798817239
 40
236.1940246807
100
AcDbArc
 50
89.7687442484
 51
90.2314199144
  0
ARC
  5
383
100
AcDbEntity
  8
0
100
AcDbCircle
 62
9
  6
CONTINUOUS
 10
15.0473184634
 20
-188.3762492733
 40
201.0637036576
100
AcDbArc
 50
89.7391349639
 51
90.2608647635
  0
ARC
  5
384
100
AcDbEntity
  8
0
100
AcDbCircle
 62
9
  6
CONTINUOUS
 10
14.2338912916
 20
4.1156368384
 40
2.724937111
100
AcDbArc
 50
191.1832871206
 51
191.6203963483
  0
ARC
  5
385
100
AcDbEntity
  8
0
100
AcDbCircle
 62
9
  6
CONTINUOUS
 10
13.804296241
 20
4.0303578505
 40
2.2869596286
100
AcDbArc
 50
190.6921066606
 51
191.1747564211
  0
ARC
  5
386
100
AcDbEntity
  8
0
100
AcDbCircle
 62
7
  6
CONTINUOUS
 10
11.8363727731
 20
1.7368882885
 40
0.0189425217
100
AcDbArc
 50
299.0217105573
 51
0.0922089909
  0
ARC
  5
387
100
AcDbEntity
  8
0
100
AcDbCircle
 62
9
  6
CONTINUOUS
 10
12.2426440817
 20
10.6340538431
 40
0.1423585127
100
AcDbArc
 50
277.1514443352
 51
281.4084058975
  0
ARC
  5
388
100
AcDbEntity
  8
0
100
AcDbCircle
 62
7
  6
CONTINUOUS
 10
12.4864589806
 20
10.3068710898
 40
0.06
100
AcDbArc
 50
270.0
 51
360.0
  0
ARC
  5
389
100
AcDbEntity
  8
0
100
AcDbCircle
 62
9
  6
CONTINUOUS
 10
12.2951702612
 20
10.5057813899
 40
0.0570097874
100
AcDbArc
 50
276.6783467244
 51
353.1566516018
  0
ARC
  5
38A
100
AcDbEntity
  8
0
100
AcDbCircle
 62
7
  6
CONTINUOUS
 10
12.2776528168
 20
10.5230119561
 40
0.0358291845
100
AcDbArc
 50
332.5577636112
 51
337.0494634165
  0
ARC
  5
38B
100
AcDbEntity
  8
0
100
AcDbCircle
 62
7
  6
CONTINUOUS
 10
12.2817128096
 20
10.5202831135
 40
0.0309215596
100
AcDbArc
 50
314.8620950592
 51
319.5809179289
  0
ARC
  5
38C
100
AcDbEntity
  8
0
100
AcDbCircle
 62
7
  6
CONTINUOUS
 10
12.2950541526
 20
10.5333880138
 40
0.0244196805
100
AcDbArc
 50
296.2928896346
 51
299.3729640584
  0
ARC
  5
38D
100
AcDbEntity
  8
0
100
AcDbCircle
 62
9
  6
CONTINUOUS
 10
11.1634914674
 20
11.6366979606
 40
0.1185488436
100
AcDbArc
 50
313.4046831746
 51
316.5953168639
  0
ARC
  5
38E
100
AcDbEntity
  8
0
100
AcDbCircle
 62
9
  6
CONTINUOUS
 10
11.3958992531
 20
11.404295011
 40
0.1184936625
100
AcDbArc
 50
314.9983464797
 51
316.5944058156
  0
ARC
  5
38F
100
AcDbEntity
  8
0
100
AcDbCircle
 62
9
  6
CONTINUOUS
 10
11.3964464481
 20
11.4037225808
 40
0.1177019687
100
AcDbArc
 50
313.4002261196
 51
315.0070216239
  0
ARC
  5
390
100
AcDbEntity
  8
0
100
AcDbCircle
 62
7
  6
CONTINUOUS
 10
11.4773183383
 20
11.3228710898
 40
0.02
100
AcDbArc
 50
270.0
 51
360.0
  0
ARC
  5
391
100
AcDbEntity
  8
0
100
AcDbCircle
 62
9
  6
CONTINUOUS
 10
14.1589807194
 20
10.8645379645
 40
0.0964743269
100
AcDbArc
 50
222.6133963148
 51
227.3917408975
  0
ARC
  5
392
100
AcDbEntity
  8
0
100
AcDbCircle
 62
7
  6
CONTINUOUS
 10
13.91765675
 20
10.6232095039
 40
0.02
100
AcDbArc
 50
180.0286596315
 51
269.9713402231
  0
ARC
  5
393
100
AcDbEntity
  8
0
100
AcDbCircle
 62
9
  6
CONTINUOUS
 10
14.541260628
 20
11.4932545645
 40
0.0207591486
100
AcDbArc
 50
209.867428772
 51
225.0172175222
  0
ARC
  5
394
100
AcDbEntity
  8
0
100
AcDbCircle
 62
7
  6
CONTINUOUS
 10
14.5393033099
 20
11.4928710598
 40
0.02
100
AcDbArc
 50
212.0052952658
 51
269.9999462708
  0
ARC
  5
395
100
AcDbEntity
  8
0
100
AcDbCircle
 62
7
  6
CONTINUOUS
 10
14.4482183383
 20
11.6386070143
 40
0.02
100
AcDbArc
 50
180.0
 51
212.0053832082
  0
ARC
  5
396
100
AcDbEntity
  8
0
100
AcDbCircle
 62
9
  6
CONTINUOUS
 10
14.5400541093
 20
11.4925457542
 40
0.0193599008
100
AcDbArc
 50
203.3093658125
 51
209.8265106962
  0
ARC
  5
397
100
AcDbEntity
  8
0
100
AcDbCircle
 62
9
  6
CONTINUOUS
 10
14.5403487342
 20
11.4908745525
 40
0.0180034629
100
AcDbArc
 50
266.7675764368
 51
269.992809252
  0
ARC
  5
398
100
AcDbEntity
  8
0
100
AcDbCircle
 62
9
  6
CONTINUOUS
 10
18.2708919996
 20
9.6569699176
 40
6.6046291183
100
AcDbArc
 50
177.5645337072
 51
177.9031875482
  0
ARC
  5
399
100
AcDbEntity
  8
0
100
AcDbCircle
 62
9
  6
CONTINUOUS
 10
14.9957000132
 20
11.4926872332
 40
0.4561558321
100
AcDbArc
 50
179.976909029
 51
180.9656562014
  0
ARC
  5
39A
100
AcDbEntity
  8
0
100
AcDbCircle
 62
9
  6
CONTINUOUS
 10
15.9356542787
 20
10.8645352137
 40
0.096473549
100
AcDbArc
 50
312.6109374808
 51
317.3894851622
  0
ARC
  5
39B
100
AcDbEntity
  8
0
100
AcDbCircle
 62
9
  6
CONTINUOUS
 10
18.0780864379
 20
11.6331616362
 40
0.0206020958
100
AcDbArc
 50
340.4978740542
 51
350.2301651627
  0
ARC
  5
39C
100
AcDbEntity
  8
0
100
AcDbCircle
 62
9
  6
CONTINUOUS
 10
17.9343716753
 20
11.3977778498
 40
0.0200403614
100
AcDbArc
 50
272.5972884689
 51
331.1069799819
  0
ARC
  5
39D
100
AcDbEntity
  8
0
100
AcDbCircle
 62
7
  6
CONTINUOUS
 10
16.1769799469
 20
10.6232095039
 40
0.02
100
AcDbArc
 50
270.0286597763
 51
359.9713389941
  0
ARC
  5
39E
100
AcDbEntity
  8
0
100
AcDbCircle
 62
9
  6
CONTINUOUS
 10
35.8356187093
 20
4.4075028944
 40
24.3132126471
100
AcDbArc
 50
181.044039394
 51
182.078348983
  0
ARC
  5
39F
100
AcDbEntity
  8
0
100
AcDbCircle
 62
9
  6
CONTINUOUS
 10
11.1634914674
 20
11.8690442189
 40
0.1185488436
100
AcDbArc
 50
43.4046831746
 51
46.595316864
  0
ARC
  5
3A0
100
AcDbEntity
  8
0
100
AcDbCircle
 62
9
  6
CONTINUOUS
 10
11.395894417
 20
12.1014520046
 40
0.1184936625
100
AcDbArc
 50
44.9983464796
 51
46.5944058157
  0
ARC
  5
3A1
100
AcDbEntity
  8
0
100
AcDbCircle
 62
9
  6
CONTINUOUS
 10
11.3964668473
 20
12.1019991996
 40
0.1177019687
100
AcDbArc
 50
43.4002261194
 51
45.0070216242
  0
ARC
  5
3A2
100
AcDbEntity
  8
0
100
AcDbCircle
 62
9
  6
CONTINUOUS
 10
14.1589845623
 20
12.6412083467
 40
0.0964740678
100
AcDbArc
 50
132.6127812286
 51
137.3911974634
  0
ARC
  5
3A3
100
AcDbEntity
  8
0
100
AcDbCircle
 62
9
  6
CONTINUOUS
 10
11.7302745446
 20
12.8326928019
 40
0.0615011938
100
AcDbArc
 50
47.1471993913
 51
49.5286466941
  0
ARC
  5
3A4
100
AcDbEntity
  8
0
100
AcDbCircle
 62
9
  6
CONTINUOUS
 10
11.7277972816
 20
12.8492500562
 40
0.0577401929
100
AcDbArc
 50
3.5413678271
 51
13.4676065396
  0
ARC
  5
3A5
100
AcDbEntity
  8
0
100
AcDbCircle
 62
9
  6
CONTINUOUS
 10
12.2882321586
 20
12.9876397046
 40
0.0570148753
100
AcDbArc
 50
6.4791997734
 51
83.368591306
  0
ARC
  5
3A6
100
AcDbEntity
  8
0
100
AcDbCircle
 62
9
  6
CONTINUOUS
 10
11.7308588757
 20
12.8494613189
 40
0.0546713998
100
AcDbArc
 50
358.8402891668
 51
3.5185767779
  0
ARC
  5
3A7
100
AcDbEntity
  8
0
100
AcDbCircle
 62
9
  6
CONTINUOUS
 10
11.7359028719
 20
12.8491057553
 40
0.0450677772
100
AcDbArc
 50
76.6822979817
 51
89.9658429757
  0
ARC
  5
3A8
100
AcDbEntity
  8
0
100
AcDbCircle
 62
7
  6
CONTINUOUS
 10
12.2697877518
 20
12.971246861
 40
0.0359672661
100
AcDbArc
 50
19.3882244094
 51
23.1981829926
  0
ARC
  5
3A9
100
AcDbEntity
  8
0
100
AcDbCircle
 62
7
  6
CONTINUOUS
 10
12.2708877605
 20
12.9717093052
 40
0.0347740339
100
AcDbArc
 50
23.2117808692
 51
26.9169010441
  0
ARC
  5
3AA
100
AcDbEntity
  8
0
100
AcDbCircle
 62
7
  6
CONTINUOUS
 10
12.2714512382
 20
12.9719969542
 40
0.034141362
100
AcDbArc
 50
27.261373451
 51
30.3478087455
  0
ARC
  5
3AB
100
AcDbEntity
  8
0
100
AcDbCircle
 62
7
  6
CONTINUOUS
 10
12.262030098
 20
12.9877372143
 40
0.0232232086
100
AcDbArc
 50
27.4936140619
 51
31.4865492093
  0
ARC
  5
3AC
100
AcDbEntity
  8
0
100
AcDbCircle
 62
7
  6
CONTINUOUS
 10
13.91765675
 20
12.8825326757
 40
0.02
100
AcDbArc
 50
90.0286597767
 51
179.9713403663
  0
ARC
  5
3AD
100
AcDbEntity
  8
0
100
AcDbCircle
 62
7
  6
CONTINUOUS
 10
14.5393032911
 20
12.0128710898
 40
0.02
100
AcDbArc
 50
90.0
 51
147.9946120741
  0
ARC
  5
3AE
100
AcDbEntity
  8
0
100
AcDbCircle
 62
7
  6
CONTINUOUS
 10
14.4482183383
 20
11.8671351653
 40
0.02
100
AcDbArc
 50
147.9946167887
 51
180.0
  0
ARC
  5
3AF
100
AcDbEntity
  8
0
100
AcDbCircle
 62
7
  6
CONTINUOUS
 10
11.4773183383
 20
12.1828710898
 40
0.02
100
AcDbArc
 50
0.0
 51
90.0
  0
ARC
  5
3B0
100
AcDbEntity
  8
0
100
AcDbCircle
 62
9
  6
CONTINUOUS
 10
14.5403531065
 20
12.0147130078
 40
0.0181580832
100
AcDbArc
 50
90.0209268886
 51
93.2186376462
  0
ARC
  5
3B1
100
AcDbEntity
  8
0
100
AcDbCircle
 62
9
  6
CONTINUOUS
 10
12.9510437202
 20
14.2797449136
 40
2.9965825788
100
AcDbArc
 50
208.2219167436
 51
208.3884170457
  0
ARC
  5
3B2
100
AcDbEntity
  8
0
100
AcDbCircle
 62
7
  6
CONTINUOUS
 10
12.4864589806
 20
13.1868710898
 40
0.06
100
AcDbArc
 50
0.0
 51
90.0
  0
ARC
  5
3B3
100
AcDbEntity
  8
0
100
AcDbCircle
 62
9
  6
CONTINUOUS
 10
15.0163719324
 20
12.0128972968
 40
0.4768277145
100
AcDbArc
 50
179.0954311383
 51
180.0031490443
  0
ARC
  5
3B4
100
AcDbEntity
  8
0
100
AcDbCircle
 62
9
  6
CONTINUOUS
 10
14.7499209509
 20
11.8773895524
 40
0.3204146423
100
AcDbArc
 50
184.2083191447
 51
185.4631241353
  0
ARC
  5
3B5
100
AcDbEntity
  8
0
100
AcDbCircle
 62
9
  6
CONTINUOUS
 10
14.6556352621
 20
11.8706325654
 40
0.2258873873
100
AcDbArc
 50
182.7141497778
 51
184.2540259268
  0
ARC
  5
3B6
100
AcDbEntity
  8
0
100
AcDbCircle
 62
9
  6
CONTINUOUS
 10
15.9356564998
 20
12.6412053324
 40
0.0964732266
100
AcDbArc
 50
42.6128101158
 51
47.3911583908
  0
ARC
  5
3B7
100
AcDbEntity
  8
0
100
AcDbCircle
 62
9
  6
CONTINUOUS
 10
17.9343716753
 20
12.1079643298
 40
0.0200403614
100
AcDbArc
 50
28.8930199611
 51
87.4027641788
  0
ARC
  5
3B8
100
AcDbEntity
  8
0
100
AcDbCircle
 62
7
  6
CONTINUOUS
 10
16.1769799469
 20
12.8825326757
 40
0.02
100
AcDbArc
 50
0.0286610069
 51
89.9713402259
  0
ARC
  5
3B9
100
AcDbEntity
  8
0
100
AcDbCircle
 62
9
  6
CONTINUOUS
 10
15.047318426
 20
268.8305133809
 40
258.0724064756
100
AcDbArc
 50
269.7833114686
 51
270.2166886577
  0
ARC
  5
3BA
100
AcDbEntity
  8
0
100
AcDbCircle
 62
9
  6
CONTINUOUS
 10
15.0468065881
 20
247.9737932466
 40
237.1821866149
100
AcDbArc
 50
269.7697495739
 51
270.2304974179
  0
ARC
  5
3BB
100
AcDbEntity
  8
0
100
AcDbCircle
 62
9
  6
CONTINUOUS
 10
15.0473183704
 20
211.8770313763
 40
201.0587323042
100
AcDbArc
 50
269.7391141742
 51
270.2608856049
  0
ARC
  5
3BC
100
AcDbEntity
  8
0
100
AcDbCircle
 62
9
  6
CONTINUOUS
 10
272.1280519719
 20
11.7528710033
 40
258.0754978931
100
AcDbArc
 50
179.7833140911
 51
180.2166862648
  0
ARC
  5
3BD
100
AcDbEntity
  8
0
100
AcDbCircle
 62
9
  6
CONTINUOUS
 10
250.2854638061
 20
11.7532135007
 40
236.1994173021
100
AcDbArc
 50
179.7687506227
 51
180.2314157222
  0
ARC
  5
3BE
100
AcDbEntity
  8
0
100
AcDbCircle
 62
9
  6
CONTINUOUS
 10
215.1791063343
 20
11.7528711539
 40
201.0663712692
100
AcDbArc
 50
179.739138198
 51
180.2608614621
  0
LINE
  5
3BF
100
AcDbEntity
  8
0
100
AcDbLine
 62
7
  6
CONTINUOUS
 10
5.8973682938
 20
11.4560130023
 11
5.8976567321
 21
10.6231994993
  0
LINE
  5
3C0
100
AcDbEntity
  8
0
100
AcDbLine
 62
7
  6
CONTINUOUS
 10
5.8976567321
 20
12.8825426803
 11
5.8973682961
 21
12.0497437259
  0
SPLINE
  5
3C1
100
AcDbEntity
  8
0
100
AcDbSpline
 62
7
  6
CONTINUOUS
 70
0
 71
3
 72
9
 73
5
 74
0
 42
0.0000001
 43
0.0000001
 44
0.0000000001
 40
0.0
 40
0.0
 40
0.0
 40
0.0
 40
0.5000000013
 40
1.0
 40
1.0
 40
1.0
 40
1.0
 10
5.9176467255
 20
10.6032095064
 30
0.0
 10
6.2941630422
 20
10.6030211701
 30
0.0
 10
7.04731834
 20
10.6027715015
 30
0.0
 10
7.8004736233
 20
10.6030211701
 30
0.0
 10
8.1769899307
 20
10.6032095064
 30
0.0
  0
SPLINE
  5
3C2
100
AcDbEntity
  8
0
100
AcDbSpline
 62
7
  6
CONTINUOUS
 70
0
 71
3
 72
9
 73
5
 74
0
 42
0.0000001
 43
0.0000001
 44
0.0000000001
 40
0.0
 40
0.0
 40
0.0
 40
0.0
 40
0.5
 40
1.0
 40
1.0
 40
1.0
 40
1.0
 10
8.1969799241
 20
10.6231994998
 30
0.0
 10
8.1971682594
 20
10.9997158083
 30
0.0
 10
8.1974179243
 20
11.7528710898
 30
0.0
 10
8.1971682594
 20
12.5060263713
 30
0.0
 10
8.1969799241
 20
12.8825426798
 30
0.0
  0
SPLINE
  5
3C3
100
AcDbEntity
  8
0
100
AcDbSpline
 62
7
  6
CONTINUOUS
 70
0
 71
3
 72
9
 73
5
 74
0
 42
0.0000001
 43
0.0000001
 44
0.0000000001
 40
0.0
 40
0.0
 40
0.0
 40
0.0
 40
0.4999999987
 40
1.0
 40
1.0
 40
1.0
 40
1.0
 10
8.1769899307
 20
12.9025326732
 30
0.0
 10
7.8004736233
 20
12.9027210095
 30
0.0
 10
7.04731834
 20
12.902970678
 30
0.0
 10
6.2941630422
 20
12.9027210095
 30
0.0
 10
5.9176467255
 20
12.9025326732
 30
0.0
  0
LINE
  5
3C4
100
AcDbEntity
  8
0
100
AcDbLine
 62
7
  6
CONTINUOUS
 10
4.1604323184
 20
11.3777387746
 11
4.1617703477
 21
11.3777392746
  0
LINE
  5
3C5
100
AcDbEntity
  8
0
100
AcDbLine
 62
7
  6
CONTINUOUS
 10
4.1617703477
 20
11.3777392746
 11
4.1632148552
 21
11.3777461721
  0
LINE
  5
3C6
100
AcDbEntity
  8
0
100
AcDbLine
 62
7
  6
CONTINUOUS
 10
4.1409992482
 20
12.1265335937
 11
4.1594246271
 21
12.1247324211
  0
LINE
  5
3C7
100
AcDbEntity
  8
0
100
AcDbLine
 62
7
  6
CONTINUOUS
 10
4.1632148508
 20
12.1279960074
 11
4.1604323159
 21
12.1280034049
  0
LINE
  5
3C8
100
AcDbEntity
  8
0
100
AcDbLine
 62
9
  6
CONTINUOUS
 10
6.1318362688
 20
12.685423679
 11
6.1218578742
 21
12.6982554419
  0
LINE
  5
3C9
100
AcDbEntity
  8
0
100
AcDbLine
 62
9
  6
CONTINUOUS
 10
6.7506683202
 20
11.4761688441
 11
6.114768659
 21
10.8373908053
  0
LINE
  5
3CA
100
AcDbEntity
  8
0
100
AcDbLine
 62
9
  6
CONTINUOUS
 10
7.9926621632
 20
12.6784808028
 11
8.0066617469
 21
12.7065339878
  0
SPLINE
  5
3CB
100
AcDbEntity
  8
0
100
AcDbSpline
 62
9
  6
CONTINUOUS
 70
0
 71
3
 72
16
 73
12
 74
0
 42
0.0000001
 43
0.0000001
 44
0.0000000001
 40
0.0
 40
0.0
 40
0.0
 40
0.0
 40
0.0330667234
 40
0.0573851929
 40
0.0882440159
 40
0.1708951202
 40
0.2822549879
 40
0.4221983781
 40
0.5895321676
 40
0.7826869286
 40
1.0
 40
1.0
 40
1.0
 40
1.0
 10
6.4472207247
 20
12.0328666272
 30
0.0
 10
6.4472877385
 20
12.0328669548
 30
0.0
 10
6.4473957228
 20
12.032787955
 30
0.0
 10
6.4474927322
 20
12.0326412304
 30
0.0
 10
6.4476167277
 20
12.0323885911
 30
0.0
 10
6.447752471
 20
12.0319526345
 30
0.0
 10
6.4478976193
 20
12.031291022
 30
0.0
 10
6.4480290365
 20
12.030452503
 30
0.0
 10
6.4481501587
 20
12.0294454424
 30
0.0
 10
6.4482613691
 20
12.0282796504
 30
0.0
 10
6.4483264031
 20
12.0274502943
 30
0.0
 10
6.4483583367
 20
12.0270110368
 30
0.0
  0
SPLINE
  5
3CC
100
AcDbEntity
  8
0
100
AcDbSpline
 62
9
  6
CONTINUOUS
 70
0
 71
3
 72
9
 73
5
 74
0
 42
0.0000001
 43
0.0000001
 44
0.0000000001
 40
0.0
 40
0.0
 40
0.0
 40
0.0
 40
0.4590570417
 40
1.0
 40
1.0
 40
1.0
 40
1.0
 10
6.4483583367
 20
12.0270110368
 30
0.0
 10
6.4485153691
 20
12.024850996
 30
0.0
 10
6.4487374097
 20
12.0201369686
 30
0.0
 10
6.4488114425
 20
12.0154191566
 30
0.0
 10
6.4488183174
 20
12.0128671028
 30
0.0
  0
LINE
  5
3CD
100
AcDbEntity
  8
0
100
AcDbLine
 62
9
  6
CONTINUOUS
 10
7.9728961695
 20
12.6981988211
 11
8.0009673467
 21
12.7122092723
  0
LINE
  5
3CE
100
AcDbEntity
  8
0
100
AcDbLine
 62
9
  6
CONTINUOUS
 10
6.1129562629
 20
12.0345193704
 11
6.1129697687
 21
12.04312687
  0
LINE
  5
3CF
100
AcDbEntity
  8
0
100
AcDbLine
 62
9
  6
CONTINUOUS
 10
6.1129697687
 20
12.04312687
 11
6.1148166993
 21
12.6683487085
  0
LINE
  5
3D0
100
AcDbEntity
  8
0
100
AcDbLine
 62
9
  6
CONTINUOUS
 10
7.992698096
 20
10.8274127002
 11
7.9798681508
 21
10.8373876073
  0
LINE
  5
3D1
100
AcDbEntity
  8
0
100
AcDbLine
 62
9
  6
CONTINUOUS
 10
6.0936584077
 20
10.7935284189
 11
6.1218286983
 21
10.80758728
  0
LINE
  5
3D2
100
AcDbEntity
  8
0
100
AcDbLine
 62
9
  6
CONTINUOUS
 10
6.1218286983
 20
10.80758728
 11
6.1220833548
 21
10.8077143713
  0
LINE
  5
3D3
100
AcDbEntity
  8
0
100
AcDbLine
 62
9
  6
CONTINUOUS
 10
6.7513499601
 20
12.0288426156
 11
6.1147697299
 21
12.6683517209
  0
SPLINE
  5
3D4
100
AcDbEntity
  8
0
100
AcDbSpline
 62
9
  6
CONTINUOUS
 70
0
 71
3
 72
14
 73
10
 74
0
 42
0.0000001
 43
0.0000001
 44
0.0000000001
 40
0.0
 40
0.0
 40
0.0
 40
0.0
 40
0.1202928988
 40
0.2480408596
 40
0.3798990614
 40
0.512506061
 40
0.7690755152
 40
0.8891315188
 40
1.0
 40
1.0
 40
1.0
 40
1.0
 10
6.1147697299
 20
12.6683517209
 30
0.0
 10
6.115030708
 20
12.6693260569
 30
0.0
 10
6.1157367994
 20
12.671291944
 30
0.0
 10
6.1172049786
 20
12.6741274908
 30
0.0
 10
6.1190687246
 20
12.6768479398
 30
0.0
 10
6.121974617
 20
12.6801241385
 30
0.0
 10
6.125438637
 20
12.6827174904
 30
0.0
 10
6.1291053648
 20
12.6845375702
 30
0.0
 10
6.130940049
 20
12.6851794023
 30
0.0
 10
6.1318380522
 20
12.6854199262
 30
0.0
  0
LINE
  5
3D5
100
AcDbEntity
  8
0
100
AcDbLine
 62
9
  6
CONTINUOUS
 10
7.9729275237
 20
10.8075274865
 11
8.0009807506
 21
10.7935278384
  0
LINE
  5
3D6
100
AcDbEntity
  8
0
100
AcDbLine
 62
9
  6
CONTINUOUS
 10
7.9924736412
 20
10.8275840959
 11
7.9925817413
 21
10.8273802211
  0
LINE
  5
3D7
100
AcDbEntity
  8
0
100
AcDbLine
 62
9
  6
CONTINUOUS
 10
7.9925817413
 20
10.8273802211
 11
8.0066563613
 21
10.7992219453
  0
SPLINE
  5
3D8
100
AcDbEntity
  8
0
100
AcDbSpline
 62
9
  6
CONTINUOUS
 70
0
 71
3
 72
9
 73
5
 74
0
 42
0.0000001
 43
0.0000001
 44
0.0000000001
 40
0.0
 40
0.0
 40
0.0
 40
0.0
 40
0.4880422023
 40
1.0
 40
1.0
 40
1.0
 40
1.0
 10
4.1631330787
 20
11.3777455852
 30
0.0
 10
4.1617960812
 20
11.3777393316
 30
0.0
 10
4.1590497801
 20
11.3780573261
 30
0.0
 10
4.1564319267
 20
11.3789383017
 30
0.0
 10
4.1551577714
 20
11.3795244916
 30
0.0
  0
SPLINE
  5
3D9
100
AcDbEntity
  8
0
100
AcDbSpline
 62
9
  6
CONTINUOUS
 70
0
 71
3
 72
11
 73
7
 74
0
 42
0.0000001
 43
0.0000001
 44
0.0000000001
 40
0.0
 40
0.0
 40
0.0
 40
0.0
 40
0.2516804122
 40
0.5055052913
 40
0.7575168235
 40
1.0
 40
1.0
 40
1.0
 40
1.0
 10
4.1551577714
 20
11.3795244916
 30
0.0
 10
4.1538668269
 20
11.3801184055
 30
0.0
 10
4.1513920938
 20
11.3816019325
 30
0.0
 10
4.1483356436
 20
11.384645805
 30
0.0
 10
4.146001078
 20
11.388197584
 30
0.0
 10
4.1449414053
 20
11.3908057746
 30
0.0
 10
4.1445696847
 20
11.3921234278
 30
0.0
  0
LINE
  5
3DA
100
AcDbEntity
  8
0
100
AcDbLine
 62
9
  6
CONTINUOUS
 10
6.1019888305
 20
10.8272913652
 11
6.0879783729
 21
10.7992151895
  0
LINE
  5
3DB
100
AcDbEntity
  8
0
100
AcDbLine
 62
9
  6
CONTINUOUS
 10
6.1148201423
 20
10.8373910169
 11
6.1129731695
 21
11.4626231751
  0
LINE
  5
3DC
100
AcDbEntity
  8
0
100
AcDbLine
 62
9
  6
CONTINUOUS
 10
6.1129731695
 20
11.4626231751
 11
6.1129594901
 21
11.4713430025
  0
LINE
  5
3DD
100
AcDbEntity
  8
0
100
AcDbLine
 62
9
  6
CONTINUOUS
 10
7.979871517
 20
12.6683528819
 11
7.9927035474
 21
12.6783312822
  0
LINE
  5
3DE
100
AcDbEntity
  8
0
100
AcDbLine
 62
9
  6
CONTINUOUS
 10
6.121710147
 20
12.6982140274
 11
6.0936573165
 21
12.7122138874
  0
LINE
  5
3DF
100
AcDbEntity
  8
0
100
AcDbLine
 62
9
  6
CONTINUOUS
 10
6.1019901512
 20
12.6784493008
 11
6.0879804845
 21
12.7065206242
  0
SPLINE
  5
3E0
100
AcDbEntity
  8
0
100
AcDbSpline
 62
9
  6
CONTINUOUS
 70
0
 71
3
 72
15
 73
11
 74
0
 42
0.0000001
 43
0.0000001
 44
0.0000000001
 40
0.0
 40
0.0
 40
0.0
 40
0.0
 40
0.0483206189
 40
0.1095033829
 40
0.1911075213
 40
0.2978462964
 40
0.4325614136
 40
0.595219625
 40
0.7847763236
 40
1.0
 40
1.0
 40
1.0
 40
1.0
 10
4.1632189115
 20
11.3777461999
 30
0.0
 10
4.163320509
 20
11.3777472035
 30
0.0
 10
4.1635508068
 20
11.3778181528
 30
0.0
 10
4.1638565634
 20
11.3780890021
 30
0.0
 10
4.1641564546
 20
11.3785229154
 30
0.0
 10
4.1644519894
 20
11.3791366169
 30
0.0
 10
4.1647399855
 20
11.3799370292
 30
0.0
 10
4.1650185916
 20
11.3809228828
 30
0.0
 10
4.1652823789
 20
11.3820869208
 30
0.0
 10
4.1654354134
 20
11.382924421
 30
0.0
 10
4.1655092481
 20
11.3833709026
 30
0.0
  0
SPLINE
  5
3E1
100
AcDbEntity
  8
0
100
AcDbSpline
 62
9
  6
CONTINUOUS
 70
0
 71
3
 72
11
 73
7
 74
0
 42
0.0000001
 43
0.0000001
 44
0.0000000001
 40
0.0
 40
0.0
 40
0.0
 40
0.0
 40
0.2241320035
 40
0.4765385256
 40
0.7403352718
 40
1.0
 40
1.0
 40
1.0
 40
1.0
 10
4.1655092481
 20
11.3833709026
 30
0.0
 10
4.1656844472
 20
11.3844303395
 30
0.0
 10
4.165970672
 20
11.3866970643
 30
0.0
 10
4.1662522021
 20
11.3902336844
 30
0.0
 10
4.1663989889
 20
11.3939488621
 30
0.0
 10
4.166416517
 20
11.396457182
 30
0.0
 10
4.1664054387
 20
11.397701197
 30
0.0
  0
LINE
  5
3E2
100
AcDbEntity
  8
0
100
AcDbLine
 62
9
  6
CONTINUOUS
 10
7.9727770026
 20
12.698251995
 11
7.9628022494
 21
12.6854225101
  0
LINE
  5
3E3
100
AcDbEntity
  8
0
100
AcDbLine
 62
9
  6
CONTINUOUS
 10
6.1147705459
 20
10.8373922768
 11
6.1019348034
 21
10.8274117528
  0
LINE
  5
3E4
100
AcDbEntity
  8
0
100
AcDbLine
 62
9
  6
CONTINUOUS
 10
6.1218612455
 20
10.8074913425
 11
6.1318362043
 21
10.8203211482
  0
LINE
  5
3E5
100
AcDbEntity
  8
0
100
AcDbLine
 62
9
  6
CONTINUOUS
 10
8.0066630979
 20
12.7065283651
 11
8.0401798905
 21
12.7288841509
  0
LINE
  5
3E6
100
AcDbEntity
  8
0
100
AcDbLine
 62
9
  6
CONTINUOUS
 10
8.0066563978
 20
10.7992219358
 11
8.0401752134
 21
10.7768641062
  0
SPLINE
  5
3E7
100
AcDbEntity
  8
0
100
AcDbSpline
 62
9
  6
CONTINUOUS
 70
0
 71
3
 72
15
 73
11
 74
0
 42
0.0000001
 43
0.0000001
 44
0.0000000001
 40
0.0
 40
0.0
 40
0.0
 40
0.0
 40
0.1154436547
 40
0.2392543303
 40
0.3684037686
 40
0.5000021427
 40
0.6316001829
 40
0.7607487076
 40
0.8845580224
 40
1.0
 40
1.0
 40
1.0
 40
1.0
 10
8.0401752134
 20
10.7768641062
 30
0.0
 10
8.0399120767
 20
10.7759478733
 30
0.0
 10
8.0392206488
 20
10.7740894561
 30
0.0
 10
8.0378113767
 20
10.7713860269
 30
0.0
 10
8.0360194874
 20
10.7687554511
 30
0.0
 10
8.0338800587
 20
10.7663105649
 30
0.0
 10
8.0314351122
 20
10.7641712165
 30
0.0
 10
8.0288044972
 20
10.7623794227
 30
0.0
 10
8.0261010502
 20
10.7609702552
 30
0.0
 10
8.0242426322
 20
10.7602789009
 30
0.0
 10
8.0233264031
 20
10.7600158013
 30
0.0
  0
LINE
  5
3E8
100
AcDbEntity
  8
0
100
AcDbLine
 62
9
  6
CONTINUOUS
 10
8.0009749659
 20
10.7935261849
 11
8.0233308877
 21
10.7600095045
  0
LINE
  5
3E9
100
AcDbEntity
  8
0
100
AcDbLine
 62
9
  6
CONTINUOUS
 10
6.1019374427
 20
12.6783288126
 11
6.1147682697
 21
12.6683532699
  0
LINE
  5
3EA
100
AcDbEntity
  8
0
100
AcDbLine
 62
9
  6
CONTINUOUS
 10
6.0936688117
 20
10.7935331376
 11
6.0713107598
 21
10.7600139708
  0
SPLINE
  5
3EB
100
AcDbEntity
  8
0
100
AcDbSpline
 62
9
  6
CONTINUOUS
 70
0
 71
3
 72
15
 73
11
 74
0
 42
0.0000001
 43
0.0000001
 44
0.0000000001
 40
0.0
 40
0.0
 40
0.0
 40
0.0
 40
0.1154430251
 40
0.2392532697
 40
0.3684024728
 40
0.5000008143
 40
0.6315990322
 40
0.7607478914
 40
0.8845576167
 40
1.0
 40
1.0
 40
1.0
 40
1.0
 10
6.0713107598
 20
10.7600139708
 30
0.0
 10
6.0703945151
 20
10.7602771004
 30
0.0
 10
6.0685360706
 20
10.7609685182
 30
0.0
 10
6.0658325975
 20
10.762377785
 30
0.0
 10
6.0632019734
 20
10.7641696807
 30
0.0
 10
6.0607570378
 20
10.7663091283
 30
0.0
 10
6.0586176431
 20
10.7687541064
 30
0.0
 10
6.0568258083
 20
10.7713847623
 30
0.0
 10
6.0554166072
 20
10.7740882556
 30
0.0
 10
6.0547252361
 20
10.7759467074
 30
0.0
 10
6.0544621304
 20
10.7768629535
 30
0.0
  0
LINE
  5
3EC
100
AcDbEntity
  8
0
100
AcDbLine
 62
9
  6
CONTINUOUS
 10
6.087976479
 20
10.7992169109
 11
6.05445724
 21
10.776859462
  0
LINE
  5
3ED
100
AcDbEntity
  8
0
100
AcDbLine
 62
9
  6
CONTINUOUS
 10
6.0862383764
 20
11.4711624099
 11
6.0862509584
 21
11.4618037246
  0
LINE
  5
3EE
100
AcDbEntity
  8
0
100
AcDbLine
 62
9
  6
CONTINUOUS
 10
6.0862509584
 20
11.4618037246
 11
6.0879762628
 21
10.7992172637
  0
LINE
  5
3EF
100
AcDbEntity
  8
0
100
AcDbLine
 62
9
  6
CONTINUOUS
 10
6.0544644779
 20
10.7768689503
 11
5.8995043217
 21
10.6213912984
  0
LINE
  5
3F0
100
AcDbEntity
  8
0
100
AcDbLine
 62
9
  6
CONTINUOUS
 10
5.8995043217
 20
10.6213912984
 11
5.8979436303
 21
10.6198257059
  0
SPLINE
  5
3F1
100
AcDbEntity
  8
0
100
AcDbSpline
 62
9
  6
CONTINUOUS
 70
0
 71
3
 72
14
 73
10
 74
0
 42
0.0000001
 43
0.0000001
 44
0.0000000001
 40
0.0
 40
0.0
 40
0.0
 40
0.0
 40
0.1108685409
 40
0.2309248771
 40
0.4874951052
 40
0.6201023095
 40
0.7519604678
 40
0.8797080152
 40
1.0
 40
1.0
 40
1.0
 40
1.0
 10
6.131838199
 20
10.8203224233
 30
0.0
 10
6.1309401502
 20
10.8205629536
 30
0.0
 10
6.1291053707
 20
10.8212048115
 30
0.0
 10
6.1254384536
 20
10.823024981
 30
0.0
 10
6.1219742604
 20
10.8256184766
 30
0.0
 10
6.1190682474
 20
10.8288948649
 30
0.0
 10
6.117204442
 20
10.831615466
 30
0.0
 10
6.1157362363
 20
10.8344511618
 30
0.0
 10
6.1150301487
 20
10.836417147
 30
0.0
 10
6.1147691801
 20
10.8373915285
 30
0.0
  0
LINE
  5
3F2
100
AcDbEntity
  8
0
100
AcDbLine
 62
9
  6
CONTINUOUS
 10
6.0527392171
 20
11.4708092949
 11
6.0527515933
 21
11.4607765907
  0
LINE
  5
3F3
100
AcDbEntity
  8
0
100
AcDbLine
 62
9
  6
CONTINUOUS
 10
6.0527515933
 20
11.4607765907
 11
6.0544094728
 21
10.7768644867
  0
LINE
  5
3F4
100
AcDbEntity
  8
0
100
AcDbLine
 62
9
  6
CONTINUOUS
 10
5.9142652266
 20
10.6034989768
 11
5.9158315881
 21
10.6050594032
  0
LINE
  5
3F5
100
AcDbEntity
  8
0
100
AcDbLine
 62
9
  6
CONTINUOUS
 10
5.9158315881
 20
10.6050594032
 11
6.0713092039
 21
10.7600151821
  0
SPLINE
  5
3F6
100
AcDbEntity
  8
0
100
AcDbSpline
 62
9
  6
CONTINUOUS
 70
0
 71
3
 72
11
 73
7
 74
0
 42
0.0000001
 43
0.0000001
 44
0.0000000001
 40
0.0
 40
0.0
 40
0.0
 40
0.0
 40
0.2519480766
 40
0.491106464
 40
0.7353983268
 40
1.0
 40
1.0
 40
1.0
 40
1.0
 10
7.5722933515
 20
12.0234710686
 30
0.0
 10
7.5724150463
 20
12.0232763564
 30
0.0
 10
7.5726095423
 20
12.0228664478
 30
0.0
 10
7.5727173597
 20
12.0221958485
 30
0.0
 10
7.5726332753
 20
12.0215114784
 30
0.0
 10
7.5724674744
 20
12.0210740349
 30
0.0
 10
7.5723623694
 20
12.020857
 30
0.0
  0
LINE
  5
3F7
100
AcDbEntity
  8
0
100
AcDbLine
 62
9
  6
CONTINUOUS
 10
8.0233240865
 20
10.7600138622
 11
8.1787980185
 21
10.605057138
  0
LINE
  5
3F8
100
AcDbEntity
  8
0
100
AcDbLine
 62
9
  6
CONTINUOUS
 10
8.1787980185
 20
10.605057138
 11
8.1803635867
 21
10.6034964694
  0
LINE
  5
3F9
100
AcDbEntity
  8
0
100
AcDbLine
 62
9
  6
CONTINUOUS
 10
4.1427605264
 20
11.7528710767
 11
4.1428026007
 21
12.0871778449
  0
SPLINE
  5
3FA
100
AcDbEntity
  8
0
100
AcDbSpline
 62
9
  6
CONTINUOUS
 70
0
 71
3
 72
9
 73
5
 74
0
 42
0.0000001
 43
0.0000001
 44
0.0000000001
 40
0.0
 40
0.0
 40
0.0
 40
0.0
 40
0.501925295
 40
1.0
 40
1.0
 40
1.0
 40
1.0
 10
4.1428026109
 20
12.087177845
 30
0.0
 10
4.14236213
 20
12.0916045082
 30
0.0
 10
4.1422419274
 20
12.1005137447
 30
0.0
 10
4.1435681948
 20
12.1093194521
 30
0.0
 10
4.1445696826
 20
12.1136187455
 30
0.0
  0
LINE
  5
3FB
100
AcDbEntity
  8
0
100
AcDbLine
 62
9
  6
CONTINUOUS
 10
4.1633027615
 20
11.7528710898
 11
4.1633274181
 21
12.0872049776
  0
SPLINE
  5
3FC
100
AcDbEntity
  8
0
100
AcDbSpline
 62
9
  6
CONTINUOUS
 70
0
 71
3
 72
9
 73
5
 74
0
 42
0.0000001
 43
0.0000001
 44
0.0000000001
 40
0.0
 40
0.0
 40
0.0
 40
0.0
 40
0.2490338764
 40
1.0
 40
1.0
 40
1.0
 40
1.0
 10
4.1633221607
 20
12.0872049794
 30
0.0
 10
4.1633242255
 20
12.0889567897
 30
0.0
 10
4.1636063092
 20
12.0959896624
 30
0.0
 10
4.1649276133
 20
12.1029692995
 30
0.0
 10
4.1664054249
 20
12.1080409992
 30
0.0
  0
SPLINE
  5
3FD
100
AcDbEntity
  8
0
100
AcDbSpline
 62
9
  6
CONTINUOUS
 70
0
 71
3
 72
21
 73
17
 74
0
 42
0.0000001
 43
0.0000001
 44
0.0000000001
 40
0.0
 40
0.0
 40
0.0
 40
0.0
 40
0.0626936432
 40
0.1253879739
 40
0.1880776787
 40
0.2507591638
 40
0.3134287018
 40
0.3760814088
 40
0.4387124793
 40
0.5013160136
 40
0.5638847897
 40
0.6264106199
 40
0.7512927174
 40
0.8136247225
 40
0.8758649367
 40
1.0
 40
1.0
 40
1.0
 40
1.0
 10
6.448818338
 20
12.0128671029
 30
0.0
 10
6.401072045
 20
12.0125634672
 30
0.0
 10
6.3055725456
 20
12.0127546365
 30
0.0
 10
6.1623486418
 20
12.015105612
 30
0.0
 10
6.0191747184
 20
12.019228003
 30
0.0
 10
5.8760723974
 20
12.0248660556
 30
0.0
 10
5.7330533051
 20
12.0317444495
 30
0.0
 10
5.5901231145
 20
12.0395899492
 30
0.0
 10
5.4472813596
 20
12.0480926512
 30
0.0
 10
5.3045247992
 20
12.056939344
 30
0.0
 10
5.161854463
 20
12.0658817963
 30
0.0
 10
4.9718337573
 20
12.0775903508
 30
0.0
 10
4.7819375106
 20
12.0884209537
 30
0.0
 10
4.5921561086
 20
12.0972384437
 30
0.0
 10
4.402873805
 20
12.1043375796
 30
0.0
 10
4.2609440171
 20
12.1073889958
 30
0.0
 10
4.1664054373
 20
12.108040997
 30
0.0
  0
SPLINE
  5
3FE
100
AcDbEntity
  8
0
100
AcDbSpline
 62
9
  6
CONTINUOUS
 70
0
 71
3
 72
19
 73
15
 74
0
 42
0.0000001
 43
0.0000001
 44
0.0000000001
 40
0.0
 40
0.0
 40
0.0
 40
0.0
 40
0.1784150274
 40
0.3597532671
 40
0.5335997172
 40
0.688621522
 40
0.7556759513
 40
0.8147540093
 40
0.8654643017
 40
0.9074720478
 40
0.9407340062
 40
0.9661130295
 40
0.9850795064
 40
1.0
 40
1.0
 40
1.0
 40
1.0
 10
4.166405437
 20
12.1080409613
 30
0.0
 10
4.1664163899
 20
12.10927085
 30
0.0
 10
4.1663994596
 20
12.1117512605
 30
0.0
 10
4.1662564233
 20
12.1154277703
 30
0.0
 10
4.1659810469
 20
12.1189350134
 30
0.0
 10
4.1656448576
 20
12.1216453439
 30
0.0
 10
4.1653031629
 20
12.1235536517
 30
0.0
 10
4.1650377089
 20
12.1247439448
 30
0.0
 10
4.1647568178
 20
12.1257526102
 30
0.0
 10
4.1644661002
 20
12.1265719588
 30
0.0
 10
4.1641675789
 20
12.1272003959
 30
0.0
 10
4.1638644185
 20
12.1276446149
 30
0.0
 10
4.1635553445
 20
12.1279220435
 30
0.0
 10
4.1633217702
 20
12.1279949756
 30
0.0
 10
4.163218918
 20
12.1279959931
 30
0.0
  0
SPLINE
  5
3FF
100
AcDbEntity
  8
0
100
AcDbSpline
 62
9
  6
CONTINUOUS
 70
0
 71
3
 72
14
 73
10
 74
0
 42
0.0000001
 43
0.0000001
 44
0.0000000001
 40
0.0
 40
0.0
 40
0.0
 40
0.0
 40
0.2452391035
 40
0.3724518582
 40
0.5002210724
 40
0.6274736542
 40
0.7538100557
 40
0.8784352939
 40
1.0
 40
1.0
 40
1.0
 40
1.0
 10
4.1445696921
 20
12.1136186961
 30
0.0
 10
4.1450698741
 20
12.1153917349
 30
0.0
 10
4.146235108
 20
12.1179856919
 30
0.0
 10
4.1484096047
 20
12.1210581912
 30
0.0
 10
4.1503838341
 20
12.1231588394
 30
0.0
 10
4.1526566572
 20
12.1249227294
 30
0.0
 10
4.155158427
 20
12.1262926313
 30
0.0
 10
4.1577880651
 20
12.1272746843
 30
0.0
 10
4.159600959
 20
12.1276755546
 30
0.0
 10
4.1605045736
 20
12.127807493
 30
0.0
  0
LINE
  5
400
100
AcDbEntity
  8
0
100
AcDbLine
 62
9
  6
CONTINUOUS
 10
4.1605045736
 20
12.127807493
 11
4.1631304577
 21
12.1279966064
  0
SPLINE
  5
401
100
AcDbEntity
  8
0
100
AcDbSpline
 62
9
  6
CONTINUOUS
 70
0
 71
3
 72
14
 73
10
 74
0
 42
0.0000001
 43
0.0000001
 44
0.0000000001
 40
0.0
 40
0.0
 40
0.0
 40
0.0
 40
0.31218828
 40
0.4719198509
 40
0.622688152
 40
0.7558168212
 40
0.8652431436
 40
0.9466412354
 40
1.0
 40
1.0
 40
1.0
 40
1.0
 10
4.1664054165
 20
12.1080409613
 30
0.0
 10
4.1641568633
 20
12.1087124577
 30
0.0
 10
4.1607488674
 20
12.109697918
 30
0.0
 10
4.1562347341
 20
12.1109354977
 30
0.0
 10
4.1530096578
 20
12.1117839299
 30
0.0
 10
4.1501404108
 20
12.1124972157
 30
0.0
 10
4.1477676651
 20
12.1130464907
 30
0.0
 10
4.1459693267
 20
12.1134129442
 30
0.0
 10
4.1449687172
 20
12.1135779506
 30
0.0
 10
4.1445697015
 20
12.1136186968
 30
0.0
  0
SPLINE
  5
402
100
AcDbEntity
  8
0
100
AcDbSpline
 62
9
  6
CONTINUOUS
 70
0
 71
3
 72
12
 73
8
 74
0
 42
0.0000001
 43
0.0000001
 44
0.0000000001
 40
0.0
 40
0.0
 40
0.0
 40
0.0
 40
0.3140952739
 40
0.5748333149
 40
0.7948011734
 40
0.8973377261
 40
1.0
 40
1.0
 40
1.0
 40
1.0
 10
4.1445696826
 20
12.1136187455
 30
0.0
 10
4.1442027817
 20
12.1139455087
 30
0.0
 10
4.1435646414
 20
12.1145847749
 30
0.0
 10
4.1428592457
 20
12.1156205206
 30
0.0
 10
4.1425807139
 20
12.1165120752
 30
0.0
 10
4.1425895606
 20
12.1171819057
 30
0.0
 10
4.142663612
 20
12.117497227
 30
0.0
 10
4.1427163958
 20
12.117648891
 30
0.0
  0
SPLINE
  5
403
100
AcDbEntity
  8
0
100
AcDbSpline
 62
9
  6
CONTINUOUS
 70
0
 71
3
 72
14
 73
10
 74
0
 42
0.0000001
 43
0.0000001
 44
0.0000000001
 40
0.0
 40
0.0
 40
0.0
 40
0.0
 40
0.2490001568
 40
0.3765256193
 40
0.5041771382
 40
0.6309045563
 40
0.7561952817
 40
0.8795416043
 40
1.0
 40
1.0
 40
1.0
 40
1.0
 10
4.1193152021
 20
12.1165921373
 30
0.0
 10
4.1201285592
 20
12.1180708037
 30
0.0
 10
4.1216754551
 20
12.1201463011
 30
0.0
 10
4.12417951
 20
12.1224784392
 30
0.0
 10
4.1262831912
 20
12.1239998784
 30
0.0
 10
4.1285573397
 20
12.1252207984
 30
0.0
 10
4.1309489549
 20
12.1261098042
 30
0.0
 10
4.1333892933
 20
12.1266853092
 30
0.0
 10
4.1350357731
 20
12.1268713668
 30
0.0
 10
4.1358510483
 20
12.1269143767
 30
0.0
  0
SPLINE
  5
404
100
AcDbEntity
  8
0
100
AcDbSpline
 62
9
  6
CONTINUOUS
 70
0
 71
3
 72
9
 73
5
 74
0
 42
0.0000001
 43
0.0000001
 44
0.0000000001
 40
0.0
 40
0.0
 40
0.0
 40
0.0
 40
0.2486265101
 40
1.0
 40
1.0
 40
1.0
 40
1.0
 10
3.9959572035
 20
11.6330119037
 30
0.0
 10
3.9959572035
 20
11.6324788061
 30
0.0
 10
3.9960481068
 20
11.6303353866
 30
0.0
 10
3.9964875528
 20
11.6282084697
 30
0.0
 10
3.9969945098
 20
11.6266792378
 30
0.0
  0
LINE
  5
405
100
AcDbEntity
  8
0
100
AcDbLine
 62
9
  6
CONTINUOUS
 10
3.9969945098
 20
11.6266792378
 11
3.9984347767
 21
11.623367482
  0
LINE
  5
406
100
AcDbEntity
  8
0
100
AcDbLine
 62
9
  6
CONTINUOUS
 10
8.1966905691
 20
10.6198179748
 11
8.1951300711
 21
10.6213844094
  0
LINE
  5
407
100
AcDbEntity
  8
0
100
AcDbLine
 62
9
  6
CONTINUOUS
 10
8.1951300711
 20
10.6213844094
 11
8.040174234
 21
10.7768624942
  0
LINE
  5
408
100
AcDbEntity
  8
0
100
AcDbLine
 62
9
  6
CONTINUOUS
 10
8.0401756507
 20
12.728877062
 11
8.1951323028
 21
12.8843507533
  0
LINE
  5
409
100
AcDbEntity
  8
0
100
AcDbLine
 62
9
  6
CONTINUOUS
 10
8.1951323028
 20
12.8843507533
 11
8.1966929631
 21
12.8859163129
  0
LINE
  5
40A
100
AcDbEntity
  8
0
100
AcDbLine
 62
9
  6
CONTINUOUS
 10
7.9627995326
 20
10.8203179118
 11
7.9727777208
 21
10.8074858956
  0
LINE
  5
40B
100
AcDbEntity
  8
0
100
AcDbLine
 62
9
  6
CONTINUOUS
 10
8.0009673988
 20
12.7122093138
 11
8.0233254827
 21
12.7457285132
  0
SPLINE
  5
40C
100
AcDbEntity
  8
0
100
AcDbSpline
 62
9
  6
CONTINUOUS
 70
0
 71
3
 72
11
 73
7
 74
0
 42
0.0000001
 43
0.0000001
 44
0.0000000001
 40
0.0
 40
0.0
 40
0.0
 40
0.0
 40
0.2646018281
 40
0.5088940018
 40
0.7480520397
 40
1.0
 40
1.0
 40
1.0
 40
1.0
 10
7.5723623695
 20
11.4848851794
 30
0.0
 10
7.5724674745
 20
11.4846681443
 30
0.0
 10
7.5726332756
 20
11.4842307006
 30
0.0
 10
7.5727173595
 20
11.4835463303
 30
0.0
 10
7.5726095422
 20
11.4828757311
 30
0.0
 10
7.5724150461
 20
11.4824658232
 30
0.0
 10
7.5722933515
 20
11.482271111
 30
0.0
  0
SPLINE
  5
40D
100
AcDbEntity
  8
0
100
AcDbSpline
 62
9
  6
CONTINUOUS
 70
0
 71
3
 72
15
 73
11
 74
0
 42
0.0000001
 43
0.0000001
 44
0.0000000001
 40
0.0
 40
0.0
 40
0.0
 40
0.0
 40
0.1154439589
 40
0.2392549202
 40
0.3684045773
 40
0.5000030549
 40
0.6316010541
 40
0.7607494063
 40
0.8845584292
 40
1.0
 40
1.0
 40
1.0
 40
1.0
 10
8.0233254827
 20
12.7457285132
 30
0.0
 10
8.0242417207
 20
12.7454653707
 30
0.0
 10
8.0261001473
 20
12.7447739291
 30
0.0
 10
8.0288035864
 20
12.7433646332
 30
0.0
 10
8.031434167
 20
12.7415727175
 30
0.0
 10
8.0338790513
 20
12.7394332617
 30
0.0
 10
8.0360183896
 20
12.7369882888
 30
0.0
 10
8.037810166
 20
12.7343576504
 30
0.0
 10
8.0392193103
 20
12.7316541845
 30
0.0
 10
8.039910646
 20
12.7297957565
 30
0.0
 10
8.0401737354
 20
12.7288795237
 30
0.0
  0
SPLINE
  5
40E
100
AcDbEntity
  8
0
100
AcDbSpline
 62
9
  6
CONTINUOUS
 70
0
 71
3
 72
9
 73
5
 74
0
 42
0.0000001
 43
0.0000001
 44
0.0000000001
 40
0.0
 40
0.0
 40
0.0
 40
0.0
 40
0.2433647068
 40
1.0
 40
1.0
 40
1.0
 40
1.0
 10
7.5723622754
 20
11.484884961
 30
0.0
 10
7.5721168114
 20
11.4843131297
 30
0.0
 10
7.5709889681
 20
11.4820161442
 30
0.0
 10
7.5694195344
 20
11.4799383754
 30
0.0
 10
7.5680505682
 20
11.4785712158
 30
0.0
  0
SPLINE
  5
40F
100
AcDbEntity
  8
0
100
AcDbSpline
 62
9
  6
CONTINUOUS
 70
0
 71
3
 72
9
 73
5
 74
0
 42
0.0000001
 43
0.0000001
 44
0.0000000001
 40
0.0
 40
0.0
 40
0.0
 40
0.0
 40
0.5006673573
 40
1.0
 40
1.0
 40
1.0
 40
1.0
 10
7.5680505682
 20
11.4785712158
 30
0.0
 10
7.5671481188
 20
11.4776699573
 30
0.0
 10
7.5651711011
 20
11.4760327566
 30
0.0
 10
7.5628965371
 20
11.4748425262
 30
0.0
 10
7.5617189372
 20
11.4743616116
 30
0.0
  0
SPLINE
  5
410
100
AcDbEntity
  8
0
100
AcDbSpline
 62
9
  6
CONTINUOUS
 70
0
 71
3
 72
9
 73
5
 74
0
 42
0.0000001
 43
0.0000001
 44
0.0000000001
 40
0.0
 40
0.0
 40
0.0
 40
0.0
 40
0.2553627371
 40
1.0
 40
1.0
 40
1.0
 40
1.0
 10
7.5617189372
 20
11.4743616116
 30
0.0
 10
7.5611990669
 20
11.4741493041
 30
0.0
 10
7.5591295051
 20
11.4734036924
 30
0.0
 10
7.5569379883
 20
11.4729914836
 30
0.0
 10
7.5553030789
 20
11.472899732
 30
0.0
  0
SPLINE
  5
411
100
AcDbEntity
  8
0
100
AcDbSpline
 62
9
  6
CONTINUOUS
 70
0
 71
3
 72
18
 73
14
 74
0
 42
0.0000001
 43
0.0000001
 44
0.0000000001
 40
0.0
 40
0.0
 40
0.0
 40
0.0
 40
0.2040723238
 40
0.3917238786
 40
0.559361666
 40
0.7037133279
 40
0.8220494088
 40
0.8706324575
 40
0.9117611246
 40
0.9453042476
 40
0.9711827856
 40
0.9893640635
 40
1.0
 40
1.0
 40
1.0
 40
1.0
 10
7.5550330348
 20
11.4853171802
 30
0.0
 10
7.555019187
 20
11.4844694769
 30
0.0
 10
7.5549873557
 20
11.4828423586
 30
0.0
 10
7.5549244865
 20
11.4805193261
 30
0.0
 10
7.5548496637
 20
11.4784448742
 30
0.0
 10
7.5547642422
 20
11.4766591131
 30
0.0
 10
7.5546822142
 20
11.4753683925
 30
0.0
 10
7.5546096789
 20
11.4745071423
 30
0.0
 10
7.5545575338
 20
11.4739975578
 30
0.0
 10
7.5545042277
 20
11.4735835777
 30
0.0
 10
7.5544515094
 20
11.4732643919
 30
0.0
 10
7.554398152
 20
11.4730453673
 30
0.0
 10
7.554356873
 20
11.472929259
 30
0.0
 10
7.5543289899
 20
11.4728949805
 30
0.0
  0
SPLINE
  5
412
100
AcDbEntity
  8
0
100
AcDbSpline
 62
7
  6
CONTINUOUS
 70
0
 71
3
 72
15
 73
11
 74
0
 42
0.0000001
 43
0.0000001
 44
0.0000000001
 40
0.0
 40
0.0
 40
0.0
 40
0.0
 40
0.0283567026
 40
0.0515125423
 40
0.08170969
 40
0.1191968094
 40
0.1640622641
 40
0.275950178
 40
0.5858039311
 40
1.0
 40
1.0
 40
1.0
 40
1.0
 10
6.4488184131
 20
11.4728710897
 30
0.0
 10
6.4488753601
 20
11.4728710079
 30
0.0
 10
6.4489624441
 20
11.4729589664
 30
0.0
 10
6.4490375474
 20
11.4730986263
 30
0.0
 10
6.4491076013
 20
11.47326951
 30
0.0
 10
6.449175458
 20
11.4734845248
 30
0.0
 10
6.4492738379
 20
11.4738624539
 30
0.0
 10
6.4494538035
 20
11.4747824566
 30
0.0
 10
6.4496637423
 20
11.4764494357
 30
0.0
 10
6.4497904183
 20
11.4778979767
 30
0.0
 10
6.4498526271
 20
11.4787274518
 30
0.0
  0
SPLINE
  5
413
100
AcDbEntity
  8
0
100
AcDbSpline
 62
7
  6
CONTINUOUS
 70
0
 71
3
 72
9
 73
5
 74
0
 42
0.0000001
 43
0.0000001
 44
0.0000000001
 40
0.0
 40
0.0
 40
0.0
 40
0.0
 40
0.459066108
 40
1.0
 40
1.0
 40
1.0
 40
1.0
 10
6.4498526271
 20
11.4787274518
 30
0.0
 10
6.4500145962
 20
11.4808871059
 30
0.0
 10
6.450231839
 20
11.4856014517
 30
0.0
 10
6.4503022469
 20
11.4903191198
 30
0.0
 10
6.4503048445
 20
11.4928710623
 30
0.0
  0
SPLINE
  5
414
100
AcDbEntity
  8
0
100
AcDbSpline
 62
9
  6
CONTINUOUS
 70
0
 71
3
 72
15
 73
11
 74
0
 42
0.0000001
 43
0.0000001
 44
0.0000000001
 40
0.0
 40
0.0
 40
0.0
 40
0.0
 40
0.0242033079
 40
0.0442180631
 40
0.0708258625
 40
0.1045753107
 40
0.1458764283
 40
0.2524807492
 40
0.5647528762
 40
1.0
 40
1.0
 40
1.0
 40
1.0
 10
6.4474063773
 20
11.4728750382
 30
0.0
 10
6.447454854
 20
11.4728747824
 30
0.0
 10
6.4475309106
 20
11.4729474968
 30
0.0
 10
6.4475975631
 20
11.4730677317
 30
0.0
 10
6.4476606135
 20
11.4732179142
 30
0.0
 10
6.4477225544
 20
11.4734114058
 30
0.0
 10
6.4478148245
 20
11.4737637759
 30
0.0
 10
6.4479896872
 20
11.4746691983
 30
0.0
 10
6.4481960646
 20
11.476368881
 30
0.0
 10
6.4483209543
 20
11.4778608811
 30
0.0
 10
6.4483822893
 20
11.4787304872
 30
0.0
  0
SPLINE
  5
415
100
AcDbEntity
  8
0
100
AcDbSpline
 62
9
  6
CONTINUOUS
 70
0
 71
3
 72
10
 73
6
 74
0
 42
0.0000001
 43
0.0000001
 44
0.0000000001
 40
0.0
 40
0.0
 40
0.0
 40
0.0
 40
0.2249794468
 40
0.4775200405
 40
1.0
 40
1.0
 40
1.0
 40
1.0
 10
6.4483822893
 20
11.4787304872
 30
0.0
 10
6.448456967
 20
11.4797892648
 30
0.0
 10
6.4485822563
 20
11.4820388703
 30
0.0
 10
6.4487586353
 20
11.4867535014
 30
0.0
 10
6.4488116553
 20
11.4904101301
 30
0.0
 10
6.4488183383
 20
11.4928750767
 30
0.0
  0
LINE
  5
416
100
AcDbEntity
  8
0
100
AcDbLine
 62
9
  6
CONTINUOUS
 10
6.4488183382
 20
11.4928750767
 11
6.4503048445
 21
11.4928710623
  0
LINE
  5
417
100
AcDbEntity
  8
0
100
AcDbLine
 62
9
  6
CONTINUOUS
 10
3.9984347767
 20
11.8823746975
 11
3.9971301035
 21
11.8794583848
  0
LINE
  5
418
100
AcDbEntity
  8
0
100
AcDbLine
 62
9
  6
CONTINUOUS
 10
3.9962469273
 20
11.8760765269
 11
3.9959572034
 21
11.8727302759
  0
LINE
  5
419
100
AcDbEntity
  8
0
100
AcDbLine
 62
9
  6
CONTINUOUS
 10
6.0936630073
 20
12.7122161333
 11
6.0713067856
 21
12.7457324176
  0
LINE
  5
41A
100
AcDbEntity
  8
0
100
AcDbLine
 62
9
  6
CONTINUOUS
 10
6.0879805345
 20
12.7065206172
 11
6.0544626953
 21
12.7288777406
  0
SPLINE
  5
41B
100
AcDbEntity
  8
0
100
AcDbSpline
 62
9
  6
CONTINUOUS
 70
0
 71
3
 72
15
 73
11
 74
0
 42
0.0000001
 43
0.0000001
 44
0.0000000001
 40
0.0
 40
0.0
 40
0.0
 40
0.0
 40
0.1154434653
 40
0.2392537523
 40
0.36840276
 40
0.5000008137
 40
0.6315987458
 40
0.7607474115
 40
0.8845571783
 40
1.0
 40
1.0
 40
1.0
 40
1.0
 10
6.0544626953
 20
12.7288777406
 30
0.0
 10
6.0547258268
 20
12.7297939502
 30
0.0
 10
6.0554172353
 20
12.7316523199
 30
0.0
 10
6.0568264609
 20
12.7343556835
 30
0.0
 10
6.0586182877
 20
12.7369862005
 30
0.0
 10
6.0607576411
 20
12.739431042
 30
0.0
 10
6.063202503
 20
12.7415703679
 30
0.0
 10
6.0658330332
 20
12.7433621611
 30
0.0
 10
6.0685364028
 20
12.7447713485
 30
0.0
 10
6.070394773
 20
12.7454627285
 30
0.0
 10
6.0713109814
 20
12.745725845
 30
0.0
  0
SPLINE
  5
41C
100
AcDbEntity
  8
0
100
AcDbSpline
 62
9
  6
CONTINUOUS
 70
0
 71
3
 72
14
 73
10
 74
0
 42
0.0000001
 43
0.0000001
 44
0.0000000001
 40
0.0
 40
0.0
 40
0.0
 40
0.0
 40
0.2490241316
 40
0.3765617679
 40
0.5042204786
 40
0.6309491054
 40
0.7562364933
 40
0.879570027
 40
1.0
 40
1.0
 40
1.0
 40
1.0
 10
4.119315202
 20
11.3891500422
 30
0.0
 10
4.1201297419
 20
11.3876692256
 30
0.0
 10
4.1216793459
 20
11.3855909258
 30
0.0
 10
4.1241880544
 20
11.3832565171
 30
0.0
 10
4.1262956877
 20
11.3817342367
 30
0.0
 10
4.1285740824
 20
11.3805136948
 30
0.0
 10
4.1309697694
 20
11.3796259665
 30
0.0
 10
4.1334137868
 20
11.3790525085
 30
0.0
 10
4.1350624695
 20
11.3788683092
 30
0.0
 10
4.135878717
 20
11.3788263621
 30
0.0
  0
SPLINE
  5
41D
100
AcDbEntity
  8
0
100
AcDbSpline
 62
9
  6
CONTINUOUS
 70
0
 71
3
 72
16
 73
12
 74
0
 42
0.0000001
 43
0.0000001
 44
0.0000000001
 40
0.0
 40
0.0
 40
0.0
 40
0.0
 40
0.0192286701
 40
0.0440162976
 40
0.1120426363
 40
0.2066874968
 40
0.328182674
 40
0.4737266879
 40
0.6380753436
 40
0.8152734965
 40
1.0
 40
1.0
 40
1.0
 40
1.0
 10
4.0052790613
 20
11.8823746975
 30
0.0
 10
4.005217791
 20
11.8821990012
 30
0.0
 10
4.005109149
 20
11.8817859697
 30
0.0
 10
4.0049251103
 20
11.8807168515
 30
0.0
 10
4.0047863986
 20
11.8789050187
 30
0.0
 10
4.0047383301
 20
11.8761553304
 30
0.0
 10
4.0048154048
 20
11.8726553246
 30
0.0
 10
4.0050183782
 20
11.8684855413
 30
0.0
 10
4.0053386676
 20
11.8637826687
 30
0.0
 10
4.0057589686
 20
11.8587072389
 30
0.0
 10
4.006088006
 20
11.8552203626
 30
0.0
 10
4.0062635837
 20
11.8534414325
 30
0.0
  0
SPLINE
  5
41E
100
AcDbEntity
  8
0
100
AcDbSpline
 62
9
  6
CONTINUOUS
 70
0
 71
3
 72
8
 73
4
 74
0
 42
0.0000001
 43
0.0000001
 44
0.0000000001
 40
0.0
 40
0.0
 40
0.0
 40
0.0
 40
1.0
 40
1.0
 40
1.0
 40
1.0
 10
4.0028014881
 20
11.8727302759
 30
0.0
 10
4.0028014881
 20
11.8760494665
 30
0.0
 10
4.0036791891
 20
11.8794665305
 30
0.0
 10
4.0052790613
 20
11.8823746975
 30
0.0
  0
SPLINE
  5
41F
100
AcDbEntity
  8
0
100
AcDbSpline
 62
9
  6
CONTINUOUS
 70
0
 71
3
 72
8
 73
4
 74
0
 42
0.0000001
 43
0.0000001
 44
0.0000000001
 40
0.0
 40
0.0
 40
0.0
 40
0.0
 40
1.0
 40
1.0
 40
1.0
 40
1.0
 10
4.0052790613
 20
11.623367482
 30
0.0
 10
4.0036791891
 20
11.626275649
 30
0.0
 10
4.0028014881
 20
11.6296927131
 30
0.0
 10
4.0028014881
 20
11.6330119037
 30
0.0
  0
SPLINE
  5
420
100
AcDbEntity
  8
0
100
AcDbSpline
 62
9
  6
CONTINUOUS
 70
0
 71
3
 72
16
 73
12
 74
0
 42
0.0000001
 43
0.0000001
 44
0.0000000001
 40
0.0
 40
0.0
 40
0.0
 40
0.0
 40
0.1847187836
 40
0.3619091405
 40
0.526258959
 40
0.6718043513
 40
0.7933014658
 40
0.8879485779
 40
0.9559815937
 40
0.9807706418
 40
1.0
 40
1.0
 40
1.0
 40
1.0
 10
4.0062635837
 20
11.6523007471
 30
0.0
 10
4.0060880157
 20
11.6505218911
 30
0.0
 10
4.0057589758
 20
11.6470351659
 30
0.0
 10
4.0053387076
 20
11.6419598729
 30
0.0
 10
4.0050184009
 20
11.6372570527
 30
0.0
 10
4.0048154178
 20
11.6330872264
 30
0.0
 10
4.0047383349
 20
11.6295871672
 30
0.0
 10
4.0047863833
 20
11.6268373734
 30
0.0
 10
4.0049250988
 20
11.6250254399
 30
0.0
 10
4.0051091468
 20
11.6239562375
 30
0.0
 10
4.0052177884
 20
11.6235431845
 30
0.0
 10
4.0052790613
 20
11.623367482
 30
0.0
  0
LINE
  5
421
100
AcDbEntity
  8
0
100
AcDbLine
 62
9
  6
CONTINUOUS
 10
6.0879853519
 20
12.7065174829
 11
6.0862600762
 21
12.0439467842
  0
LINE
  5
422
100
AcDbEntity
  8
0
100
AcDbLine
 62
9
  6
CONTINUOUS
 10
6.0862600762
 20
12.0439467842
 11
6.0862477081
 21
12.0347499168
  0
LINE
  5
423
100
AcDbEntity
  8
0
100
AcDbLine
 62
9
  6
CONTINUOUS
 10
5.8979461999
 20
12.8859241534
 11
5.8995066148
 21
12.8843577899
  0
LINE
  5
424
100
AcDbEntity
  8
0
100
AcDbLine
 62
9
  6
CONTINUOUS
 10
5.8995066148
 20
12.8843577899
 11
6.0544615402
 21
12.7288805047
  0
LINE
  5
425
100
AcDbEntity
  8
0
100
AcDbLine
 62
9
  6
CONTINUOUS
 10
6.0544138796
 20
12.7288806674
 11
6.0527559669
 21
12.0449751465
  0
SPLINE
  5
426
100
AcDbEntity
  8
0
100
AcDbSpline
 62
7
  6
CONTINUOUS
 70
0
 71
3
 72
15
 73
11
 74
0
 42
0.0000001
 43
0.0000001
 44
0.0000000001
 40
0.0
 40
0.0
 40
0.0
 40
0.0
 40
0.0283141255
 40
0.0514487178
 40
0.0816280586
 40
0.1191012861
 40
0.1639568701
 40
0.2758370825
 40
0.5857217001
 40
1.0
 40
1.0
 40
1.0
 40
1.0
 10
6.4488182645
 20
12.0328710894
 30
0.0
 10
6.4488751138
 20
12.032871171
 30
0.0
 10
6.4489619916
 20
12.0327831403
 30
0.0
 10
6.4490366169
 20
12.0326434659
 30
0.0
 10
6.4491061781
 20
12.0324725325
 30
0.0
 10
6.4491734135
 20
12.0322574628
 30
0.0
 10
6.449270739
 20
12.031879412
 30
0.0
 10
6.4494481886
 20
12.0309590998
 30
0.0
 10
6.4496536149
 20
12.0292917059
 30
0.0
 10
6.4497760577
 20
12.0278428814
 30
0.0
 10
6.4498357281
 20
12.0270132337
 30
0.0
  0
SPLINE
  5
427
100
AcDbEntity
  8
0
100
AcDbSpline
 62
7
  6
CONTINUOUS
 70
0
 71
3
 72
10
 73
6
 74
0
 42
0.0000001
 43
0.0000001
 44
0.0000000001
 40
0.0
 40
0.0
 40
0.0
 40
0.0
 40
0.2144374892
 40
0.4590623621
 40
1.0
 40
1.0
 40
1.0
 40
1.0
 10
6.4498357281
 20
12.0270132337
 30
0.0
 10
6.4499082893
 20
12.0260043534
 30
0.0
 10
6.4500318526
 20
12.0238422657
 30
0.0
 10
6.4502088017
 20
12.0191285094
 30
0.0
 10
6.4502574853
 20
12.0154226266
 30
0.0
 10
6.4502571492
 20
12.0128710624
 30
0.0
  0
LINE
  5
428
100
AcDbEntity
  8
0
100
AcDbLine
 62
9
  6
CONTINUOUS
 10
6.4502571492
 20
12.0128710624
 11
6.4488183174
 21
12.0128671028
  0
SPLINE
  5
429
100
AcDbEntity
  8
0
100
AcDbSpline
 62
9
  6
CONTINUOUS
 70
0
 71
3
 72
16
 73
12
 74
0
 42
0.0000001
 43
0.0000001
 44
0.0000000001
 40
0.0
 40
0.0
 40
0.0
 40
0.0
 40
0.0078847418
 40
0.0218641172
 40
0.0723239642
 40
0.1537422247
 40
0.2659136437
 40
0.4081959895
 40
0.5791140805
 40
0.7769572409
 40
1.0
 40
1.0
 40
1.0
 40
1.0
 10
7.5542902015
 20
12.0328710927
 30
0.0
 10
7.5543051883
 20
12.0328710932
 30
0.0
 10
7.5543412162
 20
12.0328397921
 30
0.0
 10
7.5543950711
 20
12.0327158097
 30
0.0
 10
7.5544604182
 20
12.0324423731
 30
0.0
 10
7.5545297813
 20
12.0319853773
 30
0.0
 10
7.554600326
 20
12.0313499836
 30
0.0
 10
7.5546682735
 20
12.0305445712
 30
0.0
 10
7.5547335666
 20
12.0295752746
 30
0.0
 10
7.5547951028
 20
12.0284521141
 30
0.0
 10
7.55483116
 20
12.0276529162
 30
0.0
 10
7.5548486803
 20
12.0272293345
 30
0.0
  0
LINE
  5
42A
100
AcDbEntity
  8
0
100
AcDbLine
 62
9
  6
CONTINUOUS
 10
7.5548486803
 20
12.0272293345
 11
7.5550277107
 21
12.0207425782
  0
LINE
  5
42B
100
AcDbEntity
  8
0
100
AcDbLine
 62
9
  6
CONTINUOUS
 10
7.5550924561
 20
12.0128710857
 11
6.4502665823
 21
12.0128690826
  0
SPLINE
  5
42C
100
AcDbEntity
  8
0
100
AcDbSpline
 62
9
  6
CONTINUOUS
 70
0
 71
3
 72
9
 73
5
 74
0
 42
0.0000001
 43
0.0000001
 44
0.0000000001
 40
0.0
 40
0.0
 40
0.0
 40
0.0
 40
0.2443688785
 40
1.0
 40
1.0
 40
1.0
 40
1.0
 10
7.5553030948
 20
12.0328424467
 30
0.0
 10
7.5558396179
 20
12.0328123364
 30
0.0
 10
7.5580288995
 20
12.0325938897
 30
0.0
 10
7.5601806237
 20
12.0320087915
 30
0.0
 10
7.561718924
 20
12.0313805733
 30
0.0
  0
SPLINE
  5
42D
100
AcDbEntity
  8
0
100
AcDbSpline
 62
9
  6
CONTINUOUS
 70
0
 71
3
 72
9
 73
5
 74
0
 42
0.0000001
 43
0.0000001
 44
0.0000000001
 40
0.0
 40
0.0
 40
0.0
 40
0.0
 40
0.4993326384
 40
1.0
 40
1.0
 40
1.0
 40
1.0
 10
7.561718924
 20
12.0313805733
 30
0.0
 10
7.5628965271
 20
12.0308996583
 30
0.0
 10
7.5651710975
 20
12.029709426
 30
0.0
 10
7.5671481201
 20
12.0280722212
 30
0.0
 10
7.5680505716
 20
12.0271709602
 30
0.0
  0
LINE
  5
42E
100
AcDbEntity
  8
0
100
AcDbLine
 62
9
  6
CONTINUOUS
 10
7.5723623459
 20
12.0208570532
 11
7.555092437
 21
12.0128711331
  0
SPLINE
  5
42F
100
AcDbEntity
  8
0
100
AcDbSpline
 62
9
  6
CONTINUOUS
 70
0
 71
3
 72
9
 73
5
 74
0
 42
0.0000001
 43
0.0000001
 44
0.0000000001
 40
0.0
 40
0.0
 40
0.0
 40
0.0
 40
0.4996749232
 40
1.0
 40
1.0
 40
1.0
 40
1.0
 10
7.5723623694
 20
12.020857
 30
0.0
 10
7.5747581865
 20
12.0149829134
 30
0.0
 10
7.5783180137
 20
12.0026784996
 30
0.0
 10
7.5788838844
 20
11.9898321089
 30
0.0
 10
7.5782850575
 20
11.9835082622
 30
0.0
  0
SPLINE
  5
430
100
AcDbEntity
  8
0
100
AcDbSpline
 62
9
  6
CONTINUOUS
 70
0
 71
3
 72
10
 73
6
 74
0
 42
0.0000001
 43
0.0000001
 44
0.0000000001
 40
0.0
 40
0.0
 40
0.0
 40
0.0
 40
0.4956230774
 40
0.7472946715
 40
1.0
 40
1.0
 40
1.0
 40
1.0
 10
7.561826838
 20
11.5222339174
 30
0.0
 10
7.5618267164
 20
11.5172273829
 30
0.0
 10
7.5608331131
 20
11.5096545023
 30
0.0
 10
7.5580037972
 20
11.4999513596
 30
0.0
 10
7.5561297557
 20
11.4952035344
 30
0.0
 10
7.555092465
 20
11.4928710862
 30
0.0
  0
SPLINE
  5
431
100
AcDbEntity
  8
0
100
AcDbSpline
 62
9
  6
CONTINUOUS
 70
0
 71
3
 72
10
 73
6
 74
0
 42
0.0000001
 43
0.0000001
 44
0.0000000001
 40
0.0
 40
0.0
 40
0.0
 40
0.0
 40
0.2527173665
 40
0.5043866811
 40
1.0
 40
1.0
 40
1.0
 40
1.0
 10
7.5550924211
 20
12.0128710701
 30
0.0
 10
7.5561297213
 20
12.0105384942
 30
0.0
 10
7.5580038016
 20
12.0057905849
 30
0.0
 10
7.5608332129
 20
11.9960874737
 30
0.0
 10
7.5618267397
 20
11.9885146959
 30
0.0
 10
7.561826789
 20
11.9835082622
 30
0.0
  0
SPLINE
  5
432
100
AcDbEntity
  8
0
100
AcDbSpline
 62
9
  6
CONTINUOUS
 70
0
 71
3
 72
11
 73
7
 74
0
 42
0.0000001
 43
0.0000001
 44
0.0000000001
 40
0.0
 40
0.0
 40
0.0
 40
0.0
 40
0.2503736671
 40
0.5004516371
 40
0.7503136656
 40
1.0
 40
1.0
 40
1.0
 40
1.0
 10
7.5782850575
 20
11.5222339174
 30
0.0
 10
7.5785850393
 20
11.5190635533
 30
0.0
 10
7.578743337
 20
11.5126776135
 30
0.0
 10
7.5777555171
 20
11.5031625027
 30
0.0
 10
7.5756479645
 20
11.4938428307
 30
0.0
 10
7.5735617102
 20
11.4878257875
 30
0.0
 10
7.5723623695
 20
11.4848851794
 30
0.0
  0
LINE
  5
433
100
AcDbEntity
  8
0
100
AcDbLine
 62
9
  6
CONTINUOUS
 10
7.5723622766
 20
11.4848849611
 11
7.5550923783
 21
11.4928709128
  0
LINE
  5
434
100
AcDbEntity
  8
0
100
AcDbLine
 62
9
  6
CONTINUOUS
 10
6.0713130145
 20
12.7457281548
 11
5.9158385226
 21
12.9006851101
  0
LINE
  5
435
100
AcDbEntity
  8
0
100
AcDbLine
 62
9
  6
CONTINUOUS
 10
5.9158385226
 20
12.9006851101
 11
5.914272956
 21
12.9022457783
  0
SPLINE
  5
436
100
AcDbEntity
  8
0
100
AcDbSpline
 62
9
  6
CONTINUOUS
 70
0
 71
3
 72
18
 73
14
 74
0
 42
0.0000001
 43
0.0000001
 44
0.0000000001
 40
0.0
 40
0.0
 40
0.0
 40
0.0
 40
0.1997790725
 40
0.3830354627
 40
0.5472723586
 40
0.6898427672
 40
0.8081886222
 40
0.8576280244
 40
0.90025737
 40
0.9358693536
 40
0.9643904834
 40
0.985780709
 40
1.0
 40
1.0
 40
1.0
 40
1.0
 10
6.1318876966
 20
10.8203717363
 30
0.0
 10
6.1755177817
 20
10.8638391755
 30
0.0
 10
6.2591783544
 20
10.9471702381
 30
0.0
 10
6.3787372423
 20
11.0662050903
 30
0.0
 10
6.4858241226
 20
11.1727706295
 30
0.0
 10
6.5787433402
 20
11.2652047876
 30
0.0
 10
6.6465796782
 20
11.332673701
 30
0.0
 10
6.6925660026
 20
11.3784215144
 30
0.0
 10
6.7204656625
 20
11.4061866578
 30
0.0
 10
6.7437861708
 20
11.429411276
 30
0.0
 10
6.7624580932
 20
11.4480249232
 30
0.0
 10
6.7764474679
 20
11.4619945701
 30
0.0
 10
6.7842053186
 20
11.469761424
 30
0.0
 10
6.7872955022
 20
11.4728703958
 30
0.0
  0
SPLINE
  5
437
100
AcDbEntity
  8
0
100
AcDbSpline
 62
9
  6
CONTINUOUS
 70
0
 71
3
 72
20
 73
16
 74
0
 42
0.0000001
 43
0.0000001
 44
0.0000000001
 40
0.0
 40
0.0
 40
0.0
 40
0.0
 40
0.004744355
 40
0.0092120495
 40
0.0153994972
 40
0.0335166053
 40
0.0601167655
 40
0.0959646032
 40
0.1412225073
 40
0.1958974982
 40
0.2599915577
 40
0.4145969837
 40
0.5958375468
 40
0.7934077141
 40
1.0
 40
1.0
 40
1.0
 40
1.0
 10
4.0028014881
 20
11.8727302759
 30
0.0
 10
4.0028320892
 20
11.87273027
 30
0.0
 10
4.0028746091
 20
11.8726684783
 30
0.0
 10
4.0029084248
 20
11.872581049
 30
0.0
 10
4.0029600423
 20
11.8723994296
 30
0.0
 10
4.0030149517
 20
11.8720774423
 30
0.0
 10
4.0030773431
 20
11.8715604431
 30
0.0
 10
4.00313618
 20
11.8708685477
 30
0.0
 10
4.0031928463
 20
11.8699944112
 30
0.0
 10
4.0032453151
 20
11.8689377585
 30
0.0
 10
4.0033126553
 20
11.8671757265
 30
0.0
 10
4.0033754475
 20
11.8645967904
 30
0.0
 10
4.0034257549
 20
11.8611565916
 30
0.0
 10
4.0034528261
 20
11.8573808078
 30
0.0
 10
4.003457836
 20
11.8547739538
 30
0.0
 10
4.0034578363
 20
11.8534414325
 30
0.0
  0
SPLINE
  5
438
100
AcDbEntity
  8
0
100
AcDbSpline
 62
9
  6
CONTINUOUS
 70
0
 71
3
 72
20
 73
16
 74
0
 42
0.0000001
 43
0.0000001
 44
0.0000000001
 40
0.0
 40
0.0
 40
0.0
 40
0.0
 40
0.2065914027
 40
0.4041623322
 40
0.5854055223
 40
0.740012597
 40
0.8041061409
 40
0.8587799489
 40
0.9040364828
 40
0.939883243
 40
0.9664829699
 40
0.9846001293
 40
0.9907876933
 40
0.9952555147
 40
1.0
 40
1.0
 40
1.0
 40
1.0
 10
3.9953008552
 20
11.8534414325
 30
0.0
 10
3.9953008555
 20
11.8547739481
 30
0.0
 10
3.9953058651
 20
11.8573808011
 30
0.0
 10
3.9953329365
 20
11.8611566008
 30
0.0
 10
3.9953832456
 20
11.8645968319
 30
0.0
 10
3.9954460384
 20
11.8671757922
 30
0.0
 10
3.9955133786
 20
11.8689378237
 30
0.0
 10
3.9955658467
 20
11.8699944566
 30
0.0
 10
3.9956225123
 20
11.8708685697
 30
0.0
 10
3.9956813488
 20
11.8715604464
 30
0.0
 10
3.9957437397
 20
11.8720774362
 30
0.0
 10
3.9957986491
 20
11.8723994215
 30
0.0
 10
3.9958502663
 20
11.8725810432
 30
0.0
 10
3.9958840822
 20
11.8726684745
 30
0.0
 10
3.9959266015
 20
11.8727302697
 30
0.0
 10
3.9959572035
 20
11.8727302759
 30
0.0
  0
LINE
  5
439
100
AcDbEntity
  8
0
100
AcDbLine
 62
9
  6
CONTINUOUS
 10
8.1803714903
 20
12.9022433232
 11
8.1788050336
 21
12.9006828052
  0
LINE
  5
43A
100
AcDbEntity
  8
0
100
AcDbLine
 62
9
  6
CONTINUOUS
 10
8.1788050336
 20
12.9006828052
 11
8.0233270542
 21
12.7457270865
  0
SPLINE
  5
43B
100
AcDbEntity
  8
0
100
AcDbSpline
 62
9
  6
CONTINUOUS
 70
0
 71
3
 72
18
 73
14
 74
0
 42
0.0000001
 43
0.0000001
 44
0.0000000001
 40
0.0
 40
0.0
 40
0.0
 40
0.0
 40
0.0142162837
 40
0.0356018702
 40
0.0641170266
 40
0.0997219997
 40
0.1423436405
 40
0.1917751672
 40
0.3101070346
 40
0.4526704843
 40
0.6169164258
 40
0.8002005504
 40
1.0
 40
1.0
 40
1.0
 40
1.0
 10
7.3073406921
 20
11.4728708789
 30
0.0
 10
7.3104301805
 20
11.4697625226
 30
0.0
 10
7.3181862988
 20
11.4619972683
 30
0.0
 10
7.3321726302
 20
11.448030513
 30
0.0
 10
7.3508406583
 20
11.4294206505
 30
0.0
 10
7.3741566371
 20
11.4062005175
 30
0.0
 10
7.4020513975
 20
11.3784403178
 30
0.0
 10
7.4480313515
 20
11.3326990157
 30
0.0
 10
7.5158615225
 20
11.2652364874
 30
0.0
 10
7.6087781798
 20
11.1728049385
 30
0.0
 10
7.7158715255
 20
11.066232841
 30
0.0
 10
7.8354427706
 20
10.9471854019
 30
0.0
 10
7.9191137754
 20
10.8638437787
 30
0.0
 10
7.9627482837
 20
10.8203718698
 30
0.0
  0
SPLINE
  5
43C
100
AcDbEntity
  8
0
100
AcDbSpline
 62
9
  6
CONTINUOUS
 70
0
 71
3
 72
14
 73
10
 74
0
 42
0.0000001
 43
0.0000001
 44
0.0000000001
 40
0.0
 40
0.0
 40
0.0
 40
0.0
 40
0.0524069728
 40
0.123006161
 40
0.2143106474
 40
0.3280426962
 40
0.4648040745
 40
0.6239523106
 40
1.0
 40
1.0
 40
1.0
 40
1.0
 10
7.6633783044
 20
11.6280070355
 30
0.0
 10
7.6635447718
 20
11.6282733862
 30
0.0
 10
7.6638430453
 20
11.6289545562
 30
0.0
 10
7.6641786357
 20
11.6301960957
 30
0.0
 10
7.6644536399
 20
11.6318272381
 30
0.0
 10
7.66465782
 20
11.6338664483
 30
0.0
 10
7.6647834845
 20
11.636319142
 30
0.0
 10
7.6648394815
 20
11.6403466341
 30
0.0
 10
7.6647411179
 20
11.6435544267
 30
0.0
 10
7.6646354209
 20
11.6458057265
 30
0.0
  0
LINE
  5
43D
100
AcDbEntity
  8
0
100
AcDbLine
 62
9
  6
CONTINUOUS
 10
7.3432840572
 20
11.4769020577
 11
7.9798662866
 21
10.8373901046
  0
SPLINE
  5
43E
100
AcDbEntity
  8
0
100
AcDbSpline
 62
9
  6
CONTINUOUS
 70
0
 71
3
 72
14
 73
10
 74
0
 42
0.0000001
 43
0.0000001
 44
0.0000000001
 40
0.0
 40
0.0
 40
0.0
 40
0.0
 40
0.1202933106
 40
0.2480415219
 40
0.379899834
 40
0.5125068195
 40
0.769075942
 40
0.8891317133
 40
1.0
 40
1.0
 40
1.0
 40
1.0
 10
7.9798662866
 20
10.8373901046
 30
0.0
 10
7.9796053012
 20
10.8364157822
 30
0.0
 10
7.9788991995
 20
10.8344499254
 30
0.0
 10
7.9774310147
 20
10.8316144266
 30
0.0
 10
7.9755672738
 20
10.8288940288
 30
0.0
 10
7.9726614039
 20
10.8256178982
 30
0.0
 10
7.9691974267
 20
10.8230246038
 30
0.0
 10
7.965530751
 20
10.8212045671
 30
0.0
 10
7.963696095
 20
10.820562751
 30
0.0
 10
7.9627981059
 20
10.8203222332
 30
0.0
  0
SPLINE
  5
43F
100
AcDbEntity
  8
0
100
AcDbSpline
 62
9
  6
CONTINUOUS
 70
0
 71
3
 72
20
 73
16
 74
0
 42
0.0000001
 43
0.0000001
 44
0.0000000001
 40
0.0
 40
0.0
 40
0.0
 40
0.0
 40
0.004744355
 40
0.0092120495
 40
0.0153994972
 40
0.0335166053
 40
0.0601167655
 40
0.0959646032
 40
0.1412225073
 40
0.1958974982
 40
0.2599915577
 40
0.4145969837
 40
0.5958375467
 40
0.7934077141
 40
1.0
 40
1.0
 40
1.0
 40
1.0
 10
3.9959572035
 20
11.6330119037
 30
0.0
 10
3.9959266023
 20
11.6330119095
 30
0.0
 10
3.9958840824
 20
11.6330737012
 30
0.0
 10
3.9958502667
 20
11.6331611306
 30
0.0
 10
3.9957986492
 20
11.63334275
 30
0.0
 10
3.9957437398
 20
11.6336647372
 30
0.0
 10
3.9956813484
 20
11.6341817364
 30
0.0
 10
3.9956225115
 20
11.6348736318
 30
0.0
 10
3.9955658452
 20
11.6357477683
 30
0.0
 10
3.9955133764
 20
11.6368044211
 30
0.0
 10
3.9954460362
 20
11.6385664531
 30
0.0
 10
3.995383244
 20
11.6411453892
 30
0.0
 10
3.9953329366
 20
11.644585588
 30
0.0
 10
3.9953058654
 20
11.6483613718
 30
0.0
 10
3.9953008555
 20
11.6509682257
 30
0.0
 10
3.9953008552
 20
11.6523007471
 30
0.0
  0
SPLINE
  5
440
100
AcDbEntity
  8
0
100
AcDbSpline
 62
9
  6
CONTINUOUS
 70
0
 71
3
 72
20
 73
16
 74
0
 42
0.0000001
 43
0.0000001
 44
0.0000000001
 40
0.0
 40
0.0
 40
0.0
 40
0.0
 40
0.2065914023
 40
0.4041623314
 40
0.5854055213
 40
0.7400125959
 40
0.8041061398
 40
0.8587799478
 40
0.9040364819
 40
0.9398832423
 40
0.9664829694
 40
0.984600129
 40
0.9907876932
 40
0.9952555146
 40
1.0
 40
1.0
 40
1.0
 40
1.0
 10
4.0034578363
 20
11.6523007471
 30
0.0
 10
4.003457836
 20
11.6509682315
 30
0.0
 10
4.0034528265
 20
11.6483613785
 30
0.0
 10
4.0034257551
 20
11.6445855787
 30
0.0
 10
4.003375446
 20
11.6411453476
 30
0.0
 10
4.0033126531
 20
11.6385663874
 30
0.0
 10
4.0032453129
 20
11.6368043559
 30
0.0
 10
4.0031928448
 20
11.6357477229
 30
0.0
 10
4.0031361792
 20
11.6348736099
 30
0.0
 10
4.0030773428
 20
11.6341817332
 30
0.0
 10
4.0030149518
 20
11.6336647434
 30
0.0
 10
4.0029600424
 20
11.6333427581
 30
0.0
 10
4.0029084252
 20
11.6331611364
 30
0.0
 10
4.0028746093
 20
11.6330737051
 30
0.0
 10
4.00283209
 20
11.6330119099
 30
0.0
 10
4.0028014881
 20
11.6330119037
 30
0.0
  0
LINE
  5
441
100
AcDbEntity
  8
0
100
AcDbLine
 62
9
  6
CONTINUOUS
 10
7.3440408147
 20
12.0295969158
 11
7.9798176399
 21
12.668301369
  0
SPLINE
  5
442
100
AcDbEntity
  8
0
100
AcDbSpline
 62
9
  6
CONTINUOUS
 70
0
 71
3
 72
16
 73
12
 74
0
 42
0.0000001
 43
0.0000001
 44
0.0000000001
 40
0.0
 40
0.0
 40
0.0
 40
0.0
 40
0.0142137174
 40
0.0356019391
 40
0.0641483587
 40
0.0997928632
 40
0.1918569667
 40
0.3102445823
 40
0.4527744517
 40
0.6170425324
 40
1.0
 40
1.0
 40
1.0
 40
1.0
 10
7.3073405738
 20
12.0328714235
 30
0.0
 10
7.3104313064
 20
12.0359779001
 30
0.0
 10
7.3181876409
 20
12.0437441469
 30
0.0
 10
7.3321801434
 20
12.0577205412
 30
0.0
 10
7.3508649155
 20
12.0763485323
 30
0.0
 10
7.3850010948
 20
12.110339925
 30
0.0
 10
7.4387899053
 20
12.1638495488
 30
0.0
 10
7.5159479368
 20
12.2405921324
 30
0.0
 10
7.6088815108
 20
12.3330402819
 30
0.0
 10
7.7596160411
 20
12.4830405742
 30
0.0
 10
7.8791544438
 20
12.6020938954
 30
0.0
 10
7.962799403
 20
12.6854193937
 30
0.0
  0
LINE
  5
443
100
AcDbEntity
  8
0
100
AcDbLine
 62
9
  6
CONTINUOUS
 10
7.6636749418
 20
11.8468844473
 11
7.6645949407
 21
11.8591124479
  0
SPLINE
  5
444
100
AcDbEntity
  8
0
100
AcDbSpline
 62
9
  6
CONTINUOUS
 70
0
 71
3
 72
14
 73
10
 74
0
 42
0.0000001
 43
0.0000001
 44
0.0000000001
 40
0.0
 40
0.0
 40
0.0
 40
0.0
 40
0.376222804
 40
0.5357930089
 40
0.6728616824
 40
0.7870014824
 40
0.8782604845
 40
0.948360802
 40
1.0
 40
1.0
 40
1.0
 40
1.0
 10
7.6645949407
 20
11.8591124479
 30
0.0
 10
7.664715198
 20
11.8614676321
 30
0.0
 10
7.6648320386
 20
11.8648257631
 30
0.0
 10
7.6647955811
 20
11.8690439078
 30
0.0
 10
7.6646763947
 20
11.8716168241
 30
0.0
 10
7.6644752571
 20
11.8737549422
 30
0.0
 10
7.6641979191
 20
11.875461808
 30
0.0
 10
7.6638557724
 20
11.8767540571
 30
0.0
 10
7.6635498567
 20
11.8774606577
 30
0.0
 10
7.6633783044
 20
11.877735144
 30
0.0
  0
SPLINE
  5
445
100
AcDbEntity
  8
0
100
AcDbSpline
 62
9
  6
CONTINUOUS
 70
0
 71
3
 72
14
 73
10
 74
0
 42
0.0000001
 43
0.0000001
 44
0.0000000001
 40
0.0
 40
0.0
 40
0.0
 40
0.0
 40
0.1202931118
 40
0.2480411704
 40
0.3798993814
 40
0.5125063325
 40
0.7690756124
 40
0.8891315368
 40
1.0
 40
1.0
 40
1.0
 40
1.0
 10
7.962799403
 20
12.6854193937
 30
0.0
 10
7.9637737241
 20
12.6851584064
 30
0.0
 10
7.9657395782
 20
12.6844523012
 30
0.0
 10
7.9685750733
 20
12.6829841117
 30
0.0
 10
7.9712954678
 20
12.6811203656
 30
0.0
 10
7.9745715953
 20
12.6782144865
 30
0.0
 10
7.977164885
 20
12.6747504982
 30
0.0
 10
7.978984915
 20
12.6710838109
 30
0.0
 10
7.9796267267
 20
12.6692491487
 30
0.0
 10
7.979867242
 20
12.6683511566
 30
0.0
  0
SPLINE
  5
446
100
AcDbEntity
  8
0
100
AcDbSpline
 62
9
  6
CONTINUOUS
 70
0
 71
3
 72
18
 73
14
 74
0
 42
0.0000001
 43
0.0000001
 44
0.0000000001
 40
0.0
 40
0.0
 40
0.0
 40
0.0
 40
0.0142162209
 40
0.0356010028
 40
0.0641152074
 40
0.0997196763
 40
0.1423416719
 40
0.1917741628
 40
0.3101082015
 40
0.4526721725
 40
0.6169174363
 40
0.8002008187
 40
1.0
 40
1.0
 40
1.0
 40
1.0
 10
6.7872958991
 20
12.0328713687
 30
0.0
 10
6.7842061585
 20
12.0359799198
 30
0.0
 10
6.7764496187
 20
12.0437455615
 30
0.0
 10
6.7624626117
 20
12.0577129867
 30
0.0
 10
6.743793659
 20
12.0763237907
 30
0.0
 10
6.7204761361
 20
12.0995454594
 30
0.0
 10
6.6925790368
 20
12.1273079331
 30
0.0
 10
6.6465947487
 20
12.1730534393
 30
0.0
 10
6.578758537
 20
12.240521871
 30
0.0
 10
6.4858343874
 20
12.3329609856
 30
0.0
 10
6.3787330763
 20
12.4395410715
 30
0.0
 10
6.2591529442
 20
12.5585971415
 30
0.0
 10
6.1754757097
 20
12.6419448709
 30
0.0
 10
6.1318379264
 20
12.6854200515
 30
0.0
  0
SPLINE
  5
447
100
AcDbEntity
  8
0
100
AcDbSpline
 62
9
  6
CONTINUOUS
 70
0
 71
3
 72
12
 73
8
 74
0
 42
0.0000001
 43
0.0000001
 44
0.0000000001
 40
0.0
 40
0.0
 40
0.0
 40
0.0
 40
0.1026695231
 40
0.2051855025
 40
0.4251378343
 40
0.6858978777
 40
1.0
 40
1.0
 40
1.0
 40
1.0
 10
4.1427163958
 20
11.3880932886
 30
0.0
 10
4.1426635983
 20
11.388244958
 30
0.0
 10
4.1425895308
 20
11.3885602552
 30
0.0
 10
4.1425807828
 20
11.38923004
 30
0.0
 10
4.1428593973
 20
11.3901215099
 30
0.0
 10
4.143564606
 20
11.3911573716
 30
0.0
 10
4.1442027331
 20
11.3917967297
 30
0.0
 10
4.1445696811
 20
11.3921234485
 30
0.0
  0
LINE
  5
448
100
AcDbEntity
  8
0
100
AcDbLine
 62
9
  6
CONTINUOUS
 10
4.1633270167
 20
11.4185372018
 11
4.1633023608
 21
11.7528710898
  0
SPLINE
  5
449
100
AcDbEntity
  8
0
100
AcDbSpline
 62
9
  6
CONTINUOUS
 70
0
 71
3
 72
9
 73
5
 74
0
 42
0.0000001
 43
0.0000001
 44
0.0000000001
 40
0.0
 40
0.0
 40
0.0
 40
0.0
 40
0.2512856209
 40
1.0
 40
1.0
 40
1.0
 40
1.0
 10
4.166405423
 20
11.3977011955
 30
0.0
 10
4.1659109719
 20
11.3993980811
 30
0.0
 10
4.1641628567
 20
11.4062114666
 30
0.0
 10
4.1633283677
 20
11.4132710048
 30
0.0
 10
4.1633221634
 20
11.4185372002
 30
0.0
  0
LINE
  5
44A
100
AcDbEntity
  8
0
100
AcDbLine
 62
9
  6
CONTINUOUS
 10
4.1428183434
 20
11.4185687757
 11
4.1428326287
 21
11.7528710767
  0
SPLINE
  5
44B
100
AcDbEntity
  8
0
100
AcDbSpline
 62
9
  6
CONTINUOUS
 70
0
 71
3
 72
9
 73
5
 74
0
 42
0.0000001
 43
0.0000001
 44
0.0000000001
 40
0.0
 40
0.0
 40
0.0
 40
0.0
 40
0.4980743903
 40
1.0
 40
1.0
 40
1.0
 40
1.0
 10
4.1445696811
 20
11.3921234485
 30
0.0
 10
4.1435682308
 20
11.3964227448
 30
0.0
 10
4.1422419398
 20
11.4052284391
 30
0.0
 10
4.1423621535
 20
11.4141376692
 30
0.0
 10
4.1428026109
 20
11.4185643346
 30
0.0
  0
SPLINE
  5
44C
100
AcDbEntity
  8
0
100
AcDbSpline
 62
9
  6
CONTINUOUS
 70
0
 71
3
 72
14
 73
10
 74
0
 42
0.0000001
 43
0.0000001
 44
0.0000000001
 40
0.0
 40
0.0
 40
0.0
 40
0.0
 40
0.0533583499
 40
0.1347561261
 40
0.2441822796
 40
0.3773109442
 40
0.5280793835
 40
0.687811193
 40
1.0
 40
1.0
 40
1.0
 40
1.0
 10
4.1445697021
 20
11.3921234332
 30
0.0
 10
4.1449687152
 20
11.3921641782
 30
0.0
 10
4.1459693202
 20
11.3923291834
 30
0.0
 10
4.1477676535
 20
11.3926956355
 30
0.0
 10
4.1501403974
 20
11.3932449105
 30
0.0
 10
4.1530096463
 20
11.3939581977
 30
0.0
 10
4.1562347276
 20
11.3948066323
 30
0.0
 10
4.1607488706
 20
11.3960442166
 30
0.0
 10
4.1641568744
 20
11.3970296809
 30
0.0
 10
4.1664054329
 20
11.3977011801
 30
0.0
  0
SPLINE
  5
44D
100
AcDbEntity
  8
0
100
AcDbSpline
 62
9
  6
CONTINUOUS
 70
0
 71
3
 72
21
 73
17
 74
0
 42
0.0000001
 43
0.0000001
 44
0.0000000001
 40
0.0
 40
0.0
 40
0.0
 40
0.0
 40
0.0620049505
 40
0.1241371168
 40
0.1863771904
 40
0.2487091495
 40
0.3111186056
 40
0.3735917613
 40
0.4361176824
 40
0.4986866239
 40
0.5612902715
 40
0.623921445
 40
0.6865745027
 40
0.749244043
 40
0.874614133
 40
1.0
 40
1.0
 40
1.0
 40
1.0
 10
4.1664054387
 20
11.3977011969
 30
0.0
 10
4.2136269584
 20
11.3980278142
 30
0.0
 10
4.3081630972
 20
11.3993720679
 30
0.0
 10
4.4500589611
 20
11.4031754611
 30
0.0
 10
4.5921543425
 20
11.4085047855
 30
0.0
 10
4.7344066418
 20
11.4151110364
 30
0.0
 10
4.876785687
 20
11.4227256717
 30
0.0
 10
5.019270771
 20
11.4310791663
 30
0.0
 10
5.1618513457
 20
11.4398632737
 30
0.0
 10
5.3045222291
 20
11.4487951695
 30
0.0
 10
5.4472782681
 20
11.4576503373
 30
0.0
 10
5.5901201817
 20
11.4661520567
 30
0.0
 10
5.7330510733
 20
11.4739875202
 30
0.0
 10
5.9237579409
 20
11.483163702
 30
0.0
 10
6.1623299272
 20
11.4915376799
 30
0.0
 10
6.3533269794
 20
11.4934723991
 30
0.0
 10
6.4488183383
 20
11.4928750766
 30
0.0
  0
LINE
  5
44E
100
AcDbEntity
  8
0
100
AcDbLine
 62
7
  6
CONTINUOUS
 10
16.1972683828
 20
12.0497291773
 11
16.1969799444
 21
12.8825426803
  0
LINE
  5
44F
100
AcDbEntity
  8
0
100
AcDbLine
 62
7
  6
CONTINUOUS
 10
16.1969799444
 20
10.6231994993
 11
16.1972683804
 21
11.4559984537
  0
SPLINE
  5
450
100
AcDbEntity
  8
0
100
AcDbSpline
 62
7
  6
CONTINUOUS
 70
0
 71
3
 72
9
 73
5
 74
0
 42
0.0000001
 43
0.0000001
 44
0.0000000001
 40
0.0
 40
0.0
 40
0.0
 40
0.0
 40
0.5000000013
 40
1.0
 40
1.0
 40
1.0
 40
1.0
 10
16.1769899511
 20
12.9025326732
 30
0.0
 10
15.8004736343
 20
12.9027210095
 30
0.0
 10
15.0473183365
 20
12.902970678
 30
0.0
 10
14.2941630533
 20
12.9027210095
 30
0.0
 10
13.9176467459
 20
12.9025326732
 30
0.0
  0
SPLINE
  5
451
100
AcDbEntity
  8
0
100
AcDbSpline
 62
7
  6
CONTINUOUS
 70
0
 71
3
 72
9
 73
5
 74
0
 42
0.0000001
 43
0.0000001
 44
0.0000000001
 40
0.0
 40
0.0
 40
0.0
 40
0.0
 40
0.5
 40
1.0
 40
1.0
 40
1.0
 40
1.0
 10
13.8976567525
 20
12.8825426798
 30
0.0
 10
13.8974684172
 20
12.5060263713
 30
0.0
 10
13.8972187523
 20
11.7528710898
 30
0.0
 10
13.8974684172
 20
10.9997158083
 30
0.0
 10
13.8976567525
 20
10.6231994998
 30
0.0
  0
SPLINE
  5
452
100
AcDbEntity
  8
0
100
AcDbSpline
 62
7
  6
CONTINUOUS
 70
0
 71
3
 72
9
 73
5
 74
0
 42
0.0000001
 43
0.0000001
 44
0.0000000001
 40
0.0
 40
0.0
 40
0.0
 40
0.0
 40
0.4999999987
 40
1.0
 40
1.0
 40
1.0
 40
1.0
 10
13.9176467459
 20
10.6032095064
 30
0.0
 10
14.2941630533
 20
10.6030211701
 30
0.0
 10
15.0473183365
 20
10.6027715015
 30
0.0
 10
15.8004736343
 20
10.6030211701
 30
0.0
 10
16.1769899511
 20
10.6032095064
 30
0.0
  0
LINE
  5
453
100
AcDbEntity
  8
0
100
AcDbLine
 62
7
  6
CONTINUOUS
 10
17.9342043582
 20
12.1280034049
 11
17.9328663289
 21
12.128002905
  0
LINE
  5
454
100
AcDbEntity
  8
0
100
AcDbLine
 62
7
  6
CONTINUOUS
 10
17.9328663289
 20
12.128002905
 11
17.9314218214
 21
12.1279960074
  0
LINE
  5
455
100
AcDbEntity
  8
0
100
AcDbLine
 62
7
  6
CONTINUOUS
 10
17.953637426
 20
11.3792085853
 11
17.9352104939
 21
11.3810099085
  0
LINE
  5
456
100
AcDbEntity
  8
0
100
AcDbLine
 62
7
  6
CONTINUOUS
 10
17.9314218258
 20
11.3777461721
 11
17.9342043607
 21
11.3777387746
  0
LINE
  5
457
100
AcDbEntity
  8
0
100
AcDbLine
 62
9
  6
CONTINUOUS
 10
15.9628004078
 20
10.8203185006
 11
15.9727788023
 21
10.8074867376
  0
LINE
  5
458
100
AcDbEntity
  8
0
100
AcDbLine
 62
9
  6
CONTINUOUS
 10
15.3439291097
 20
12.0295357796
 11
15.9798680176
 21
12.6683513742
  0
LINE
  5
459
100
AcDbEntity
  8
0
100
AcDbLine
 62
9
  6
CONTINUOUS
 10
14.1019777287
 20
10.8272678577
 11
14.0879749008
 21
10.7992082098
  0
SPLINE
  5
45A
100
AcDbEntity
  8
0
100
AcDbSpline
 62
9
  6
CONTINUOUS
 70
0
 71
3
 72
16
 73
12
 74
0
 42
0.0000001
 43
0.0000001
 44
0.0000000001
 40
0.0
 40
0.0
 40
0.0
 40
0.0
 40
0.0330667229
 40
0.0573851924
 40
0.0882440154
 40
0.1708951197
 40
0.2822549876
 40
0.4221983779
 40
0.5895321676
 40
0.7826869287
 40
1.0
 40
1.0
 40
1.0
 40
1.0
 10
15.6474159519
 20
11.4728755523
 30
0.0
 10
15.6473489381
 20
11.4728752247
 30
0.0
 10
15.6472409538
 20
11.4729542245
 30
0.0
 10
15.6471439443
 20
11.4731009492
 30
0.0
 10
15.6470199488
 20
11.4733535885
 30
0.0
 10
15.6468842056
 20
11.473789545
 30
0.0
 10
15.6467390572
 20
11.4744511576
 30
0.0
 10
15.6466076401
 20
11.4752896766
 30
0.0
 10
15.6464865178
 20
11.4762967373
 30
0.0
 10
15.6463753074
 20
11.4774625293
 30
0.0
 10
15.6463102734
 20
11.4782918854
 30
0.0
 10
15.6462783399
 20
11.4787311429
 30
0.0
  0
SPLINE
  5
45B
100
AcDbEntity
  8
0
100
AcDbSpline
 62
9
  6
CONTINUOUS
 70
0
 71
3
 72
9
 73
5
 74
0
 42
0.0000001
 43
0.0000001
 44
0.0000000001
 40
0.0
 40
0.0
 40
0.0
 40
0.0
 40
0.459057043
 40
1.0
 40
1.0
 40
1.0
 40
1.0
 10
15.6462783399
 20
11.4787311429
 30
0.0
 10
15.6461213074
 20
11.4808911837
 30
0.0
 10
15.6458992668
 20
11.4856052111
 30
0.0
 10
15.6458252341
 20
11.490323023
 30
0.0
 10
15.6458183592
 20
11.4928750768
 30
0.0
  0
LINE
  5
45C
100
AcDbEntity
  8
0
100
AcDbLine
 62
9
  6
CONTINUOUS
 10
14.1217454944
 20
10.8075465142
 11
14.0936693299
 21
10.7935329073
  0
LINE
  5
45D
100
AcDbEntity
  8
0
100
AcDbLine
 62
9
  6
CONTINUOUS
 10
15.9816805069
 20
11.4712830781
 11
15.9816669079
 21
11.4626153096
  0
LINE
  5
45E
100
AcDbEntity
  8
0
100
AcDbLine
 62
9
  6
CONTINUOUS
 10
15.9816669079
 20
11.4626153096
 11
15.9798199773
 21
10.837393471
  0
LINE
  5
45F
100
AcDbEntity
  8
0
100
AcDbLine
 62
9
  6
CONTINUOUS
 10
14.1019385805
 20
12.6783294794
 11
14.1147685257
 21
12.6683545723
  0
LINE
  5
460
100
AcDbEntity
  8
0
100
AcDbLine
 62
9
  6
CONTINUOUS
 10
16.000978264
 20
12.7122137625
 11
15.9728061682
 21
12.6981539984
  0
LINE
  5
461
100
AcDbEntity
  8
0
100
AcDbLine
 62
9
  6
CONTINUOUS
 10
15.9728061682
 20
12.6981539984
 11
15.9725532985
 21
12.6980277987
  0
LINE
  5
462
100
AcDbEntity
  8
0
100
AcDbLine
 62
9
  6
CONTINUOUS
 10
15.3432721423
 20
11.4769139438
 11
15.9798669467
 21
10.8373904586
  0
SPLINE
  5
463
100
AcDbEntity
  8
0
100
AcDbSpline
 62
9
  6
CONTINUOUS
 70
0
 71
3
 72
14
 73
10
 74
0
 42
0.0000001
 43
0.0000001
 44
0.0000000001
 40
0.0
 40
0.0
 40
0.0
 40
0.0
 40
0.1202928107
 40
0.2480407067
 40
0.3798988682
 40
0.5125058568
 40
0.7690753817
 40
0.8891314486
 40
1.0
 40
1.0
 40
1.0
 40
1.0
 10
15.9798669467
 20
10.8373904586
 30
0.0
 10
15.9796059687
 20
10.836416123
 30
0.0
 10
15.9788998776
 20
10.8344502364
 30
0.0
 10
15.9774316987
 20
10.8316146899
 30
0.0
 10
15.9755679527
 20
10.8288942406
 30
0.0
 10
15.9726620592
 20
10.8256180406
 30
0.0
 10
15.9691980368
 20
10.8230246874
 30
0.0
 10
15.9655313058
 20
10.8212046068
 30
0.0
 10
15.9636966196
 20
10.8205627747
 30
0.0
 10
15.9627986154
 20
10.8203222509
 30
0.0
  0
LINE
  5
464
100
AcDbEntity
  8
0
100
AcDbLine
 62
9
  6
CONTINUOUS
 10
14.1217156066
 20
12.6982114919
 11
14.0936559441
 21
12.7122143702
  0
LINE
  5
465
100
AcDbEntity
  8
0
100
AcDbLine
 62
9
  6
CONTINUOUS
 10
14.1019953576
 20
12.6784407749
 11
14.0879803153
 21
12.7065202342
  0
SPLINE
  5
466
100
AcDbEntity
  8
0
100
AcDbSpline
 62
9
  6
CONTINUOUS
 70
0
 71
3
 72
9
 73
5
 74
0
 42
0.0000001
 43
0.0000001
 44
0.0000000001
 40
0.0
 40
0.0
 40
0.0
 40
0.0
 40
0.4880422023
 40
1.0
 40
1.0
 40
1.0
 40
1.0
 10
17.9315035979
 20
12.1279965944
 30
0.0
 10
17.9328405954
 20
12.128002848
 30
0.0
 10
17.9355868965
 20
12.1276848534
 30
0.0
 10
17.9382047499
 20
12.1268038778
 30
0.0
 10
17.9394789051
 20
12.126217688
 30
0.0
  0
SPLINE
  5
467
100
AcDbEntity
  8
0
100
AcDbSpline
 62
9
  6
CONTINUOUS
 70
0
 71
3
 72
11
 73
7
 74
0
 42
0.0000001
 43
0.0000001
 44
0.0000000001
 40
0.0
 40
0.0
 40
0.0
 40
0.0
 40
0.2516804122
 40
0.5055052913
 40
0.7575168235
 40
1.0
 40
1.0
 40
1.0
 40
1.0
 10
17.9394789051
 20
12.126217688
 30
0.0
 10
17.9407698496
 20
12.1256237741
 30
0.0
 10
17.9432445828
 20
12.1241402471
 30
0.0
 10
17.946301033
 20
12.1210963745
 30
0.0
 10
17.9486355986
 20
12.1175445955
 30
0.0
 10
17.9496952712
 20
12.114936405
 30
0.0
 10
17.9500669919
 20
12.1136187517
 30
0.0
  0
LINE
  5
468
100
AcDbEntity
  8
0
100
AcDbLine
 62
9
  6
CONTINUOUS
 10
15.9926447746
 20
12.6784457709
 11
16.0066583037
 21
12.706526989
  0
LINE
  5
469
100
AcDbEntity
  8
0
100
AcDbLine
 62
9
  6
CONTINUOUS
 10
15.9798165343
 20
12.6683511626
 11
15.9816635071
 21
12.0431190045
  0
LINE
  5
46A
100
AcDbEntity
  8
0
100
AcDbLine
 62
9
  6
CONTINUOUS
 10
15.9816635071
 20
12.0431190045
 11
15.9816771805
 21
12.0344030905
  0
LINE
  5
46B
100
AcDbEntity
  8
0
100
AcDbLine
 62
9
  6
CONTINUOUS
 10
14.1147651596
 20
10.8373892976
 11
14.1019331291
 21
10.8274108973
  0
LINE
  5
46C
100
AcDbEntity
  8
0
100
AcDbLine
 62
9
  6
CONTINUOUS
 10
15.9729200681
 20
10.807531358
 11
16.0009793423
 21
10.7935282636
  0
LINE
  5
46D
100
AcDbEntity
  8
0
100
AcDbLine
 62
9
  6
CONTINUOUS
 10
15.9926433239
 20
10.8272979831
 11
16.006656192
 21
10.7992215553
  0
SPLINE
  5
46E
100
AcDbEntity
  8
0
100
AcDbSpline
 62
9
  6
CONTINUOUS
 70
0
 71
3
 72
15
 73
11
 74
0
 42
0.0000001
 43
0.0000001
 44
0.0000000001
 40
0.0
 40
0.0
 40
0.0
 40
0.0
 40
0.048320522
 40
0.109503159
 40
0.1911071504
 40
0.2978457913
 40
0.4325608272
 40
0.5952190597
 40
0.7847759355
 40
1.0
 40
1.0
 40
1.0
 40
1.0
 10
17.9314177651
 20
12.1279959796
 30
0.0
 10
17.9313161677
 20
12.1279949761
 30
0.0
 10
17.9310858705
 20
12.1279240272
 30
0.0
 10
17.9307801142
 20
12.1276531788
 30
0.0
 10
17.9304802232
 20
12.1272192665
 30
0.0
 10
17.9301846884
 20
12.1266055659
 30
0.0
 10
17.9298966923
 20
12.1258051543
 30
0.0
 10
17.9296180858
 20
12.1248193007
 30
0.0
 10
17.9293542982
 20
12.1236552619
 30
0.0
 10
17.9292012634
 20
12.1228177606
 30
0.0
 10
17.9291274286
 20
12.1223712784
 30
0.0
  0
SPLINE
  5
46F
100
AcDbEntity
  8
0
100
AcDbSpline
 62
9
  6
CONTINUOUS
 70
0
 71
3
 72
11
 73
7
 74
0
 42
0.0000001
 43
0.0000001
 44
0.0000000001
 40
0.0
 40
0.0
 40
0.0
 40
0.0
 40
0.2241316059
 40
0.4765379374
 40
0.7403348289
 40
1.0
 40
1.0
 40
1.0
 40
1.0
 10
17.9291274286
 20
12.1223712784
 30
0.0
 10
17.9289522298
 20
12.1213118432
 30
0.0
 10
17.9286660051
 20
12.1190451211
 30
0.0
 10
17.9283844748
 20
12.1155085028
 30
0.0
 10
17.9282376877
 20
12.1117933228
 30
0.0
 10
17.9282201595
 20
12.1092849998
 30
0.0
 10
17.9282312378
 20
12.1080409826
 30
0.0
  0
LINE
  5
470
100
AcDbEntity
  8
0
100
AcDbLine
 62
9
  6
CONTINUOUS
 10
14.121859674
 20
10.8074901845
 11
14.1318344271
 21
10.8203196695
  0
LINE
  5
471
100
AcDbEntity
  8
0
100
AcDbLine
 62
9
  6
CONTINUOUS
 10
15.9798661306
 20
12.6683499028
 11
15.9927018731
 21
12.6783304268
  0
LINE
  5
472
100
AcDbEntity
  8
0
100
AcDbLine
 62
9
  6
CONTINUOUS
 10
15.9727754311
 20
12.698250837
 11
15.9628004723
 21
12.6854210314
  0
LINE
  5
473
100
AcDbEntity
  8
0
100
AcDbLine
 62
9
  6
CONTINUOUS
 10
14.0879735787
 20
10.7992138145
 11
14.0544567861
 21
10.7768580286
  0
LINE
  5
474
100
AcDbEntity
  8
0
100
AcDbLine
 62
9
  6
CONTINUOUS
 10
14.0879802788
 20
12.7065202438
 11
14.0544614631
 21
12.7288780734
  0
SPLINE
  5
475
100
AcDbEntity
  8
0
100
AcDbSpline
 62
9
  6
CONTINUOUS
 70
0
 71
3
 72
15
 73
11
 74
0
 42
0.0000001
 43
0.0000001
 44
0.0000000001
 40
0.0
 40
0.0
 40
0.0
 40
0.0
 40
0.1154436547
 40
0.2392543303
 40
0.3684037686
 40
0.5000021427
 40
0.6316001829
 40
0.7607487076
 40
0.8845580224
 40
1.0
 40
1.0
 40
1.0
 40
1.0
 10
14.0544614631
 20
12.7288780734
 30
0.0
 10
14.0547245998
 20
12.7297943062
 30
0.0
 10
14.0554160278
 20
12.7316527235
 30
0.0
 10
14.0568252998
 20
12.7343561526
 30
0.0
 10
14.0586171892
 20
12.7369867285
 30
0.0
 10
14.0607566179
 20
12.7394316147
 30
0.0
 10
14.0632015644
 20
12.7415709631
 30
0.0
 10
14.0658321794
 20
12.7433627569
 30
0.0
 10
14.0685356263
 20
12.7447719243
 30
0.0
 10
14.0703940443
 20
12.7454632787
 30
0.0
 10
14.0713102734
 20
12.7457263783
 30
0.0
  0
LINE
  5
476
100
AcDbEntity
  8
0
100
AcDbLine
 62
9
  6
CONTINUOUS
 10
14.0936617106
 20
12.7122159946
 11
14.0713057888
 21
12.7457326751
  0
LINE
  5
477
100
AcDbEntity
  8
0
100
AcDbLine
 62
9
  6
CONTINUOUS
 10
15.9926992339
 20
10.827413367
 11
15.9798684068
 21
10.8373889097
  0
LINE
  5
478
100
AcDbEntity
  8
0
100
AcDbLine
 62
9
  6
CONTINUOUS
 10
16.0009678649
 20
12.7122090419
 11
16.0233259167
 21
12.7457282088
  0
SPLINE
  5
479
100
AcDbEntity
  8
0
100
AcDbSpline
 62
9
  6
CONTINUOUS
 70
0
 71
3
 72
15
 73
11
 74
0
 42
0.0000001
 43
0.0000001
 44
0.0000000001
 40
0.0
 40
0.0
 40
0.0
 40
0.0
 40
0.1154430251
 40
0.2392532697
 40
0.3684024728
 40
0.5000008143
 40
0.6315990322
 40
0.7607478914
 40
0.8845576167
 40
1.0
 40
1.0
 40
1.0
 40
1.0
 10
16.0233259167
 20
12.7457282088
 30
0.0
 10
16.0242421615
 20
12.7454650792
 30
0.0
 10
16.026100606
 20
12.7447736613
 30
0.0
 10
16.028804079
 20
12.7433643945
 30
0.0
 10
16.0314347032
 20
12.7415724989
 30
0.0
 10
16.0338796388
 20
12.7394330513
 30
0.0
 10
16.0360190334
 20
12.7369880731
 30
0.0
 10
16.0378108683
 20
12.7343574173
 30
0.0
 10
16.0392200694
 20
12.731653924
 30
0.0
 10
16.0399114404
 20
12.7297954721
 30
0.0
 10
16.0401745462
 20
12.728879226
 30
0.0
  0
LINE
  5
47A
100
AcDbEntity
  8
0
100
AcDbLine
 62
9
  6
CONTINUOUS
 10
16.0066601975
 20
12.7065252686
 11
16.0401794365
 21
12.7288827176
  0
LINE
  5
47B
100
AcDbEntity
  8
0
100
AcDbLine
 62
9
  6
CONTINUOUS
 10
16.0083982936
 20
12.0345847241
 11
16.0083857182
 21
12.0439384549
  0
LINE
  5
47C
100
AcDbEntity
  8
0
100
AcDbLine
 62
9
  6
CONTINUOUS
 10
16.0083857182
 20
12.0439384549
 11
16.0066604138
 21
12.7065249159
  0
LINE
  5
47D
100
AcDbEntity
  8
0
100
AcDbLine
 62
9
  6
CONTINUOUS
 10
16.0401721989
 20
12.7288732295
 11
16.1951323549
 21
12.8843508812
  0
LINE
  5
47E
100
AcDbEntity
  8
0
100
AcDbLine
 62
9
  6
CONTINUOUS
 10
16.1951323549
 20
12.8843508812
 11
16.1966930463
 21
12.8859164737
  0
SPLINE
  5
47F
100
AcDbEntity
  8
0
100
AcDbSpline
 62
9
  6
CONTINUOUS
 70
0
 71
3
 72
14
 73
10
 74
0
 42
0.0000001
 43
0.0000001
 44
0.0000000001
 40
0.0
 40
0.0
 40
0.0
 40
0.0
 40
0.1108688789
 40
0.2309254745
 40
0.4874959225
 40
0.6201030413
 40
0.751961009
 40
0.8797083021
 40
1.0
 40
1.0
 40
1.0
 40
1.0
 10
15.9627985248
 20
12.6854197436
 30
0.0
 10
15.9636965741
 20
12.6851792109
 30
0.0
 10
15.9655313533
 20
12.6845373482
 30
0.0
 10
15.9691982653
 20
12.6827171707
 30
0.0
 10
15.9726624495
 20
12.680123672
 30
0.0
 10
15.9755684519
 20
12.6768472863
 30
0.0
 10
15.9774322478
 20
12.6741266919
 30
0.0
 10
15.9789004452
 20
12.6712910057
 30
0.0
 10
15.9796065289
 20
12.6693250283
 30
0.0
 10
15.9798674964
 20
12.668350651
 30
0.0
  0
LINE
  5
480
100
AcDbEntity
  8
0
100
AcDbLine
 62
9
  6
CONTINUOUS
 10
16.0418974651
 20
12.0349282202
 11
16.0418850833
 21
12.0449655889
  0
LINE
  5
481
100
AcDbEntity
  8
0
100
AcDbLine
 62
9
  6
CONTINUOUS
 10
16.0418850833
 20
12.0449655889
 11
16.0402272038
 21
12.7288776931
  0
LINE
  5
482
100
AcDbEntity
  8
0
100
AcDbLine
 62
9
  6
CONTINUOUS
 10
16.18037145
 20
12.9022432028
 11
16.1788050884
 21
12.9006827764
  0
LINE
  5
483
100
AcDbEntity
  8
0
100
AcDbLine
 62
9
  6
CONTINUOUS
 10
16.1788050884
 20
12.9006827764
 11
16.0233274728
 21
12.7457269976
  0
SPLINE
  5
484
100
AcDbEntity
  8
0
100
AcDbSpline
 62
9
  6
CONTINUOUS
 70
0
 71
3
 72
11
 73
7
 74
0
 42
0.0000001
 43
0.0000001
 44
0.0000000001
 40
0.0
 40
0.0
 40
0.0
 40
0.0
 40
0.2519480766
 40
0.4911064641
 40
0.7353983268
 40
1.0
 40
1.0
 40
1.0
 40
1.0
 10
14.522343325
 20
11.482271111
 30
0.0
 10
14.5222216302
 20
11.4824658232
 30
0.0
 10
14.5220271343
 20
11.4828757317
 30
0.0
 10
14.5219193169
 20
11.4835463311
 30
0.0
 10
14.5220034013
 20
11.4842307012
 30
0.0
 10
14.5221692021
 20
11.4846681447
 30
0.0
 10
14.5222743071
 20
11.4848851795
 30
0.0
  0
LINE
  5
485
100
AcDbEntity
  8
0
100
AcDbLine
 62
9
  6
CONTINUOUS
 10
14.0713125902
 20
12.7457283172
 11
13.9158386581
 21
12.9006850415
  0
LINE
  5
486
100
AcDbEntity
  8
0
100
AcDbLine
 62
9
  6
CONTINUOUS
 10
13.9158386581
 20
12.9006850415
 11
13.9142730898
 21
12.9022457102
  0
LINE
  5
487
100
AcDbEntity
  8
0
100
AcDbLine
 62
9
  6
CONTINUOUS
 10
17.9518761501
 20
11.7528711029
 11
17.9518340759
 21
11.4185643346
  0
SPLINE
  5
488
100
AcDbEntity
  8
0
100
AcDbSpline
 62
9
  6
CONTINUOUS
 70
0
 71
3
 72
9
 73
5
 74
0
 42
0.0000001
 43
0.0000001
 44
0.0000000001
 40
0.0
 40
0.0
 40
0.0
 40
0.0
 40
0.501925295
 40
1.0
 40
1.0
 40
1.0
 40
1.0
 10
17.9518340657
 20
11.4185643346
 30
0.0
 10
17.9522745466
 20
11.4141376713
 30
0.0
 10
17.9523947492
 20
11.4052284348
 30
0.0
 10
17.9510684818
 20
11.3964227275
 30
0.0
 10
17.950066994
 20
11.392123434
 30
0.0
  0
LINE
  5
489
100
AcDbEntity
  8
0
100
AcDbLine
 62
9
  6
CONTINUOUS
 10
17.9313339151
 20
11.7528710898
 11
17.9313092585
 21
11.4185372019
  0
SPLINE
  5
48A
100
AcDbEntity
  8
0
100
AcDbSpline
 62
9
  6
CONTINUOUS
 70
0
 71
3
 72
9
 73
5
 74
0
 42
0.0000001
 43
0.0000001
 44
0.0000000001
 40
0.0
 40
0.0
 40
0.0
 40
0.0
 40
0.2490338764
 40
1.0
 40
1.0
 40
1.0
 40
1.0
 10
17.9313145158
 20
11.4185372002
 30
0.0
 10
17.9313124511
 20
11.4167853899
 30
0.0
 10
17.9310303674
 20
11.4097525171
 30
0.0
 10
17.9297090632
 20
11.40277288
 30
0.0
 10
17.9282312517
 20
11.3977011804
 30
0.0
  0
SPLINE
  5
48B
100
AcDbEntity
  8
0
100
AcDbSpline
 62
9
  6
CONTINUOUS
 70
0
 71
3
 72
22
 73
18
 74
0
 42
0.0000001
 43
0.0000001
 44
0.0000000001
 40
0.0
 40
0.0
 40
0.0
 40
0.0
 40
0.0626934832
 40
0.1253876289
 40
0.1880771936
 40
0.2507585391
 40
0.3134279546
 40
0.3760805338
 40
0.4387114775
 40
0.5013148878
 40
0.5638835256
 40
0.6264092282
 40
0.7512910384
 40
0.8136228849
 40
0.8758629411
 40
0.9379952398
 40
1.0
 40
1.0
 40
1.0
 40
1.0
 10
15.6458183386
 20
11.4928750767
 30
0.0
 10
15.6935646085
 20
11.4931816498
 30
0.0
 10
15.7890641249
 20
11.4929904862
 30
0.0
 10
15.9322879475
 20
11.4906359656
 30
0.0
 10
16.0754617951
 20
11.4865111453
 30
0.0
 10
16.2185641289
 20
11.4808724077
 30
0.0
 10
16.3615833544
 20
11.4739957933
 30
0.0
 10
16.504513869
 20
11.4661550434
 30
0.0
 10
16.6473558575
 20
11.4576550527
 30
0.0
 10
16.7901121938
 20
11.4488038403
 30
0.0
 10
16.9327823241
 20
11.4398571048
 30
0.0
 10
17.1228030308
 20
11.4281483515
 30
0.0
 10
17.3126998595
 20
11.4173231071
 30
0.0
 10
17.5024807097
 20
11.408506204
 30
0.0
 10
17.6445766532
 20
11.4031744327
 30
0.0
 10
17.786473035
 20
11.3993676856
 30
0.0
 10
17.8810096259
 20
11.3980250444
 30
0.0
 10
17.9282312392
 20
11.3977011826
 30
0.0
  0
SPLINE
  5
48C
100
AcDbEntity
  8
0
100
AcDbSpline
 62
9
  6
CONTINUOUS
 70
0
 71
3
 72
19
 73
15
 74
0
 42
0.0000001
 43
0.0000001
 44
0.0000000001
 40
0.0
 40
0.0
 40
0.0
 40
0.0
 40
0.1784156383
 40
0.359754304
 40
0.5336009114
 40
0.6886226132
 40
0.7556769096
 40
0.8147548023
 40
0.8654649136
 40
0.9074724792
 40
0.9407342782
 40
0.9661131767
 40
0.9850795656
 40
1.0
 40
1.0
 40
1.0
 40
1.0
 10
17.9282312395
 20
11.3977012182
 30
0.0
 10
17.9282202866
 20
11.3964713254
 30
0.0
 10
17.9282372171
 20
11.3939909077
 30
0.0
 10
17.9283802543
 20
11.3903143897
 30
0.0
 10
17.9286556319
 20
11.3868071434
 30
0.0
 10
17.9289918222
 20
11.3840968135
 30
0.0
 10
17.9293335174
 20
11.3821885086
 30
0.0
 10
17.9295989715
 20
11.3809982189
 30
0.0
 10
17.9298798625
 20
11.3799895573
 30
0.0
 10
17.9301705798
 20
11.3791702123
 30
0.0
 10
17.9304691006
 20
11.3785417785
 30
0.0
 10
17.9307722602
 20
11.3780975621
 30
0.0
 10
17.9310813334
 20
11.3778201354
 30
0.0
 10
17.9313149067
 20
11.377747204
 30
0.0
 10
17.9314177585
 20
11.3777461865
 30
0.0
  0
SPLINE
  5
48D
100
AcDbEntity
  8
0
100
AcDbSpline
 62
9
  6
CONTINUOUS
 70
0
 71
3
 72
14
 73
10
 74
0
 42
0.0000001
 43
0.0000001
 44
0.0000000001
 40
0.0
 40
0.0
 40
0.0
 40
0.0
 40
0.2452391035
 40
0.3724518582
 40
0.5002210724
 40
0.6274736541
 40
0.7538100557
 40
0.8784352939
 40
1.0
 40
1.0
 40
1.0
 40
1.0
 10
17.9500669844
 20
11.3921234835
 30
0.0
 10
17.9495668024
 20
11.3903504447
 30
0.0
 10
17.9484015685
 20
11.3877564877
 30
0.0
 10
17.9462270718
 20
11.3846839883
 30
0.0
 10
17.9442528424
 20
11.3825833401
 30
0.0
 10
17.9419800194
 20
11.3808194502
 30
0.0
 10
17.9394782496
 20
11.3794495482
 30
0.0
 10
17.9368486114
 20
11.3784674953
 30
0.0
 10
17.9350357176
 20
11.3780666249
 30
0.0
 10
17.934132103
 20
11.3779346865
 30
0.0
  0
LINE
  5
48E
100
AcDbEntity
  8
0
100
AcDbLine
 62
9
  6
CONTINUOUS
 10
17.934132103
 20
11.3779346865
 11
17.9315062188
 21
11.3777455732
  0
SPLINE
  5
48F
100
AcDbEntity
  8
0
100
AcDbSpline
 62
9
  6
CONTINUOUS
 70
0
 71
3
 72
14
 73
10
 74
0
 42
0.0000001
 43
0.0000001
 44
0.0000000001
 40
0.0
 40
0.0
 40
0.0
 40
0.0
 40
0.31218828
 40
0.4719198509
 40
0.622688152
 40
0.7558168212
 40
0.8652431436
 40
0.9466412354
 40
1.0
 40
1.0
 40
1.0
 40
1.0
 10
17.9282312601
 20
11.3977012183
 30
0.0
 10
17.9304798133
 20
11.3970297219
 30
0.0
 10
17.9338878092
 20
11.3960442615
 30
0.0
 10
17.9384019425
 20
11.3948066819
 30
0.0
 10
17.9416270187
 20
11.3939582497
 30
0.0
 10
17.9444962658
 20
11.3932449638
 30
0.0
 10
17.9468690114
 20
11.3926956889
 30
0.0
 10
17.9486673498
 20
11.3923292354
 30
0.0
 10
17.9496679593
 20
11.392164229
 30
0.0
 10
17.9500669751
 20
11.3921234828
 30
0.0
  0
SPLINE
  5
490
100
AcDbEntity
  8
0
100
AcDbSpline
 62
9
  6
CONTINUOUS
 70
0
 71
3
 72
12
 73
8
 74
0
 42
0.0000001
 43
0.0000001
 44
0.0000000001
 40
0.0
 40
0.0
 40
0.0
 40
0.0
 40
0.3140952739
 40
0.5748333149
 40
0.7948011734
 40
0.8973377261
 40
1.0
 40
1.0
 40
1.0
 40
1.0
 10
17.950066994
 20
11.392123434
 30
0.0
 10
17.9504338948
 20
11.3917966708
 30
0.0
 10
17.9510720351
 20
11.3911574047
 30
0.0
 10
17.9517774309
 20
11.3901216589
 30
0.0
 10
17.9520559627
 20
11.3892301043
 30
0.0
 10
17.952047116
 20
11.3885602739
 30
0.0
 10
17.9519730645
 20
11.3882449525
 30
0.0
 10
17.9519202808
 20
11.3880932886
 30
0.0
  0
SPLINE
  5
491
100
AcDbEntity
  8
0
100
AcDbSpline
 62
9
  6
CONTINUOUS
 70
0
 71
3
 72
14
 73
10
 74
0
 42
0.0000001
 43
0.0000001
 44
0.0000000001
 40
0.0
 40
0.0
 40
0.0
 40
0.0
 40
0.2490001568
 40
0.3765256193
 40
0.5041771382
 40
0.6309045563
 40
0.7561952817
 40
0.8795416043
 40
1.0
 40
1.0
 40
1.0
 40
1.0
 10
17.9753214744
 20
11.3891500422
 30
0.0
 10
17.9745081173
 20
11.3876713759
 30
0.0
 10
17.9729612215
 20
11.3855958785
 30
0.0
 10
17.9704571666
 20
11.3832637404
 30
0.0
 10
17.9683534853
 20
11.3817423012
 30
0.0
 10
17.9660793369
 20
11.3805213811
 30
0.0
 10
17.9636877217
 20
11.3796323753
 30
0.0
 10
17.9612473833
 20
11.3790568704
 30
0.0
 10
17.9596009035
 20
11.3788708128
 30
0.0
 10
17.9587856282
 20
11.3788278028
 30
0.0
  0
SPLINE
  5
492
100
AcDbEntity
  8
0
100
AcDbSpline
 62
9
  6
CONTINUOUS
 70
0
 71
3
 72
9
 73
5
 74
0
 42
0.0000001
 43
0.0000001
 44
0.0000000001
 40
0.0
 40
0.0
 40
0.0
 40
0.0
 40
0.2486265101
 40
1.0
 40
1.0
 40
1.0
 40
1.0
 10
18.0986794731
 20
11.8727302759
 30
0.0
 10
18.0986794731
 20
11.8732633734
 30
0.0
 10
18.0985885698
 20
11.875406793
 30
0.0
 10
18.0981491237
 20
11.8775337098
 30
0.0
 10
18.0976421668
 20
11.8790629417
 30
0.0
  0
LINE
  5
493
100
AcDbEntity
  8
0
100
AcDbLine
 62
9
  6
CONTINUOUS
 10
18.0976421668
 20
11.8790629417
 11
18.0962018998
 21
11.8823746975
  0
LINE
  5
494
100
AcDbEntity
  8
0
100
AcDbLine
 62
9
  6
CONTINUOUS
 10
13.8979461074
 20
12.8859242047
 11
13.8995066055
 21
12.8843577702
  0
LINE
  5
495
100
AcDbEntity
  8
0
100
AcDbLine
 62
9
  6
CONTINUOUS
 10
13.8995066055
 20
12.8843577702
 11
14.0544624424
 21
12.7288796854
  0
LINE
  5
496
100
AcDbEntity
  8
0
100
AcDbLine
 62
9
  6
CONTINUOUS
 10
14.054461026
 20
10.7768651177
 11
13.8995043738
 21
10.6213914262
  0
LINE
  5
497
100
AcDbEntity
  8
0
100
AcDbLine
 62
9
  6
CONTINUOUS
 10
13.8995043738
 20
10.6213914262
 11
13.8979437134
 21
10.6198258666
  0
LINE
  5
498
100
AcDbEntity
  8
0
100
AcDbLine
 62
9
  6
CONTINUOUS
 10
14.1318371439
 20
12.6854242677
 11
14.1218589557
 21
12.6982562839
  0
LINE
  5
499
100
AcDbEntity
  8
0
100
AcDbLine
 62
9
  6
CONTINUOUS
 10
14.0936692778
 20
10.7935328657
 11
14.0713111939
 21
10.7600136663
  0
SPLINE
  5
49A
100
AcDbEntity
  8
0
100
AcDbSpline
 62
9
  6
CONTINUOUS
 70
0
 71
3
 72
11
 73
7
 74
0
 42
0.0000001
 43
0.0000001
 44
0.0000000001
 40
0.0
 40
0.0
 40
0.0
 40
0.0
 40
0.2646018281
 40
0.5088940018
 40
0.7480520397
 40
1.0
 40
1.0
 40
1.0
 40
1.0
 10
14.5222743071
 20
12.0208570002
 30
0.0
 10
14.5221692021
 20
12.0210740352
 30
0.0
 10
14.5220034009
 20
12.021511479
 30
0.0
 10
14.5219193171
 20
12.0221958492
 30
0.0
 10
14.5220271343
 20
12.0228664484
 30
0.0
 10
14.5222216305
 20
12.0232763564
 30
0.0
 10
14.522343325
 20
12.0234710686
 30
0.0
  0
SPLINE
  5
49B
100
AcDbEntity
  8
0
100
AcDbSpline
 62
9
  6
CONTINUOUS
 70
0
 71
3
 72
15
 73
11
 74
0
 42
0.0000001
 43
0.0000001
 44
0.0000000001
 40
0.0
 40
0.0
 40
0.0
 40
0.0
 40
0.1154439589
 40
0.2392549202
 40
0.3684045773
 40
0.5000030549
 40
0.6316010541
 40
0.7607494063
 40
0.8845584292
 40
1.0
 40
1.0
 40
1.0
 40
1.0
 10
14.0713111939
 20
10.7600136663
 30
0.0
 10
14.0703949559
 20
10.7602768088
 30
0.0
 10
14.0685365293
 20
10.7609682505
 30
0.0
 10
14.0658330902
 20
10.7623775464
 30
0.0
 10
14.0632025096
 20
10.7641694621
 30
0.0
 10
14.0607576253
 20
10.7663089179
 30
0.0
 10
14.058618287
 20
10.7687538908
 30
0.0
 10
14.0568265106
 20
10.7713845292
 30
0.0
 10
14.0554173662
 20
10.774087995
 30
0.0
 10
14.0547260306
 20
10.7759464231
 30
0.0
 10
14.0544629412
 20
10.7768626558
 30
0.0
  0
SPLINE
  5
49C
100
AcDbEntity
  8
0
100
AcDbSpline
 62
9
  6
CONTINUOUS
 70
0
 71
3
 72
9
 73
5
 74
0
 42
0.0000001
 43
0.0000001
 44
0.0000000001
 40
0.0
 40
0.0
 40
0.0
 40
0.0
 40
0.2433647054
 40
1.0
 40
1.0
 40
1.0
 40
1.0
 10
14.5222744008
 20
12.0208572178
 30
0.0
 10
14.5225198649
 20
12.0214290492
 30
0.0
 10
14.5236477082
 20
12.023726035
 30
0.0
 10
14.5252171421
 20
12.025803804
 30
0.0
 10
14.5265861084
 20
12.0271709637
 30
0.0
  0
SPLINE
  5
49D
100
AcDbEntity
  8
0
100
AcDbSpline
 62
9
  6
CONTINUOUS
 70
0
 71
3
 72
9
 73
5
 74
0
 42
0.0000001
 43
0.0000001
 44
0.0000000001
 40
0.0
 40
0.0
 40
0.0
 40
0.0
 40
0.5006673575
 40
1.0
 40
1.0
 40
1.0
 40
1.0
 10
14.5265861084
 20
12.0271709637
 30
0.0
 10
14.5274885578
 20
12.0280722222
 30
0.0
 10
14.5294655755
 20
12.0297094229
 30
0.0
 10
14.5317401395
 20
12.0308996533
 30
0.0
 10
14.5329177394
 20
12.031380568
 30
0.0
  0
SPLINE
  5
49E
100
AcDbEntity
  8
0
100
AcDbSpline
 62
9
  6
CONTINUOUS
 70
0
 71
3
 72
9
 73
5
 74
0
 42
0.0000001
 43
0.0000001
 44
0.0000000001
 40
0.0
 40
0.0
 40
0.0
 40
0.0
 40
0.2553627369
 40
1.0
 40
1.0
 40
1.0
 40
1.0
 10
14.5329177394
 20
12.031380568
 30
0.0
 10
14.5334376097
 20
12.0315928754
 30
0.0
 10
14.5355071714
 20
12.0323384872
 30
0.0
 10
14.5376986883
 20
12.032750696
 30
0.0
 10
14.5393335977
 20
12.0328424476
 30
0.0
  0
SPLINE
  5
49F
100
AcDbEntity
  8
0
100
AcDbSpline
 62
9
  6
CONTINUOUS
 70
0
 71
3
 72
18
 73
14
 74
0
 42
0.0000001
 43
0.0000001
 44
0.0000000001
 40
0.0
 40
0.0
 40
0.0
 40
0.0
 40
0.2040723238
 40
0.3917238786
 40
0.559361666
 40
0.7037133279
 40
0.8220494088
 40
0.8706324575
 40
0.9117611246
 40
0.9453042476
 40
0.9711827856
 40
0.9893640635
 40
1.0
 40
1.0
 40
1.0
 40
1.0
 10
14.5396036418
 20
12.0204249993
 30
0.0
 10
14.5396174895
 20
12.0212727027
 30
0.0
 10
14.5396493209
 20
12.022899821
 30
0.0
 10
14.5397121901
 20
12.0252228535
 30
0.0
 10
14.5397870128
 20
12.0272973053
 30
0.0
 10
14.5398724344
 20
12.0290830665
 30
0.0
 10
14.5399544624
 20
12.030373787
 30
0.0
 10
14.5400269977
 20
12.0312350373
 30
0.0
 10
14.5400791427
 20
12.0317446217
 30
0.0
 10
14.5401324488
 20
12.0321586019
 30
0.0
 10
14.5401851672
 20
12.0324777876
 30
0.0
 10
14.5402385246
 20
12.0326968123
 30
0.0
 10
14.5402798036
 20
12.0328129206
 30
0.0
 10
14.5403076867
 20
12.0328471991
 30
0.0
  0
SPLINE
  5
4A0
100
AcDbEntity
  8
0
100
AcDbSpline
 62
7
  6
CONTINUOUS
 70
0
 71
3
 72
15
 73
11
 74
0
 42
0.0000001
 43
0.0000001
 44
0.0000000001
 40
0.0
 40
0.0
 40
0.0
 40
0.0
 40
0.0283567026
 40
0.0515125423
 40
0.08170969
 40
0.1191968094
 40
0.1640622641
 40
0.275950178
 40
0.5858039311
 40
1.0
 40
1.0
 40
1.0
 40
1.0
 10
15.6458182634
 20
12.0328710899
 30
0.0
 10
15.6457613164
 20
12.0328711716
 30
0.0
 10
15.6456742324
 20
12.0327832131
 30
0.0
 10
15.6455991291
 20
12.0326435533
 30
0.0
 10
15.6455290753
 20
12.0324726695
 30
0.0
 10
15.6454612186
 20
12.0322576548
 30
0.0
 10
15.6453628387
 20
12.0318797257
 30
0.0
 10
15.6451828731
 20
12.030959723
 30
0.0
 10
15.6449729343
 20
12.0292927438
 30
0.0
 10
15.6448462582
 20
12.0278442028
 30
0.0
 10
15.6447840495
 20
12.0270147277
 30
0.0
  0
SPLINE
  5
4A1
100
AcDbEntity
  8
0
100
AcDbSpline
 62
7
  6
CONTINUOUS
 70
0
 71
3
 72
9
 73
5
 74
0
 42
0.0000001
 43
0.0000001
 44
0.0000000001
 40
0.0
 40
0.0
 40
0.0
 40
0.0
 40
0.459066108
 40
1.0
 40
1.0
 40
1.0
 40
1.0
 10
15.6447840495
 20
12.0270147277
 30
0.0
 10
15.6446220804
 20
12.0248550737
 30
0.0
 10
15.6444048375
 20
12.0201407278
 30
0.0
 10
15.6443344297
 20
12.0154230597
 30
0.0
 10
15.6443318321
 20
12.0128711173
 30
0.0
  0
SPLINE
  5
4A2
100
AcDbEntity
  8
0
100
AcDbSpline
 62
9
  6
CONTINUOUS
 70
0
 71
3
 72
15
 73
11
 74
0
 42
0.0000001
 43
0.0000001
 44
0.0000000001
 40
0.0
 40
0.0
 40
0.0
 40
0.0
 40
0.024203241
 40
0.0442179341
 40
0.0708256575
 40
0.1045750213
 40
0.1458760517
 40
0.2524802121
 40
0.5647522511
 40
1.0
 40
1.0
 40
1.0
 40
1.0
 10
15.6472302992
 20
12.0328671414
 30
0.0
 10
15.6471818227
 20
12.0328673972
 30
0.0
 10
15.6471057662
 20
12.0327946831
 30
0.0
 10
15.6470391138
 20
12.0326744486
 30
0.0
 10
15.6469760635
 20
12.0325242665
 30
0.0
 10
15.6469141226
 20
12.0323307755
 30
0.0
 10
15.6468218525
 20
12.031978406
 30
0.0
 10
15.6466469898
 20
12.0310729843
 30
0.0
 10
15.6464406121
 20
12.0293733009
 30
0.0
 10
15.6463157224
 20
12.0278812997
 30
0.0
 10
15.6462543873
 20
12.0270116923
 30
0.0
  0
SPLINE
  5
4A3
100
AcDbEntity
  8
0
100
AcDbSpline
 62
9
  6
CONTINUOUS
 70
0
 71
3
 72
10
 73
6
 74
0
 42
0.0000001
 43
0.0000001
 44
0.0000000001
 40
0.0
 40
0.0
 40
0.0
 40
0.0
 40
0.2249790647
 40
0.4775194724
 40
1.0
 40
1.0
 40
1.0
 40
1.0
 10
15.6462543873
 20
12.0270116923
 30
0.0
 10
15.6461797097
 20
12.0259529166
 30
0.0
 10
15.6460544204
 20
12.0237033137
 30
0.0
 10
15.6458780413
 20
12.0189886826
 30
0.0
 10
15.6458250212
 20
12.0153320521
 30
0.0
 10
15.6458183382
 20
12.0128671028
 30
0.0
  0
LINE
  5
4A4
100
AcDbEntity
  8
0
100
AcDbLine
 62
9
  6
CONTINUOUS
 10
15.6458183383
 20
12.0128671028
 11
15.6443318321
 21
12.0128711173
  0
LINE
  5
4A5
100
AcDbEntity
  8
0
100
AcDbLine
 62
9
  6
CONTINUOUS
 10
18.0962018998
 20
11.623367482
 11
18.0975065731
 21
11.6262837948
  0
LINE
  5
4A6
100
AcDbEntity
  8
0
100
AcDbLine
 62
9
  6
CONTINUOUS
 10
18.0983897492
 20
11.6296656527
 11
18.0986794731
 21
11.6330119037
  0
LINE
  5
4A7
100
AcDbEntity
  8
0
100
AcDbLine
 62
9
  6
CONTINUOUS
 10
16.0009736693
 20
10.7935260462
 11
16.023329891
 21
10.7600097619
  0
LINE
  5
4A8
100
AcDbEntity
  8
0
100
AcDbLine
 62
9
  6
CONTINUOUS
 10
16.0066561421
 20
10.7992215623
 11
16.0401739813
 21
10.776864439
  0
SPLINE
  5
4A9
100
AcDbEntity
  8
0
100
AcDbSpline
 62
9
  6
CONTINUOUS
 70
0
 71
3
 72
15
 73
11
 74
0
 42
0.0000001
 43
0.0000001
 44
0.0000000001
 40
0.0
 40
0.0
 40
0.0
 40
0.0
 40
0.1154434653
 40
0.2392537523
 40
0.36840276
 40
0.5000008137
 40
0.6315987458
 40
0.7607474115
 40
0.8845571783
 40
1.0
 40
1.0
 40
1.0
 40
1.0
 10
16.0401739813
 20
10.776864439
 30
0.0
 10
16.0399108498
 20
10.7759482294
 30
0.0
 10
16.0392194413
 20
10.7740898597
 30
0.0
 10
16.0378102156
 20
10.7713864961
 30
0.0
 10
16.0360183889
 20
10.7687559791
 30
0.0
 10
16.0338790355
 20
10.7663111375
 30
0.0
 10
16.0314341736
 20
10.7641718117
 30
0.0
 10
16.0288036434
 20
10.7623800185
 30
0.0
 10
16.0261002738
 20
10.7609708311
 30
0.0
 10
16.0242419036
 20
10.760279451
 30
0.0
 10
16.0233256952
 20
10.7600163345
 30
0.0
  0
SPLINE
  5
4AA
100
AcDbEntity
  8
0
100
AcDbSpline
 62
9
  6
CONTINUOUS
 70
0
 71
3
 72
14
 73
10
 74
0
 42
0.0000001
 43
0.0000001
 44
0.0000000001
 40
0.0
 40
0.0
 40
0.0
 40
0.0
 40
0.2490241316
 40
0.376561768
 40
0.5042204787
 40
0.6309491055
 40
0.7562364935
 40
0.8795700271
 40
1.0
 40
1.0
 40
1.0
 40
1.0
 10
17.9753214746
 20
12.1165921373
 30
0.0
 10
17.9745069347
 20
12.118072954
 30
0.0
 10
17.9729573306
 20
12.1201512538
 30
0.0
 10
17.9704486221
 20
12.1224856625
 30
0.0
 10
17.9683409888
 20
12.1240079429
 30
0.0
 10
17.9660625941
 20
12.1252284848
 30
0.0
 10
17.9636669071
 20
12.1261162131
 30
0.0
 10
17.9612228897
 20
12.126689671
 30
0.0
 10
17.9595742069
 20
12.1268738704
 30
0.0
 10
17.9587579595
 20
12.1269158175
 30
0.0
  0
SPLINE
  5
4AB
100
AcDbEntity
  8
0
100
AcDbSpline
 62
9
  6
CONTINUOUS
 70
0
 71
3
 72
16
 73
12
 74
0
 42
0.0000001
 43
0.0000001
 44
0.0000000001
 40
0.0
 40
0.0
 40
0.0
 40
0.0
 40
0.0192286719
 40
0.0440163042
 40
0.1120426655
 40
0.2066875358
 40
0.328182721
 40
0.4737267415
 40
0.6380754031
 40
0.8152735267
 40
1.0
 40
1.0
 40
1.0
 40
1.0
 10
18.0893576152
 20
11.623367482
 30
0.0
 10
18.0894188856
 20
11.6235431784
 30
0.0
 10
18.0895275275
 20
11.62395621
 30
0.0
 10
18.0897115663
 20
11.6250253284
 30
0.0
 10
18.089850278
 20
11.6268371616
 30
0.0
 10
18.0898983464
 20
11.6295868503
 30
0.0
 10
18.0898212717
 20
11.6330868563
 30
0.0
 10
18.0896182983
 20
11.6372566399
 30
0.0
 10
18.0892980088
 20
11.6419595123
 30
0.0
 10
18.088877708
 20
11.6470349416
 30
0.0
 10
18.0885486706
 20
11.6505218172
 30
0.0
 10
18.0883730929
 20
11.6523007471
 30
0.0
  0
SPLINE
  5
4AC
100
AcDbEntity
  8
0
100
AcDbSpline
 62
9
  6
CONTINUOUS
 70
0
 71
3
 72
8
 73
4
 74
0
 42
0.0000001
 43
0.0000001
 44
0.0000000001
 40
0.0
 40
0.0
 40
0.0
 40
0.0
 40
1.0
 40
1.0
 40
1.0
 40
1.0
 10
18.0918351885
 20
11.6330119037
 30
0.0
 10
18.0918351885
 20
11.6296927131
 30
0.0
 10
18.0909574874
 20
11.626275649
 30
0.0
 10
18.0893576152
 20
11.623367482
 30
0.0
  0
SPLINE
  5
4AD
100
AcDbEntity
  8
0
100
AcDbSpline
 62
9
  6
CONTINUOUS
 70
0
 71
3
 72
8
 73
4
 74
0
 42
0.0000001
 43
0.0000001
 44
0.0000000001
 40
0.0
 40
0.0
 40
0.0
 40
0.0
 40
1.0
 40
1.0
 40
1.0
 40
1.0
 10
18.0893576152
 20
11.8823746975
 30
0.0
 10
18.0909574874
 20
11.8794665305
 30
0.0
 10
18.0918351885
 20
11.8760494665
 30
0.0
 10
18.0918351885
 20
11.8727302759
 30
0.0
  0
SPLINE
  5
4AE
100
AcDbEntity
  8
0
100
AcDbSpline
 62
9
  6
CONTINUOUS
 70
0
 71
3
 72
16
 73
12
 74
0
 42
0.0000001
 43
0.0000001
 44
0.0000000001
 40
0.0
 40
0.0
 40
0.0
 40
0.0
 40
0.1847188079
 40
0.3619091923
 40
0.5262590102
 40
0.6718043999
 40
0.7933015076
 40
0.8879486114
 40
0.9559816014
 40
0.980770644
 40
1.0
 40
1.0
 40
1.0
 40
1.0
 10
18.0883730929
 20
11.8534414325
 30
0.0
 10
18.0885486609
 20
11.8552202887
 30
0.0
 10
18.0888777008
 20
11.8587070144
 30
0.0
 10
18.0892979691
 20
11.8637823079
 30
0.0
 10
18.0896182757
 20
11.8684851283
 30
0.0
 10
18.0898212588
 20
11.8726549545
 30
0.0
 10
18.0898983416
 20
11.8761550136
 30
0.0
 10
18.0898502932
 20
11.8789048069
 30
0.0
 10
18.0897115777
 20
11.8807167401
 30
0.0
 10
18.0895275297
 20
11.8817859421
 30
0.0
 10
18.0894188882
 20
11.8821989951
 30
0.0
 10
18.0893576152
 20
11.8823746975
 30
0.0
  0
LINE
  5
4AF
100
AcDbEntity
  8
0
100
AcDbLine
 62
9
  6
CONTINUOUS
 10
16.0066513247
 20
10.7992246966
 11
16.0083766004
 21
11.4617953953
  0
LINE
  5
4B0
100
AcDbEntity
  8
0
100
AcDbLine
 62
9
  6
CONTINUOUS
 10
16.1966904767
 20
10.6198180262
 11
16.1951300618
 21
10.6213843897
  0
LINE
  5
4B1
100
AcDbEntity
  8
0
100
AcDbLine
 62
9
  6
CONTINUOUS
 10
16.1951300618
 20
10.6213843897
 11
16.040175136
 21
10.7768616752
  0
LINE
  5
4B2
100
AcDbEntity
  8
0
100
AcDbLine
 62
9
  6
CONTINUOUS
 10
16.040222797
 20
10.7768615124
 11
16.0418807096
 21
11.4607670331
  0
SPLINE
  5
4B3
100
AcDbEntity
  8
0
100
AcDbSpline
 62
7
  6
CONTINUOUS
 70
0
 71
3
 72
15
 73
11
 74
0
 42
0.0000001
 43
0.0000001
 44
0.0000000001
 40
0.0
 40
0.0
 40
0.0
 40
0.0
 40
0.0283141255
 40
0.0514487178
 40
0.0816280586
 40
0.119101286
 40
0.1639568701
 40
0.2758370824
 40
0.5857217001
 40
1.0
 40
1.0
 40
1.0
 40
1.0
 10
15.645818412
 20
11.4728710901
 30
0.0
 10
15.6457615628
 20
11.4728710086
 30
0.0
 10
15.6456746849
 20
11.4729590393
 30
0.0
 10
15.6456000597
 20
11.4730987137
 30
0.0
 10
15.6455304985
 20
11.473269647
 30
0.0
 10
15.6454632631
 20
11.4734847167
 30
0.0
 10
15.6453659376
 20
11.4738627676
 30
0.0
 10
15.645188488
 20
11.4747830797
 30
0.0
 10
15.6449830617
 20
11.4764504737
 30
0.0
 10
15.6448606188
 20
11.4778992982
 30
0.0
 10
15.6448009485
 20
11.4787289459
 30
0.0
  0
SPLINE
  5
4B4
100
AcDbEntity
  8
0
100
AcDbSpline
 62
7
  6
CONTINUOUS
 70
0
 71
3
 72
10
 73
6
 74
0
 42
0.0000001
 43
0.0000001
 44
0.0000000001
 40
0.0
 40
0.0
 40
0.0
 40
0.0
 40
0.2144374892
 40
0.4590623621
 40
1.0
 40
1.0
 40
1.0
 40
1.0
 10
15.6448009485
 20
11.4787289459
 30
0.0
 10
15.6447283872
 20
11.4797378262
 30
0.0
 10
15.6446048239
 20
11.4818999138
 30
0.0
 10
15.6444278749
 20
11.4866136702
 30
0.0
 10
15.6443791913
 20
11.490319553
 30
0.0
 10
15.6443795274
 20
11.4928711172
 30
0.0
  0
LINE
  5
4B5
100
AcDbEntity
  8
0
100
AcDbLine
 62
9
  6
CONTINUOUS
 10
15.6443795274
 20
11.4928711172
 11
15.6458183592
 21
11.4928750768
  0
SPLINE
  5
4B6
100
AcDbEntity
  8
0
100
AcDbSpline
 62
9
  6
CONTINUOUS
 70
0
 71
3
 72
16
 73
12
 74
0
 42
0.0000001
 43
0.0000001
 44
0.0000000001
 40
0.0
 40
0.0
 40
0.0
 40
0.0
 40
0.0078847418
 40
0.0218641172
 40
0.0723239642
 40
0.1537422247
 40
0.2659136437
 40
0.4081959895
 40
0.5791140805
 40
0.7769572409
 40
1.0
 40
1.0
 40
1.0
 40
1.0
 10
14.540346475
 20
11.4728710869
 30
0.0
 10
14.5403314883
 20
11.4728710863
 30
0.0
 10
14.5402954604
 20
11.4729023874
 30
0.0
 10
14.5402416054
 20
11.4730263698
 30
0.0
 10
14.5401762583
 20
11.4732998064
 30
0.0
 10
14.5401068953
 20
11.4737568022
 30
0.0
 10
14.5400363506
 20
11.4743921959
 30
0.0
 10
14.5399684031
 20
11.4751976084
 30
0.0
 10
14.53990311
 20
11.476166905
 30
0.0
 10
14.5398415738
 20
11.4772900655
 30
0.0
 10
14.5398055166
 20
11.4780892633
 30
0.0
 10
14.5397879962
 20
11.478512845
 30
0.0
  0
LINE
  5
4B7
100
AcDbEntity
  8
0
100
AcDbLine
 62
9
  6
CONTINUOUS
 10
14.5397879962
 20
11.478512845
 11
14.5396089659
 21
11.4849996014
  0
LINE
  5
4B8
100
AcDbEntity
  8
0
100
AcDbLine
 62
9
  6
CONTINUOUS
 10
14.5395442205
 20
11.4928710938
 11
15.6443700943
 21
11.492873097
  0
SPLINE
  5
4B9
100
AcDbEntity
  8
0
100
AcDbSpline
 62
9
  6
CONTINUOUS
 70
0
 71
3
 72
9
 73
5
 74
0
 42
0.0000001
 43
0.0000001
 44
0.0000000001
 40
0.0
 40
0.0
 40
0.0
 40
0.0
 40
0.2443688786
 40
1.0
 40
1.0
 40
1.0
 40
1.0
 10
14.5393335818
 20
11.4728997329
 30
0.0
 10
14.5387970586
 20
11.4729298432
 30
0.0
 10
14.5366077771
 20
11.4731482899
 30
0.0
 10
14.5344560529
 20
11.4737333881
 30
0.0
 10
14.5329177526
 20
11.4743616063
 30
0.0
  0
SPLINE
  5
4BA
100
AcDbEntity
  8
0
100
AcDbSpline
 62
9
  6
CONTINUOUS
 70
0
 71
3
 72
9
 73
5
 74
0
 42
0.0000001
 43
0.0000001
 44
0.0000000001
 40
0.0
 40
0.0
 40
0.0
 40
0.0
 40
0.4993326383
 40
1.0
 40
1.0
 40
1.0
 40
1.0
 10
14.5329177526
 20
11.4743616063
 30
0.0
 10
14.5317401495
 20
11.4748425213
 30
0.0
 10
14.5294655791
 20
11.4760327535
 30
0.0
 10
14.5274885564
 20
11.4776699584
 30
0.0
 10
14.526586105
 20
11.4785712194
 30
0.0
  0
LINE
  5
4BB
100
AcDbEntity
  8
0
100
AcDbLine
 62
9
  6
CONTINUOUS
 10
14.5222743307
 20
11.4848851263
 11
14.5395442395
 21
11.4928710464
  0
SPLINE
  5
4BC
100
AcDbEntity
  8
0
100
AcDbSpline
 62
9
  6
CONTINUOUS
 70
0
 71
3
 72
9
 73
5
 74
0
 42
0.0000001
 43
0.0000001
 44
0.0000000001
 40
0.0
 40
0.0
 40
0.0
 40
0.0
 40
0.4996749232
 40
1.0
 40
1.0
 40
1.0
 40
1.0
 10
14.5222743071
 20
11.4848851795
 30
0.0
 10
14.5198784901
 20
11.4907592662
 30
0.0
 10
14.5163186628
 20
11.50306368
 30
0.0
 10
14.5157527921
 20
11.5159100707
 30
0.0
 10
14.5163516191
 20
11.5222339174
 30
0.0
  0
SPLINE
  5
4BD
100
AcDbEntity
  8
0
100
AcDbSpline
 62
9
  6
CONTINUOUS
 70
0
 71
3
 72
10
 73
6
 74
0
 42
0.0000001
 43
0.0000001
 44
0.0000000001
 40
0.0
 40
0.0
 40
0.0
 40
0.0
 40
0.4956229348
 40
0.7472945772
 40
1.0
 40
1.0
 40
1.0
 40
1.0
 10
14.5328100141
 20
11.9835082622
 30
0.0
 10
14.5328101357
 20
11.9885147831
 30
0.0
 10
14.533803737
 20
11.9960876443
 30
0.0
 10
14.536633046
 20
12.0057907635
 30
0.0
 10
14.5385070833
 20
12.0105385785
 30
0.0
 10
14.5395443719
 20
12.0128710219
 30
0.0
  0
SPLINE
  5
4BE
100
AcDbEntity
  8
0
100
AcDbSpline
 62
9
  6
CONTINUOUS
 70
0
 71
3
 72
10
 73
6
 74
0
 42
0.0000001
 43
0.0000001
 44
0.0000000001
 40
0.0
 40
0.0
 40
0.0
 40
0.0
 40
0.2527174066
 40
0.5043867417
 40
1.0
 40
1.0
 40
1.0
 40
1.0
 10
14.5395443237
 20
11.4928711399
 30
0.0
 10
14.5385070244
 20
11.4952037137
 30
0.0
 10
14.5366329458
 20
11.4999516187
 30
0.0
 10
14.5338035375
 20
11.5096547199
 30
0.0
 10
14.5328100115
 20
11.5172274895
 30
0.0
 10
14.5328099623
 20
11.5222339174
 30
0.0
  0
SPLINE
  5
4BF
100
AcDbEntity
  8
0
100
AcDbSpline
 62
9
  6
CONTINUOUS
 70
0
 71
3
 72
11
 73
7
 74
0
 42
0.0000001
 43
0.0000001
 44
0.0000000001
 40
0.0
 40
0.0
 40
0.0
 40
0.0
 40
0.2503736671
 40
0.5004516371
 40
0.7503136656
 40
1.0
 40
1.0
 40
1.0
 40
1.0
 10
14.5163516191
 20
11.9835082622
 30
0.0
 10
14.5160516373
 20
11.9866786263
 30
0.0
 10
14.5158933396
 20
11.993064566
 30
0.0
 10
14.5168811595
 20
12.0025796769
 30
0.0
 10
14.5189887121
 20
12.0118993489
 30
0.0
 10
14.5210749664
 20
12.0179163921
 30
0.0
 10
14.5222743071
 20
12.0208570002
 30
0.0
  0
LINE
  5
4C0
100
AcDbEntity
  8
0
100
AcDbLine
 62
9
  6
CONTINUOUS
 10
14.5222743996
 20
12.0208572177
 11
14.539544298
 21
12.0128712662
  0
LINE
  5
4C1
100
AcDbEntity
  8
0
100
AcDbLine
 62
9
  6
CONTINUOUS
 10
16.0233236622
 20
10.7600140247
 11
16.178798154
 21
10.6050570694
  0
LINE
  5
4C2
100
AcDbEntity
  8
0
100
AcDbLine
 62
9
  6
CONTINUOUS
 10
16.178798154
 20
10.6050570694
 11
16.1803637205
 21
10.6034964013
  0
SPLINE
  5
4C3
100
AcDbEntity
  8
0
100
AcDbSpline
 62
9
  6
CONTINUOUS
 70
0
 71
3
 72
18
 73
14
 74
0
 42
0.0000001
 43
0.0000001
 44
0.0000000001
 40
0.0
 40
0.0
 40
0.0
 40
0.0
 40
0.1997790731
 40
0.3830354637
 40
0.5472723596
 40
0.6898427679
 40
0.8081886225
 40
0.8576280245
 40
0.90025737
 40
0.9358693535
 40
0.9643904833
 40
0.9857807089
 40
1.0
 40
1.0
 40
1.0
 40
1.0
 10
15.9627490272
 20
12.6853704305
 30
0.0
 10
15.9191189425
 20
12.641902992
 30
0.0
 10
15.8354583704
 20
12.5585719307
 30
0.0
 10
15.7158994834
 20
12.4395370806
 30
0.0
 10
15.608812604
 20
12.3329715434
 30
0.0
 10
15.5158933873
 20
12.2405373874
 30
0.0
 10
15.4480570499
 20
12.1730684756
 30
0.0
 10
15.402070726
 20
12.1273206633
 30
0.0
 10
15.3741710664
 20
12.0995555205
 30
0.0
 10
15.3508505584
 20
12.0763309028
 30
0.0
 10
15.3321786362
 20
12.0577172559
 30
0.0
 10
15.3181892616
 20
12.0437476092
 30
0.0
 10
15.310431411
 20
12.0359807555
 30
0.0
 10
15.3073412275
 20
12.0328717837
 30
0.0
  0
SPLINE
  5
4C4
100
AcDbEntity
  8
0
100
AcDbSpline
 62
9
  6
CONTINUOUS
 70
0
 71
3
 72
20
 73
16
 74
0
 42
0.0000001
 43
0.0000001
 44
0.0000000001
 40
0.0
 40
0.0
 40
0.0
 40
0.0
 40
0.004744355
 40
0.0092120495
 40
0.0153994972
 40
0.0335166053
 40
0.0601167655
 40
0.0959646032
 40
0.1412225073
 40
0.1958974982
 40
0.2599915577
 40
0.4145969837
 40
0.5958375468
 40
0.7934077141
 40
1.0
 40
1.0
 40
1.0
 40
1.0
 10
18.0918351885
 20
11.6330119037
 30
0.0
 10
18.0918045874
 20
11.6330119095
 30
0.0
 10
18.0917620674
 20
11.6330737012
 30
0.0
 10
18.0917282518
 20
11.6331611306
 30
0.0
 10
18.0916766343
 20
11.63334275
 30
0.0
 10
18.0916217248
 20
11.6336647372
 30
0.0
 10
18.0915593334
 20
11.6341817364
 30
0.0
 10
18.0915004966
 20
11.6348736318
 30
0.0
 10
18.0914438303
 20
11.6357477683
 30
0.0
 10
18.0913913615
 20
11.6368044211
 30
0.0
 10
18.0913240212
 20
11.6385664531
 30
0.0
 10
18.0912612291
 20
11.6411453892
 30
0.0
 10
18.0912109217
 20
11.644585588
 30
0.0
 10
18.0911838504
 20
11.6483613718
 30
0.0
 10
18.0911788406
 20
11.6509682257
 30
0.0
 10
18.0911788403
 20
11.6523007471
 30
0.0
  0
SPLINE
  5
4C5
100
AcDbEntity
  8
0
100
AcDbSpline
 62
9
  6
CONTINUOUS
 70
0
 71
3
 72
20
 73
16
 74
0
 42
0.0000001
 43
0.0000001
 44
0.0000000001
 40
0.0
 40
0.0
 40
0.0
 40
0.0
 40
0.2065914027
 40
0.4041623322
 40
0.5854055223
 40
0.740012597
 40
0.8041061409
 40
0.8587799489
 40
0.9040364828
 40
0.939883243
 40
0.9664829699
 40
0.9846001293
 40
0.9907876933
 40
0.9952555147
 40
1.0
 40
1.0
 40
1.0
 40
1.0
 10
18.0993358213
 20
11.6523007471
 30
0.0
 10
18.0993358211
 20
11.6509682315
 30
0.0
 10
18.0993308115
 20
11.6483613784
 30
0.0
 10
18.0993037401
 20
11.6445855787
 30
0.0
 10
18.099253431
 20
11.6411453476
 30
0.0
 10
18.0991906382
 20
11.6385663874
 30
0.0
 10
18.099123298
 20
11.6368043559
 30
0.0
 10
18.0990708298
 20
11.6357477229
 30
0.0
 10
18.0990141643
 20
11.6348736099
 30
0.0
 10
18.0989553278
 20
11.6341817332
 30
0.0
 10
18.0988929368
 20
11.6336647434
 30
0.0
 10
18.0988380274
 20
11.6333427581
 30
0.0
 10
18.0987864103
 20
11.6331611364
 30
0.0
 10
18.0987525944
 20
11.6330737051
 30
0.0
 10
18.0987100751
 20
11.6330119099
 30
0.0
 10
18.0986794731
 20
11.6330119037
 30
0.0
  0
LINE
  5
4C6
100
AcDbEntity
  8
0
100
AcDbLine
 62
9
  6
CONTINUOUS
 10
13.9142651862
 20
10.6034988563
 11
13.915831643
 21
10.6050593743
  0
LINE
  5
4C7
100
AcDbEntity
  8
0
100
AcDbLine
 62
9
  6
CONTINUOUS
 10
13.915831643
 20
10.6050593743
 11
14.0713096225
 21
10.7600150932
  0
SPLINE
  5
4C8
100
AcDbEntity
  8
0
100
AcDbSpline
 62
9
  6
CONTINUOUS
 70
0
 71
3
 72
18
 73
14
 74
0
 42
0.0000001
 43
0.0000001
 44
0.0000000001
 40
0.0
 40
0.0
 40
0.0
 40
0.0
 40
0.0142162837
 40
0.0356018702
 40
0.0641170266
 40
0.0997219997
 40
0.1423436406
 40
0.1917751673
 40
0.3101070348
 40
0.4526704845
 40
0.616916426
 40
0.8002005506
 40
1.0
 40
1.0
 40
1.0
 40
1.0
 10
14.7872959984
 20
12.0328713007
 30
0.0
 10
14.78420651
 20
12.035979657
 30
0.0
 10
14.7764503917
 20
12.0437449113
 30
0.0
 10
14.7624640602
 20
12.0577116667
 30
0.0
 10
14.743796032
 20
12.0763215293
 30
0.0
 10
14.7204800532
 20
12.0995416624
 30
0.0
 10
14.6925852927
 20
12.1273018623
 30
0.0
 10
14.6466053386
 20
12.1730431646
 30
0.0
 10
14.5787751673
 20
12.2405056934
 30
0.0
 10
14.4858585098
 20
12.3329372428
 30
0.0
 10
14.3787651639
 20
12.4395093409
 30
0.0
 10
14.2591939185
 20
12.5585567805
 30
0.0
 10
14.1755229135
 20
12.6418984041
 30
0.0
 10
14.1318884052
 20
12.6853703132
 30
0.0
  0
SPLINE
  5
4C9
100
AcDbEntity
  8
0
100
AcDbSpline
 62
9
  6
CONTINUOUS
 70
0
 71
3
 72
14
 73
10
 74
0
 42
0.0000001
 43
0.0000001
 44
0.0000000001
 40
0.0
 40
0.0
 40
0.0
 40
0.0
 40
0.0524066682
 40
0.1230056757
 40
0.2143101342
 40
0.3280422831
 40
0.4648038677
 40
0.6239523194
 40
1.0
 40
1.0
 40
1.0
 40
1.0
 10
14.4312583722
 20
11.8777351441
 30
0.0
 10
14.4310919024
 20
11.8774687895
 30
0.0
 10
14.4307936252
 20
11.8767876077
 30
0.0
 10
14.430458032
 20
11.8755460452
 30
0.0
 10
14.4301830268
 20
11.8739148698
 30
0.0
 10
14.4299788476
 20
11.8718756161
 30
0.0
 10
14.4298531864
 20
11.8694228693
 30
0.0
 10
14.4297971973
 20
11.8653952931
 30
0.0
 10
14.4298955694
 20
11.8621874345
 30
0.0
 10
14.4300012728
 20
11.8599360894
 30
0.0
  0
LINE
  5
4CA
100
AcDbEntity
  8
0
100
AcDbLine
 62
9
  6
CONTINUOUS
 10
14.7513675268
 20
12.0288252646
 11
14.11477039
 21
12.6683520749
  0
SPLINE
  5
4CB
100
AcDbEntity
  8
0
100
AcDbSpline
 62
9
  6
CONTINUOUS
 70
0
 71
3
 72
14
 73
10
 74
0
 42
0.0000001
 43
0.0000001
 44
0.0000000001
 40
0.0
 40
0.0
 40
0.0
 40
0.0
 40
0.1202930701
 40
0.2480410974
 40
0.37989929
 40
0.5125062376
 40
0.7690755514
 40
0.8891315044
 40
1.0
 40
1.0
 40
1.0
 40
1.0
 10
14.11477039
 20
12.6683520749
 30
0.0
 10
14.115031375
 20
12.6693263959
 30
0.0
 10
14.1157374756
 20
12.6712922504
 30
0.0
 10
14.1172056581
 20
12.674127747
 30
0.0
 10
14.1190693975
 20
12.6768481445
 30
0.0
 10
14.1219752682
 20
12.6801242776
 30
0.0
 10
14.1254392494
 20
12.6827175753
 30
0.0
 10
14.1291059314
 20
12.6845376149
 30
0.0
 10
14.1309405916
 20
12.6851794318
 30
0.0
 10
14.131838583
 20
12.6854199497
 30
0.0
  0
SPLINE
  5
4CC
100
AcDbEntity
  8
0
100
AcDbSpline
 62
9
  6
CONTINUOUS
 70
0
 71
3
 72
20
 73
16
 74
0
 42
0.0000001
 43
0.0000001
 44
0.0000000001
 40
0.0
 40
0.0
 40
0.0
 40
0.0
 40
0.004744355
 40
0.0092120495
 40
0.0153994972
 40
0.0335166053
 40
0.0601167655
 40
0.0959646032
 40
0.1412225073
 40
0.1958974982
 40
0.2599915577
 40
0.4145969837
 40
0.5958375467
 40
0.7934077141
 40
1.0
 40
1.0
 40
1.0
 40
1.0
 10
18.0986794731
 20
11.8727302759
 30
0.0
 10
18.0987100742
 20
11.87273027
 30
0.0
 10
18.0987525942
 20
11.8726684783
 30
0.0
 10
18.0987864099
 20
11.872581049
 30
0.0
 10
18.0988380274
 20
11.8723994296
 30
0.0
 10
18.0988929368
 20
11.8720774423
 30
0.0
 10
18.0989553282
 20
11.8715604431
 30
0.0
 10
18.099014165
 20
11.8708685477
 30
0.0
 10
18.0990708313
 20
11.8699944112
 30
0.0
 10
18.0991233002
 20
11.8689377585
 30
0.0
 10
18.0991906404
 20
11.8671757265
 30
0.0
 10
18.0992534325
 20
11.8645967904
 30
0.0
 10
18.0993037399
 20
11.8611565916
 30
0.0
 10
18.0993308112
 20
11.8573808078
 30
0.0
 10
18.099335821
 20
11.8547739538
 30
0.0
 10
18.0993358213
 20
11.8534414325
 30
0.0
  0
SPLINE
  5
4CD
100
AcDbEntity
  8
0
100
AcDbSpline
 62
9
  6
CONTINUOUS
 70
0
 71
3
 72
20
 73
16
 74
0
 42
0.0000001
 43
0.0000001
 44
0.0000000001
 40
0.0
 40
0.0
 40
0.0
 40
0.0
 40
0.2065914023
 40
0.4041623314
 40
0.5854055213
 40
0.7400125959
 40
0.8041061398
 40
0.8587799478
 40
0.9040364819
 40
0.9398832423
 40
0.9664829694
 40
0.984600129
 40
0.9907876932
 40
0.9952555146
 40
1.0
 40
1.0
 40
1.0
 40
1.0
 10
18.0911788403
 20
11.8534414325
 30
0.0
 10
18.0911788406
 20
11.8547739481
 30
0.0
 10
18.0911838501
 20
11.8573808011
 30
0.0
 10
18.0912109215
 20
11.8611566008
 30
0.0
 10
18.0912612306
 20
11.8645968319
 30
0.0
 10
18.0913240235
 20
11.8671757921
 30
0.0
 10
18.0913913636
 20
11.8689378237
 30
0.0
 10
18.0914438318
 20
11.8699944566
 30
0.0
 10
18.0915004973
 20
11.8708685697
 30
0.0
 10
18.0915593338
 20
11.8715604464
 30
0.0
 10
18.0916217248
 20
11.8720774362
 30
0.0
 10
18.0916766342
 20
11.8723994215
 30
0.0
 10
18.0917282513
 20
11.8725810432
 30
0.0
 10
18.0917620672
 20
11.8726684745
 30
0.0
 10
18.0918045866
 20
11.8727302697
 30
0.0
 10
18.0918351885
 20
11.8727302759
 30
0.0
  0
LINE
  5
4CE
100
AcDbEntity
  8
0
100
AcDbLine
 62
9
  6
CONTINUOUS
 10
14.7506108405
 20
11.4761602121
 11
14.1148190485
 21
10.8374407663
  0
SPLINE
  5
4CF
100
AcDbEntity
  8
0
100
AcDbSpline
 62
9
  6
CONTINUOUS
 70
0
 71
3
 72
16
 73
12
 74
0
 42
0.0000001
 43
0.0000001
 44
0.0000000001
 40
0.0
 40
0.0
 40
0.0
 40
0.0
 40
0.0142139369
 40
0.0356022547
 40
0.064148644
 40
0.0997932012
 40
0.1918572478
 40
0.3102456446
 40
0.4527755621
 40
0.6170430911
 40
1.0
 40
1.0
 40
1.0
 40
1.0
 10
14.7872961027
 20
11.472870756
 30
0.0
 10
14.7842052407
 20
11.4697643127
 30
0.0
 10
14.7764487477
 20
11.461998087
 30
0.0
 10
14.7624561443
 20
11.4480216692
 30
0.0
 10
14.7437714271
 20
11.4293935714
 30
0.0
 10
14.7096354666
 20
11.395401974
 30
0.0
 10
14.6558464211
 20
11.3418922467
 30
0.0
 10
14.5786875699
 20
11.2651501497
 30
0.0
 10
14.4857538057
 20
11.1727020701
 30
0.0
 10
14.3350205963
 20
11.0227009149
 30
0.0
 10
14.215482074
 20
10.9036481993
 30
0.0
 10
14.1318372735
 20
10.8203227859
 30
0.0
  0
LINE
  5
4D0
100
AcDbEntity
  8
0
100
AcDbLine
 62
9
  6
CONTINUOUS
 10
14.4309617348
 20
11.6588577322
 11
14.4300417371
 21
11.6466297568
  0
SPLINE
  5
4D1
100
AcDbEntity
  8
0
100
AcDbSpline
 62
9
  6
CONTINUOUS
 70
0
 71
3
 72
14
 73
10
 74
0
 42
0.0000001
 43
0.0000001
 44
0.0000000001
 40
0.0
 40
0.0
 40
0.0
 40
0.0
 40
0.376222938
 40
0.5357933807
 40
0.6728623324
 40
0.7870020757
 40
0.8782607149
 40
0.9483608616
 40
1.0
 40
1.0
 40
1.0
 40
1.0
 10
14.4300417371
 20
11.6466297568
 30
0.0
 10
14.4299214794
 20
11.6442745688
 30
0.0
 10
14.4298046383
 20
11.6409164312
 30
0.0
 10
14.4298410977
 20
11.6366982771
 30
0.0
 10
14.429960286
 20
11.6341253547
 30
0.0
 10
14.4301614247
 20
11.6319872348
 30
0.0
 10
14.4304387626
 20
11.6302803706
 30
0.0
 10
14.4307809059
 20
11.6289881229
 30
0.0
 10
14.4310868198
 20
11.6282815219
 30
0.0
 10
14.4312583722
 20
11.6280070355
 30
0.0
  0
SPLINE
  5
4D2
100
AcDbEntity
  8
0
100
AcDbSpline
 62
9
  6
CONTINUOUS
 70
0
 71
3
 72
14
 73
10
 74
0
 42
0.0000001
 43
0.0000001
 44
0.0000000001
 40
0.0
 40
0.0
 40
0.0
 40
0.0
 40
0.1202930208
 40
0.2480409824
 40
0.3798991104
 40
0.5125060154
 40
0.7690753611
 40
0.8891313878
 40
1.0
 40
1.0
 40
1.0
 40
1.0
 10
14.1318372735
 20
10.8203227859
 30
0.0
 10
14.130862955
 20
10.8205837725
 30
0.0
 10
14.1288971057
 20
10.8212898753
 30
0.0
 10
14.126061617
 20
10.8227580595
 30
0.0
 10
14.1233412276
 20
10.8246217991
 30
0.0
 10
14.1200651037
 20
10.8275276694
 30
0.0
 10
14.1174718133
 20
10.8309916484
 30
0.0
 10
14.1156517787
 20
10.8346583281
 30
0.0
 10
14.1150099636
 20
10.8364929876
 30
0.0
 10
14.1147694464
 20
10.8373909787
 30
0.0
  0
SPLINE
  5
4D3
100
AcDbEntity
  8
0
100
AcDbSpline
 62
9
  6
CONTINUOUS
 70
0
 71
3
 72
18
 73
14
 74
0
 42
0.0000001
 43
0.0000001
 44
0.0000000001
 40
0.0
 40
0.0
 40
0.0
 40
0.0
 40
0.0142162209
 40
0.0356010028
 40
0.0641152073
 40
0.0997196763
 40
0.142341672
 40
0.1917741629
 40
0.3101082016
 40
0.4526721726
 40
0.6169174365
 40
0.8002008188
 40
1.0
 40
1.0
 40
1.0
 40
1.0
 10
15.3073407674
 20
11.4728708109
 30
0.0
 10
15.310430508
 20
11.4697622598
 30
0.0
 10
15.3181870479
 20
11.461996618
 30
0.0
 10
15.3321740549
 20
11.4480291928
 30
0.0
 10
15.3508430077
 20
11.4294183888
 30
0.0
 10
15.3741605306
 20
11.4061967199
 30
0.0
 10
15.4020576299
 20
11.3784342461
 30
0.0
 10
15.4480419181
 20
11.3326887397
 30
0.0
 10
15.51587813
 20
11.2652203077
 30
0.0
 10
15.6088022797
 20
11.1727811926
 30
0.0
 10
15.7159035911
 20
11.0662011064
 30
0.0
 10
15.8354837234
 20
10.947145036
 30
0.0
 10
15.919160958
 20
10.8637973063
 30
0.0
 10
15.9627987413
 20
10.8203221255
 30
0.0
  0
SPLINE
  5
4D4
100
AcDbEntity
  8
0
100
AcDbSpline
 62
9
  6
CONTINUOUS
 70
0
 71
3
 72
12
 73
8
 74
0
 42
0.0000001
 43
0.0000001
 44
0.0000000001
 40
0.0
 40
0.0
 40
0.0
 40
0.0
 40
0.1026695231
 40
0.2051855025
 40
0.4251378343
 40
0.6858978777
 40
1.0
 40
1.0
 40
1.0
 40
1.0
 10
17.9519202808
 20
12.117648891
 30
0.0
 10
17.9519730783
 20
12.1174972216
 30
0.0
 10
17.9520471457
 20
12.1171819244
 30
0.0
 10
17.9520558938
 20
12.1165121395
 30
0.0
 10
17.9517772792
 20
12.1156206696
 30
0.0
 10
17.9510720705
 20
12.1145848079
 30
0.0
 10
17.9504339434
 20
12.1139454499
 30
0.0
 10
17.9500669955
 20
12.113618731
 30
0.0
  0
LINE
  5
4D5
100
AcDbEntity
  8
0
100
AcDbLine
 62
9
  6
CONTINUOUS
 10
17.9313096598
 20
12.0872049777
 11
17.9313343157
 21
11.7528710898
  0
SPLINE
  5
4D6
100
AcDbEntity
  8
0
100
AcDbSpline
 62
9
  6
CONTINUOUS
 70
0
 71
3
 72
9
 73
5
 74
0
 42
0.0000001
 43
0.0000001
 44
0.0000000001
 40
0.0
 40
0.0
 40
0.0
 40
0.0
 40
0.2512856209
 40
1.0
 40
1.0
 40
1.0
 40
1.0
 10
17.9282312536
 20
12.1080409841
 30
0.0
 10
17.9287257046
 20
12.1063440985
 30
0.0
 10
17.9304738198
 20
12.099530713
 30
0.0
 10
17.9313083088
 20
12.0924711748
 30
0.0
 10
17.9313145132
 20
12.0872049794
 30
0.0
  0
LINE
  5
4D7
100
AcDbEntity
  8
0
100
AcDbLine
 62
9
  6
CONTINUOUS
 10
17.9518183332
 20
12.0871734039
 11
17.9518040479
 21
11.7528711029
  0
SPLINE
  5
4D8
100
AcDbEntity
  8
0
100
AcDbSpline
 62
9
  6
CONTINUOUS
 70
0
 71
3
 72
9
 73
5
 74
0
 42
0.0000001
 43
0.0000001
 44
0.0000000001
 40
0.0
 40
0.0
 40
0.0
 40
0.0
 40
0.4980743903
 40
1.0
 40
1.0
 40
1.0
 40
1.0
 10
17.9500669955
 20
12.113618731
 30
0.0
 10
17.9510684457
 20
12.1093194348
 30
0.0
 10
17.9523947367
 20
12.1005137405
 30
0.0
 10
17.952274523
 20
12.0916045103
 30
0.0
 10
17.9518340657
 20
12.087177845
 30
0.0
  0
SPLINE
  5
4D9
100
AcDbEntity
  8
0
100
AcDbSpline
 62
9
  6
CONTINUOUS
 70
0
 71
3
 72
14
 73
10
 74
0
 42
0.0000001
 43
0.0000001
 44
0.0000000001
 40
0.0
 40
0.0
 40
0.0
 40
0.0
 40
0.0533583499
 40
0.1347561261
 40
0.2441822796
 40
0.3773109442
 40
0.5280793835
 40
0.687811193
 40
1.0
 40
1.0
 40
1.0
 40
1.0
 10
17.9500669745
 20
12.1136187464
 30
0.0
 10
17.9496679614
 20
12.1135780013
 30
0.0
 10
17.9486673564
 20
12.1134129962
 30
0.0
 10
17.9468690231
 20
12.113046544
 30
0.0
 10
17.9444962792
 20
12.1124972691
 30
0.0
 10
17.9416270302
 20
12.1117839819
 30
0.0
 10
17.938401949
 20
12.1109355472
 30
0.0
 10
17.9338878059
 20
12.1096979629
 30
0.0
 10
17.9304798022
 20
12.1087124986
 30
0.0
 10
17.9282312437
 20
12.1080409994
 30
0.0
  0
SPLINE
  5
4DA
100
AcDbEntity
  8
0
100
AcDbSpline
 62
9
  6
CONTINUOUS
 70
0
 71
3
 72
21
 73
17
 74
0
 42
0.0000001
 43
0.0000001
 44
0.0000000001
 40
0.0
 40
0.0
 40
0.0
 40
0.0
 40
0.0620049202
 40
0.1241370038
 40
0.1863770761
 40
0.2487090439
 40
0.3111185012
 40
0.3735916524
 40
0.4361175763
 40
0.4986865406
 40
0.5612902033
 40
0.6239213945
 40
0.6865744718
 40
0.7492440318
 40
0.8746141542
 40
1.0
 40
1.0
 40
1.0
 40
1.0
 10
17.9282312378
 20
12.1080409826
 30
0.0
 10
17.8810097324
 20
12.1077157278
 30
0.0
 10
17.7864736604
 20
12.1063716568
 30
0.0
 10
17.6445779341
 20
12.1025664378
 30
0.0
 10
17.5024826779
 20
12.0972354609
 30
0.0
 10
17.3602303577
 20
12.0906296761
 30
0.0
 10
17.2178512154
 20
12.0830168435
 30
0.0
 10
17.0753659983
 20
12.0746656501
 30
0.0
 10
16.9327853522
 20
12.0658824273
 30
0.0
 10
16.7901147177
 20
12.0569460891
 30
0.0
 10
16.6473588702
 20
12.0480871585
 30
0.0
 10
16.5045168555
 20
12.0395864102
 30
0.0
 10
16.3615856768
 20
12.0317553104
 30
0.0
 10
16.1708784636
 20
12.0225855079
 30
0.0
 10
15.9323068585
 20
12.0142030937
 30
0.0
 10
15.741309654
 20
12.0122656654
 30
0.0
 10
15.6458183382
 20
12.0128671029
 30
0.0
  0
SPLINE
  5
4DB
100
AcDbEntity
  8
0
100
AcDbSpline
 62
7
  6
CONTINUOUS
 70
0
 71
3
 72
9
 73
5
 74
0
 42
0.0000001
 43
0.0000001
 44
0.0000000001
 40
0.0
 40
0.0
 40
0.0
 40
0.0
 40
0.2507228269
 40
1.0
 40
1.0
 40
1.0
 40
1.0
 10
10.2548265023
 20
1.7182120195
 30
0.0
 10
10.2543252955
 20
1.7183149316
 30
0.0
 10
10.2523423104
 20
1.7187991209
 30
0.0
 10
10.2504300343
 20
1.7195798683
 30
0.0
 10
10.2490935862
 20
1.7203228484
 30
0.0
  0
SPLINE
  5
4DC
100
AcDbEntity
  8
0
100
AcDbSpline
 62
7
  6
CONTINUOUS
 70
0
 71
3
 72
11
 73
7
 74
0
 42
0.0000001
 43
0.0000001
 44
0.0000000001
 40
0.0
 40
0.0
 40
0.0
 40
0.0
 40
0.2521215861
 40
0.5025198213
 40
0.7523098992
 40
1.0
 40
1.0
 40
1.0
 40
1.0
 10
10.2490935862
 20
1.7203228484
 30
0.0
 10
10.2476078355
 20
1.7211488313
 30
0.0
 10
10.2448541375
 20
1.72320222
 30
0.0
 10
10.2416911968
 20
1.7272460318
 30
0.0
 10
10.2397610466
 20
1.7319676316
 30
0.0
 10
10.2393156415
 20
1.7353362973
 30
0.0
 10
10.2393187232
 20
1.7370063281
 30
0.0
  0
SPLINE
  5
4DD
100
AcDbEntity
  8
0
100
AcDbSpline
 62
7
  6
CONTINUOUS
 70
0
 71
3
 72
9
 73
5
 74
0
 42
0.0000001
 43
0.0000001
 44
0.0000000001
 40
0.0
 40
0.0
 40
0.0
 40
0.0
 40
0.2498489246
 40
1.0
 40
1.0
 40
1.0
 40
1.0
 10
12.2809076852
 20
10.4885359626
 30
0.0
 10
12.2820055666
 20
10.4886262658
 30
0.0
 10
12.2863832753
 20
10.4891463864
 30
0.0
 10
12.290695551
 20
10.4903503741
 30
0.0
 10
12.2937190983
 20
10.4916909944
 30
0.0
  0
SPLINE
  5
4DE
100
AcDbEntity
  8
0
100
AcDbSpline
 62
7
  6
CONTINUOUS
 70
0
 71
3
 72
9
 73
5
 74
0
 42
0.0000001
 43
0.0000001
 44
0.0000000001
 40
0.0
 40
0.0
 40
0.0
 40
0.0
 40
0.2506558295
 40
1.0
 40
1.0
 40
1.0
 40
1.0
 10
12.2937190983
 20
10.4916909944
 30
0.0
 10
12.2946279205
 20
10.49209396
 30
0.0
 10
12.2981806595
 20
10.4938604144
 30
0.0
 10
12.3014180805
 20
10.4962694863
 30
0.0
 10
12.3035249644
 20
10.4983657061
 30
0.0
  0
SPLINE
  5
4DF
100
AcDbEntity
  8
0
100
AcDbSpline
 62
7
  6
CONTINUOUS
 70
0
 71
3
 72
8
 73
4
 74
0
 42
0.0000001
 43
0.0000001
 44
0.0000000001
 40
0.0
 40
0.0
 40
0.0
 40
0.0
 40
1.0
 40
1.0
 40
1.0
 40
1.0
 10
12.3052540859
 20
10.500234394
 30
0.0
 10
12.306523698
 20
10.5017248889
 30
0.0
 10
12.3076576883
 20
10.5033400669
 30
0.0
 10
12.3086426717
 20
10.505032195
 30
0.0
  0
SPLINE
  5
4E0
100
AcDbEntity
  8
0
100
AcDbSpline
 62
7
  6
CONTINUOUS
 70
0
 71
3
 72
9
 73
5
 74
0
 42
0.0000001
 43
0.0000001
 44
0.0000000001
 40
0.0
 40
0.0
 40
0.0
 40
0.0
 40
0.2507832291
 40
1.0
 40
1.0
 40
1.0
 40
1.0
 10
11.8398061474
 20
1.718209198
 30
0.0
 10
11.8403095261
 20
1.7183119619
 30
0.0
 10
11.8423006637
 20
1.7187959048
 30
0.0
 10
11.8442210544
 20
1.7195785092
 30
0.0
 10
11.8455624001
 20
1.7203245676
 30
0.0
  0
SPLINE
  5
4E1
100
AcDbEntity
  8
0
100
AcDbSpline
 62
7
  6
CONTINUOUS
 70
0
 71
3
 72
9
 73
5
 74
0
 42
0.0000001
 43
0.0000001
 44
0.0000000001
 40
0.0
 40
0.0
 40
0.0
 40
0.0
 40
0.2506479762
 40
1.0
 40
1.0
 40
1.0
 40
1.0
 10
12.3037153468
 20
12.9831868162
 30
0.0
 10
12.3040066159
 20
12.9823599384
 30
0.0
 10
12.3050512286
 20
12.9790200779
 30
0.0
 10
12.3056469102
 20
12.9755453353
 30
0.0
 10
12.3058664375
 20
12.9729335764
 30
0.0
  0
SPLINE
  5
4E2
100
AcDbEntity
  8
0
100
AcDbSpline
 62
7
  6
CONTINUOUS
 70
0
 71
3
 72
9
 73
5
 74
0
 42
0.0000001
 43
0.0000001
 44
0.0000000001
 40
0.0
 40
0.0
 40
0.0
 40
0.0
 40
0.2506964472
 40
1.0
 40
1.0
 40
1.0
 40
1.0
 10
12.2887573326
 20
13.0011289895
 30
0.0
 10
12.2894599524
 20
13.0007357472
 30
0.0
 10
12.2922067234
 20
12.9990701729
 30
0.0
 10
12.2947165438
 20
12.997007021
 30
0.0
 10
12.2963822954
 20
12.995270083
 30
0.0
  0
SPLINE
  5
4E3
100
AcDbEntity
  8
0
100
AcDbSpline
 62
7
  6
CONTINUOUS
 70
0
 71
3
 72
9
 73
5
 74
0
 42
0.0000001
 43
0.0000001
 44
0.0000000001
 40
0.0
 40
0.0
 40
0.0
 40
0.0
 40
0.7495235531
 40
1.0
 40
1.0
 40
1.0
 40
1.0
 10
12.2963822954
 20
12.995270083
 30
0.0
 10
12.2976874781
 20
12.993909123
 30
0.0
 10
12.2992644929
 20
12.9919255575
 30
0.0
 10
12.3005959263
 20
12.9897905828
 30
0.0
 10
12.3009143549
 20
12.9892468051
 30
0.0
  0
SPLINE
  5
4E4
100
AcDbEntity
  8
0
100
AcDbSpline
 62
7
  6
CONTINUOUS
 70
0
 71
3
 72
9
 73
5
 74
0
 42
0.0000001
 43
0.0000001
 44
0.0000000001
 40
0.0
 40
0.0
 40
0.0
 40
0.0
 40
0.2507946879
 40
1.0
 40
1.0
 40
1.0
 40
1.0
 10
9.7928596975
 20
12.9876887135
 30
0.0
 10
9.7932793594
 20
12.9884981646
 30
0.0
 10
9.7950808655
 20
12.9916570025
 30
0.0
 10
9.7974039467
 20
12.9945233844
 30
0.0
 10
9.7993852311
 20
12.9963924401
 30
0.0
  0
SPLINE
  5
4E5
100
AcDbEntity
  8
0
100
AcDbSpline
 62
7
  6
CONTINUOUS
 70
0
 71
3
 72
9
 73
5
 74
0
 42
0.0000001
 43
0.0000001
 44
0.0000000001
 40
0.0
 40
0.0
 40
0.0
 40
0.0
 40
0.7494914332
 40
1.0
 40
1.0
 40
1.0
 40
1.0
 10
9.7993852311
 20
12.9963924401
 30
0.0
 10
9.8008561457
 20
12.9977800356
 30
0.0
 10
9.8030100105
 20
12.9994412247
 30
0.0
 10
9.8053285823
 20
13.0008214623
 30
0.0
 10
9.8059191624
 20
13.0011501251
 30
0.0
  0
SPLINE
  5
4E6
100
AcDbEntity
  8
0
100
AcDbSpline
 62
7
  6
CONTINUOUS
 70
0
 71
3
 72
9
 73
5
 74
0
 42
0.0000001
 43
0.0000001
 44
0.0000000001
 40
0.0
 40
0.0
 40
0.0
 40
0.0
 40
0.2506646904
 40
1.0
 40
1.0
 40
1.0
 40
1.0
 10
9.8092995669
 20
13.0028011489
 30
0.0
 10
9.8102953651
 20
13.003223951
 30
0.0
 10
9.8143433704
 20
13.0047317472
 30
0.0
 10
9.8186315665
 20
13.0055572181
 30
0.0
 10
9.821853
 20
13.0058425162
 30
0.0
  0
SPLINE
  5
4E7
100
AcDbEntity
  8
0
100
AcDbSpline
 62
7
  6
CONTINUOUS
 70
0
 71
3
 72
9
 73
5
 74
0
 42
0.0000001
 43
0.0000001
 44
0.0000000001
 40
0.0
 40
0.0
 40
0.0
 40
0.0
 40
0.2504556678
 40
1.0
 40
1.0
 40
1.0
 40
1.0
 10
9.7825650063
 20
10.5129954044
 30
0.0
 10
9.7823556956
 20
10.5136935408
 30
0.0
 10
9.7815958328
 20
10.5165034934
 30
0.0
 10
9.7811269914
 20
10.5193897123
 30
0.0
 10
9.7809229639
 20
10.5215613601
 30
0.0
  0
SPLINE
  5
4E8
100
AcDbEntity
  8
0
100
AcDbSpline
 62
7
  6
CONTINUOUS
 70
0
 71
3
 72
12
 73
8
 74
0
 42
0.0000001
 43
0.0000001
 44
0.0000000001
 40
0.0
 40
0.0
 40
0.0
 40
0.0
 40
0.2476476274
 40
0.3723078777
 40
0.49719227
 40
0.7475167104
 40
1.0
 40
1.0
 40
1.0
 40
1.0
 10
10.2393183331
 20
3.230745079
 30
0.0
 10
10.2393166704
 20
3.2357913319
 30
0.0
 10
10.2403617293
 20
3.2434279776
 30
0.0
 10
10.2437326323
 20
3.2530065333
 30
0.0
 10
10.2484297633
 20
3.2620784674
 30
0.0
 10
10.256594319
 20
3.272137785
 30
0.0
 10
10.2650596306
 20
3.2781493889
 30
0.0
 10
10.2695954284
 20
3.2805774301
 30
0.0
  0
SPLINE
  5
4E9
100
AcDbEntity
  8
0
100
AcDbSpline
 62
7
  6
CONTINUOUS
 70
0
 71
3
 72
9
 73
5
 74
0
 42
0.0000001
 43
0.0000001
 44
0.0000000001
 40
0.0
 40
0.0
 40
0.0
 40
0.0
 40
0.2509018568
 40
1.0
 40
1.0
 40
1.0
 40
1.0
 10
9.7999154598
 20
10.4921457975
 30
0.0
 10
9.7990089101
 20
10.4925841802
 30
0.0
 10
9.7954765043
 20
10.4944924621
 30
0.0
 10
9.7922903082
 20
10.4970511283
 30
0.0
 10
9.7902465721
 20
10.4992561186
 30
0.0
  0
SPLINE
  5
4EA
100
AcDbEntity
  8
0
100
AcDbSpline
 62
7
  6
CONTINUOUS
 70
0
 71
3
 72
8
 73
4
 74
0
 42
0.0000001
 43
0.0000001
 44
0.0000000001
 40
0.0
 40
0.0
 40
0.0
 40
0.0
 40
1.0
 40
1.0
 40
1.0
 40
1.0
 10
9.7902465721
 20
10.4992561186
 30
0.0
 10
9.7887474003
 20
10.5008735776
 30
0.0
 10
9.7874174504
 20
10.502661561
 30
0.0
 10
9.786277437
 20
10.5045494325
 30
0.0
  0
SPLINE
  5
4EB
100
AcDbEntity
  8
0
100
AcDbSpline
 62
7
  6
CONTINUOUS
 70
0
 71
3
 72
9
 73
5
 74
0
 42
0.0000001
 43
0.0000001
 44
0.0000000001
 40
0.0
 40
0.0
 40
0.0
 40
0.0
 40
0.2505729421
 40
1.0
 40
1.0
 40
1.0
 40
1.0
 10
12.3106458286
 20
10.509040856
 30
0.0
 10
12.3110751391
 20
10.510054201
 30
0.0
 10
12.312604486
 20
10.5141758735
 30
0.0
 10
12.3134377162
 20
10.5185394478
 30
0.0
 10
12.3137364151
 20
10.5218174037
 30
0.0
  0
SPLINE
  5
4EC
100
AcDbEntity
  8
0
100
AcDbSpline
 62
7
  6
CONTINUOUS
 70
0
 71
3
 72
12
 73
8
 74
0
 42
0.0000001
 43
0.0000001
 44
0.0000000001
 40
0.0
 40
0.0
 40
0.0
 40
0.0
 40
0.2477489896
 40
0.3724581325
 40
0.4973790077
 40
0.7475881135
 40
1.0
 40
1.0
 40
1.0
 40
1.0
 10
11.8553124288
 20
3.2307882785
 30
0.0
 10
11.855313331
 20
3.2358325403
 30
0.0
 10
11.8542631535
 20
3.243465865
 30
0.0
 10
11.8508872282
 20
3.253037807
 30
0.0
 10
11.8461939892
 20
3.2621013403
 30
0.0
 10
11.8380338083
 20
3.2721504607
 30
0.0
 10
11.8295656421
 20
3.2781342322
 30
0.0
 10
11.8250367874
 20
3.2805633993
 30
0.0
  0
LINE
  5
4ED
100
AcDbEntity
  8
0
100
AcDbLine
 62
7
  6
CONTINUOUS
 10
9.8126749398
 20
10.4488993651
 11
9.8136736368
 21
10.4661225454
  0
SPLINE
  5
4EE
100
AcDbEntity
  8
0
100
AcDbSpline
 62
7
  6
CONTINUOUS
 70
0
 71
3
 72
14
 73
10
 74
0
 42
0.0000001
 43
0.0000001
 44
0.0000000001
 40
0.0
 40
0.0
 40
0.0
 40
0.0
 40
0.1496636134
 40
0.2947483326
 40
0.4338076485
 40
0.5655936211
 40
0.689058334
 40
0.8032513209
 40
1.0
 40
1.0
 40
1.0
 40
1.0
 10
9.8136736368
 20
10.4661225219
 30
0.0
 10
9.8136799622
 20
10.466991371
 30
0.0
 10
9.8136795687
 20
10.4687025625
 30
0.0
 10
9.8136714589
 20
10.4712210114
 30
0.0
 10
9.8136978805
 20
10.4736357325
 30
0.0
 10
9.8137670033
 20
10.4759238216
 30
0.0
 10
9.8138190182
 20
10.4780682705
 30
0.0
 10
9.8137812041
 20
10.4805904639
 30
0.0
 10
9.8136608768
 20
10.4823933254
 30
0.0
 10
9.813660879
 20
10.4835355499
 30
0.0
  0
SPLINE
  5
4EF
100
AcDbEntity
  8
0
100
AcDbSpline
 62
7
  6
CONTINUOUS
 70
0
 71
3
 72
16
 73
12
 74
0
 42
0.0000001
 43
0.0000001
 44
0.0000000001
 40
0.0
 40
0.0
 40
0.0
 40
0.0
 40
0.2273304574
 40
0.4277372002
 40
0.5992056068
 40
0.7402587817
 40
0.7994998234
 40
0.8513891072
 40
0.8961821514
 40
0.9342560044
 40
1.0
 40
1.0
 40
1.0
 40
1.0
 10
9.813660879
 20
10.4835355499
 30
0.0
 10
9.8136608798
 20
10.4839197218
 30
0.0
 10
9.8136307135
 20
10.484642745
 30
0.0
 10
9.8135355023
 20
10.4856507362
 30
0.0
 10
9.8134535458
 20
10.4865141351
 30
0.0
 10
9.8134396543
 20
10.4871424202
 30
0.0
 10
9.8134679695
 20
10.4875694725
 30
0.0
 10
9.8135007064
 20
10.4878273161
 30
0.0
 10
9.8135588464
 20
10.4880605142
 30
0.0
 10
9.8136157773
 20
10.4882566618
 30
0.0
 10
9.8138204323
 20
10.4885659247
 30
0.0
 10
9.8137093306
 20
10.4885663751
 30
0.0
  0
SPLINE
  5
4F0
100
AcDbEntity
  8
0
100
AcDbSpline
 62
9
  6
CONTINUOUS
 70
0
 71
3
 72
9
 73
5
 74
0
 42
0.0000001
 43
0.0000001
 44
0.0000000001
 40
0.0
 40
0.0
 40
0.0
 40
0.0
 40
0.253904334
 40
1.0
 40
1.0
 40
1.0
 40
1.0
 10
12.2948165997
 20
13.044273899
 30
0.0
 10
12.2930196825
 20
13.0442295559
 30
0.0
 10
12.2859421657
 20
13.0440965889
 30
0.0
 10
12.2788555325
 20
13.0442021202
 30
0.0
 10
12.273583277
 20
13.0445200505
 30
0.0
  0
SPLINE
  5
4F1
100
AcDbEntity
  8
0
100
AcDbSpline
 62
9
  6
CONTINUOUS
 70
0
 71
3
 72
9
 73
5
 74
0
 42
0.0000001
 43
0.0000001
 44
0.0000000001
 40
0.0
 40
0.0
 40
0.0
 40
0.0
 40
0.2479290486
 40
1.0
 40
1.0
 40
1.0
 40
1.0
 10
9.8342816227
 20
10.4927901889
 30
0.0
 10
9.8334008148
 20
10.492898379
 30
0.0
 10
9.8298529783
 20
10.4933736262
 30
0.0
 10
9.8263251065
 20
10.4939944253
 30
0.0
 10
9.8236872084
 20
10.4945310814
 30
0.0
  0
LINE
  5
4F2
100
AcDbEntity
  8
0
100
AcDbLine
 62
9
  6
CONTINUOUS
 10
9.8236872084
 20
10.4945310814
 11
9.8128396298
 21
10.4971171509
  0
LINE
  5
4F3
100
AcDbEntity
  8
0
100
AcDbLine
 62
9
  6
CONTINUOUS
 10
9.8128396298
 20
10.4971171509
 11
9.8020747286
 21
10.5003034388
  0
SPLINE
  5
4F4
100
AcDbEntity
  8
0
100
AcDbSpline
 62
9
  6
CONTINUOUS
 70
0
 71
3
 72
20
 73
16
 74
0
 42
0.0000001
 43
0.0000001
 44
0.0000000001
 40
0.0
 40
0.0
 40
0.0
 40
0.0
 40
0.0931162994
 40
0.1823182131
 40
0.2672508103
 40
0.3476905041
 40
0.4235188069
 40
0.4946967187
 40
0.6237018381
 40
0.7365731719
 40
0.7877620012
 40
0.8358459553
 40
0.8810727669
 40
0.9235038506
 40
1.0
 40
1.0
 40
1.0
 40
1.0
 10
9.8342811525
 20
10.4927896925
 30
0.0
 10
9.8498097669
 20
10.5091822029
 30
0.0
 10
9.8801568308
 20
10.5413323931
 30
0.0
 10
9.9246681756
 20
10.5884341333
 30
0.0
 10
9.9673400241
 20
10.6330440505
 30
0.0
 10
10.0081607147
 20
10.674933845
 30
0.0
 10
10.0470750538
 20
10.7140203583
 30
0.0
 10
10.09489481
 20
10.7608513792
 30
0.0
 10
10.1500461815
 20
10.8130257828
 30
0.0
 10
10.2026709287
 20
10.8607911695
 30
0.0
 10
10.2411667853
 20
10.8949159276
 30
0.0
 10
10.2675379108
 20
10.9179890356
 30
0.0
 10
10.2924114948
 20
10.9395484229
 30
0.0
 10
10.3226771508
 20
10.965403259
 30
0.0
 10
10.3448880147
 20
10.9838064112
 30
0.0
 10
10.3594050878
 20
10.9953539051
 30
0.0
  0
SPLINE
  5
4F5
100
AcDbEntity
  8
0
100
AcDbSpline
 62
9
  6
CONTINUOUS
 70
0
 71
3
 72
14
 73
10
 74
0
 42
0.0000001
 43
0.0000001
 44
0.0000000001
 40
0.0
 40
0.0
 40
0.0
 40
0.0
 40
0.2256985565
 40
0.4024305931
 40
0.5273446134
 40
0.6097278619
 40
0.6745698709
 40
0.7468291916
 40
1.0
 40
1.0
 40
1.0
 40
1.0
 10
9.8020748991
 20
10.5003038523
 30
0.0
 10
9.801463305
 20
10.5005648898
 30
0.0
 10
9.8003867686
 20
10.5010642949
 30
0.0
 10
9.7990219538
 20
10.5018089756
 30
0.0
 10
9.7980594712
 20
10.5024040555
 30
0.0
 10
9.7974050282
 20
10.5028703833
 30
0.0
 10
9.7969325803
 20
10.5033134192
 30
0.0
 10
9.7961406592
 20
10.5041482915
 30
0.0
 10
9.795606984
 20
10.5049539328
 30
0.0
 10
9.7952124042
 20
10.5055869362
 30
0.0
  0
LINE
  5
4F6
100
AcDbEntity
  8
0
100
AcDbLine
 62
9
  6
CONTINUOUS
 10
9.7952124042
 20
10.5055869362
 11
9.7929656956
 21
10.5098293904
  0
LINE
  5
4F7
100
AcDbEntity
  8
0
100
AcDbLine
 62
9
  6
CONTINUOUS
 10
9.7929656616
 20
10.5098294625
 11
9.7892844208
 21
10.52134601
  0
SPLINE
  5
4F8
100
AcDbEntity
  8
0
100
AcDbSpline
 62
9
  6
CONTINUOUS
 70
0
 71
3
 72
9
 73
5
 74
0
 42
0.0000001
 43
0.0000001
 44
0.0000000001
 40
0.0
 40
0.0
 40
0.0
 40
0.0
 40
0.2485037556
 40
1.0
 40
1.0
 40
1.0
 40
1.0
 10
9.7892844208
 20
10.52134601
 30
0.0
 10
9.7890039463
 20
10.522304422
 30
0.0
 10
9.787902729
 20
10.5261690288
 30
0.0
 10
9.7869219794
 20
10.5300687604
 30
0.0
 10
9.7862752684
 20
10.5330185774
 30
0.0
  0
SPLINE
  5
4F9
100
AcDbEntity
  8
0
100
AcDbSpline
 62
9
  6
CONTINUOUS
 70
0
 71
3
 72
9
 73
5
 74
0
 42
0.0000001
 43
0.0000001
 44
0.0000000001
 40
0.0
 40
0.0
 40
0.0
 40
0.0
 40
0.2518047031
 40
1.0
 40
1.0
 40
1.0
 40
1.0
 10
9.7862752684
 20
10.5330185774
 30
0.0
 10
9.7860692057
 20
10.5339584833
 30
0.0
 10
9.7852875014
 20
10.5376990084
 30
0.0
 10
9.7846560724
 20
10.5414716633
 30
0.0
 10
9.7842858458
 20
10.5443066934
 30
0.0
  0
SPLINE
  5
4FA
100
AcDbEntity
  8
0
100
AcDbSpline
 62
9
  6
CONTINUOUS
 70
0
 71
3
 72
24
 73
20
 74
0
 42
0.0000001
 43
0.0000001
 44
0.0000000001
 40
0.0
 40
0.0
 40
0.0
 40
0.0
 40
0.1011281538
 40
0.1971286839
 40
0.2430249743
 40
0.2874358781
 40
0.3717318515
 40
0.4499281111
 40
0.5221578159
 40
0.588769457
 40
0.6502219667
 40
0.7070707997
 40
0.7597931834
 40
0.8087464814
 40
0.8541302265
 40
0.8959199819
 40
0.934118438
 40
0.9687895452
 40
1.0
 40
1.0
 40
1.0
 40
1.0
 10
9.7842858458
 20
10.5443066934
 30
0.0
 10
9.8023106948
 20
10.564100324
 30
0.0
 10
9.8373761962
 20
10.6027477612
 30
0.0
 10
9.8806943028
 20
10.6503133331
 30
0.0
 10
9.914139104
 20
10.6865614673
 30
0.0
 10
9.9456933287
 20
10.7203368051
 30
0.0
 10
9.9834691901
 20
10.7600000658
 30
0.0
 10
10.0270246931
 20
10.8043192376
 30
0.0
 10
10.0679835181
 20
10.8446147185
 30
0.0
 10
10.1063528974
 20
10.8812120912
 30
0.0
 10
10.1422498214
 20
10.914494489
 30
0.0
 10
10.175810445
 20
10.9448833755
 30
0.0
 10
10.2071829108
 20
10.9727559119
 30
0.0
 10
10.2364855716
 20
10.9983863655
 30
0.0
 10
10.2637880932
 20
11.0219066062
 30
0.0
 10
10.2892349828
 20
11.0432152219
 30
0.0
 10
10.3129006006
 20
11.062226239
 30
0.0
 10
10.3348398579
 20
11.0788996164
 30
0.0
 10
10.3491009815
 20
11.0889501867
 30
0.0
 10
10.3559764193
 20
11.0935317808
 30
0.0
  0
SPLINE
  5
4FB
100
AcDbEntity
  8
0
100
AcDbSpline
 62
9
  6
CONTINUOUS
 70
0
 71
3
 72
9
 73
5
 74
0
 42
0.0000001
 43
0.0000001
 44
0.0000000001
 40
0.0
 40
0.0
 40
0.0
 40
0.0
 40
0.2499955412
 40
1.0
 40
1.0
 40
1.0
 40
1.0
 10
12.3330202449
 20
11.7496875512
 30
0.0
 10
12.3323711394
 20
11.8515948561
 30
0.0
 10
12.3294756165
 20
12.2592277375
 30
0.0
 10
12.326969659
 20
12.6668763177
 30
0.0
 10
12.3279850914
 20
12.9726100181
 30
0.0
  0
SPLINE
  5
4FC
100
AcDbEntity
  8
0
100
AcDbSpline
 62
9
  6
CONTINUOUS
 70
0
 71
3
 72
14
 73
10
 74
0
 42
0.0000001
 43
0.0000001
 44
0.0000000001
 40
0.0
 40
0.0
 40
0.0
 40
0.0
 40
0.0238715876
 40
0.0742827771
 40
0.1545664653
 40
0.2650593245
 40
0.4056231376
 40
0.5756542025
 40
1.0
 40
1.0
 40
1.0
 40
1.0
 10
9.7825662123
 20
11.7497430069
 30
0.0
 10
9.7825663183
 20
11.7497788562
 30
0.0
 10
9.7826785088
 20
11.7498566935
 30
0.0
 10
9.782887239
 20
11.7499162259
 30
0.0
 10
9.7832488306
 20
11.7499966639
 30
0.0
 10
9.7837379457
 20
11.7500690994
 30
0.0
 10
9.7843670507
 20
11.7501450269
 30
0.0
 10
9.7854650624
 20
11.7502517303
 30
0.0
 10
9.7863555222
 20
11.7503186337
 30
0.0
 10
9.7869912794
 20
11.7503624742
 30
0.0
  0
SPLINE
  5
4FD
100
AcDbEntity
  8
0
100
AcDbSpline
 62
9
  6
CONTINUOUS
 70
0
 71
3
 72
9
 73
5
 74
0
 42
0.0000001
 43
0.0000001
 44
0.0000000001
 40
0.0
 40
0.0
 40
0.0
 40
0.0
 40
0.5041767093
 40
1.0
 40
1.0
 40
1.0
 40
1.0
 10
9.7920011254
 20
10.468621359
 30
0.0
 10
9.7895261581
 20
10.4691121592
 30
0.0
 10
9.7846952487
 20
10.4705384491
 30
0.0
 10
9.7802198549
 20
10.4728589008
 30
0.0
 10
9.7781441873
 20
10.4742185843
 30
0.0
  0
SPLINE
  5
4FE
100
AcDbEntity
  8
0
100
AcDbSpline
 62
9
  6
CONTINUOUS
 70
0
 71
3
 72
9
 73
5
 74
0
 42
0.0000001
 43
0.0000001
 44
0.0000000001
 40
0.0
 40
0.0
 40
0.0
 40
0.0
 40
0.4998392987
 40
1.0
 40
1.0
 40
1.0
 40
1.0
 10
9.7781441873
 20
10.4742185843
 30
0.0
 10
9.7761189639
 20
10.475545224
 30
0.0
 10
9.7723191613
 20
10.4786134408
 30
0.0
 10
9.7692629103
 20
10.4824221419
 30
0.0
 10
9.7679390793
 20
10.4844510615
 30
0.0
  0
SPLINE
  5
4FF
100
AcDbEntity
  8
0
100
AcDbSpline
 62
9
  6
CONTINUOUS
 70
0
 71
3
 72
9
 73
5
 74
0
 42
0.0000001
 43
0.0000001
 44
0.0000000001
 40
0.0
 40
0.0
 40
0.0
 40
0.0
 40
0.4948082295
 40
1.0
 40
1.0
 40
1.0
 40
1.0
 10
9.7679390793
 20
10.4844510615
 30
0.0
 10
9.7666086238
 20
10.4864901338
 30
0.0
 10
9.7643226307
 20
10.4908851948
 30
0.0
 10
9.762872614
 20
10.4956168254
 30
0.0
 10
9.7623485795
 20
10.4980467885
 30
0.0
  0
LINE
  5
500
100
AcDbEntity
  8
0
100
AcDbLine
 62
7
  6
CONTINUOUS
 10
9.7593774029
 20
10.5217166926
 11
9.7764152899
 21
10.5218000893
  0
SPLINE
  5
501
100
AcDbEntity
  8
0
100
AcDbSpline
 62
7
  6
CONTINUOUS
 70
0
 71
3
 72
17
 73
13
 74
0
 42
0.0000001
 43
0.0000001
 44
0.0000000001
 40
0.0
 40
0.0
 40
0.0
 40
0.0
 40
0.2279095692
 40
0.4280607462
 40
0.5995386543
 40
0.7412562626
 40
0.8004837562
 40
0.8517984886
 40
0.8953302707
 40
0.9316742903
 40
0.9835058146
 40
1.0
 40
1.0
 40
1.0
 40
1.0
 10
9.7764152899
 20
10.5218000893
 30
0.0
 10
9.7767624738
 20
10.5218018436
 30
0.0
 10
9.7774145544
 20
10.5218036406
 30
0.0
 10
9.7783279176
 20
10.5217984472
 30
0.0
 10
9.7791096711
 20
10.5217820586
 30
0.0
 10
9.7796768778
 20
10.521758249
 30
0.0
 10
9.7800606521
 20
10.5217539161
 30
0.0
 10
9.7802966344
 20
10.521764018
 30
0.0
 10
9.7804915404
 20
10.5217853084
 30
0.0
 10
9.7806989152
 20
10.5218518798
 30
0.0
 10
9.780786332
 20
10.5218919768
 30
0.0
 10
9.780939901
 20
10.5220053465
 30
0.0
 10
9.7809426073
 20
10.5219803661
 30
0.0
  0
SPLINE
  5
502
100
AcDbEntity
  8
0
100
AcDbSpline
 62
9
  6
CONTINUOUS
 70
0
 71
3
 72
10
 73
6
 74
0
 42
0.0000001
 43
0.0000001
 44
0.0000000001
 40
0.0
 40
0.0
 40
0.0
 40
0.0
 40
0.2502364282
 40
0.5004111304
 40
1.0
 40
1.0
 40
1.0
 40
1.0
 10
9.7920011907
 20
10.4686219347
 30
0.0
 10
9.7937852327
 20
10.4682555853
 30
0.0
 10
9.7973752756
 20
10.4676302127
 30
0.0
 10
9.804591969
 20
10.4666813388
 30
0.0
 10
9.8100397431
 20
10.466257907
 30
0.0
 10
9.8136736114
 20
10.466130458
 30
0.0
  0
SPLINE
  5
503
100
AcDbEntity
  8
0
100
AcDbSpline
 62
9
  6
CONTINUOUS
 70
0
 71
3
 72
22
 73
18
 74
0
 42
0.0000001
 43
0.0000001
 44
0.0000000001
 40
0.0
 40
0.0
 40
0.0
 40
0.0
 40
0.0363519076
 40
0.0753197129
 40
0.1615540129
 40
0.2090526772
 40
0.2596308243
 40
0.3135048134
 40
0.3710489565
 40
0.4326515857
 40
0.498702901
 40
0.5695906562
 40
0.6455514507
 40
0.7266665709
 40
0.8129400736
 40
0.9041443651
 40
1.0
 40
1.0
 40
1.0
 40
1.0
 10
10.3313664139
 20
11.7564908896
 30
0.0
 10
10.3247688195
 20
11.7564223757
 30
0.0
 10
10.3110992538
 20
11.7562445631
 30
0.0
 10
10.2817795425
 20
11.7558513814
 30
0.0
 10
10.2504348931
 20
11.7555526088
 30
0.0
 10
10.2169817124
 20
11.7555484333
 30
0.0
 10
10.1894028777
 20
11.7557700688
 30
0.0
 10
10.1600035714
 20
11.7562218742
 30
0.0
 10
10.1286042982
 20
11.7567441062
 30
0.0
 10
10.0949935211
 20
11.7572074761
 30
0.0
 10
10.0589583984
 20
11.7574753282
 30
0.0
 10
10.0203160125
 20
11.7574086583
 30
0.0
 10
9.9789424376
 20
11.7568973325
 30
0.0
 10
9.9347854278
 20
11.7558454603
 30
0.0
 10
9.8878787998
 20
11.7541931685
 30
0.0
 10
9.8383065339
 20
11.7522456034
 30
0.0
 10
9.8043786653
 20
11.7509684952
 30
0.0
 10
9.7869912177
 20
11.7503624699
 30
0.0
  0
SPLINE
  5
504
100
AcDbEntity
  8
0
100
AcDbSpline
 62
9
  6
CONTINUOUS
 70
0
 71
3
 72
9
 73
5
 74
0
 42
0.0000001
 43
0.0000001
 44
0.0000000001
 40
0.0
 40
0.0
 40
0.0
 40
0.0
 40
0.2536600044
 40
1.0
 40
1.0
 40
1.0
 40
1.0
 10
9.7928330576
 20
10.4491611832
 30
0.0
 10
9.7945107254
 20
10.4491977677
 30
0.0
 10
9.8011249061
 20
10.4493027288
 30
0.0
 10
9.8077461457
 20
10.449190611
 30
0.0
 10
9.8126748788
 20
10.4488990366
 30
0.0
  0
SPLINE
  5
505
100
AcDbEntity
  8
0
100
AcDbSpline
 62
9
  6
CONTINUOUS
 70
0
 71
3
 72
15
 73
11
 74
0
 42
0.0000001
 43
0.0000001
 44
0.0000000001
 40
0.0
 40
0.0
 40
0.0
 40
0.0
 40
0.1547840159
 40
0.3145019477
 40
0.4701893285
 40
0.613328683
 40
0.7369459966
 40
0.8402057487
 40
0.9263797192
 40
1.0
 40
1.0
 40
1.0
 40
1.0
 10
10.4212360171
 20
9.9403008023
 30
0.0
 10
10.4200744445
 20
9.9402394007
 30
0.0
 10
10.4177193821
 20
9.9400037881
 30
0.0
 10
10.4142388526
 20
9.9393741874
 30
0.0
 10
10.4109072759
 20
9.9384759826
 30
0.0
 10
10.4079343899
 20
9.9373401155
 30
0.0
 10
10.4055057999
 20
9.9359528917
 30
0.0
 10
10.4037444277
 20
9.9343596891
 30
0.0
 10
10.4026570794
 20
9.9326765667
 30
0.0
 10
10.4023773238
 20
9.9314722902
 30
0.0
 10
10.4023747428
 20
9.9309190434
 30
0.0
  0
SPLINE
  5
506
100
AcDbEntity
  8
0
100
AcDbSpline
 62
9
  6
CONTINUOUS
 70
0
 71
3
 72
14
 73
10
 74
0
 42
0.0000001
 43
0.0000001
 44
0.0000000001
 40
0.0
 40
0.0
 40
0.0
 40
0.0
 40
0.3393262265
 40
0.5022472591
 40
0.6489233102
 40
0.7715763671
 40
0.8681353247
 40
0.9420961257
 40
1.0
 40
1.0
 40
1.0
 40
1.0
 10
10.3499867621
 20
11.6090655137
 30
0.0
 10
10.3478286766
 20
11.6088894719
 30
0.0
 10
10.344645228
 20
11.6084462102
 30
0.0
 10
10.3406071459
 20
11.6075203486
 30
0.0
 10
10.3379687703
 20
11.6067043144
 30
0.0
 10
10.3358224655
 20
11.605764539
 30
0.0
 10
10.3342589694
 20
11.6047139418
 30
0.0
 10
10.3332688386
 20
11.6036151966
 30
0.0
 10
10.3329914025
 20
11.6027774724
 30
0.0
 10
10.3329877678
 20
11.6024080034
 30
0.0
  0
SPLINE
  5
507
100
AcDbEntity
  8
0
100
AcDbSpline
 62
9
  6
CONTINUOUS
 70
0
 71
3
 72
11
 73
7
 74
0
 42
0.0000001
 43
0.0000001
 44
0.0000000001
 40
0.0
 40
0.0
 40
0.0
 40
0.0
 40
0.2451960663
 40
0.4927603796
 40
0.7440724012
 40
1.0
 40
1.0
 40
1.0
 40
1.0
 10
10.4212360182
 20
9.9403007705
 30
0.0
 10
10.4162525492
 20
10.0767260821
 30
0.0
 10
10.4057599267
 20
10.3508771703
 30
0.0
 10
10.3883703033
 20
10.7647858218
 30
0.0
 10
10.3691002139
 20
11.1845915875
 30
0.0
 10
10.3562073171
 20
11.4667100147
 30
0.0
 10
10.3499863438
 20
11.6090653811
 30
0.0
  0
SPLINE
  5
508
100
AcDbEntity
  8
0
100
AcDbSpline
 62
9
  6
CONTINUOUS
 70
0
 71
3
 72
9
 73
5
 74
0
 42
0.0000001
 43
0.0000001
 44
0.0000000001
 40
0.0
 40
0.0
 40
0.0
 40
0.0
 40
0.4943732985
 40
1.0
 40
1.0
 40
1.0
 40
1.0
 10
10.3499867663
 20
11.609065417
 30
0.0
 10
10.3410654763
 20
11.8132092203
 30
0.0
 10
10.3244528609
 20
12.2262125753
 30
0.0
 10
10.3134250648
 20
12.6394089968
 30
0.0
 10
10.3091177871
 20
12.8483546045
 30
0.0
  0
SPLINE
  5
509
100
AcDbEntity
  8
0
100
AcDbSpline
 62
9
  6
CONTINUOUS
 70
0
 71
3
 72
9
 73
5
 74
0
 42
0.0000001
 43
0.0000001
 44
0.0000000001
 40
0.0
 40
0.0
 40
0.0
 40
0.0
 40
0.2492670303
 40
1.0
 40
1.0
 40
1.0
 40
1.0
 10
10.3091176103
 20
12.8483545905
 30
0.0
 10
10.3091017687
 20
12.8491231145
 30
0.0
 10
10.3091050487
 20
12.8522073558
 30
0.0
 10
10.3093687873
 20
12.8552905934
 30
0.0
 10
10.3097035148
 20
12.8575813705
 30
0.0
  0
SPLINE
  5
50A
100
AcDbEntity
  8
0
100
AcDbSpline
 62
9
  6
CONTINUOUS
 70
0
 71
3
 72
16
 73
12
 74
0
 42
0.0000001
 43
0.0000001
 44
0.0000000001
 40
0.0
 40
0.0
 40
0.0
 40
0.0
 40
0.1448237001
 40
0.2858395824
 40
0.4221024531
 40
0.5526209479
 40
0.6154239275
 40
0.6764338818
 40
0.7926482542
 40
0.900670797
 40
1.0
 40
1.0
 40
1.0
 40
1.0
 10
10.3148160561
 20
12.8550306071
 30
0.0
 10
10.3323123984
 20
12.8226557794
 30
0.0
 10
10.3680147745
 20
12.7593862871
 30
0.0
 10
10.4231750329
 20
12.6673919033
 30
0.0
 10
10.4779187483
 20
12.5794078103
 30
0.0
 10
10.5225666362
 20
12.5085535457
 30
0.0
 10
10.5569063111
 20
12.4538052626
 30
0.0
 10
10.5891437192
 20
12.4020293888
 30
0.0
 10
10.6269206785
 20
12.3401670094
 30
0.0
 10
10.6685103995
 20
12.2692357703
 30
0.0
 10
10.694024565
 20
12.223127806
 30
0.0
 10
10.705916115
 20
12.2008647953
 30
0.0
  0
SPLINE
  5
50B
100
AcDbEntity
  8
0
100
AcDbSpline
 62
9
  6
CONTINUOUS
 70
0
 71
3
 72
9
 73
5
 74
0
 42
0.0000001
 43
0.0000001
 44
0.0000000001
 40
0.0
 40
0.0
 40
0.0
 40
0.0
 40
0.7499966053
 40
1.0
 40
1.0
 40
1.0
 40
1.0
 10
12.3352756641
 20
10.5217208139
 30
0.0
 10
12.3367338574
 20
10.8287088736
 30
0.0
 10
12.3360307183
 20
11.2380407851
 30
0.0
 10
12.3336759263
 20
11.6473571779
 30
0.0
 10
12.3330231133
 20
11.7496874559
 30
0.0
  0
SPLINE
  5
50C
100
AcDbEntity
  8
0
100
AcDbSpline
 62
9
  6
CONTINUOUS
 70
0
 71
3
 72
52
 73
48
 74
0
 42
0.0000001
 43
0.0000001
 44
0.0000000001
 40
0.0
 40
0.0
 40
0.0
 40
0.0
 40
0.0534202946
 40
0.0822986661
 40
0.1123473892
 40
0.1433846119
 40
0.1752324405
 40
0.2076419003
 40
0.2403073022
 40
0.2730433788
 40
0.2894090224
 40
0.3057645108
 40
0.3384028181
 40
0.3708828536
 40
0.403176331
 40
0.4352670882
 40
0.4671670896
 40
0.4989201978
 40
0.5305751524
 40
0.5621540735
 40
0.5936627361
 40
0.6251065834
 40
0.6565003866
 40
0.6878632007
 40
0.719205606
 40
0.7505292684
 40
0.7818352949
 40
0.8131165881
 40
0.8287427509
 40
0.8443552848
 40
0.8599521231
 40
0.8755328671
 40
0.8910991082
 40
0.9066575241
 40
0.9222167284
 40
0.9299989638
 40
0.937783517
 40
0.9455698587
 40
0.9533507274
 40
0.9611161239
 40
0.9688632937
 40
0.9727341633
 40
0.9766068652
 40
0.9804854236
 40
0.9843734933
 40
0.9921756524
 40
1.0
 40
1.0
 40
1.0
 40
1.0
 10
10.8059002012
 20
11.3035149865
 30
0.0
 10
10.8046137232
 20
11.2779378718
 30
0.0
 10
10.8025085657
 20
11.2385395818
 30
0.0
 10
10.7990803758
 20
11.1847893816
 30
0.0
 10
10.7959469338
 20
11.1417742329
 30
0.0
 10
10.7922769049
 20
11.0973727981
 30
0.0
 10
10.7880053034
 20
11.0518881953
 30
0.0
 10
10.7831881082
 20
11.0056738028
 30
0.0
 10
10.7780136808
 20
10.9590695213
 30
0.0
 10
10.7732408863
 20
10.9201611692
 30
0.0
 10
10.7691057444
 20
10.8890546999
 30
0.0
 10
10.7647530017
 20
10.8580252385
 30
0.0
 10
10.7589757143
 20
10.8193960071
 30
0.0
 10
10.7516925322
 20
10.773268046
 30
0.0
 10
10.7439360704
 20
10.7274829123
 30
0.0
 10
10.7356077932
 20
10.6820804401
 30
0.0
 10
10.7265536817
 20
10.6370803446
 30
0.0
 10
10.716581313
 20
10.5924870258
 30
0.0
 10
10.7054842917
 20
10.5483181496
 30
0.0
 10
10.6933248783
 20
10.5045525558
 30
0.0
 10
10.6802212071
 20
10.4611669035
 30
0.0
 10
10.6662412777
 20
10.4181487608
 30
0.0
 10
10.6512976087
 20
10.3755290192
 30
0.0
 10
10.6353141851
 20
10.3333396211
 30
0.0
 10
10.6182577892
 20
10.2916087394
 30
0.0
 10
10.6001360662
 20
10.2503586371
 30
0.0
 10
10.5809402581
 20
10.2096305942
 30
0.0
 10
10.5642259719
 20
10.1760643337
 30
0.0
 10
10.5505361786
 20
10.1494014726
 30
0.0
 10
10.5401494794
 20
10.1294954402
 30
0.0
 10
10.5296252623
 20
10.1096863091
 30
0.0
 10
10.518909079
 20
10.090005374
 30
0.0
 10
10.5079530143
 20
10.0704778664
 30
0.0
 10
10.4967315783
 20
10.0511135375
 30
0.0
 10
10.4871464706
 20
10.0351160312
 30
0.0
 10
10.4793162011
 20
10.0224137363
 30
0.0
 10
10.4733422926
 20
10.0129450994
 30
0.0
 10
10.4672543971
 20
10.0035501896
 30
0.0
 10
10.4610922639
 20
9.994214966
 30
0.0
 10
10.4549173443
 20
9.9849109925
 30
0.0
 10
10.4497462265
 20
9.9771898266
 30
0.0
 10
10.4454871366
 20
9.9711059614
 30
0.0
 10
10.4422092036
 20
9.9666001332
 30
0.0
 10
10.4388172845
 20
9.9621688051
 30
0.0
 10
10.4341332792
 20
9.9563572545
 30
0.0
 10
10.4281367574
 20
9.9491775169
 30
0.0
 10
10.4234658025
 20
9.943316412
 30
0.0
 10
10.4212314602
 20
9.9403035409
 30
0.0
  0
SPLINE
  5
50D
100
AcDbEntity
  8
0
100
AcDbSpline
 62
9
  6
CONTINUOUS
 70
0
 71
3
 72
15
 73
11
 74
0
 42
0.0000001
 43
0.0000001
 44
0.0000000001
 40
0.0
 40
0.0
 40
0.0
 40
0.0
 40
0.3926418642
 40
0.5640226314
 40
0.7116391788
 40
0.8302562526
 40
0.9165398989
 40
0.9478192182
 40
0.9716040101
 40
1.0
 40
1.0
 40
1.0
 40
1.0
 10
10.3091176078
 20
12.8483545853
 30
0.0
 10
10.307923725
 20
12.8482758591
 30
0.0
 10
10.3062099505
 20
12.8481405681
 30
0.0
 10
10.3040540681
 20
12.847903699
 30
0.0
 10
10.302732988
 20
12.8477230577
 30
0.0
 10
10.3016742438
 20
12.8475327404
 30
0.0
 10
10.3009771822
 20
12.8473594612
 30
0.0
 10
10.3005699741
 20
12.847204043
 30
0.0
 10
10.3003514927
 20
12.8470927378
 30
0.0
 10
10.3002087425
 20
12.8469674662
 30
0.0
 10
10.3002047052
 20
12.846881031
 30
0.0
  0
LINE
  5
50E
100
AcDbEntity
  8
0
100
AcDbLine
 62
9
  6
CONTINUOUS
 10
12.3330231133
 20
11.7496874559
 11
12.3499227659
 21
11.7489937032
  0
LINE
  5
50F
100
AcDbEntity
  8
0
100
AcDbLine
 62
9
  6
CONTINUOUS
 10
9.5957263124
 20
10.2481772561
 11
9.6014323385
 21
10.2537912781
  0
SPLINE
  5
510
100
AcDbEntity
  8
0
100
AcDbSpline
 62
9
  6
CONTINUOUS
 70
0
 71
3
 72
9
 73
5
 74
0
 42
0.0000001
 43
0.0000001
 44
0.0000000001
 40
0.0
 40
0.0
 40
0.0
 40
0.0
 40
0.5131591485
 40
1.0
 40
1.0
 40
1.0
 40
1.0
 10
9.6014323385
 20
10.2537912781
 30
0.0
 10
9.6347611332
 20
10.2866239238
 30
0.0
 10
9.699005746
 20
10.3513216551
 30
0.0
 10
9.7622062436
 20
10.4170328092
 30
0.0
 10
9.7928316273
 20
10.449159466
 30
0.0
  0
SPLINE
  5
511
100
AcDbEntity
  8
0
100
AcDbSpline
 62
9
  6
CONTINUOUS
 70
0
 71
3
 72
11
 73
7
 74
0
 42
0.0000001
 43
0.0000001
 44
0.0000000001
 40
0.0
 40
0.0
 40
0.0
 40
0.0
 40
0.2486960036
 40
0.4996591526
 40
0.7508515263
 40
1.0
 40
1.0
 40
1.0
 40
1.0
 10
9.7428596247
 20
10.4989911885
 30
0.0
 10
9.7436079475
 20
10.4927569055
 30
0.0
 10
9.7472349165
 20
10.4803890351
 30
0.0
 10
9.7584347171
 20
10.4646657535
 30
0.0
 10
9.7741862551
 20
10.4534889822
 30
0.0
 10
9.7865822772
 20
10.4498788056
 30
0.0
 10
9.7928314488
 20
10.4491592787
 30
0.0
  0
LINE
  5
512
100
AcDbEntity
  8
0
100
AcDbLine
 62
9
  6
CONTINUOUS
 10
9.7920011588
 20
10.4686217332
 11
9.7928331462
 21
10.4491599648
  0
SPLINE
  5
513
100
AcDbEntity
  8
0
100
AcDbSpline
 62
9
  6
CONTINUOUS
 70
0
 71
3
 72
9
 73
5
 74
0
 42
0.0000001
 43
0.0000001
 44
0.0000000001
 40
0.0
 40
0.0
 40
0.0
 40
0.0
 40
0.4995971664
 40
1.0
 40
1.0
 40
1.0
 40
1.0
 10
9.7593774085
 20
10.5217166913
 30
0.0
 10
9.7595400576
 20
10.5177435829
 30
0.0
 10
9.7602115068
 20
10.5098043696
 30
0.0
 10
9.7614876064
 20
10.5019345013
 30
0.0
 10
9.7623490704
 20
10.4980459329
 30
0.0
  0
SPLINE
  5
514
100
AcDbEntity
  8
0
100
AcDbSpline
 62
9
  6
CONTINUOUS
 70
0
 71
3
 72
10
 73
6
 74
0
 42
0.0000001
 43
0.0000001
 44
0.0000000001
 40
0.0
 40
0.0
 40
0.0
 40
0.0
 40
0.5663459151
 40
0.807270232
 40
1.0
 40
1.0
 40
1.0
 40
1.0
 10
9.7623490704
 20
10.4980459329
 30
0.0
 10
9.7586668088
 20
10.4981528742
 30
0.0
 10
9.7534190556
 20
10.4983485499
 30
0.0
 10
9.7469237672
 20
10.4986957594
 30
0.0
 10
9.7441092196
 20
10.4988864189
 30
0.0
 10
9.742859986
 20
10.4989911569
 30
0.0
  0
SPLINE
  5
515
100
AcDbEntity
  8
0
100
AcDbSpline
 62
9
  6
CONTINUOUS
 70
0
 71
3
 72
9
 73
5
 74
0
 42
0.0000001
 43
0.0000001
 44
0.0000000001
 40
0.0
 40
0.0
 40
0.0
 40
0.0
 40
0.2500257177
 40
1.0
 40
1.0
 40
1.0
 40
1.0
 10
9.7869920018
 20
11.7503624646
 30
0.0
 10
9.787733451
 20
11.8504629163
 30
0.0
 10
9.7910297254
 20
12.2508189208
 30
0.0
 10
9.7938818661
 20
12.6511950422
 30
0.0
 10
9.7927861289
 20
12.9514614492
 30
0.0
  0
SPLINE
  5
516
100
AcDbEntity
  8
0
100
AcDbSpline
 62
9
  6
CONTINUOUS
 70
0
 71
3
 72
21
 73
17
 74
0
 42
0.0000001
 43
0.0000001
 44
0.0000000001
 40
0.0
 40
0.0
 40
0.0
 40
0.0
 40
0.0958159791
 40
0.1871994794
 40
0.2739221843
 40
0.3557591538
 40
0.5045814206
 40
0.5717801753
 40
0.6343432531
 40
0.6925374994
 40
0.7466783213
 40
0.7970840375
 40
0.8440393575
 40
0.8876912672
 40
0.9281562819
 40
1.0
 40
1.0
 40
1.0
 40
1.0
 10
9.7927819173
 20
12.9514614361
 30
0.0
 10
9.8091986797
 20
12.9351946213
 30
0.0
 10
9.841337592
 20
12.9034789519
 30
0.0
 10
9.8884343253
 20
12.8571408278
 30
0.0
 10
9.9330651526
 20
12.8131039519
 30
0.0
 10
9.9872691322
 20
12.7590444356
 30
0.0
 10
10.0375461788
 20
12.7077212473
 30
0.0
 10
10.0843060884
 20
12.6594649348
 30
0.0
 10
10.115834547
 20
12.626887979
 30
0.0
 10
10.1452344531
 20
12.5966341397
 30
0.0
 10
10.1727362751
 20
12.5686251588
 30
0.0
 10
10.1985730391
 20
12.5427817258
 30
0.0
 10
10.2229453975
 20
12.5190557608
 30
0.0
 10
10.2459381693
 20
12.4973543172
 30
0.0
 10
10.2737498855
 20
12.4720233754
 30
0.0
 10
10.2943078378
 20
12.4543625661
 30
0.0
 10
10.3077728607
 20
12.4434546526
 30
0.0
  0
SPLINE
  5
517
100
AcDbEntity
  8
0
100
AcDbSpline
 62
7
  6
CONTINUOUS
 70
0
 71
3
 72
12
 73
8
 74
0
 42
0.0000001
 43
0.0000001
 44
0.0000000001
 40
0.0
 40
0.0
 40
0.0
 40
0.0
 40
0.1956285564
 40
0.4326850186
 40
0.5644383131
 40
0.7038388271
 40
1.0
 40
1.0
 40
1.0
 40
1.0
 10
9.7425233939
 20
10.5205846895
 30
0.0
 10
9.7436189494
 20
10.5207006442
 30
0.0
 10
9.7460446454
 20
10.5209350318
 30
0.0
 10
9.7492166658
 20
10.5211432413
 30
0.0
 10
9.7520732064
 20
10.5213206714
 30
0.0
 10
9.7552591674
 20
10.5215527272
 30
0.0
 10
9.7577096343
 20
10.5217042791
 30
0.0
 10
9.7593774085
 20
10.5217166913
 30
0.0
  0
SPLINE
  5
518
100
AcDbEntity
  8
0
100
AcDbSpline
 62
9
  6
CONTINUOUS
 70
0
 71
3
 72
9
 73
5
 74
0
 42
0.0000001
 43
0.0000001
 44
0.0000000001
 40
0.0
 40
0.0
 40
0.0
 40
0.0
 40
0.2499891298
 40
1.0
 40
1.0
 40
1.0
 40
1.0
 10
9.7447047657
 20
11.7489919376
 30
0.0
 10
9.7440756796
 20
11.646630675
 30
0.0
 10
9.7418076248
 20
11.2371670315
 30
0.0
 10
9.7411340971
 20
10.8276889934
 30
0.0
 10
9.7425395712
 20
10.5205848181
 30
0.0
  0
SPLINE
  5
519
100
AcDbEntity
  8
0
100
AcDbSpline
 62
9
  6
CONTINUOUS
 70
0
 71
3
 72
14
 73
10
 74
0
 42
0.0000001
 43
0.0000001
 44
0.0000000001
 40
0.0
 40
0.0
 40
0.0
 40
0.0
 40
0.0238709252
 40
0.0742812564
 40
0.1545643719
 40
0.265056967
 40
0.4056208083
 40
0.5756522486
 40
1.0
 40
1.0
 40
1.0
 40
1.0
 10
12.3120704638
 20
11.749743001
 30
0.0
 10
12.3120703611
 20
11.7497788481
 30
0.0
 10
12.3119581794
 20
11.7498566888
 30
0.0
 10
12.3117494592
 20
11.7499162174
 30
0.0
 10
12.3113878834
 20
11.7499966564
 30
0.0
 10
12.3108987866
 20
11.7500690905
 30
0.0
 10
12.3102697034
 20
11.7501450178
 30
0.0
 10
12.3091717264
 20
11.7502517204
 30
0.0
 10
12.3082812939
 20
11.7503186231
 30
0.0
 10
12.3076455558
 20
11.7503624632
 30
0.0
  0
SPLINE
  5
51A
100
AcDbEntity
  8
0
100
AcDbSpline
 62
9
  6
CONTINUOUS
 70
0
 71
3
 72
9
 73
5
 74
0
 42
0.0000001
 43
0.0000001
 44
0.0000000001
 40
0.0
 40
0.0
 40
0.0
 40
0.0
 40
0.2500087699
 40
1.0
 40
1.0
 40
1.0
 40
1.0
 10
9.7842862734
 20
10.5443066958
 30
0.0
 10
9.7837579775
 20
10.6448141844
 30
0.0
 10
9.7826328332
 20
11.0468356025
 30
0.0
 10
9.7847568095
 20
11.448858221
 30
0.0
 10
9.7869912794
 20
11.7503624695
 30
0.0
  0
SPLINE
  5
51B
100
AcDbEntity
  8
0
100
AcDbSpline
 62
9
  6
CONTINUOUS
 70
0
 71
3
 72
9
 73
5
 74
0
 42
0.0000001
 43
0.0000001
 44
0.0000000001
 40
0.0
 40
0.0
 40
0.0
 40
0.0
 40
0.2476321418
 40
1.0
 40
1.0
 40
1.0
 40
1.0
 10
9.7425231657
 20
10.5205870062
 30
0.0
 10
9.7426383151
 20
10.5188075538
 30
0.0
 10
9.7429953492
 20
10.5116144505
 30
0.0
 10
9.7429719986
 20
10.5044077652
 30
0.0
 10
9.7428598592
 20
10.4989912007
 30
0.0
  0
SPLINE
  5
51C
100
AcDbEntity
  8
0
100
AcDbSpline
 62
7
  6
CONTINUOUS
 70
0
 71
3
 72
11
 73
7
 74
0
 42
0.0000001
 43
0.0000001
 44
0.0000000001
 40
0.0
 40
0.0
 40
0.0
 40
0.0
 40
0.289366239
 40
0.5518065895
 40
0.7841871382
 40
1.0
 40
1.0
 40
1.0
 40
1.0
 10
9.7929656592
 20
10.5098294607
 30
0.0
 10
9.791733567
 20
10.5102086246
 30
0.0
 10
9.7894275976
 20
10.5110874372
 30
0.0
 10
9.7863567873
 20
10.5127733772
 30
0.0
 10
9.7838273883
 20
10.5147092286
 30
0.0
 10
9.782590193
 20
10.5163212662
 30
0.0
 10
9.7821373038
 20
10.5171693543
 30
0.0
  0
LINE
  5
51D
100
AcDbEntity
  8
0
100
AcDbLine
 62
7
  6
CONTINUOUS
 10
9.7821373038
 20
10.5171693543
 11
9.7815414576
 21
10.5185135955
  0
LINE
  5
51E
100
AcDbEntity
  8
0
100
AcDbLine
 62
7
  6
CONTINUOUS
 10
9.7815414576
 20
10.5185135955
 11
9.7810136789
 21
10.5205201712
  0
SPLINE
  5
51F
100
AcDbEntity
  8
0
100
AcDbSpline
 62
9
  6
CONTINUOUS
 70
0
 71
3
 72
15
 73
11
 74
0
 42
0.0000001
 43
0.0000001
 44
0.0000000001
 40
0.0
 40
0.0
 40
0.0
 40
0.0
 40
0.1674978521
 40
0.3331650107
 40
0.4907340085
 40
0.634324998
 40
0.7585254926
 40
0.8591413801
 40
0.9371184591
 40
1.0
 40
1.0
 40
1.0
 40
1.0
 10
10.3296883446
 20
12.8834397229
 30
0.0
 10
10.329040228
 20
12.8840266074
 30
0.0
 10
10.3277244049
 20
12.8851649686
 30
0.0
 10
10.3257042038
 20
12.8867420625
 30
0.0
 10
10.32369126
 20
12.8881193994
 30
0.0
 10
10.3217589298
 20
12.8892191997
 30
0.0
 10
10.3199938086
 20
12.8899947996
 30
0.0
 10
10.3184540324
 20
12.8903950345
 30
0.0
 10
10.3171717457
 20
12.8903888939
 30
0.0
 10
10.3164720708
 20
12.8900660296
 30
0.0
 10
10.3162268366
 20
12.8898478426
 30
0.0
  0
SPLINE
  5
520
100
AcDbEntity
  8
0
100
AcDbSpline
 62
9
  6
CONTINUOUS
 70
0
 71
3
 72
9
 73
5
 74
0
 42
0.0000001
 43
0.0000001
 44
0.0000000001
 40
0.0
 40
0.0
 40
0.0
 40
0.0
 40
0.4871159217
 40
1.0
 40
1.0
 40
1.0
 40
1.0
 10
9.7428599867
 20
10.4989911902
 30
0.0
 10
9.7128547313
 20
10.4662841507
 30
0.0
 10
9.6509393991
 20
10.3994296658
 30
0.0
 10
9.5879283361
 20
10.3335996531
 30
0.0
 10
9.5552315986
 20
10.3002090435
 30
0.0
  0
LINE
  5
521
100
AcDbEntity
  8
0
100
AcDbLine
 62
9
  6
CONTINUOUS
 10
9.5552315986
 20
10.3002090435
 11
9.5494965425
 21
10.294360007
  0
SPLINE
  5
522
100
AcDbEntity
  8
0
100
AcDbSpline
 62
7
  6
CONTINUOUS
 70
0
 71
3
 72
10
 73
6
 74
0
 42
0.0000001
 43
0.0000001
 44
0.0000000001
 40
0.0
 40
0.0
 40
0.0
 40
0.0
 40
0.4327889816
 40
0.7038326613
 40
1.0
 40
1.0
 40
1.0
 40
1.0
 10
12.352106976
 20
10.5205903815
 30
0.0
 10
12.3496873402
 20
10.5208530608
 30
0.0
 10
12.3457382194
 20
10.5211430298
 30
0.0
 10
12.3401256426
 20
10.5214880906
 30
0.0
 10
12.3369401113
 20
10.5216604744
 30
0.0
 10
12.3352756641
 20
10.5217208139
 30
0.0
  0
SPLINE
  5
523
100
AcDbEntity
  8
0
100
AcDbSpline
 62
9
  6
CONTINUOUS
 70
0
 71
3
 72
22
 73
18
 74
0
 42
0.0000001
 43
0.0000001
 44
0.0000000001
 40
0.0
 40
0.0
 40
0.0
 40
0.0
 40
0.0363515787
 40
0.0753190852
 40
0.1615528875
 40
0.2090513602
 40
0.259629357
 40
0.3135032169
 40
0.3710472555
 40
0.4326498178
 40
0.4987011168
 40
0.5695889219
 40
0.6455498589
 40
0.7266652199
 40
0.8129390704
 40
0.9041438152
 40
1.0
 40
1.0
 40
1.0
 40
1.0
 10
11.7632660392
 20
11.7564909334
 30
0.0
 10
11.7698636251
 20
11.7564224274
 30
0.0
 10
11.7835331831
 20
11.7562446214
 30
0.0
 10
11.8128529175
 20
11.7558514326
 30
0.0
 10
11.8441976303
 20
11.7555526312
 30
0.0
 10
11.877650918
 20
11.7555484185
 30
0.0
 10
11.9052298815
 20
11.7557700179
 30
0.0
 10
11.9346293464
 20
11.756221811
 30
0.0
 10
11.9660288085
 20
11.7567440499
 30
0.0
 10
11.9996398121
 20
11.7572074399
 30
0.0
 10
12.035675208
 20
11.7574753196
 30
0.0
 10
12.0743179257
 20
11.7574086792
 30
0.0
 10
12.1156919004
 20
11.7568973762
 30
0.0
 10
12.1598493861
 20
11.7558455193
 30
0.0
 10
12.2067565674
 20
11.7541932197
 30
0.0
 10
12.2563294629
 20
11.7522456297
 30
0.0
 10
12.2902577765
 20
11.7509685034
 30
0.0
 10
12.3076454588
 20
11.7503624699
 30
0.0
  0
LINE
  5
524
100
AcDbEntity
  8
0
100
AcDbLine
 62
7
  6
CONTINUOUS
 10
12.3352819092
 20
10.5217215212
 11
12.3182207355
 21
10.5218102784
  0
SPLINE
  5
525
100
AcDbEntity
  8
0
100
AcDbSpline
 62
9
  6
CONTINUOUS
 70
0
 71
3
 72
9
 73
5
 74
0
 42
0.0000001
 43
0.0000001
 44
0.0000000001
 40
0.0
 40
0.0
 40
0.0
 40
0.0
 40
0.2500034416
 40
1.0
 40
1.0
 40
1.0
 40
1.0
 10
9.7616531412
 20
11.749686473
 30
0.0
 10
9.7610003137
 20
11.6473556546
 30
0.0
 10
9.7586454774
 20
11.2380371768
 30
0.0
 10
9.7579423438
 20
10.8287031797
 30
0.0
 10
9.7594005697
 20
10.5217135754
 30
0.0
  0
SPLINE
  5
526
100
AcDbEntity
  8
0
100
AcDbSpline
 62
9
  6
CONTINUOUS
 70
0
 71
3
 72
9
 73
5
 74
0
 42
0.0000001
 43
0.0000001
 44
0.0000000001
 40
0.0
 40
0.0
 40
0.0
 40
0.0
 40
0.2500048754
 40
1.0
 40
1.0
 40
1.0
 40
1.0
 10
9.7666458361
 20
12.9726109027
 30
0.0
 10
9.7669877423
 20
12.8706979726
 30
0.0
 10
9.7670634603
 20
12.463049164
 30
0.0
 10
9.7635632113
 20
12.0554137681
 30
0.0
 10
9.7616127185
 20
11.7496874288
 30
0.0
  0
LINE
  5
527
100
AcDbEntity
  8
0
100
AcDbLine
 62
9
  6
CONTINUOUS
 10
9.7616127185
 20
11.7496874288
 11
9.7446879188
 21
11.7489920665
  0
SPLINE
  5
528
100
AcDbEntity
  8
0
100
AcDbSpline
 62
7
  6
CONTINUOUS
 70
0
 71
3
 72
11
 73
7
 74
0
 42
0.0000001
 43
0.0000001
 44
0.0000000001
 40
0.0
 40
0.0
 40
0.0
 40
0.0
 40
0.1975882045
 40
0.4353189983
 40
0.7057337783
 40
1.0
 40
1.0
 40
1.0
 40
1.0
 10
9.749564756
 20
12.9735846981
 30
0.0
 10
9.7506867716
 20
12.9734792931
 30
0.0
 10
9.7531616901
 20
12.9732774201
 30
0.0
 10
9.7571800722
 20
12.9730402872
 30
0.0
 10
9.7617503846
 20
12.9728027786
 30
0.0
 10
9.7649680757
 20
12.9726559225
 30
0.0
 10
9.7666458361
 20
12.9726109027
 30
0.0
  0
SPLINE
  5
529
100
AcDbEntity
  8
0
100
AcDbSpline
 62
7
  6
CONTINUOUS
 70
0
 71
3
 72
20
 73
16
 74
0
 42
0.0000001
 43
0.0000001
 44
0.0000000001
 40
0.0
 40
0.0
 40
0.0
 40
0.0
 40
0.2263763828
 40
0.4252888023
 40
0.5954934891
 40
0.7359965208
 40
0.8459161145
 40
0.8895056664
 40
0.9262277148
 40
0.9563848523
 40
0.9786740785
 40
0.9862567518
 40
0.9913127187
 40
0.9948167001
 40
1.0
 40
1.0
 40
1.0
 40
1.0
 10
9.7839480966
 20
12.9726722338
 30
0.0
 10
9.7843179725
 20
12.9726735803
 30
0.0
 10
9.7850128797
 20
12.9726714318
 30
0.0
 10
9.7859857773
 20
12.9726666405
 30
0.0
 10
9.7868186881
 20
12.9726775068
 30
0.0
 10
9.787504671
 20
12.9727160654
 30
0.0
 10
9.7879853756
 20
12.9727344322
 30
0.0
 10
9.788295928
 20
12.9727090993
 30
0.0
 10
9.7884719776
 20
12.9726645615
 30
0.0
 10
9.7886055901
 20
12.972606212
 30
0.0
 10
9.7886918836
 20
12.9725579389
 30
0.0
 10
9.7887431397
 20
12.9725350233
 30
0.0
 10
9.7887695428
 20
12.9725258458
 30
0.0
 10
9.7887916975
 20
12.9725385186
 30
0.0
 10
9.7887916526
 20
12.9725547542
 30
0.0
 10
9.7887916808
 20
12.9725632232
 30
0.0
  0
SPLINE
  5
52A
100
AcDbEntity
  8
0
100
AcDbSpline
 62
9
  6
CONTINUOUS
 70
0
 71
3
 72
15
 73
11
 74
0
 42
0.0000001
 43
0.0000001
 44
0.0000000001
 40
0.0
 40
0.0
 40
0.0
 40
0.0
 40
0.3831733205
 40
0.5535392552
 40
0.7019923706
 40
0.8228324978
 40
0.9121784892
 40
0.9449804586
 40
0.9700876038
 40
1.0
 40
1.0
 40
1.0
 40
1.0
 10
11.7855189225
 20
12.848354815
 30
0.0
 10
11.7866834731
 20
12.848278025
 30
0.0
 10
11.7883646355
 20
12.8481461691
 30
0.0
 10
11.7904906875
 20
12.8479160416
 30
0.0
 10
11.7918176608
 20
12.8477375055
 30
0.0
 10
11.7928949396
 20
12.8475470052
 30
0.0
 10
11.7936121872
 20
12.8473718798
 30
0.0
 10
11.7940379676
 20
12.8472141394
 30
0.0
 10
11.7942686087
 20
12.8470999764
 30
0.0
 10
11.7944235805
 20
12.8469723713
 30
0.0
 10
11.794429327
 20
12.8468814447
 30
0.0
  0
SPLINE
  5
52B
100
AcDbEntity
  8
0
100
AcDbSpline
 62
9
  6
CONTINUOUS
 70
0
 71
3
 72
14
 73
10
 74
0
 42
0.0000001
 43
0.0000001
 44
0.0000000001
 40
0.0
 40
0.0
 40
0.0
 40
0.0
 40
0.3360093789
 40
0.4983285189
 40
0.6450661995
 40
0.7684282396
 40
0.8661396647
 40
0.9412493919
 40
1.0
 40
1.0
 40
1.0
 40
1.0
 10
11.7446502306
 20
11.6090654874
 30
0.0
 10
11.7467866205
 20
11.6088912049
 30
0.0
 10
11.7499444973
 20
11.608454642
 30
0.0
 10
11.7539591847
 20
11.6075422274
 30
0.0
 10
11.7565996123
 20
11.6067317772
 30
0.0
 10
11.7587585993
 20
11.6057921539
 30
0.0
 10
11.7603415342
 20
11.6047372492
 30
0.0
 10
11.7613527963
 20
11.6036318095
 30
0.0
 10
11.7616421535
 20
11.6027835193
 30
0.0
 10
11.7616472226
 20
11.6024087689
 30
0.0
  0
SPLINE
  5
52C
100
AcDbEntity
  8
0
100
AcDbSpline
 62
9
  6
CONTINUOUS
 70
0
 71
3
 72
9
 73
5
 74
0
 42
0.0000001
 43
0.0000001
 44
0.0000000001
 40
0.0
 40
0.0
 40
0.0
 40
0.0
 40
0.505625147
 40
1.0
 40
1.0
 40
1.0
 40
1.0
 10
11.7855189225
 20
12.8483548153
 30
0.0
 10
11.7812115461
 20
12.6394098325
 30
0.0
 10
11.7701839747
 20
12.2262133666
 30
0.0
 10
11.7535712592
 20
11.8132099748
 30
0.0
 10
11.7446499404
 20
11.6090655101
 30
0.0
  0
SPLINE
  5
52D
100
AcDbEntity
  8
0
100
AcDbSpline
 62
9
  6
CONTINUOUS
 70
0
 71
3
 72
11
 73
7
 74
0
 42
0.0000001
 43
0.0000001
 44
0.0000000001
 40
0.0
 40
0.0
 40
0.0
 40
0.0
 40
0.2559278316
 40
0.5072398679
 40
0.7548039199
 40
1.0
 40
1.0
 40
1.0
 40
1.0
 10
11.7446502305
 20
11.6090654855
 30
0.0
 10
11.7384293514
 20
11.4667098892
 30
0.0
 10
11.7255365095
 20
11.1845911309
 30
0.0
 10
11.7062662687
 20
10.7647850965
 30
0.0
 10
11.6888764458
 20
10.3508763038
 30
0.0
 10
11.6783838298
 20
10.076725168
 30
0.0
 10
11.673400436
 20
9.9402997539
 30
0.0
  0
SPLINE
  5
52E
100
AcDbEntity
  8
0
100
AcDbSpline
 62
9
  6
CONTINUOUS
 70
0
 71
3
 72
51
 73
47
 74
0
 42
0.0000001
 43
0.0000001
 44
0.0000000001
 40
0.0
 40
0.0
 40
0.0
 40
0.0
 40
0.0078228334
 40
0.0156256148
 40
0.0195141183
 40
0.0233928448
 40
0.0272654203
 40
0.031135961
 40
0.0388821979
 40
0.0466467699
 40
0.0544270572
 40
0.0622129101
 40
0.0699969317
 40
0.0777785918
 40
0.0933366477
 40
0.1088939407
 40
0.1244590344
 40
0.1400385819
 40
0.1556342089
 40
0.1712455556
 40
0.1868705677
 40
0.2181495514
 40
0.2494530636
 40
0.2807738984
 40
0.3121133125
 40
0.3434730798
 40
0.3748637153
 40
0.4063042511
 40
0.4378095552
 40
0.4693854049
 40
0.5010378974
 40
0.5327888706
 40
0.5646860216
 40
0.5967723586
 40
0.6290607828
 40
0.6615371967
 40
0.6941737995
 40
0.7105263965
 40
0.7268872334
 40
0.7596295258
 40
0.7923199949
 40
0.8247135795
 40
0.8875947583
 40
0.9176629363
 40
0.9465550645
 40
1.0
 40
1.0
 40
1.0
 40
1.0
 10
11.6734048888
 20
9.9403024417
 30
0.0
 10
11.6711727457
 20
9.9433145155
 30
0.0
 10
11.6665039037
 20
9.9491737078
 30
0.0
 10
11.660508055
 20
9.9563497262
 30
0.0
 10
11.6558238946
 20
9.9621587781
 30
0.0
 10
11.6524321879
 20
9.9665882671
 30
0.0
 10
11.6491550961
 20
9.9710922923
 30
0.0
 10
11.6448977756
 20
9.9771736277
 30
0.0
 10
11.639729515
 20
9.984891857
 30
0.0
 10
11.6335579
 20
9.9941923017
 30
0.0
 10
11.6273982478
 20
10.0035236988
 30
0.0
 10
11.6213123111
 20
10.0129146069
 30
0.0
 10
11.6153401462
 20
10.0223791182
 30
0.0
 10
11.6075121994
 20
10.0350758535
 30
0.0
 10
11.5979301656
 20
10.0510665165
 30
0.0
 10
11.5867125021
 20
10.0704226945
 30
0.0
 10
11.5757601186
 20
10.0899419809
 30
0.0
 10
11.5650474566
 20
10.1096145637
 30
0.0
 10
11.5545266132
 20
10.1294152445
 30
0.0
 10
11.5441431295
 20
10.1493127682
 30
0.0
 10
11.5304569604
 20
10.1759639868
 30
0.0
 10
11.5137464486
 20
10.2095152486
 30
0.0
 10
11.4945549038
 20
10.250225009
 30
0.0
 10
11.4764387523
 20
10.2914571478
 30
0.0
 10
11.4593879679
 20
10.3331698268
 30
0.0
 10
11.4434081693
 20
10.3753401119
 30
0.0
 10
11.4284659509
 20
10.4179398902
 30
0.0
 10
11.4144866755
 20
10.4609377651
 30
0.0
 10
11.4013837855
 20
10.5043033225
 30
0.0
 10
11.3892236576
 20
10.5480488882
 30
0.0
 10
11.378122752
 20
10.5921976467
 30
0.0
 10
11.368144328
 20
10.6367706659
 30
0.0
 10
11.3590855099
 20
10.6817499572
 30
0.0
 10
11.3507573095
 20
10.7271311433
 30
0.0
 10
11.343003803
 20
10.7728950443
 30
0.0
 10
11.335721679
 20
10.8190026776
 30
0.0
 10
11.3299376245
 20
10.8576140238
 30
0.0
 10
11.3255853124
 20
10.888628686
 30
0.0
 10
11.3214598908
 20
10.9197254221
 30
0.0
 10
11.3166761175
 20
10.95863199
 30
0.0
 10
11.3114118911
 20
11.0052184303
 30
0.0
 10
11.3051284863
 20
11.0662224211
 30
0.0
 10
11.2998642368
 20
11.1260651485
 30
0.0
 10
11.2955876457
 20
11.1843001866
 30
0.0
 10
11.2921458642
 20
11.2380597995
 30
0.0
 10
11.2900474111
 20
11.2774639898
 30
0.0
 10
11.2887611336
 20
11.3030445681
 30
0.0
  0
SPLINE
  5
52F
100
AcDbEntity
  8
0
100
AcDbSpline
 62
7
  6
CONTINUOUS
 70
0
 71
3
 72
20
 73
16
 74
0
 42
0.0000001
 43
0.0000001
 44
0.0000000001
 40
0.0
 40
0.0
 40
0.0
 40
0.0
 40
0.2266336733
 40
0.4256456039
 40
0.5958950889
 40
0.7363005389
 40
0.8460915428
 40
0.8896565714
 40
0.9262978711
 40
0.9567433521
 40
0.9799852343
 40
0.9882137261
 40
0.9937848218
 40
0.996781711
 40
1.0
 40
1.0
 40
1.0
 40
1.0
 10
12.3182207355
 20
10.5218102784
 30
0.0
 10
12.3178734118
 20
10.5218120451
 30
0.0
 10
12.317221058
 20
10.5218117884
 30
0.0
 10
12.3163079089
 20
10.5217998956
 30
0.0
 10
12.3155269559
 20
10.5217788692
 30
0.0
 10
12.3148835133
 20
10.5217501577
 30
0.0
 10
12.3144325788
 20
10.5217433522
 30
0.0
 10
12.3141424048
 20
10.5217730372
 30
0.0
 10
12.3139769589
 20
10.5218139842
 30
0.0
 10
12.3138509708
 20
10.5218740391
 30
0.0
 10
12.3137723108
 20
10.521925939
 30
0.0
 10
12.3137238463
 20
10.521957296
 30
0.0
 10
12.3137035372
 20
10.5219705693
 30
0.0
 10
12.3136817622
 20
10.521974828
 30
0.0
 10
12.3136795897
 20
10.5219622441
 30
0.0
 10
12.3136795098
 20
10.5219573126
 30
0.0
  0
SPLINE
  5
530
100
AcDbEntity
  8
0
100
AcDbSpline
 62
9
  6
CONTINUOUS
 70
0
 71
3
 72
22
 73
18
 74
0
 42
0.0000001
 43
0.0000001
 44
0.0000000001
 40
0.0
 40
0.0
 40
0.0
 40
0.0
 40
0.0993817089
 40
0.1524302567
 40
0.2075762664
 40
0.3238082844
 40
0.3847637158
 40
0.4475104382
 40
0.5119627326
 40
0.5780007196
 40
0.6454763573
 40
0.714248671
 40
0.7841962134
 40
0.8195742421
 40
0.8552027862
 40
0.9271639206
 40
1.0
 40
1.0
 40
1.0
 40
1.0
 10
11.3893795642
 20
12.2020961272
 30
0.0
 10
11.4012693744
 20
12.224322606
 30
0.0
 10
11.4200317616
 20
12.2581336739
 30
0.0
 10
11.4463919672
 20
12.3037087489
 30
0.0
 10
11.4753799489
 20
12.3526985285
 30
0.0
 10
11.5060399295
 20
12.40302551
 30
0.0
 10
11.5381899741
 20
12.4546960444
 30
0.0
 10
11.5635705545
 20
12.4951102194
 30
0.0
 10
11.5897331949
 20
12.5365551965
 30
0.0
 10
11.6165103179
 20
12.5790307233
 30
0.0
 10
11.6436831126
 20
12.6225518712
 30
0.0
 10
11.6710487719
 20
12.6671201295
 30
0.0
 10
11.6938558691
 20
12.7049324879
 30
0.0
 10
11.712125808
 20
12.7356628938
 30
0.0
 10
11.7305195213
 20
12.7669134633
 30
0.0
 10
11.7533724945
 20
12.8065631076
 30
0.0
 10
11.7711198256
 20
12.8387202305
 30
0.0
 10
11.7798458812
 20
12.8550033615
 30
0.0
  0
SPLINE
  5
531
100
AcDbEntity
  8
0
100
AcDbSpline
 62
9
  6
CONTINUOUS
 70
0
 71
3
 72
15
 73
11
 74
0
 42
0.0000001
 43
0.0000001
 44
0.0000000001
 40
0.0
 40
0.0
 40
0.0
 40
0.0
 40
0.1561512542
 40
0.3167859835
 40
0.4729506988
 40
0.6161160988
 40
0.739280423
 40
0.8417506312
 40
0.9270932353
 40
1.0
 40
1.0
 40
1.0
 40
1.0
 10
11.6734002574
 20
9.9402997482
 30
0.0
 10
11.6745723072
 20
9.9402378027
 30
0.0
 10
11.6769448591
 20
9.9399989837
 30
0.0
 10
11.6804455748
 20
9.9393603135
 30
0.0
 10
11.6837863622
 20
9.9384526278
 30
0.0
 10
11.6867577676
 20
9.9373103036
 30
0.0
 10
11.6891761677
 20
9.9359225529
 30
0.0
 10
11.6909211337
 20
9.9343335268
 30
0.0
 10
11.6919902765
 20
9.93265902
 30
0.0
 10
11.6922614523
 20
9.9314654004
 30
0.0
 10
11.6922629825
 20
9.9309174106
 30
0.0
  0
SPLINE
  5
532
100
AcDbEntity
  8
0
100
AcDbSpline
 62
9
  6
CONTINUOUS
 70
0
 71
3
 72
9
 73
5
 74
0
 42
0.0000001
 43
0.0000001
 44
0.0000000001
 40
0.0
 40
0.0
 40
0.0
 40
0.0
 40
0.2477988522
 40
1.0
 40
1.0
 40
1.0
 40
1.0
 10
9.7927819159
 20
12.9514614361
 30
0.0
 10
9.7928894814
 20
12.9523602188
 30
0.0
 10
9.7933641767
 20
12.9559823652
 30
0.0
 10
9.7939914887
 20
12.9595840546
 30
0.0
 10
9.7945376279
 20
12.9622769851
 30
0.0
  0
LINE
  5
533
100
AcDbEntity
  8
0
100
AcDbLine
 62
9
  6
CONTINUOUS
 10
9.7945376279
 20
12.9622769851
 11
9.7972085765
 21
12.9734358263
  0
LINE
  5
534
100
AcDbEntity
  8
0
100
AcDbLine
 62
9
  6
CONTINUOUS
 10
9.7972085765
 20
12.9734358263
 11
9.8005007858
 21
12.9844573038
  0
SPLINE
  5
535
100
AcDbEntity
  8
0
100
AcDbSpline
 62
9
  6
CONTINUOUS
 70
0
 71
3
 72
9
 73
5
 74
0
 42
0.0000001
 43
0.0000001
 44
0.0000000001
 40
0.0
 40
0.0
 40
0.0
 40
0.0
 40
0.4948315872
 40
1.0
 40
1.0
 40
1.0
 40
1.0
 10
9.8005007858
 20
12.9844573038
 30
0.0
 10
9.80102906
 20
12.9858378897
 30
0.0
 10
9.8022765879
 20
12.9886002505
 30
0.0
 10
9.8044837962
 20
12.9907282803
 30
0.0
 10
9.8057110072
 20
12.9916065109
 30
0.0
  0
SPLINE
  5
536
100
AcDbEntity
  8
0
100
AcDbSpline
 62
9
  6
CONTINUOUS
 70
0
 71
3
 72
9
 73
5
 74
0
 42
0.0000001
 43
0.0000001
 44
0.0000000001
 40
0.0
 40
0.0
 40
0.0
 40
0.0
 40
0.2536057983
 40
1.0
 40
1.0
 40
1.0
 40
1.0
 10
9.8057110072
 20
12.9916065109
 30
0.0
 10
9.8060570916
 20
12.9918541798
 30
0.0
 10
9.8074620928
 20
12.9927750234
 30
0.0
 10
9.8089915068
 20
12.99349055
 30
0.0
 10
9.8101529309
 20
12.9939594912
 30
0.0
  0
LINE
  5
537
100
AcDbEntity
  8
0
100
AcDbLine
 62
9
  6
CONTINUOUS
 10
9.8101529309
 20
12.9939594912
 11
9.8215494088
 21
12.9974998909
  0
SPLINE
  5
538
100
AcDbEntity
  8
0
100
AcDbSpline
 62
9
  6
CONTINUOUS
 70
0
 71
3
 72
9
 73
5
 74
0
 42
0.0000001
 43
0.0000001
 44
0.0000000001
 40
0.0
 40
0.0
 40
0.0
 40
0.0
 40
0.2485277513
 40
1.0
 40
1.0
 40
1.0
 40
1.0
 10
9.8215494088
 20
12.9974998909
 30
0.0
 10
9.8224951395
 20
12.9977684993
 30
0.0
 10
9.8263079104
 20
12.9988225817
 30
0.0
 10
9.8301540267
 20
12.9997589225
 30
0.0
 10
9.833062464
 20
13.000373713
 30
0.0
  0
SPLINE
  5
539
100
AcDbEntity
  8
0
100
AcDbSpline
 62
9
  6
CONTINUOUS
 70
0
 71
3
 72
9
 73
5
 74
0
 42
0.0000001
 43
0.0000001
 44
0.0000000001
 40
0.0
 40
0.0
 40
0.0
 40
0.0
 40
0.2517426098
 40
1.0
 40
1.0
 40
1.0
 40
1.0
 10
9.833062464
 20
13.000373713
 30
0.0
 10
9.8339884636
 20
13.0005694524
 30
0.0
 10
9.8376742551
 20
13.0013110049
 30
0.0
 10
9.8413903007
 20
13.0019054024
 30
0.0
 10
9.8441821263
 20
13.0022513472
 30
0.0
  0
LINE
  5
53A
100
AcDbEntity
  8
0
100
AcDbLine
 62
9
  6
CONTINUOUS
 10
12.4998917981
 20
13.2453481037
 11
12.4939030187
 21
13.2392574413
  0
SPLINE
  5
53B
100
AcDbEntity
  8
0
100
AcDbSpline
 62
9
  6
CONTINUOUS
 70
0
 71
3
 72
9
 73
5
 74
0
 42
0.0000001
 43
0.0000001
 44
0.0000000001
 40
0.0
 40
0.0
 40
0.0
 40
0.0
 40
0.5144099683
 40
1.0
 40
1.0
 40
1.0
 40
1.0
 10
12.4939030187
 20
13.2392574413
 30
0.0
 10
12.4603783822
 20
13.2052069512
 30
0.0
 10
12.3944815185
 20
13.1397258793
 30
0.0
 10
12.3275044631
 20
13.0753568239
 30
0.0
 10
12.2948164424
 20
13.0442738953
 30
0.0
  0
SPLINE
  5
53C
100
AcDbEntity
  8
0
100
AcDbSpline
 62
7
  6
CONTINUOUS
 70
0
 71
3
 72
9
 73
5
 74
0
 42
0.0000001
 43
0.0000001
 44
0.0000000001
 40
0.0
 40
0.0
 40
0.0
 40
0.0
 40
0.4758092782
 40
1.0
 40
1.0
 40
1.0
 40
1.0
 10
12.2736182781
 20
13.0057828571
 30
0.0
 10
12.2741151755
 20
13.0057163264
 30
0.0
 10
12.2751479197
 20
13.0054881094
 30
0.0
 10
12.2761416086
 20
13.0051257216
 30
0.0
 10
12.2766439377
 20
13.0048961355
 30
0.0
  0
SPLINE
  5
53D
100
AcDbEntity
  8
0
100
AcDbSpline
 62
7
  6
CONTINUOUS
 70
0
 71
3
 72
11
 73
7
 74
0
 42
0.0000001
 43
0.0000001
 44
0.0000000001
 40
0.0
 40
0.0
 40
0.0
 40
0.0
 40
0.2382268186
 40
0.4782980088
 40
0.7299051961
 40
1.0
 40
1.0
 40
1.0
 40
1.0
 10
12.2766439377
 20
13.0048961355
 30
0.0
 10
12.2771735077
 20
13.004654099
 30
0.0
 10
12.278195297
 20
13.0040695887
 30
0.0
 10
12.2795588218
 20
13.0029059494
 30
0.0
 10
12.280775432
 20
13.0014892188
 30
0.0
 10
12.2814889811
 20
13.0004294804
 30
0.0
 10
12.2818339865
 20
12.9998666586
 30
0.0
  0
SPLINE
  5
53E
100
AcDbEntity
  8
0
100
AcDbSpline
 62
7
  6
CONTINUOUS
 70
0
 71
3
 72
9
 73
5
 74
0
 42
0.0000001
 43
0.0000001
 44
0.0000000001
 40
0.0
 40
0.0
 40
0.0
 40
0.0
 40
0.2391944435
 40
1.0
 40
1.0
 40
1.0
 40
1.0
 10
12.2826305307
 20
12.9984582027
 30
0.0
 10
12.2828101104
 20
12.9981140117
 30
0.0
 10
12.2835271155
 20
12.996657588
 30
0.0
 10
12.2841112982
 20
12.9951366064
 30
0.0
 10
12.2844838105
 20
12.9939593179
 30
0.0
  0
SPLINE
  5
53F
100
AcDbEntity
  8
0
100
AcDbSpline
 62
9
  6
CONTINUOUS
 70
0
 71
3
 72
13
 73
9
 74
0
 42
0.0000001
 43
0.0000001
 44
0.0000000001
 40
0.0
 40
0.0
 40
0.0
 40
0.0
 40
0.287948837
 40
0.5775104192
 40
0.7089195899
 40
0.8239697223
 40
0.9208779322
 40
1.0
 40
1.0
 40
1.0
 40
1.0
 10
11.6722287354
 20
9.9376277026
 30
0.0
 10
11.6742755945
 20
9.9375559668
 30
0.0
 10
11.6783758069
 20
9.9371662044
 30
0.0
 10
11.6833076503
 20
9.9360042368
 30
0.0
 10
11.6868656724
 20
9.9346156463
 30
0.0
 10
11.6890163009
 20
9.9334382734
 30
0.0
 10
11.6906532147
 20
9.9321554087
 30
0.0
 10
11.691457805
 20
9.9311706702
 30
0.0
 10
11.6917294635
 20
9.9306778007
 30
0.0
  0
SPLINE
  5
540
100
AcDbEntity
  8
0
100
AcDbSpline
 62
9
  6
CONTINUOUS
 70
0
 71
3
 72
9
 73
5
 74
0
 42
0.0000001
 43
0.0000001
 44
0.0000000001
 40
0.0
 40
0.0
 40
0.0
 40
0.0
 40
0.5253143337
 40
1.0
 40
1.0
 40
1.0
 40
1.0
 10
11.6917294635
 20
9.9306778007
 30
0.0
 10
11.6918976782
 20
9.9303726091
 30
0.0
 10
11.6921530466
 20
9.9297508816
 30
0.0
 10
11.6922240626
 20
9.9290808983
 30
0.0
 10
11.6922109265
 20
9.9287662783
 30
0.0
  0
SPLINE
  5
541
100
AcDbEntity
  8
0
100
AcDbSpline
 62
9
  6
CONTINUOUS
 70
0
 71
3
 72
19
 73
15
 74
0
 42
0.0000001
 43
0.0000001
 44
0.0000000001
 40
0.0
 40
0.0
 40
0.0
 40
0.0
 40
0.0931183149
 40
0.1963754043
 40
0.2516057117
 40
0.3091402798
 40
0.3689214629
 40
0.4308947332
 40
0.4950078911
 40
0.5612114318
 40
0.6294623944
 40
0.6997214164
 40
0.8460951692
 40
1.0
 40
1.0
 40
1.0
 40
1.0
 10
11.8356788191
 20
1.7177921255
 30
0.0
 10
11.8207686359
 20
1.7574954155
 30
0.0
 10
11.7908415217
 20
1.8418010116
 30
0.0
 10
11.7563767481
 20
1.951117245
 30
0.0
 10
11.7293907518
 20
2.0457362115
 30
0.0
 10
11.7092872373
 20
2.1217124488
 30
0.0
 10
11.6898991621
 20
2.2010393983
 30
0.0
 10
11.6713623085
 20
2.2836433872
 30
0.0
 10
11.6538068109
 20
2.3694495562
 30
0.0
 10
11.6373766314
 20
2.458387563
 30
0.0
 10
11.6221463069
 20
2.5503771272
 30
0.0
 10
11.603199553
 20
2.6787420087
 30
0.0
 10
11.5827851047
 20
2.8462956811
 30
0.0
 10
11.5704041933
 20
2.9825156434
 30
0.0
 10
11.564905865
 20
3.0523955087
 30
0.0
  0
SPLINE
  5
542
100
AcDbEntity
  8
0
100
AcDbSpline
 62
9
  6
CONTINUOUS
 70
0
 71
3
 72
9
 73
5
 74
0
 42
0.0000001
 43
0.0000001
 44
0.0000000001
 40
0.0
 40
0.0
 40
0.0
 40
0.0
 40
0.489248263
 40
1.0
 40
1.0
 40
1.0
 40
1.0
 10
11.564905865
 20
3.0523955087
 30
0.0
 10
11.5588406994
 20
3.1294794751
 30
0.0
 10
11.5485367427
 20
3.2872031283
 30
0.0
 10
11.541436219
 20
3.4450944595
 30
0.0
 10
11.5384000372
 20
3.5257580195
 30
0.0
  0
LINE
  5
543
100
AcDbEntity
  8
0
100
AcDbLine
 62
9
  6
CONTINUOUS
 10
11.5264424125
 20
3.9644938753
 11
11.5262927214
 21
3.9722137353
  0
SPLINE
  5
544
100
AcDbEntity
  8
0
100
AcDbSpline
 62
9
  6
CONTINUOUS
 70
0
 71
3
 72
23
 73
19
 74
0
 42
0.0000001
 43
0.0000001
 44
0.0000000001
 40
0.0
 40
0.0
 40
0.0
 40
0.0
 40
0.121803757
 40
0.2502196964
 40
0.3157869373
 40
0.3815658002
 40
0.4470626096
 40
0.511919494
 40
0.5759139629
 40
0.6389153107
 40
0.6700267568
 40
0.7008840329
 40
0.731499519
 40
0.7618897413
 40
0.8220812149
 40
0.8816630029
 40
0.940880437
 40
1.0
 40
1.0
 40
1.0
 40
1.0
 10
11.5262927214
 20
3.9722137353
 30
0.0
 10
11.5216560337
 20
4.2125125819
 30
0.0
 10
11.5164984718
 20
4.7062497574
 30
0.0
 10
11.5210752433
 20
5.3293766478
 30
0.0
 10
11.5310465767
 20
5.8418470518
 30
0.0
 10
11.5414886393
 20
6.2301208998
 30
0.0
 10
11.5541057875
 20
6.6169259205
 30
0.0
 10
11.5680666231
 20
7.0001606981
 30
0.0
 10
11.5826628061
 20
7.3784436638
 30
0.0
 10
11.5948568751
 20
7.6901830398
 30
0.0
 10
11.604279175
 20
7.9365943463
 30
0.0
 10
11.6110748598
 20
8.1191554118
 30
0.0
 10
11.6175984542
 20
8.3003023815
 30
0.0
 10
11.6258792841
 20
8.5393057184
 30
0.0
 10
11.6356465915
 20
8.8354479174
 30
0.0
 10
11.6469702935
 20
9.188451357
 30
0.0
 10
11.6583583453
 20
9.5393365616
 30
0.0
 10
11.6662628377
 20
9.7727058701
 30
0.0
 10
11.6703550918
 20
9.889288987
 30
0.0
  0
LINE
  5
545
100
AcDbEntity
  8
0
100
AcDbLine
 62
9
  6
CONTINUOUS
 10
11.6703550918
 20
9.889288987
 11
11.6706828791
 21
9.8986185009
  0
SPLINE
  5
546
100
AcDbEntity
  8
0
100
AcDbSpline
 62
9
  6
CONTINUOUS
 70
0
 71
3
 72
15
 73
11
 74
0
 42
0.0000001
 43
0.0000001
 44
0.0000000001
 40
0.0
 40
0.0
 40
0.0
 40
0.0
 40
0.1642588199
 40
0.3248471407
 40
0.475845576
 40
0.6131636391
 40
0.7339090612
 40
0.8369496273
 40
0.9237194768
 40
1.0
 40
1.0
 40
1.0
 40
1.0
 10
11.6706828791
 20
9.8986185009
 30
0.0
 10
11.6719944105
 20
9.8985620862
 30
0.0
 10
11.6745845252
 20
9.8983358402
 30
0.0
 10
11.6783349644
 20
9.8976752392
 30
0.0
 10
11.6817947979
 20
9.8967007134
 30
0.0
 10
11.6848276798
 20
9.8954575022
 30
0.0
 10
11.6873266796
 20
9.8939894351
 30
0.0
 10
11.6892099032
 20
9.8923429815
 30
0.0
 10
11.6904071358
 20
9.8905420537
 30
0.0
 10
11.690670648
 20
9.8892194142
 30
0.0
 10
11.6906509671
 20
9.8886101037
 30
0.0
  0
SPLINE
  5
547
100
AcDbEntity
  8
0
100
AcDbSpline
 62
7
  6
CONTINUOUS
 70
0
 71
3
 72
11
 73
7
 74
0
 42
0.0000001
 43
0.0000001
 44
0.0000000001
 40
0.0
 40
0.0
 40
0.0
 40
0.0
 40
0.2891745706
 40
0.5511990059
 40
0.7835440172
 40
1.0
 40
1.0
 40
1.0
 40
1.0
 10
9.8005005093
 20
12.9844575044
 30
0.0
 10
9.7993029071
 20
12.9840734839
 30
0.0
 10
9.7970622514
 20
12.9831976328
 30
0.0
 10
9.7940761955
 20
12.9815353982
 30
0.0
 10
9.7916241216
 20
12.9796214683
 30
0.0
 10
9.7904209162
 20
12.9780443491
 30
0.0
 10
9.7899723643
 20
12.9772166794
 30
0.0
  0
LINE
  5
548
100
AcDbEntity
  8
0
100
AcDbLine
 62
7
  6
CONTINUOUS
 10
9.7899723643
 20
12.9772166794
 11
9.7894905851
 21
12.9761958769
  0
LINE
  5
549
100
AcDbEntity
  8
0
100
AcDbLine
 62
7
  6
CONTINUOUS
 10
9.7894905851
 20
12.9761958769
 11
9.7888113421
 21
12.9737223484
  0
SPLINE
  5
54A
100
AcDbEntity
  8
0
100
AcDbSpline
 62
9
  6
CONTINUOUS
 70
0
 71
3
 72
11
 73
7
 74
0
 42
0.0000001
 43
0.0000001
 44
0.0000000001
 40
0.0
 40
0.0
 40
0.0
 40
0.0
 40
0.2624924973
 40
0.5167096977
 40
0.7625623266
 40
1.0
 40
1.0
 40
1.0
 40
1.0
 10
10.5264593406
 20
3.3184474322
 30
0.0
 10
10.523821566
 20
3.295964302
 30
0.0
 10
10.5183717646
 20
3.2517366495
 30
0.0
 10
10.5095629874
 20
3.1865641584
 30
0.0
 10
10.5001286381
 20
3.1236625453
 30
0.0
 10
10.4932166408
 20
3.0825577145
 30
0.0
 10
10.4896157705
 20
3.0624002026
 30
0.0
  0
SPLINE
  5
54B
100
AcDbEntity
  8
0
100
AcDbSpline
 62
9
  6
CONTINUOUS
 70
0
 71
3
 72
28
 73
24
 74
0
 42
0.0000001
 43
0.0000001
 44
0.0000000001
 40
0.0
 40
0.0
 40
0.0
 40
0.0
 40
0.0766604719
 40
0.1510764381
 40
0.1874439635
 40
0.2232522958
 40
0.2932984714
 40
0.3276473158
 40
0.3616304511
 40
0.3952905282
 40
0.4286712123
 40
0.461813093
 40
0.4947075478
 40
0.5273133393
 40
0.5595748812
 40
0.6229012956
 40
0.6844161807
 40
0.7438493934
 40
0.8009304513
 40
0.8553735727
 40
0.9068887021
 40
0.9551911789
 40
1.0
 40
1.0
 40
1.0
 40
1.0
 10
10.4896157705
 20
3.0624002026
 30
0.0
 10
10.4868255486
 20
3.0467806647
 30
0.0
 10
10.4810894344
 20
3.0160407314
 30
0.0
 10
10.4733728421
 20
2.9780180321
 30
0.0
 10
10.4669738914
 20
2.9483591203
 30
0.0
 10
10.4605497615
 20
2.9196329509
 30
0.0
 10
10.4537413363
 20
2.8914154014
 30
0.0
 10
10.4459089267
 20
2.8638616382
 30
0.0
 10
10.4394638858
 20
2.8437554108
 30
0.0
 10
10.4323956163
 20
2.8240723625
 30
0.0
 10
10.4246807068
 20
2.804820311
 30
0.0
 10
10.4162961381
 20
2.7860241526
 30
0.0
 10
10.4073585712
 20
2.7676644108
 30
0.0
 10
10.3979974967
 20
2.7497234143
 30
0.0
 10
10.3852081256
 20
2.7264744839
 30
0.0
 10
10.3687529929
 20
2.6984219179
 30
0.0
 10
10.3485830525
 20
2.6660480413
 30
0.0
 10
10.3284971136
 20
2.6351542372
 30
0.0
 10
10.3087976996
 20
2.6057603892
 30
0.0
 10
10.2898081003
 20
2.5778654625
 30
0.0
 10
10.2718155204
 20
2.5514898711
 30
0.0
 10
10.2550328952
 20
2.5267028735
 30
0.0
 10
10.2443776958
 20
2.5106438385
 30
0.0
 10
10.2393183383
 20
2.5028710898
 30
0.0
  0
SPLINE
  5
54C
100
AcDbEntity
  8
0
100
AcDbSpline
 62
9
  6
CONTINUOUS
 70
0
 71
3
 72
9
 73
5
 74
0
 42
0.0000001
 43
0.0000001
 44
0.0000000001
 40
0.0
 40
0.0
 40
0.0
 40
0.0
 40
0.5046764069
 40
1.0
 40
1.0
 40
1.0
 40
1.0
 10
9.769218001
 20
12.9950453602
 30
0.0
 10
9.7697189929
 20
12.99755365
 30
0.0
 10
9.7711671711
 20
13.0024447936
 30
0.0
 10
9.773522674
 20
13.0069748738
 30
0.0
 10
9.7749027296
 20
13.0090719453
 30
0.0
  0
SPLINE
  5
54D
100
AcDbEntity
  8
0
100
AcDbSpline
 62
9
  6
CONTINUOUS
 70
0
 71
3
 72
9
 73
5
 74
0
 42
0.0000001
 43
0.0000001
 44
0.0000000001
 40
0.0
 40
0.0
 40
0.0
 40
0.0
 40
0.499947269
 40
1.0
 40
1.0
 40
1.0
 40
1.0
 10
9.7749027296
 20
13.0090719453
 30
0.0
 10
9.7762442054
 20
13.0111103927
 30
0.0
 10
9.7793469925
 20
13.0149314801
 30
0.0
 10
9.7831999489
 20
13.0179938714
 30
0.0
 10
9.7852514924
 20
13.0193161826
 30
0.0
  0
SPLINE
  5
54E
100
AcDbEntity
  8
0
100
AcDbSpline
 62
9
  6
CONTINUOUS
 70
0
 71
3
 72
9
 73
5
 74
0
 42
0.0000001
 43
0.0000001
 44
0.0000000001
 40
0.0
 40
0.0
 40
0.0
 40
0.0
 40
0.4949332162
 40
1.0
 40
1.0
 40
1.0
 40
1.0
 10
9.7852514924
 20
13.0193161826
 30
0.0
 10
9.7872917042
 20
13.0206311901
 30
0.0
 10
9.7916848359
 20
13.0228853526
 30
0.0
 10
9.7964100928
 20
13.0243012044
 30
0.0
 10
9.798834978
 20
13.0248065473
 30
0.0
  0
LINE
  5
54F
100
AcDbEntity
  8
0
100
AcDbLine
 62
7
  6
CONTINUOUS
 10
12.3058305616
 20
12.9736814856
 11
12.3054307355
 21
12.9754193251
  0
SPLINE
  5
550
100
AcDbEntity
  8
0
100
AcDbSpline
 62
7
  6
CONTINUOUS
 70
0
 71
3
 72
11
 73
7
 74
0
 42
0.0000001
 43
0.0000001
 44
0.0000000001
 40
0.0
 40
0.0
 40
0.0
 40
0.0
 40
0.2377530693
 40
0.4762326099
 40
0.7262041208
 40
1.0
 40
1.0
 40
1.0
 40
1.0
 10
12.3054307355
 20
12.9754193251
 30
0.0
 10
12.3052029042
 20
12.9761186676
 30
0.0
 10
12.3046141361
 20
12.9774837924
 30
0.0
 10
12.3032570705
 20
12.9792986002
 30
0.0
 10
12.3014751201
 20
12.9808613619
 30
0.0
 10
12.3001109419
 20
12.9817440992
 30
0.0
 10
12.2993769628
 20
12.9821668515
 30
0.0
  0
SPLINE
  5
551
100
AcDbEntity
  8
0
100
AcDbSpline
 62
7
  6
CONTINUOUS
 70
0
 71
3
 72
9
 73
5
 74
0
 42
0.0000001
 43
0.0000001
 44
0.0000000001
 40
0.0
 40
0.0
 40
0.0
 40
0.0
 40
0.2363545818
 40
1.0
 40
1.0
 40
1.0
 40
1.0
 10
12.2993769628
 20
12.9821668515
 30
0.0
 10
12.2989861235
 20
12.9823919644
 30
0.0
 10
12.2973047809
 20
12.9832958373
 30
0.0
 10
12.2955240177
 20
12.9840112002
 30
0.0
 10
12.2941365446
 20
12.9844567564
 30
0.0
  0
SPLINE
  5
552
100
AcDbEntity
  8
0
100
AcDbSpline
 62
9
  6
CONTINUOUS
 70
0
 71
3
 72
18
 73
14
 74
0
 42
0.0000001
 43
0.0000001
 44
0.0000000001
 40
0.0
 40
0.0
 40
0.0
 40
0.0
 40
0.0933821551
 40
0.1970233631
 40
0.2524777565
 40
0.3102047137
 40
0.3700690517
 40
0.4320085944
 40
0.5621027893
 40
0.7003286674
 40
0.772405706
 40
0.8464075227
 40
1.0
 40
1.0
 40
1.0
 40
1.0
 10
11.8553205944
 20
1.736998213
 30
0.0
 10
11.8406424737
 20
1.7764267251
 30
0.0
 10
11.8110405089
 20
1.8601300369
 30
0.0
 10
11.7767138254
 20
1.9686025626
 30
0.0
 10
11.7497005641
 20
2.0624844282
 30
0.0
 10
11.7295512363
 20
2.1378042169
 30
0.0
 10
11.7102115501
 20
2.2163490133
 30
0.0
 10
11.6852924475
 20
2.3270753162
 30
0.0
 10
11.656906721
 20
2.4731747154
 30
0.0
 10
11.633037447
 20
2.6246983247
 30
0.0
 10
11.6162099874
 20
2.7516824953
 30
0.0
 10
11.6006268519
 20
2.8857975081
 30
0.0
 10
11.5910863001
 20
2.9879096138
 30
0.0
 10
11.5855113164
 20
3.0568836095
 30
0.0
  0
SPLINE
  5
553
100
AcDbEntity
  8
0
100
AcDbSpline
 62
7
  6
CONTINUOUS
 70
0
 71
3
 72
20
 73
16
 74
0
 42
0.0000001
 43
0.0000001
 44
0.0000000001
 40
0.0
 40
0.0
 40
0.0
 40
0.0
 40
0.2267704347
 40
0.425915121
 40
0.5962519996
 40
0.7368324346
 40
0.8467771123
 40
0.926713813
 40
0.9569890194
 40
0.9694478706
 40
0.9797931259
 40
0.9877398911
 40
0.9930661738
 40
0.9961331885
 40
1.0
 40
1.0
 40
1.0
 40
1.0
 10
9.8221040134
 20
13.0104462609
 30
0.0
 10
9.8221040142
 20
13.0100918985
 30
0.0
 10
9.8221083115
 20
13.0094263586
 30
0.0
 10
9.8221156115
 20
13.0084946206
 30
0.0
 10
9.8221078961
 20
13.00769762
 30
0.0
 10
9.8220727396
 20
13.007040228
 30
0.0
 10
9.8220511922
 20
13.0065258202
 30
0.0
 10
9.8220885088
 20
13.0061773399
 30
0.0
 10
9.8221688798
 20
13.0060021049
 30
0.0
 10
9.8222094536
 20
13.0059297629
 30
0.0
 10
9.8222344973
 20
13.0058887826
 30
0.0
 10
9.8222522734
 20
13.0058563106
 30
0.0
 10
9.8222645994
 20
13.0058342092
 30
0.0
 10
9.8222626724
 20
13.0058116687
 30
0.0
 10
9.8222488939
 20
13.0058106288
 30
0.0
 10
9.8222428517
 20
13.00581057
 30
0.0
  0
SPLINE
  5
554
100
AcDbEntity
  8
0
100
AcDbSpline
 62
9
  6
CONTINUOUS
 70
0
 71
3
 72
10
 73
6
 74
0
 42
0.0000001
 43
0.0000001
 44
0.0000000001
 40
0.0
 40
0.0
 40
0.0
 40
0.0
 40
0.2502487717
 40
0.5004332129
 40
1.0
 40
1.0
 40
1.0
 40
1.0
 10
9.7692182876
 20
12.9950444316
 30
0.0
 10
9.7688372805
 20
12.9931980833
 30
0.0
 10
9.7681870167
 20
12.9894824072
 30
0.0
 10
9.7672082649
 20
12.9820118606
 30
0.0
 10
9.7667889854
 20
12.976371572
 30
0.0
 10
9.7666627825
 20
12.9726101999
 30
0.0
  0
SPLINE
  5
555
100
AcDbEntity
  8
0
100
AcDbSpline
 62
9
  6
CONTINUOUS
 70
0
 71
3
 72
9
 73
5
 74
0
 42
0.0000001
 43
0.0000001
 44
0.0000000001
 40
0.0
 40
0.0
 40
0.0
 40
0.0
 40
0.25377634
 40
1.0
 40
1.0
 40
1.0
 40
1.0
 10
9.7497540413
 20
12.9940734888
 30
0.0
 10
9.7498005471
 20
12.9923405746
 30
0.0
 10
9.7499429865
 20
12.9855115566
 30
0.0
 10
9.7498565415
 20
12.9786736465
 30
0.0
 10
9.7495683351
 20
12.9735843703
 30
0.0
  0
SPLINE
  5
556
100
AcDbEntity
  8
0
100
AcDbSpline
 62
9
  6
CONTINUOUS
 70
0
 71
3
 72
9
 73
5
 74
0
 42
0.0000001
 43
0.0000001
 44
0.0000000001
 40
0.0
 40
0.0
 40
0.0
 40
0.0
 40
0.2499678348
 40
1.0
 40
1.0
 40
1.0
 40
1.0
 10
9.7495647572
 20
12.9735843421
 30
0.0
 10
9.7498918622
 20
12.8715475083
 30
0.0
 10
9.7499539218
 20
12.4633430064
 30
0.0
 10
9.7465693251
 20
12.0551510491
 30
0.0
 10
9.7446879198
 20
11.7489922361
 30
0.0
  0
SPLINE
  5
557
100
AcDbEntity
  8
0
100
AcDbSpline
 62
9
  6
CONTINUOUS
 70
0
 71
3
 72
9
 73
5
 74
0
 42
0.0000001
 43
0.0000001
 44
0.0000000001
 40
0.0
 40
0.0
 40
0.0
 40
0.0
 40
0.485874885
 40
1.0
 40
1.0
 40
1.0
 40
1.0
 10
9.7446903477
 20
11.7489922197
 30
0.0
 10
9.7128738623
 20
11.7480490543
 30
0.0
 10
9.6473760616
 20
11.7465611133
 30
0.0
 10
9.5818563673
 20
11.7464599421
 30
0.0
 10
9.548177696
 20
11.7468710898
 30
0.0
  0
SPLINE
  5
558
100
AcDbEntity
  8
0
100
AcDbSpline
 62
9
  6
CONTINUOUS
 70
0
 71
3
 72
9
 73
5
 74
0
 42
0.0000001
 43
0.0000001
 44
0.0000000001
 40
0.0
 40
0.0
 40
0.0
 40
0.0
 40
0.2475990018
 40
1.0
 40
1.0
 40
1.0
 40
1.0
 10
12.3103529114
 20
10.5443340027
 30
0.0
 10
12.3102306142
 20
10.5433945483
 30
0.0
 10
12.3096905322
 20
10.5396063623
 30
0.0
 10
12.3089784078
 20
10.535843345
 30
0.0
 10
12.3083609563
 20
10.5330314474
 30
0.0
  0
SPLINE
  5
559
100
AcDbEntity
  8
0
100
AcDbSpline
 62
9
  6
CONTINUOUS
 70
0
 71
3
 72
9
 73
5
 74
0
 42
0.0000001
 43
0.0000001
 44
0.0000000001
 40
0.0
 40
0.0
 40
0.0
 40
0.0
 40
0.2510591754
 40
1.0
 40
1.0
 40
1.0
 40
1.0
 10
12.3083609563
 20
10.5330314474
 30
0.0
 10
12.3081449943
 20
10.5320479486
 30
0.0
 10
12.3072444491
 20
10.5281394191
 30
0.0
 10
12.3061981463
 20
10.5242652636
 30
0.0
 10
12.3053544272
 20
10.5213823916
 30
0.0
  0
LINE
  5
55A
100
AcDbEntity
  8
0
100
AcDbLine
 62
9
  6
CONTINUOUS
 10
12.3053544272
 20
10.5213823916
 11
12.3016615772
 21
10.5098288889
  0
SPLINE
  5
55B
100
AcDbEntity
  8
0
100
AcDbSpline
 62
9
  6
CONTINUOUS
 70
0
 71
3
 72
10
 73
6
 74
0
 42
0.0000001
 43
0.0000001
 44
0.0000000001
 40
0.0
 40
0.0
 40
0.0
 40
0.0
 40
0.4929742293
 40
0.7464503961
 40
1.0
 40
1.0
 40
1.0
 40
1.0
 10
12.3016615772
 20
10.5098288889
 30
0.0
 10
12.3010993876
 20
10.5084866802
 30
0.0
 10
12.3001042533
 20
10.5065039829
 30
0.0
 10
12.2983803373
 20
10.5041013294
 30
0.0
 10
12.2973257369
 20
10.5030234641
 30
0.0
 10
12.2967440112
 20
10.5025525477
 30
0.0
  0
SPLINE
  5
55C
100
AcDbEntity
  8
0
100
AcDbSpline
 62
9
  6
CONTINUOUS
 70
0
 71
3
 72
9
 73
5
 74
0
 42
0.0000001
 43
0.0000001
 44
0.0000000001
 40
0.0
 40
0.0
 40
0.0
 40
0.0
 40
0.2523410603
 40
1.0
 40
1.0
 40
1.0
 40
1.0
 10
12.2967440112
 20
10.5025525477
 30
0.0
 10
12.296424258
 20
10.5022937022
 30
0.0
 10
12.2950907519
 20
10.5013484891
 30
0.0
 10
12.29358102
 20
10.5006872551
 30
0.0
 10
12.2924382905
 20
10.5002631005
 30
0.0
  0
LINE
  5
55D
100
AcDbEntity
  8
0
100
AcDbLine
 62
9
  6
CONTINUOUS
 10
9.5495179228
 20
13.1994818371
 11
9.555226913
 21
13.1934034147
  0
SPLINE
  5
55E
100
AcDbEntity
  8
0
100
AcDbSpline
 62
9
  6
CONTINUOUS
 70
0
 71
3
 72
11
 73
7
 74
0
 42
0.0000001
 43
0.0000001
 44
0.0000000001
 40
0.0
 40
0.0
 40
0.0
 40
0.0
 40
0.2606908376
 40
0.514558208
 40
0.7611523915
 40
1.0
 40
1.0
 40
1.0
 40
1.0
 10
9.555226913
 20
13.1934034147
 30
0.0
 10
9.5718084961
 20
13.1757720532
 30
0.0
 10
9.6047369167
 20
13.1411578161
 30
0.0
 10
9.6539404535
 20
13.0904314052
 30
0.0
 10
9.7021482138
 20
13.0415681079
 30
0.0
 10
9.7340292357
 20
13.0097095647
 30
0.0
 10
9.7497540359
 20
12.9940734884
 30
0.0
  0
SPLINE
  5
55F
100
AcDbEntity
  8
0
100
AcDbSpline
 62
9
  6
CONTINUOUS
 70
0
 71
3
 72
11
 73
7
 74
0
 42
0.0000001
 43
0.0000001
 44
0.0000000001
 40
0.0
 40
0.0
 40
0.0
 40
0.0
 40
0.2488295602
 40
0.4998893201
 40
0.7510219303
 40
1.0
 40
1.0
 40
1.0
 40
1.0
 10
9.7998202168
 20
13.0442738673
 30
0.0
 10
9.7935458667
 20
13.0435462274
 30
0.0
 10
9.7810920383
 20
13.0399297314
 30
0.0
 10
9.7652694307
 20
13.028674531
 30
0.0
 10
9.7540527497
 20
13.0128231397
 30
0.0
 10
9.7504565737
 20
13.0003544923
 30
0.0
 10
9.7497540384
 20
12.9940734884
 30
0.0
  0
LINE
  5
560
100
AcDbEntity
  8
0
100
AcDbLine
 62
9
  6
CONTINUOUS
 10
9.7692182602
 20
12.9950444306
 11
9.7497540204
 21
12.9940733297
  0
SPLINE
  5
561
100
AcDbEntity
  8
0
100
AcDbSpline
 62
9
  6
CONTINUOUS
 70
0
 71
3
 72
9
 73
5
 74
0
 42
0.0000001
 43
0.0000001
 44
0.0000000001
 40
0.0
 40
0.0
 40
0.0
 40
0.0
 40
0.4996067125
 40
1.0
 40
1.0
 40
1.0
 40
1.0
 10
9.8221042366
 20
13.0275911
 30
0.0
 10
9.8182007053
 20
13.0274482753
 30
0.0
 10
9.8103988446
 20
13.0268296044
 30
0.0
 10
9.8026611932
 20
13.0256235588
 30
0.0
 10
9.7988352347
 20
13.0248061984
 30
0.0
  0
SPLINE
  5
562
100
AcDbEntity
  8
0
100
AcDbSpline
 62
9
  6
CONTINUOUS
 70
0
 71
3
 72
10
 73
6
 74
0
 42
0.0000001
 43
0.0000001
 44
0.0000000001
 40
0.0
 40
0.0
 40
0.0
 40
0.0
 40
0.5652607397
 40
0.8063849856
 40
1.0
 40
1.0
 40
1.0
 40
1.0
 10
9.7988352347
 20
13.0248061984
 30
0.0
 10
9.7989537119
 20
13.0284773437
 30
0.0
 10
9.7991635092
 20
13.0337134487
 30
0.0
 10
9.7995219277
 20
13.0402015733
 30
0.0
 10
9.7997153452
 20
13.0430201173
 30
0.0
 10
9.7998200169
 20
13.0442738633
 30
0.0
  0
SPLINE
  5
563
100
AcDbEntity
  8
0
100
AcDbSpline
 62
7
  6
CONTINUOUS
 70
0
 71
3
 72
10
 73
6
 74
0
 42
0.0000001
 43
0.0000001
 44
0.0000000001
 40
0.0
 40
0.0
 40
0.0
 40
0.0
 40
0.4338489681
 40
0.704620195
 40
1.0
 40
1.0
 40
1.0
 40
1.0
 10
9.8210535291
 20
13.0445199696
 30
0.0
 10
9.8213013058
 20
13.0420807451
 30
0.0
 10
9.8215768255
 20
13.0381068353
 30
0.0
 10
9.8218905003
 20
13.0324646818
 30
0.0
 10
9.8220455879
 20
13.0292687392
 30
0.0
 10
9.8221042412
 20
13.0276005132
 30
0.0
  0
SPLINE
  5
564
100
AcDbEntity
  8
0
100
AcDbSpline
 62
9
  6
CONTINUOUS
 70
0
 71
3
 72
9
 73
5
 74
0
 42
0.0000001
 43
0.0000001
 44
0.0000000001
 40
0.0
 40
0.0
 40
0.0
 40
0.0
 40
0.2187187782
 40
1.0
 40
1.0
 40
1.0
 40
1.0
 10
11.8553184321
 20
3.2307450667
 30
0.0
 10
11.8522697011
 20
3.2324766661
 30
0.0
 10
11.838338158
 20
3.2404067791
 30
0.0
 10
11.824468332
 20
3.2484462302
 30
0.0
 10
11.8136918994
 20
3.2548279848
 30
0.0
  0
SPLINE
  5
565
100
AcDbEntity
  8
0
100
AcDbSpline
 62
9
  6
CONTINUOUS
 70
0
 71
3
 72
27
 73
23
 74
0
 42
0.0000001
 43
0.0000001
 44
0.0000000001
 40
0.0
 40
0.0
 40
0.0
 40
0.0
 40
0.1064672653
 40
0.1649826875
 40
0.226350807
 40
0.290090142
 40
0.3227016858
 40
0.3556657772
 40
0.4219090946
 40
0.4548542742
 40
0.4874844864
 40
0.5196854999
 40
0.5514265273
 40
0.613851011
 40
0.6755239737
 40
0.7063173183
 40
0.7371901792
 40
0.7996553104
 40
0.8639061084
 40
0.896910719
 40
0.9305803547
 40
1.0
 40
1.0
 40
1.0
 40
1.0
 10
11.8136918994
 20
3.2548279848
 30
0.0
 10
11.8009027118
 20
3.2624016838
 30
0.0
 10
11.781205445
 20
3.2743456623
 30
0.0
 10
11.7545423278
 20
3.2913079688
 30
0.0
 10
11.7331702571
 20
3.3054669175
 30
0.0
 10
11.7150840209
 20
3.3180287632
 30
0.0
 10
11.7004493722
 20
3.3286008911
 30
0.0
 10
11.6856981229
 20
3.3396038698
 30
0.0
 10
11.671256478
 20
3.3511025069
 30
0.0
 10
11.6574390708
 20
3.3632630856
 30
0.0
 10
11.6475546014
 20
3.3726833279
 30
0.0
 10
11.6382433963
 20
3.382442411
 30
0.0
 10
11.6267710046
 20
3.3958538348
 30
0.0
 10
11.6139913615
 20
3.4135184206
 30
0.0
 10
11.6033069003
 20
3.4323712353
 30
0.0
 10
11.5960601223
 20
3.4479986949
 30
0.0
 10
11.5896232824
 20
3.4640972696
 30
0.0
 10
11.5830031615
 20
3.4851080381
 30
0.0
 10
11.5776760915
 20
3.5067666799
 30
0.0
 10
11.5737161556
 20
3.524610562
 30
0.0
 10
11.5697278619
 20
3.5431869201
 30
0.0
 10
11.5667570273
 20
3.5572690377
 30
0.0
 10
11.5648055621
 20
3.5667619638
 30
0.0
  0
SPLINE
  5
566
100
AcDbEntity
  8
0
100
AcDbSpline
 62
9
  6
CONTINUOUS
 70
0
 71
3
 72
16
 73
12
 74
0
 42
0.0000001
 43
0.0000001
 44
0.0000000001
 40
0.0
 40
0.0
 40
0.0
 40
0.0
 40
0.1733547814
 40
0.2766064184
 40
0.3926674262
 40
0.5226328232
 40
0.6674348072
 40
0.745367533
 40
0.8268705755
 40
0.9118023912
 40
1.0
 40
1.0
 40
1.0
 40
1.0
 10
10.3065482428
 20
12.5561229219
 30
0.0
 10
10.2789777754
 20
12.5809923001
 30
0.0
 10
10.2362614537
 20
12.6220786103
 30
0.0
 10
10.1766501854
 20
12.6814004518
 30
0.0
 10
10.1237412881
 20
12.7342897801
 30
0.0
 10
10.0641988991
 20
12.7931288482
 30
0.0
 10
10.0098625901
 20
12.8456122765
 30
0.0
 10
9.9626803265
 20
12.8905569588
 30
0.0
 10
9.9246279485
 20
12.9264937399
 30
0.0
 10
9.8849058146
 20
12.9638641848
 30
0.0
 10
9.8579115264
 20
12.989287496
 30
0.0
 10
9.8441765064
 20
13.0022566538
 30
0.0
  0
SPLINE
  5
567
100
AcDbEntity
  8
0
100
AcDbSpline
 62
9
  6
CONTINUOUS
 70
0
 71
3
 72
9
 73
5
 74
0
 42
0.0000001
 43
0.0000001
 44
0.0000000001
 40
0.0
 40
0.0
 40
0.0
 40
0.0
 40
0.2476976496
 40
1.0
 40
1.0
 40
1.0
 40
1.0
 10
9.8210498187
 20
13.044519813
 30
0.0
 10
9.8192996928
 20
13.0444143052
 30
0.0
 10
9.8122275665
 20
13.044093214
 30
0.0
 10
9.8051436555
 20
13.044142527
 30
0.0
 10
9.7998201783
 20
13.0442738992
 30
0.0
  0
SPLINE
  5
568
100
AcDbEntity
  8
0
100
AcDbSpline
 62
9
  6
CONTINUOUS
 70
0
 71
3
 72
9
 73
5
 74
0
 42
0.0000001
 43
0.0000001
 44
0.0000000001
 40
0.0
 40
0.0
 40
0.0
 40
0.0
 40
0.4855874192
 40
1.0
 40
1.0
 40
1.0
 40
1.0
 10
9.7998202116
 20
13.0442738722
 30
0.0
 10
9.767132313
 20
13.0753565879
 30
0.0
 10
9.7001552771
 20
13.1397256874
 30
0.0
 10
9.6342584496
 20
13.2052068153
 30
0.0
 10
9.6007336046
 20
13.2392574516
 30
0.0
  0
LINE
  5
569
100
AcDbEntity
  8
0
100
AcDbLine
 62
9
  6
CONTINUOUS
 10
9.6007336046
 20
13.2392574516
 11
9.5947448395
 21
13.2453480866
  0
SPLINE
  5
56A
100
AcDbEntity
  8
0
100
AcDbSpline
 62
9
  6
CONTINUOUS
 70
0
 71
3
 72
9
 73
5
 74
0
 42
0.0000001
 43
0.0000001
 44
0.0000000001
 40
0.0
 40
0.0
 40
0.0
 40
0.0
 40
0.2436328676
 40
1.0
 40
1.0
 40
1.0
 40
1.0
 10
12.2924382905
 20
10.5002631005
 30
0.0
 10
12.2907045972
 20
10.4997140162
 30
0.0
 10
12.2835724836
 20
10.4975146258
 30
0.0
 10
12.2763373776
 20
10.4956229936
 30
0.0
 10
12.2708027599
 20
10.4945080263
 30
0.0
  0
SPLINE
  5
56B
100
AcDbEntity
  8
0
100
AcDbSpline
 62
9
  6
CONTINUOUS
 70
0
 71
3
 72
18
 73
14
 74
0
 42
0.0000001
 43
0.0000001
 44
0.0000000001
 40
0.0
 40
0.0
 40
0.0
 40
0.0
 40
0.1535961805
 40
0.2275987579
 40
0.2996759139
 40
0.4379005083
 40
0.5679920676
 40
0.6299304722
 40
0.6897948042
 40
0.7475227735
 40
0.8029779591
 40
0.9066184349
 40
1.0
 40
1.0
 40
1.0
 40
1.0
 10
10.5091207483
 20
3.0568847693
 30
0.0
 10
10.5035461308
 20
2.9879095675
 30
0.0
 10
10.494006751
 20
2.8857960762
 30
0.0
 10
10.4784250496
 20
2.7516797899
 30
0.0
 10
10.4615986652
 20
2.6246965828
 30
0.0
 10
10.437730262
 20
2.4731756864
 30
0.0
 10
10.4093469644
 20
2.3270792463
 30
0.0
 10
10.3844302032
 20
2.216354988
 30
0.0
 10
10.365090139
 20
2.1378109267
 30
0.0
 10
10.3449386054
 20
2.0624914633
 30
0.0
 10
10.3179233815
 20
1.9686103992
 30
0.0
 10
10.2835979515
 20
1.8601386255
 30
0.0
 10
10.2539974842
 20
1.7764360676
 30
0.0
 10
10.2393194003
 20
1.7370081471
 30
0.0
  0
LINE
  5
56C
100
AcDbEntity
  8
0
100
AcDbLine
 62
7
  6
CONTINUOUS
 10
9.8127530769
 20
10.488611181
 11
9.8107621312
 21
10.4890969007
  0
SPLINE
  5
56D
100
AcDbEntity
  8
0
100
AcDbSpline
 62
7
  6
CONTINUOUS
 70
0
 71
3
 72
11
 73
7
 74
0
 42
0.0000001
 43
0.0000001
 44
0.0000000001
 40
0.0
 40
0.0
 40
0.0
 40
0.0
 40
0.2403634354
 40
0.4805326843
 40
0.7301722178
 40
1.0
 40
1.0
 40
1.0
 40
1.0
 10
9.8107621312
 20
10.4890969007
 30
0.0
 10
9.8101476317
 20
10.4893094769
 30
0.0
 10
9.8089486764
 20
10.4898371636
 30
0.0
 10
9.8073459472
 20
10.4910170961
 30
0.0
 10
9.8059500645
 20
10.492537895
 30
0.0
 10
9.8051527111
 20
10.4936993804
 30
0.0
 10
9.804767897
 20
10.4943196423
 30
0.0
  0
SPLINE
  5
56E
100
AcDbEntity
  8
0
100
AcDbSpline
 62
7
  6
CONTINUOUS
 70
0
 71
3
 72
9
 73
5
 74
0
 42
0.0000001
 43
0.0000001
 44
0.0000000001
 40
0.0
 40
0.0
 40
0.0
 40
0.0
 40
0.2335657443
 40
1.0
 40
1.0
 40
1.0
 40
1.0
 10
9.804767897
 20
10.4943196423
 30
0.0
 10
9.8044981656
 20
10.4947544082
 30
0.0
 10
9.803408375
 20
10.4966557234
 30
0.0
 10
9.8025727304
 20
10.4987000757
 30
0.0
 10
9.8020747305
 20
10.5003034415
 30
0.0
  0
SPLINE
  5
56F
100
AcDbEntity
  8
0
100
AcDbSpline
 62
9
  6
CONTINUOUS
 70
0
 71
3
 72
10
 73
6
 74
0
 42
0.0000001
 43
0.0000001
 44
0.0000000001
 40
0.0
 40
0.0
 40
0.0
 40
0.0
 40
0.2502633633
 40
0.5004609869
 40
1.0
 40
1.0
 40
1.0
 40
1.0
 10
12.29580133
 20
13.024806194
 30
0.0
 10
12.293888266
 20
13.0252181072
 30
0.0
 10
12.2900363987
 20
13.0259219563
 30
0.0
 10
12.2822887352
 20
13.0269863313
 30
0.0
 10
12.2764359419
 20
13.0274447096
 30
0.0
 10
12.2725325947
 20
13.0275911016
 30
0.0
  0
SPLINE
  5
570
100
AcDbEntity
  8
0
100
AcDbSpline
 62
9
  6
CONTINUOUS
 70
0
 71
3
 72
28
 73
24
 74
0
 42
0.0000001
 43
0.0000001
 44
0.0000000001
 40
0.0
 40
0.0
 40
0.0
 40
0.0
 40
0.1123306595
 40
0.1727213666
 40
0.235230256
 40
0.299167417
 40
0.3634543648
 40
0.4271220658
 40
0.4895391576
 40
0.5202149625
 40
0.5505340813
 40
0.5805324586
 40
0.610300296
 40
0.6400583281
 40
0.6700183255
 40
0.7003401975
 40
0.7311427718
 40
0.7625158779
 40
0.7945197088
 40
0.8271635292
 40
0.8604468434
 40
0.9289340689
 40
1.0
 40
1.0
 40
1.0
 40
1.0
 10
10.3035665827
 20
3.2684290301
 30
0.0
 10
10.3173848174
 20
3.2768532187
 30
0.0
 10
10.3384695684
 20
3.2900797813
 30
0.0
 10
10.3666386067
 20
3.3089265934
 30
0.0
 10
10.3886549751
 20
3.3244185386
 30
0.0
 10
10.4106575624
 20
3.3408906863
 30
0.0
 10
10.4319812055
 20
3.3585107503
 30
0.0
 10
10.4519090714
 20
3.3773945405
 30
0.0
 10
10.4668696017
 20
3.3943696821
 30
0.0
 10
10.4775003804
 20
3.4086326252
 30
0.0
 10
10.4846952329
 20
3.4196016667
 30
0.0
 10
10.4910945297
 20
3.4309053016
 30
0.0
 10
10.4966273503
 20
3.4425677626
 30
0.0
 10
10.5014072924
 20
3.4545488134
 30
0.0
 10
10.5055875903
 20
3.4668337193
 30
0.0
 10
10.5093187198
 20
3.4794173245
 30
0.0
 10
10.5127513017
 20
3.4922949634
 30
0.0
 10
10.5160360148
 20
3.5054601488
 30
0.0
 10
10.5193148917
 20
3.518899857
 30
0.0
 10
10.5225665287
 20
3.5326292719
 30
0.0
 10
10.5268824138
 20
3.5515076398
 30
0.0
 10
10.5321070739
 20
3.5758560027
 30
0.0
 10
10.535890411
 20
3.5956042439
 30
0.0
 10
10.5377244869
 20
3.6056772101
 30
0.0
  0
SPLINE
  5
571
100
AcDbEntity
  8
0
100
AcDbSpline
 62
9
  6
CONTINUOUS
 70
0
 71
3
 72
10
 73
6
 74
0
 42
0.0000001
 43
0.0000001
 44
0.0000000001
 40
0.0
 40
0.0
 40
0.0
 40
0.0
 40
0.5652610881
 40
0.8063852287
 40
1.0
 40
1.0
 40
1.0
 40
1.0
 10
12.2958013312
 20
13.024806205
 30
0.0
 10
12.2956828562
 20
13.0284773503
 30
0.0
 10
12.295473063
 20
13.0337134537
 30
0.0
 10
12.2951146516
 20
13.0402015746
 30
0.0
 10
12.2949212381
 20
13.0430201148
 30
0.0
 10
12.2948165688
 20
13.0442738586
 30
0.0
  0
SPLINE
  5
572
100
AcDbEntity
  8
0
100
AcDbSpline
 62
9
  6
CONTINUOUS
 70
0
 71
3
 72
9
 73
5
 74
0
 42
0.0000001
 43
0.0000001
 44
0.0000000001
 40
0.0
 40
0.0
 40
0.0
 40
0.0
 40
0.5054131365
 40
1.0
 40
1.0
 40
1.0
 40
1.0
 10
12.3322844551
 20
10.498043524
 30
0.0
 10
12.3317388754
 20
10.4955157765
 30
0.0
 10
12.3302137365
 20
10.4905985215
 30
0.0
 10
12.3277830995
 20
10.4860529183
 30
0.0
 10
12.3263661146
 20
10.4839562782
 30
0.0
  0
SPLINE
  5
573
100
AcDbEntity
  8
0
100
AcDbSpline
 62
9
  6
CONTINUOUS
 70
0
 71
3
 72
11
 73
7
 74
0
 42
0.0000001
 43
0.0000001
 44
0.0000000001
 40
0.0
 40
0.0
 40
0.0
 40
0.0
 40
0.2473648227
 40
0.4949337092
 40
0.7454273814
 40
1.0
 40
1.0
 40
1.0
 40
1.0
 10
12.3263661146
 20
10.4839562782
 30
0.0
 10
12.3250294426
 20
10.4819784729
 30
0.0
 10
12.3219551657
 20
10.4782708304
 30
0.0
 10
12.3162620284
 20
10.4737931366
 30
0.0
 10
12.3097507408
 20
10.4704814103
 30
0.0
 10
12.3050425665
 20
10.4691028088
 30
0.0
 10
12.3026327428
 20
10.4686252342
 30
0.0
  0
SPLINE
  5
574
100
AcDbEntity
  8
0
100
AcDbSpline
 62
9
  6
CONTINUOUS
 70
0
 71
3
 72
15
 73
11
 74
0
 42
0.0000001
 43
0.0000001
 44
0.0000000001
 40
0.0
 40
0.0
 40
0.0
 40
0.0
 40
0.164300988
 40
0.3249295871
 40
0.4759192074
 40
0.6131473751
 40
0.7337271413
 40
0.8366045439
 40
0.9233816804
 40
1.0
 40
1.0
 40
1.0
 40
1.0
 10
10.4239537562
 20
9.8986218779
 30
0.0
 10
10.4226421006
 20
9.8985612234
 30
0.0
 10
10.4200520692
 20
9.898328607
 30
0.0
 10
10.4163018747
 20
9.897664844
 30
0.0
 10
10.4128416321
 20
9.896694676
 30
0.0
 10
10.4098075345
 20
9.8954605588
 30
0.0
 10
10.4073069307
 20
9.8940019974
 30
0.0
 10
10.405421662
 20
9.8923614156
 30
0.0
 10
10.4042239969
 20
9.8905581675
 30
0.0
 10
10.4039631122
 20
9.8892322011
 30
0.0
 10
10.4039831304
 20
9.8886202118
 30
0.0
  0
SPLINE
  5
575
100
AcDbEntity
  8
0
100
AcDbSpline
 62
9
  6
CONTINUOUS
 70
0
 71
3
 72
45
 73
41
 74
0
 42
0.0000001
 43
0.0000001
 44
0.0000000001
 40
0.0
 40
0.0
 40
0.0
 40
0.0
 40
0.0239101964
 40
0.0496797277
 40
0.077112827
 40
0.1059987117
 40
0.1672851636
 40
0.1992618782
 40
0.2318278524
 40
0.2647438964
 40
0.2977950963
 40
0.3308690199
 40
0.3638802538
 40
0.4294793033
 40
0.4620164001
 40
0.4943682832
 40
0.5585759559
 40
0.5904703866
 40
0.6222549466
 40
0.6539523677
 40
0.6855809599
 40
0.717162358
 40
0.748720333
 40
0.7802543295
 40
0.8117500673
 40
0.8431930238
 40
0.8745720636
 40
0.8902418615
 40
0.9059066747
 40
0.9215729277
 40
0.9294085532
 40
0.9372458354
 40
0.9450829551
 40
0.9529192816
 40
0.9607563774
 40
0.968598724
 40
0.9725243854
 40
0.9764539796
 40
0.9843186374
 40
1.0
 40
1.0
 40
1.0
 40
1.0
 10
10.8470694157
 20
11.3049601459
 30
0.0
 10
10.8464456083
 20
11.2933951873
 30
0.0
 10
10.8450915741
 20
11.2693690546
 30
0.0
 10
10.8428304615
 20
11.2320849907
 30
0.0
 10
10.8401186822
 20
11.1924143846
 30
0.0
 10
10.8356368072
 20
11.1356236227
 30
0.0
 10
10.829833992
 20
11.0767328205
 30
0.0
 10
10.8225839418
 20
11.0162138673
 30
0.0
 10
10.8162397701
 20
10.9694322719
 30
0.0
 10
10.8090193571
 20
10.9222507229
 30
0.0
 10
10.8008570621
 20
10.8749732601
 30
0.0
 10
10.7918855759
 20
10.8277963237
 30
0.0
 10
10.7790696532
 20
10.7653101222
 30
0.0
 10
10.7650692421
 20
10.7033335503
 30
0.0
 10
10.7494923797
 20
10.6420727663
 30
0.0
 10
10.7329428936
 20
10.5817668372
 30
0.0
 10
10.7148065432
 20
10.522229668
 30
0.0
 10
10.6951296335
 20
10.4634886356
 30
0.0
 10
10.6796750018
 20
10.4199486829
 30
0.0
 10
10.6635305167
 20
10.3767972703
 30
0.0
 10
10.6465752772
 20
10.3340625836
 30
0.0
 10
10.6286377197
 20
10.2918022447
 30
0.0
 10
10.6095652179
 20
10.2500921161
 30
0.0
 10
10.5895211579
 20
10.2088884025
 30
0.0
 10
10.568687727
 20
10.1681412352
 30
0.0
 10
10.5470643837
 20
10.1278924549
 30
0.0
 10
10.528350113
 20
10.0947930647
 30
0.0
 10
10.5129760098
 20
10.068592609
 30
0.0
 10
10.5012579939
 20
10.0490728181
 30
0.0
 10
10.4913365145
 20
10.0329017088
 30
0.0
 10
10.4833129521
 20
10.0200151464
 30
0.0
 10
10.4772431478
 20
10.010379525
 30
0.0
 10
10.471064123
 20
10.0008128811
 30
0.0
 10
10.4647255987
 20
9.9913508217
 30
0.0
 10
10.4581752656
 20
9.9820305776
 30
0.0
 10
10.452499782
 20
9.9744145763
 30
0.0
 10
10.4478035176
 20
9.968434075
 30
0.0
 10
10.4429985545
 20
9.9625265138
 30
0.0
 10
10.4344292633
 20
9.9523445646
 30
0.0
 10
10.4270638188
 20
9.9436296157
 30
0.0
 10
10.4224079075
 20
9.9376280143
 30
0.0
  0
LINE
  5
576
100
AcDbEntity
  8
0
100
AcDbLine
 62
9
  6
CONTINUOUS
 10
10.4212361805
 20
9.9403007924
 11
10.4224077526
 21
9.9376283698
  0
SPLINE
  5
577
100
AcDbEntity
  8
0
100
AcDbSpline
 62
9
  6
CONTINUOUS
 70
0
 71
3
 72
13
 73
9
 74
0
 42
0.0000001
 43
0.0000001
 44
0.0000000001
 40
0.0
 40
0.0
 40
0.0
 40
0.0
 40
0.2879963463
 40
0.5775626851
 40
0.7089616415
 40
0.8239968889
 40
0.9208893825
 40
1.0
 40
1.0
 40
1.0
 40
1.0
 10
10.4224077526
 20
9.9376283698
 30
0.0
 10
10.4203606644
 20
9.9375566208
 30
0.0
 10
10.4162602988
 20
9.937166802
 30
0.0
 10
10.4113284452
 20
9.9360047266
 30
0.0
 10
10.407770781
 20
9.9346161811
 30
0.0
 10
10.4056205169
 20
9.9334390247
 30
0.0
 10
10.4039839077
 20
9.9321564397
 30
0.0
 10
10.4031793909
 20
9.9311720102
 30
0.0
 10
10.4029076755
 20
9.9306792992
 30
0.0
  0
SPLINE
  5
578
100
AcDbEntity
  8
0
100
AcDbSpline
 62
9
  6
CONTINUOUS
 70
0
 71
3
 72
9
 73
5
 74
0
 42
0.0000001
 43
0.0000001
 44
0.0000000001
 40
0.0
 40
0.0
 40
0.0
 40
0.0
 40
0.5253449503
 40
1.0
 40
1.0
 40
1.0
 40
1.0
 10
10.4029076755
 20
9.9306792992
 30
0.0
 10
10.4027392957
 20
9.9303739702
 30
0.0
 10
10.4024836711
 20
9.9297519651
 30
0.0
 10
10.402412578
 20
9.929081631
 30
0.0
 10
10.4024257236
 20
9.9287668694
 30
0.0
  0
SPLINE
  5
579
100
AcDbEntity
  8
0
100
AcDbSpline
 62
9
  6
CONTINUOUS
 70
0
 71
3
 72
11
 73
7
 74
0
 42
0.0000001
 43
0.0000001
 44
0.0000000001
 40
0.0
 40
0.0
 40
0.0
 40
0.0
 40
0.2624924047
 40
0.5167096937
 40
0.7625623876
 40
1.0
 40
1.0
 40
1.0
 40
1.0
 10
11.5681519286
 20
3.318664027
 30
0.0
 10
11.5707894354
 20
3.2961758583
 30
0.0
 10
11.5762388973
 20
3.2519382848
 30
0.0
 10
11.5850470841
 20
3.1867511082
 30
0.0
 10
11.5944806361
 20
3.1238352186
 30
0.0
 10
11.6013919597
 20
3.082720975
 30
0.0
 10
11.604992571
 20
3.0625588452
 30
0.0
  0
SPLINE
  5
57A
100
AcDbEntity
  8
0
100
AcDbSpline
 62
9
  6
CONTINUOUS
 70
0
 71
3
 72
28
 73
24
 74
0
 42
0.0000001
 43
0.0000001
 44
0.0000000001
 40
0.0
 40
0.0
 40
0.0
 40
0.0
 40
0.0766638225
 40
0.1510827752
 40
0.1874516586
 40
0.2232612307
 40
0.2933089651
 40
0.3276579921
 40
0.361641005
 40
0.3953007204
 40
0.4286807963
 40
0.4618219341
 40
0.4947157327
 40
0.5273210087
 40
0.5595821812
 40
0.6229079795
 40
0.6844223652
 40
0.743855081
 40
0.8009355623
 40
0.855377934
 40
0.9068920322
 40
0.9551930901
 40
1.0
 40
1.0
 40
1.0
 40
1.0
 10
11.604992571
 20
3.0625588452
 30
0.0
 10
11.6077828249
 20
3.0469344253
 30
0.0
 10
11.6135191041
 20
3.0161849317
 30
0.0
 10
11.6212361904
 20
2.9781504318
 30
0.0
 10
11.6276356638
 20
2.9484823944
 30
0.0
 10
11.6340604119
 20
2.9197476518
 30
0.0
 10
11.6408679344
 20
2.8915215344
 30
0.0
 10
11.6486982773
 20
2.8639591129
 30
0.0
 10
11.6551417578
 20
2.8438466968
 30
0.0
 10
11.6622086628
 20
2.8241576323
 30
0.0
 10
11.6699223277
 20
2.8048996654
 30
0.0
 10
11.6783060724
 20
2.7860977388
 30
0.0
 10
11.6872436455
 20
2.7677325395
 30
0.0
 10
11.6966053604
 20
2.7497863085
 30
0.0
 10
11.709396348
 20
2.726530759
 30
0.0
 10
11.7258541894
 20
2.6984703432
 30
0.0
 10
11.746028245
 20
2.6660877553
 30
0.0
 10
11.7661186243
 20
2.6351858173
 30
0.0
 10
11.7858226533
 20
2.6057844601
 30
0.0
 10
11.8048168414
 20
2.5778826527
 30
0.0
 10
11.8228137391
 20
2.5515007778
 30
0.0
 10
11.8396002704
 20
2.5267081332
 30
0.0
 10
11.8502578836
 20
2.5106455242
 30
0.0
 10
11.8553183383
 20
2.5028710898
 30
0.0
  0
SPLINE
  5
57B
100
AcDbEntity
  8
0
100
AcDbSpline
 62
7
  6
CONTINUOUS
 70
0
 71
3
 72
13
 73
9
 74
0
 42
0.0000001
 43
0.0000001
 44
0.0000000001
 40
0.0
 40
0.0
 40
0.0
 40
0.0
 40
0.2947477404
 40
0.4338029168
 40
0.5655791406
 40
0.6890487553
 40
0.8032524607
 40
1.0
 40
1.0
 40
1.0
 40
1.0
 10
12.2809607642
 20
10.4661332683
 30
0.0
 10
12.2809660214
 20
10.467843187
 30
0.0
 10
12.2809559408
 20
10.4703598596
 30
0.0
 10
12.2809950264
 20
10.4736408559
 30
0.0
 10
12.2810514803
 20
10.4759275988
 30
0.0
 10
12.2810924091
 20
10.4780706708
 30
0.0
 10
12.2810653974
 20
10.4805910411
 30
0.0
 10
12.2809777509
 20
10.4823937433
 30
0.0
 10
12.2809778823
 20
10.4835351393
 30
0.0
  0
SPLINE
  5
57C
100
AcDbEntity
  8
0
100
AcDbSpline
 62
9
  6
CONTINUOUS
 70
0
 71
3
 72
17
 73
13
 74
0
 42
0.0000001
 43
0.0000001
 44
0.0000000001
 40
0.0
 40
0.0
 40
0.0
 40
0.0
 40
0.0881443024
 40
0.1730310268
 40
0.2544969693
 40
0.332400318
 40
0.4771679775
 40
0.6071288658
 40
0.7232131857
 40
0.8265160203
 40
0.9183066131
 40
1.0
 40
1.0
 40
1.0
 40
1.0
 10
12.250459562
 20
13.0022567101
 30
0.0
 10
12.2367460026
 20
12.9893080185
 30
0.0
 10
12.2097929761
 20
12.9639238529
 30
0.0
 10
12.1701301488
 20
12.926609567
 30
0.0
 10
12.1321314119
 20
12.8907243999
 30
0.0
 10
12.0850095761
 20
12.8458387953
 30
0.0
 10
12.0307349004
 20
12.7934177657
 30
0.0
 10
11.9712509687
 20
12.7346387505
 30
0.0
 10
11.9183827921
 20
12.6817914548
 30
0.0
 10
11.8711858453
 20
12.6348229039
 30
0.0
 10
11.8287035069
 20
12.5935527209
 30
0.0
 10
11.8015275557
 20
12.5682578281
 30
0.0
 10
11.7885541909
 20
12.5565420851
 30
0.0
  0
SPLINE
  5
57D
100
AcDbEntity
  8
0
100
AcDbSpline
 62
7
  6
CONTINUOUS
 70
0
 71
3
 72
18
 73
14
 74
0
 42
0.0000001
 43
0.0000001
 44
0.0000000001
 40
0.0
 40
0.0
 40
0.0
 40
0.0
 40
0.2261548242
 40
0.4257908931
 40
0.5957770318
 40
0.7365532988
 40
0.8472823529
 40
0.8906232927
 40
0.9268065974
 40
0.9562947129
 40
0.9778921236
 40
0.9900088819
 40
1.0
 40
1.0
 40
1.0
 40
1.0
 10
12.2809778823
 20
10.4835351393
 30
0.0
 10
12.2809779265
 20
10.4839197055
 30
0.0
 10
12.280929351
 20
10.484643983
 30
0.0
 10
12.2807939976
 20
10.4856470209
 30
0.0
 10
12.2807304611
 20
10.4865159205
 30
0.0
 10
12.2808081388
 20
10.4872308591
 30
0.0
 10
12.280891913
 20
10.4877248371
 30
0.0
 10
12.2809009766
 20
10.4880504539
 30
0.0
 10
12.2808657153
 20
10.4882324367
 30
0.0
 10
12.2808096383
 20
10.4883748856
 30
0.0
 10
12.2807708606
 20
10.4884640097
 30
0.0
 10
12.2807313239
 20
10.4885496313
 30
0.0
 10
12.2807795458
 20
10.4885662458
 30
0.0
 10
12.2807965351
 20
10.4885663276
 30
0.0
  0
LINE
  5
57E
100
AcDbEntity
  8
0
100
AcDbLine
 62
9
  6
CONTINUOUS
 10
10.2600877906
 20
1.7176581963
 11
10.2589580568
 21
1.7177926942
  0
SPLINE
  5
57F
100
AcDbEntity
  8
0
100
AcDbSpline
 62
9
  6
CONTINUOUS
 70
0
 71
3
 72
10
 73
6
 74
0
 42
0.0000001
 43
0.0000001
 44
0.0000000001
 40
0.0
 40
0.0
 40
0.0
 40
0.0
 40
0.2502685814
 40
0.5004726398
 40
1.0
 40
1.0
 40
1.0
 40
1.0
 10
12.3322848201
 20
10.498043481
 30
0.0
 10
12.3327194691
 20
10.4999883876
 30
0.0
 10
12.3334630824
 20
10.5039061941
 30
0.0
 10
12.33459528
 20
10.5117893763
 30
0.0
 10
12.3350919951
 20
10.5177474362
 30
0.0
 10
12.3352594317
 20
10.521721635
 30
0.0
  0
SPLINE
  5
580
100
AcDbEntity
  8
0
100
AcDbSpline
 62
9
  6
CONTINUOUS
 70
0
 71
3
 72
9
 73
5
 74
0
 42
0.0000001
 43
0.0000001
 44
0.0000000001
 40
0.0
 40
0.0
 40
0.0
 40
0.0
 40
0.2540041902
 40
1.0
 40
1.0
 40
1.0
 40
1.0
 10
12.3517764823
 20
10.4989881538
 30
0.0
 10
12.3517386514
 20
10.500817162
 30
0.0
 10
12.3516315002
 20
10.5080180425
 30
0.0
 10
12.3517664677
 20
10.5152274043
 30
0.0
 10
12.3521133442
 20
10.5205890369
 30
0.0
  0
SPLINE
  5
581
100
AcDbEntity
  8
0
100
AcDbSpline
 62
9
  6
CONTINUOUS
 70
0
 71
3
 72
9
 73
5
 74
0
 42
0.0000001
 43
0.0000001
 44
0.0000000001
 40
0.0
 40
0.0
 40
0.0
 40
0.0
 40
0.2500116632
 40
1.0
 40
1.0
 40
1.0
 40
1.0
 10
12.3521256749
 20
10.5205896333
 30
0.0
 10
12.3525941109
 20
10.6229607862
 30
0.0
 10
12.3536187415
 20
11.0324304489
 30
0.0
 10
12.3518477904
 20
11.4419013989
 30
0.0
 10
12.3499607242
 20
11.748993172
 30
0.0
  0
SPLINE
  5
582
100
AcDbEntity
  8
0
100
AcDbSpline
 62
7
  6
CONTINUOUS
 70
0
 71
3
 72
20
 73
16
 74
0
 42
0.0000001
 43
0.0000001
 44
0.0000000001
 40
0.0
 40
0.0
 40
0.0
 40
0.0
 40
0.2267647165
 40
0.4259044112
 40
0.5962373275
 40
0.7368145205
 40
0.846756357
 40
0.9266957957
 40
0.956978628
 40
0.9694423921
 40
0.9797927233
 40
0.9877441155
 40
0.993073483
 40
0.9961389194
 40
1.0
 40
1.0
 40
1.0
 40
1.0
 10
12.272532378
 20
13.0104462543
 30
0.0
 10
12.2725323775
 20
13.0100918926
 30
0.0
 10
12.272528105
 20
13.0094263541
 30
0.0
 10
12.272520885
 20
13.0084946165
 30
0.0
 10
12.2725286794
 20
13.0076976177
 30
0.0
 10
12.2725638634
 20
13.0070402278
 30
0.0
 10
12.2725853842
 20
13.0065258124
 30
0.0
 10
12.2725479479
 20
13.006177311
 30
0.0
 10
12.2724674551
 20
13.006002099
 30
0.0
 10
12.2724268129
 20
13.0059297604
 30
0.0
 10
12.272401723
 20
13.005888783
 30
0.0
 10
12.2723839003
 20
13.0058563063
 30
0.0
 10
12.2723715446
 20
13.0058342236
 30
0.0
 10
12.2723734047
 20
13.0058116753
 30
0.0
 10
12.2723871789
 20
13.005810629
 30
0.0
 10
12.2723932122
 20
13.0058105702
 30
0.0
  0
LINE
  5
583
100
AcDbEntity
  8
0
100
AcDbLine
 62
7
  6
CONTINUOUS
 10
12.3136559647
 20
10.5207524454
 11
12.3130423643
 21
10.5183764088
  0
SPLINE
  5
584
100
AcDbEntity
  8
0
100
AcDbSpline
 62
7
  6
CONTINUOUS
 70
0
 71
3
 72
11
 73
7
 74
0
 42
0.0000001
 43
0.0000001
 44
0.0000000001
 40
0.0
 40
0.0
 40
0.0
 40
0.0
 40
0.2374425513
 40
0.475268264
 40
0.7262772663
 40
1.0
 40
1.0
 40
1.0
 40
1.0
 10
12.3130423643
 20
10.5183764088
 30
0.0
 10
12.3127937168
 20
10.5177202053
 30
0.0
 10
12.3121677175
 20
10.516448096
 30
0.0
 10
12.3107924228
 20
10.5147788354
 30
0.0
 10
12.3090523716
 20
10.5133325447
 30
0.0
 10
12.3077367055
 20
10.5125045235
 30
0.0
 10
12.3070318253
 20
10.5121075966
 30
0.0
  0
LINE
  5
585
100
AcDbEntity
  8
0
100
AcDbLine
 62
7
  6
CONTINUOUS
 10
12.3058710927
 20
10.511494759
 11
12.3016615717
 21
10.5098288931
  0
SPLINE
  5
586
100
AcDbEntity
  8
0
100
AcDbSpline
 62
7
  6
CONTINUOUS
 70
0
 71
3
 72
9
 73
5
 74
0
 42
0.0000001
 43
0.0000001
 44
0.0000000001
 40
0.0
 40
0.0
 40
0.0
 40
0.0
 40
0.4338466161
 40
1.0
 40
1.0
 40
1.0
 40
1.0
 10
12.2735832606
 20
13.0445199696
 30
0.0
 10
12.2733354013
 20
13.0420794201
 30
0.0
 10
12.2729424179
 20
13.036436954
 30
0.0
 10
12.2726610892
 20
13.0307897503
 30
0.0
 10
12.2725325892
 20
13.0275911236
 30
0.0
  0
LINE
  5
587
100
AcDbEntity
  8
0
100
AcDbLine
 62
7
  6
CONTINUOUS
 10
12.2817324184
 20
10.4885851951
 11
12.2838729378
 21
10.4891209255
  0
SPLINE
  5
588
100
AcDbEntity
  8
0
100
AcDbSpline
 62
7
  6
CONTINUOUS
 70
0
 71
3
 72
13
 73
9
 74
0
 42
0.0000001
 43
0.0000001
 44
0.0000000001
 40
0.0
 40
0.0
 40
0.0
 40
0.0
 40
0.1097436358
 40
0.219463487
 40
0.4477425337
 40
0.5732232936
 40
0.7076733321
 40
1.0
 40
1.0
 40
1.0
 40
1.0
 10
12.2838729378
 20
10.4891209255
 30
0.0
 10
12.2843715087
 20
10.4893052018
 30
0.0
 10
12.2853457806
 20
10.4897424055
 30
0.0
 10
12.2871573267
 20
10.4909527705
 30
0.0
 10
12.2886807858
 20
10.4926459518
 30
0.0
 10
12.2899751801
 20
10.4946249826
 30
0.0
 10
12.2912494174
 20
10.4969803139
 30
0.0
 10
12.2920106437
 20
10.4989130657
 30
0.0
 10
12.2924385658
 20
10.5002627163
 30
0.0
  0
SPLINE
  5
589
100
AcDbEntity
  8
0
100
AcDbSpline
 62
9
  6
CONTINUOUS
 70
0
 71
3
 72
20
 73
16
 74
0
 42
0.0000001
 43
0.0000001
 44
0.0000000001
 40
0.0
 40
0.0
 40
0.0
 40
0.0
 40
0.0762567973
 40
0.1185985583
 40
0.1637503976
 40
0.2117621025
 40
0.2628835795
 40
0.375668168
 40
0.437980684
 40
0.5046397732
 40
0.5758442951
 40
0.6517551216
 40
0.8173722966
 40
0.9067024233
 40
1.0
 40
1.0
 40
1.0
 40
1.0
 10
11.7336891897
 20
10.9965834114
 30
0.0
 10
11.7482170517
 20
10.9850623736
 30
0.0
 10
11.7704430873
 20
10.9666799766
 30
0.0
 10
11.800726956
 20
10.9408317805
 30
0.0
 10
11.8256301907
 20
10.9192584191
 30
0.0
 10
11.8520434551
 20
10.8961687328
 30
0.0
 10
11.8906192045
 20
10.8620073023
 30
0.0
 10
11.9313571242
 20
10.8250438076
 30
0.0
 10
11.9743078239
 20
10.7849100366
 30
0.0
 10
12.0095091107
 20
10.7512949816
 30
0.0
 10
12.0466626869
 20
10.7149417771
 30
0.0
 10
12.1003019815
 20
10.6610415377
 30
0.0
 10
12.1560813801
 20
10.6030656567
 30
0.0
 10
12.214283398
 20
10.5415652799
 30
0.0
 10
12.2447708992
 20
10.5092795609
 30
0.0
 10
12.2603651567
 20
10.4928043636
 30
0.0
  0
SPLINE
  5
58A
100
AcDbEntity
  8
0
100
AcDbSpline
 62
9
  6
CONTINUOUS
 70
0
 71
3
 72
9
 73
5
 74
0
 42
0.0000001
 43
0.0000001
 44
0.0000000001
 40
0.0
 40
0.0
 40
0.0
 40
0.0
 40
0.5052347316
 40
1.0
 40
1.0
 40
1.0
 40
1.0
 10
12.2958018323
 20
13.0248065774
 30
0.0
 10
12.298339204
 20
13.0242778121
 30
0.0
 10
12.303278892
 20
13.0227762962
 30
0.0
 10
12.3078462012
 20
13.0203563492
 30
0.0
 10
12.3099538359
 20
13.018942067
 30
0.0
  0
SPLINE
  5
58B
100
AcDbEntity
  8
0
100
AcDbSpline
 62
9
  6
CONTINUOUS
 70
0
 71
3
 72
9
 73
5
 74
0
 42
0.0000001
 43
0.0000001
 44
0.0000000001
 40
0.0
 40
0.0
 40
0.0
 40
0.0
 40
0.4997264859
 40
1.0
 40
1.0
 40
1.0
 40
1.0
 10
12.3099538359
 20
13.018942067
 30
0.0
 10
12.3119779898
 20
13.0175838027
 30
0.0
 10
12.315768218
 20
13.0144482627
 30
0.0
 10
12.3187942202
 20
13.0105707391
 30
0.0
 10
12.3200983394
 20
13.0085081266
 30
0.0
  0
SPLINE
  5
58C
100
AcDbEntity
  8
0
100
AcDbSpline
 62
9
  6
CONTINUOUS
 70
0
 71
3
 72
9
 73
5
 74
0
 42
0.0000001
 43
0.0000001
 44
0.0000000001
 40
0.0
 40
0.0
 40
0.0
 40
0.0
 40
0.4954881979
 40
1.0
 40
1.0
 40
1.0
 40
1.0
 10
12.3200983394
 20
13.0085081266
 30
0.0
 10
12.3213814485
 20
13.0064787441
 30
0.0
 10
12.3235752795
 20
13.0021216522
 30
0.0
 10
12.3249401346
 20
12.9974423686
 30
0.0
 10
12.3254188307
 20
12.9950449752
 30
0.0
  0
SPLINE
  5
58D
100
AcDbEntity
  8
0
100
AcDbSpline
 62
7
  6
CONTINUOUS
 70
0
 71
3
 72
19
 73
15
 74
0
 42
0.0000001
 43
0.0000001
 44
0.0000000001
 40
0.0
 40
0.0
 40
0.0
 40
0.0
 40
0.2272562195
 40
0.4269491708
 40
0.5981031314
 40
0.7397167922
 40
0.8502108418
 40
0.9294521899
 40
0.9587548448
 40
0.9805640184
 40
0.9881779356
 40
0.9933692583
 40
0.9964655586
 40
1.0
 40
1.0
 40
1.0
 40
1.0
 10
12.3106885303
 20
12.9726720853
 30
0.0
 10
12.3103188796
 20
12.9726734334
 30
0.0
 10
12.3096244077
 20
12.9726712563
 30
0.0
 10
12.3086515291
 20
12.9726659665
 30
0.0
 10
12.3078180007
 20
12.9726763068
 30
0.0
 10
12.3071299727
 20
12.9727127477
 30
0.0
 10
12.3065926093
 20
12.972734796
 30
0.0
 10
12.3062326777
 20
12.9726934844
 30
0.0
 10
12.3060378225
 20
12.9726066004
 30
0.0
 10
12.3059559585
 20
12.9725578048
 30
0.0
 10
12.3059063411
 20
12.9725305513
 30
0.0
 10
12.3058837765
 20
12.9725188926
 30
0.0
 10
12.3058614019
 20
12.9725193394
 30
0.0
 10
12.3058584473
 20
12.972532405
 30
0.0
 10
12.3058579138
 20
12.9725381293
 30
0.0
  0
SPLINE
  5
58E
100
AcDbEntity
  8
0
100
AcDbSpline
 62
9
  6
CONTINUOUS
 70
0
 71
3
 72
9
 73
5
 74
0
 42
0.0000001
 43
0.0000001
 44
0.0000000001
 40
0.0
 40
0.0
 40
0.0
 40
0.0
 40
0.4858727494
 40
1.0
 40
1.0
 40
1.0
 40
1.0
 10
12.3499228427
 20
11.7489929159
 30
0.0
 10
12.3817429886
 20
11.7480495353
 30
0.0
 10
12.4472486144
 20
11.7465611867
 30
0.0
 10
12.5127761432
 20
11.7464598912
 30
0.0
 10
12.5464589806
 20
11.7468710898
 30
0.0
  0
SPLINE
  5
58F
100
AcDbEntity
  8
0
100
AcDbSpline
 62
9
  6
CONTINUOUS
 70
0
 71
3
 72
9
 73
5
 74
0
 42
0.0000001
 43
0.0000001
 44
0.0000000001
 40
0.0
 40
0.0
 40
0.0
 40
0.0
 40
0.2476586675
 40
1.0
 40
1.0
 40
1.0
 40
1.0
 10
12.250453858
 20
13.0022513242
 30
0.0
 10
12.2513820263
 20
13.0021362023
 30
0.0
 10
12.2551241555
 20
13.0016263287
 30
0.0
 10
12.2588428168
 20
13.0009489633
 30
0.0
 10
12.2616224302
 20
13.0003605586
 30
0.0
  0
SPLINE
  5
590
100
AcDbEntity
  8
0
100
AcDbSpline
 62
9
  6
CONTINUOUS
 70
0
 71
3
 72
9
 73
5
 74
0
 42
0.0000001
 43
0.0000001
 44
0.0000000001
 40
0.0
 40
0.0
 40
0.0
 40
0.0
 40
0.2510615836
 40
1.0
 40
1.0
 40
1.0
 40
1.0
 10
12.2616224302
 20
13.0003605586
 30
0.0
 10
12.2625928449
 20
13.0001551357
 30
0.0
 10
12.2664498639
 20
12.9992981373
 30
0.0
 10
12.2702747955
 20
12.9982997631
 30
0.0
 10
12.2731212451
 20
12.9974915004
 30
0.0
  0
LINE
  5
591
100
AcDbEntity
  8
0
100
AcDbLine
 62
9
  6
CONTINUOUS
 10
12.2731212451
 20
12.9974915004
 11
12.2844838068
 21
12.9939593131
  0
SPLINE
  5
592
100
AcDbEntity
  8
0
100
AcDbSpline
 62
7
  6
CONTINUOUS
 70
0
 71
3
 72
11
 73
7
 74
0
 42
0.0000001
 43
0.0000001
 44
0.0000000001
 40
0.0
 40
0.0
 40
0.0
 40
0.0
 40
0.2891269365
 40
0.5510925017
 40
0.7836679555
 40
1.0
 40
1.0
 40
1.0
 40
1.0
 10
9.8101528959
 20
12.993959538
 30
0.0
 10
9.8105390943
 20
12.995177457
 30
0.0
 10
9.8114208949
 20
12.9974568698
 30
0.0
 10
9.8131026061
 20
13.0004957547
 30
0.0
 10
9.8150439228
 20
13.002990652
 30
0.0
 10
9.8166538785
 20
13.0042078806
 30
0.0
 10
9.8174995094
 20
13.00465379
 30
0.0
  0
LINE
  5
593
100
AcDbEntity
  8
0
100
AcDbLine
 62
7
  6
CONTINUOUS
 10
9.8174995094
 20
13.00465379
 11
9.818988939
 21
13.0052926906
  0
LINE
  5
594
100
AcDbEntity
  8
0
100
AcDbLine
 62
7
  6
CONTINUOUS
 10
9.818988939
 20
13.0052926906
 11
9.8210504627
 21
13.0057871515
  0
SPLINE
  5
595
100
AcDbEntity
  8
0
100
AcDbSpline
 62
7
  6
CONTINUOUS
 70
0
 71
3
 72
10
 73
6
 74
0
 42
0.0000001
 43
0.0000001
 44
0.0000000001
 40
0.0
 40
0.0
 40
0.0
 40
0.0
 40
0.4353221025
 40
0.7057413366
 40
1.0
 40
1.0
 40
1.0
 40
1.0
 10
12.3450682618
 20
12.9735837887
 30
0.0
 10
12.3425944693
 20
12.9733505646
 30
0.0
 10
12.3385730305
 20
12.9730938601
 30
0.0
 10
12.3328729152
 20
12.9728030503
 30
0.0
 10
12.3296527133
 20
12.9726598441
 30
0.0
 10
12.327973876
 20
12.9726095544
 30
0.0
  0
LINE
  5
596
100
AcDbEntity
  8
0
100
AcDbLine
 62
9
  6
CONTINUOUS
 10
12.3254183905
 20
12.9950446655
 11
12.3448825907
 21
12.9940736093
  0
SPLINE
  5
597
100
AcDbEntity
  8
0
100
AcDbSpline
 62
9
  6
CONTINUOUS
 70
0
 71
3
 72
9
 73
5
 74
0
 42
0.0000001
 43
0.0000001
 44
0.0000000001
 40
0.0
 40
0.0
 40
0.0
 40
0.0
 40
0.499630263
 40
1.0
 40
1.0
 40
1.0
 40
1.0
 10
12.327973876
 20
12.9726095544
 30
0.0
 10
12.327849515
 20
12.9763711413
 30
0.0
 10
12.3272862813
 20
12.9838902004
 30
0.0
 10
12.3261745256
 20
12.9913520754
 30
0.0
 10
12.3254183905
 20
12.9950446655
 30
0.0
  0
SPLINE
  5
598
100
AcDbEntity
  8
0
100
AcDbSpline
 62
9
  6
CONTINUOUS
 70
0
 71
3
 72
13
 73
9
 74
0
 42
0.0000001
 43
0.0000001
 44
0.0000000001
 40
0.0
 40
0.0
 40
0.0
 40
0.0
 40
0.4395638111
 40
0.5993200754
 40
0.7085801577
 40
0.84389589
 40
0.9085559531
 40
1.0
 40
1.0
 40
1.0
 40
1.0
 10
12.2844840448
 20
12.9939596235
 30
0.0
 10
12.285690378
 20
12.993433921
 30
0.0
 10
12.2872942857
 20
12.9926175365
 30
0.0
 10
12.2891038367
 20
12.9915100003
 30
0.0
 10
12.2900980714
 20
12.9908172186
 30
0.0
 10
12.2907857708
 20
12.9901919646
 30
0.0
 10
12.2913656022
 20
12.9895387511
 30
0.0
 10
12.2916309041
 20
12.9891526077
 30
0.0
 10
12.2917813208
 20
12.9889238828
 30
0.0
  0
SPLINE
  5
599
100
AcDbEntity
  8
0
100
AcDbSpline
 62
9
  6
CONTINUOUS
 70
0
 71
3
 72
9
 73
5
 74
0
 42
0.0000001
 43
0.0000001
 44
0.0000000001
 40
0.0
 40
0.0
 40
0.0
 40
0.0
 40
0.4164137043
 40
1.0
 40
1.0
 40
1.0
 40
1.0
 10
12.2917813208
 20
12.9889238828
 30
0.0
 10
12.2921668096
 20
12.9883377052
 30
0.0
 10
12.2930152498
 20
12.9868797756
 30
0.0
 10
12.2937526584
 20
12.9853619705
 30
0.0
 10
12.2941364511
 20
12.9844567431
 30
0.0
  0
SPLINE
  5
59A
100
AcDbEntity
  8
0
100
AcDbSpline
 62
9
  6
CONTINUOUS
 70
0
 71
3
 72
18
 73
14
 74
0
 42
0.0000001
 43
0.0000001
 44
0.0000000001
 40
0.0
 40
0.0
 40
0.0
 40
0.0
 40
0.0931252034
 40
0.1963804923
 40
0.3091402247
 40
0.3689227514
 40
0.4308973901
 40
0.4950113599
 40
0.5612147927
 40
0.6294650991
 40
0.699723207
 40
0.8460953509
 40
1.0
 40
1.0
 40
1.0
 40
1.0
 10
10.2589574865
 20
1.7177932592
 30
0.0
 10
10.2738762909
 20
1.7574893051
 30
0.0
 10
10.3038014722
 20
1.8417837093
 30
0.0
 10
10.3461280582
 20
1.9760757462
 30
0.0
 10
10.3793588177
 20
2.0972256022
 30
0.0
 10
10.4047203562
 20
2.2009687446
 30
0.0
 10
10.4232612144
 20
2.2835596846
 30
0.0
 10
10.4408183036
 20
2.3693519265
 30
0.0
 10
10.4572451055
 20
2.4582756847
 30
0.0
 10
10.4724727966
 20
2.5502495468
 30
0.0
 10
10.491416534
 20
2.6785921286
 30
0.0
 10
10.5118251816
 20
2.8461176284
 30
0.0
 10
10.5242108698
 20
2.9823138975
 30
0.0
 10
10.5297150867
 20
3.0521817994
 30
0.0
  0
SPLINE
  5
59B
100
AcDbEntity
  8
0
100
AcDbSpline
 62
9
  6
CONTINUOUS
 70
0
 71
3
 72
9
 73
5
 74
0
 42
0.0000001
 43
0.0000001
 44
0.0000000001
 40
0.0
 40
0.0
 40
0.0
 40
0.0
 40
0.4892511277
 40
1.0
 40
1.0
 40
1.0
 40
1.0
 10
10.5297150867
 20
3.0521817994
 30
0.0
 10
10.5357870667
 20
3.1292566156
 30
0.0
 10
10.5461083409
 20
3.2869607246
 30
0.0
 10
10.5532003734
 20
3.4448340976
 30
0.0
 10
10.5562305662
 20
3.5254879861
 30
0.0
  0
LINE
  5
59C
100
AcDbEntity
  8
0
100
AcDbLine
 62
9
  6
CONTINUOUS
 10
10.5677728465
 20
3.9436022584
 11
10.5683327716
 21
3.9719559091
  0
SPLINE
  5
59D
100
AcDbEntity
  8
0
100
AcDbSpline
 62
9
  6
CONTINUOUS
 70
0
 71
3
 72
23
 73
19
 74
0
 42
0.0000001
 43
0.0000001
 44
0.0000000001
 40
0.0
 40
0.0
 40
0.0
 40
0.0
 40
0.1218004564
 40
0.1853908302
 40
0.250216603
 40
0.3157839232
 40
0.3815631233
 40
0.4470607721
 40
0.5119183066
 40
0.5759132453
 40
0.6389149057
 40
0.700883794
 40
0.7314993774
 40
0.7618896747
 40
0.8220812364
 40
0.8816631067
 40
0.9408805208
 40
1.0
 40
1.0
 40
1.0
 40
1.0
 10
10.5683327716
 20
3.9719559091
 30
0.0
 10
10.5729927923
 20
4.2122589366
 30
0.0
 10
10.5767911852
 20
4.5780948907
 30
0.0
 10
10.5754514452
 20
5.0718482723
 30
0.0
 10
10.5711265881
 20
5.4546153893
 30
0.0
 10
10.563590607
 20
5.8416516956
 30
0.0
 10
10.5531556281
 20
6.2299459976
 30
0.0
 10
10.5405356374
 20
6.6167725599
 30
0.0
 10
10.5265757965
 20
7.0000290127
 30
0.0
 10
10.511977651
 20
7.3783323147
 30
0.0
 10
10.4973994547
 20
7.750931818
 30
0.0
 10
10.4857756411
 20
8.0577292231
 30
0.0
 10
10.4770405257
 20
8.3002375012
 30
0.0
 10
10.4687567009
 20
8.5392523448
 30
0.0
 10
10.4589930275
 20
8.8354088957
 30
0.0
 10
10.4476655335
 20
9.1884288983
 30
0.0
 10
10.4362798715
 20
9.5393304079
 30
0.0
 10
10.4283885772
 20
9.7727108198
 30
0.0
 10
10.4242823601
 20
9.8892986928
 30
0.0
  0
LINE
  5
59E
100
AcDbEntity
  8
0
100
AcDbLine
 62
9
  6
CONTINUOUS
 10
10.4242823601
 20
9.8892986928
 11
10.4239537542
 21
9.8986189513
  0
SPLINE
  5
59F
100
AcDbEntity
  8
0
100
AcDbSpline
 62
9
  6
CONTINUOUS
 70
0
 71
3
 72
41
 73
37
 74
0
 42
0.0000001
 43
0.0000001
 44
0.0000000001
 40
0.0
 40
0.0
 40
0.0
 40
0.0
 40
0.0239265348
 40
0.0497066537
 40
0.0771426061
 40
0.1060293974
 40
0.1673220385
 40
0.1993053655
 40
0.2318712798
 40
0.2647743685
 40
0.2978205369
 40
0.3309017938
 40
0.3639172075
 40
0.4295160472
 40
0.4620529218
 40
0.4944032826
 40
0.5586078821
 40
0.5905003047
 40
0.6222802109
 40
0.6539700166
 40
0.6855920486
 40
0.71717336
 40
0.7487320186
 40
0.7802600126
 40
0.8117498741
 40
0.8274777134
 40
0.8431915164
 40
0.8745759299
 40
0.9059134244
 40
0.921572321
 40
0.9372312634
 40
0.9528983272
 40
0.96073822
 40
0.9685841573
 40
0.9842835497
 40
1.0
 40
1.0
 40
1.0
 40
1.0
 10
11.2475850464
 20
11.3046933718
 30
0.0
 10
11.2482083054
 20
11.2931225303
 30
0.0
 10
11.2495548104
 20
11.2690872209
 30
0.0
 10
11.2518146171
 20
11.2317952871
 30
0.0
 10
11.2545344322
 20
11.1921253441
 30
0.0
 10
11.2590359176
 20
11.1353415537
 30
0.0
 10
11.2648260209
 20
11.0764536544
 30
0.0
 10
11.2720698983
 20
11.0159386475
 30
0.0
 10
11.2784176638
 20
10.9691690282
 30
0.0
 10
11.2856727473
 20
10.9220101865
 30
0.0
 10
11.2938529321
 20
10.8747499494
 30
0.0
 10
11.3028120294
 20
10.8275763345
 30
0.0
 10
11.3155968872
 20
10.7650896994
 30
0.0
 10
11.3296168084
 20
10.7031269429
 30
0.0
 10
11.3452022202
 20
10.6418810677
 30
0.0
 10
11.3617564539
 20
10.5815904401
 30
0.0
 10
11.3798858553
 20
10.5220663688
 30
0.0
 10
11.3995449769
 20
10.4633360171
 30
0.0
 10
11.4149954837
 20
10.4198105026
 30
0.0
 10
11.4311592935
 20
10.3766849084
 30
0.0
 10
11.4481073667
 20
10.3339636844
 30
0.0
 10
11.4660382451
 20
10.2917129613
 30
0.0
 10
11.4850492191
 20
10.2499866918
 30
0.0
 10
11.5051117219
 20
10.2088056867
 30
0.0
 10
11.5226016072
 20
10.1749130504
 30
0.0
 10
11.5369342346
 20
10.1480154801
 30
0.0
 10
11.551439071
 20
10.1212684671
 30
0.0
 10
11.5699545825
 20
10.0880974201
 30
0.0
 10
11.5892206229
 20
10.0553843954
 30
0.0
 10
11.6051938886
 20
10.0295835931
 30
0.0
 10
11.6175000351
 20
10.010442145
 30
0.0
 10
11.6280704924
 20
9.9946906154
 30
0.0
 10
11.6367440666
 20
9.9822270994
 30
0.0
 10
11.6455645915
 20
9.9698482027
 30
0.0
 10
11.6569705021
 20
9.9546274072
 30
0.0
 10
11.6669465882
 20
9.9431067648
 30
0.0
 10
11.6722287367
 20
9.9376264882
 30
0.0
  0
LINE
  5
5A0
100
AcDbEntity
  8
0
100
AcDbLine
 62
9
  6
CONTINUOUS
 10
12.2941361364
 20
12.9844564604
 11
12.2974265658
 21
12.9734431436
  0
LINE
  5
5A1
100
AcDbEntity
  8
0
100
AcDbLine
 62
9
  6
CONTINUOUS
 10
12.2974265658
 20
12.9734431436
 11
12.3000973456
 21
12.9622777084
  0
SPLINE
  5
5A2
100
AcDbEntity
  8
0
100
AcDbSpline
 62
9
  6
CONTINUOUS
 70
0
 71
3
 72
9
 73
5
 74
0
 42
0.0000001
 43
0.0000001
 44
0.0000000001
 40
0.0
 40
0.0
 40
0.0
 40
0.0
 40
0.2516321456
 40
1.0
 40
1.0
 40
1.0
 40
1.0
 10
12.3000973456
 20
12.9622777084
 30
0.0
 10
12.3002799858
 20
12.9613767805
 30
0.0
 10
12.3009724872
 20
12.9577898376
 30
0.0
 10
12.301528857
 20
12.9541760696
 30
0.0
 10
12.3018544914
 20
12.9514616189
 30
0.0
  0
SPLINE
  5
5A3
100
AcDbEntity
  8
0
100
AcDbSpline
 62
9
  6
CONTINUOUS
 70
0
 71
3
 72
19
 73
15
 74
0
 42
0.0000001
 43
0.0000001
 44
0.0000000001
 40
0.0
 40
0.0
 40
0.0
 40
0.0
 40
0.0958160565
 40
0.1872397115
 40
0.2740047334
 40
0.3558622071
 40
0.4327535697
 40
0.5047449131
 40
0.5719093007
 40
0.6344427253
 40
0.7468422647
 40
0.8442050364
 40
0.9281513709
 40
1.0
 40
1.0
 40
1.0
 40
1.0
 10
12.3018544914
 20
12.9514616189
 30
0.0
 10
12.285403752
 20
12.9352135945
 30
0.0
 10
12.253207424
 20
12.9035120049
 30
0.0
 10
12.2060658829
 20
12.8571465153
 30
0.0
 10
12.1614219586
 20
12.8130452002
 30
0.0
 10
12.1195314904
 20
12.7711478294
 30
0.0
 10
12.0804310484
 20
12.7315043629
 30
0.0
 10
12.0440085338
 20
12.6942009913
 30
0.0
 10
12.0101309133
 20
12.6592557853
 30
0.0
 10
11.9695135334
 20
12.6172637171
 30
0.0
 10
11.9237046153
 20
12.5701525791
 30
0.0
 10
11.8732835388
 20
12.5203301573
 30
0.0
 10
11.8285998079
 20
12.4786563024
 30
0.0
 10
11.8000727553
 20
12.4541418535
 30
0.0
 10
11.7866002645
 20
12.443228267
 30
0.0
  0
SPLINE
  5
5A4
100
AcDbEntity
  8
0
100
AcDbSpline
 62
9
  6
CONTINUOUS
 70
0
 71
3
 72
9
 73
5
 74
0
 42
0.0000001
 43
0.0000001
 44
0.0000000001
 40
0.0
 40
0.0
 40
0.0
 40
0.0
 40
0.2500321829
 40
1.0
 40
1.0
 40
1.0
 40
1.0
 10
12.3499465765
 20
11.7489922213
 30
0.0
 10
12.3493199807
 20
11.851053653
 30
0.0
 10
12.3465225434
 20
12.2592434557
 30
0.0
 10
12.3440930606
 20
12.6674478249
 30
0.0
 10
12.3450685152
 20
12.9735837878
 30
0.0
  0
SPLINE
  5
5A5
100
AcDbEntity
  8
0
100
AcDbSpline
 62
9
  6
CONTINUOUS
 70
0
 71
3
 72
15
 73
11
 74
0
 42
0.0000001
 43
0.0000001
 44
0.0000000001
 40
0.0
 40
0.0
 40
0.0
 40
0.0
 40
0.4005126424
 40
0.5707595411
 40
0.7158436042
 40
0.8320398093
 40
0.9161362368
 40
0.9462879645
 40
0.9694343506
 40
1.0
 40
1.0
 40
1.0
 40
1.0
 10
10.3106870075
 20
12.8626974395
 30
0.0
 10
10.3095400171
 20
12.8630855002
 30
0.0
 10
10.3079147354
 20
12.8636678108
 30
0.0
 10
10.3059092452
 20
12.8644818893
 30
0.0
 10
10.3047176146
 20
12.8650140947
 30
0.0
 10
10.3037873083
 20
12.865489331
 30
0.0
 10
10.3031922819
 20
12.8658545083
 30
0.0
 10
10.3028753119
 20
12.8661278443
 30
0.0
 10
10.3027093557
 20
12.8663141466
 30
0.0
 10
10.302643095
 20
12.866488804
 30
0.0
 10
10.3026679822
 20
12.866577798
 30
0.0
  0
SPLINE
  5
5A6
100
AcDbEntity
  8
0
100
AcDbSpline
 62
9
  6
CONTINUOUS
 70
0
 71
3
 72
9
 73
5
 74
0
 42
0.0000001
 43
0.0000001
 44
0.0000000001
 40
0.0
 40
0.0
 40
0.0
 40
0.0
 40
0.2467876009
 40
1.0
 40
1.0
 40
1.0
 40
1.0
 10
10.3296883445
 20
12.8834397224
 30
0.0
 10
10.3290622508
 20
12.8830266504
 30
0.0
 10
10.3265649493
 20
12.8812929758
 30
0.0
 10
10.3242209651
 20
12.8793425225
 30
0.0
 10
10.3225419834
 20
12.8777862745
 30
0.0
  0
SPLINE
  5
5A7
100
AcDbEntity
  8
0
100
AcDbSpline
 62
9
  6
CONTINUOUS
 70
0
 71
3
 72
9
 73
5
 74
0
 42
0.0000001
 43
0.0000001
 44
0.0000000001
 40
0.0
 40
0.0
 40
0.0
 40
0.0
 40
0.7503911489
 40
1.0
 40
1.0
 40
1.0
 40
1.0
 10
10.3225419834
 20
12.8777862745
 30
0.0
 10
10.3207975632
 20
12.8761693716
 30
0.0
 10
10.3185900898
 20
12.8738810499
 30
0.0
 10
10.3165791172
 20
12.8714303455
 30
0.0
 10
10.3160901127
 20
12.8708083701
 30
0.0
  0
SPLINE
  5
5A8
100
AcDbEntity
  8
0
100
AcDbSpline
 62
9
  6
CONTINUOUS
 70
0
 71
3
 72
9
 73
5
 74
0
 42
0.0000001
 43
0.0000001
 44
0.0000000001
 40
0.0
 40
0.0
 40
0.0
 40
0.0
 40
0.2529419276
 40
1.0
 40
1.0
 40
1.0
 40
1.0
 10
10.3160901127
 20
12.8708083701
 30
0.0
 10
10.3155819616
 20
12.8701620417
 30
0.0
 10
10.3136285404
 20
12.8675632827
 30
0.0
 10
10.3118837536
 20
12.8648103038
 30
0.0
 10
10.3106870075
 20
12.8626974395
 30
0.0
  0
LINE
  5
5A9
100
AcDbEntity
  8
0
100
AcDbLine
 62
9
  6
CONTINUOUS
 10
12.5451404393
 20
10.2943618943
 11
12.5394064343
 21
10.3002101724
  0
SPLINE
  5
5AA
100
AcDbEntity
  8
0
100
AcDbSpline
 62
9
  6
CONTINUOUS
 70
0
 71
3
 72
9
 73
5
 74
0
 42
0.0000001
 43
0.0000001
 44
0.0000000001
 40
0.0
 40
0.0
 40
0.0
 40
0.0
 40
0.5128771757
 40
1.0
 40
1.0
 40
1.0
 40
1.0
 10
12.5394064343
 20
10.3002101724
 30
0.0
 10
12.5067111996
 20
10.3336009183
 30
0.0
 10
12.4436945737
 20
10.3994246222
 30
0.0
 10
12.3817777522
 20
10.4662770129
 30
0.0
 10
12.3517764956
 20
10.4989881549
 30
0.0
  0
SPLINE
  5
5AB
100
AcDbEntity
  8
0
100
AcDbSpline
 62
9
  6
CONTINUOUS
 70
0
 71
3
 72
15
 73
11
 74
0
 42
0.0000001
 43
0.0000001
 44
0.0000000001
 40
0.0
 40
0.0
 40
0.0
 40
0.0
 40
0.3883149834
 40
0.5578871561
 40
0.7045734757
 40
0.8236571954
 40
0.9110512585
 40
0.9428447172
 40
0.9674624717
 40
1.0
 40
1.0
 40
1.0
 40
1.0
 10
11.7839496879
 20
12.86269749
 30
0.0
 10
11.7850597647
 20
12.8630730585
 30
0.0
 10
11.7866458698
 20
12.8636400224
 30
0.0
 10
11.7886188165
 20
12.8644335558
 30
0.0
 10
11.7898210718
 20
12.864964278
 30
0.0
 10
11.7907735473
 20
12.8654439477
 30
0.0
 10
11.791389435
 20
12.8658174538
 30
0.0
 10
11.791723726
 20
12.8660995356
 30
0.0
 10
11.7919019229
 20
12.8662939413
 30
0.0
 10
11.7919786352
 20
12.8664769391
 30
0.0
 10
11.7919545798
 20
12.8665721413
 30
0.0
  0
SPLINE
  5
5AC
100
AcDbEntity
  8
0
100
AcDbSpline
 62
9
  6
CONTINUOUS
 70
0
 71
3
 72
15
 73
11
 74
0
 42
0.0000001
 43
0.0000001
 44
0.0000000001
 40
0.0
 40
0.0
 40
0.0
 40
0.0
 40
0.1675191951
 40
0.3332054796
 40
0.4907876933
 40
0.6343826555
 40
0.7585751465
 40
0.8591713534
 40
0.9371275245
 40
1.0
 40
1.0
 40
1.0
 40
1.0
 10
11.7649483889
 20
12.8834398458
 30
0.0
 10
11.765596664
 20
12.8840268705
 30
0.0
 10
11.7669128073
 20
12.8851654897
 30
0.0
 10
11.7689334957
 20
12.8867428932
 30
0.0
 10
11.7709468911
 20
12.8881204047
 30
0.0
 10
11.7728795717
 20
12.8892202037
 30
0.0
 10
11.7746448898
 20
12.889995619
 30
0.0
 10
11.7761847141
 20
12.8903954266
 30
0.0
 10
11.7774669342
 20
12.8903886567
 30
0.0
 10
11.7781662842
 20
12.8900651522
 30
0.0
 10
11.7784112842
 20
12.8898467168
 30
0.0
  0
SPLINE
  5
5AD
100
AcDbEntity
  8
0
100
AcDbSpline
 62
9
  6
CONTINUOUS
 70
0
 71
3
 72
9
 73
5
 74
0
 42
0.0000001
 43
0.0000001
 44
0.0000000001
 40
0.0
 40
0.0
 40
0.0
 40
0.0
 40
0.246577309
 40
1.0
 40
1.0
 40
1.0
 40
1.0
 10
11.7839496872
 20
12.8626974873
 30
0.0
 10
11.7835548036
 20
12.8633944147
 30
0.0
 10
11.781907231
 20
12.8661941245
 30
0.0
 10
11.7800620493
 20
12.8688801366
 30
0.0
 10
11.7785495655
 20
12.8708044274
 30
0.0
  0
SPLINE
  5
5AE
100
AcDbEntity
  8
0
100
AcDbSpline
 62
9
  6
CONTINUOUS
 70
0
 71
3
 72
9
 73
5
 74
0
 42
0.0000001
 43
0.0000001
 44
0.0000000001
 40
0.0
 40
0.0
 40
0.0
 40
0.0
 40
0.2496061163
 40
1.0
 40
1.0
 40
1.0
 40
1.0
 10
11.7785495655
 20
12.8708044274
 30
0.0
 10
11.7780609255
 20
12.8714261104
 30
0.0
 10
11.7760514427
 20
12.8738757228
 30
0.0
 10
11.7738456474
 20
12.8761631549
 30
0.0
 10
11.7721025631
 20
12.8777795373
 30
0.0
  0
SPLINE
  5
5AF
100
AcDbEntity
  8
0
100
AcDbSpline
 62
9
  6
CONTINUOUS
 70
0
 71
3
 72
9
 73
5
 74
0
 42
0.0000001
 43
0.0000001
 44
0.0000000001
 40
0.0
 40
0.0
 40
0.0
 40
0.0
 40
0.2524637337
 40
1.0
 40
1.0
 40
1.0
 40
1.0
 10
11.7701929879
 20
12.8794786408
 30
0.0
 10
11.7697720016
 20
12.8798376689
 30
0.0
 10
11.7680847959
 20
12.8812363536
 30
0.0
 10
11.7663160406
 20
12.8825379192
 30
0.0
 10
11.7649483889
 20
12.8834398458
 30
0.0
  0
SPLINE
  5
5B0
100
AcDbEntity
  8
0
100
AcDbSpline
 62
9
  6
CONTINUOUS
 70
0
 71
3
 72
10
 73
6
 74
0
 42
0.0000001
 43
0.0000001
 44
0.0000000001
 40
0.0
 40
0.0
 40
0.0
 40
0.0
 40
0.5663489011
 40
0.8072739315
 40
1.0
 40
1.0
 40
1.0
 40
1.0
 10
12.332284733
 20
10.4980434973
 30
0.0
 10
12.335967442
 20
10.4981503436
 30
0.0
 10
12.3412158307
 20
10.4983458728
 30
0.0
 10
12.3477118821
 20
10.4986928681
 30
0.0
 10
12.3505267435
 20
10.4988834215
 30
0.0
 10
12.3517761025
 20
10.4989881073
 30
0.0
  0
SPLINE
  5
5B1
100
AcDbEntity
  8
0
100
AcDbSpline
 62
9
  6
CONTINUOUS
 70
0
 71
3
 72
9
 73
5
 74
0
 42
0.0000001
 43
0.0000001
 44
0.0000000001
 40
0.0
 40
0.0
 40
0.0
 40
0.0
 40
0.4996486981
 40
1.0
 40
1.0
 40
1.0
 40
1.0
 10
12.2809607654
 20
10.4661332713
 30
0.0
 10
12.2845943301
 20
10.4662669666
 30
0.0
 10
12.2918567459
 20
10.4668241264
 30
0.0
 10
12.2990643499
 20
10.4679007736
 30
0.0
 10
12.3026326448
 20
10.4686254438
 30
0.0
  0
SPLINE
  5
5B2
100
AcDbEntity
  8
0
100
AcDbSpline
 62
9
  6
CONTINUOUS
 70
0
 71
3
 72
20
 73
16
 74
0
 42
0.0000001
 43
0.0000001
 44
0.0000000001
 40
0.0
 40
0.0
 40
0.0
 40
0.0
 40
0.0741835363
 40
0.1471809546
 40
0.2190016589
 40
0.2896317247
 40
0.3589813927
 40
0.426918896
 40
0.493310805
 40
0.5580217642
 40
0.6818495859
 40
0.7973691586
 40
0.8517494322
 40
0.9037404724
 40
1.0
 40
1.0
 40
1.0
 40
1.0
 10
11.7649517663
 20
12.8834381907
 30
0.0
 10
11.7547542234
 20
12.8662640834
 30
0.0
 10
11.7341117155
 20
12.8324330471
 30
0.0
 10
11.7024231481
 20
12.7827038352
 30
0.0
 10
11.6705417061
 20
12.734240676
 30
0.0
 10
11.6387694727
 20
12.686885253
 30
0.0
 10
11.6073457158
 20
12.6405562879
 30
0.0
 10
11.5764900166
 20
12.5952210837
 30
0.0
 10
11.546450522
 20
12.5508410651
 30
0.0
 10
11.5082910601
 20
12.4937872116
 30
0.0
 10
11.4634351436
 20
12.4252997494
 30
0.0
 10
11.4213919871
 20
12.3583082109
 30
0.0
 10
11.3905963488
 20
12.3071118806
 30
0.0
 10
11.3631475701
 20
12.2599614703
 30
0.0
 10
11.3438171995
 20
12.2250289037
 30
0.0
 10
11.331668864
 20
12.202135131
 30
0.0
  0
LINE
  5
5B3
100
AcDbEntity
  8
0
100
AcDbLine
 62
9
  6
CONTINUOUS
 10
12.3026326448
 20
10.4686254438
 11
12.3018014099
 21
10.4491625662
  0
SPLINE
  5
5B4
100
AcDbEntity
  8
0
100
AcDbSpline
 62
9
  6
CONTINUOUS
 70
0
 71
3
 72
9
 73
5
 74
0
 42
0.0000001
 43
0.0000001
 44
0.0000000001
 40
0.0
 40
0.0
 40
0.0
 40
0.0
 40
0.2499745954
 40
1.0
 40
1.0
 40
1.0
 40
1.0
 10
12.3018549464
 20
12.9514616173
 30
0.0
 10
12.301487715
 20
12.8513792418
 30
0.0
 10
12.3014591489
 20
12.4510028778
 30
0.0
 10
12.305420088
 20
12.0506440567
 30
0.0
 10
12.3076455557
 20
11.7503624706
 30
0.0
  0
SPLINE
  5
5B5
100
AcDbEntity
  8
0
100
AcDbSpline
 62
9
  6
CONTINUOUS
 70
0
 71
3
 72
9
 73
5
 74
0
 42
0.0000001
 43
0.0000001
 44
0.0000000001
 40
0.0
 40
0.0
 40
0.0
 40
0.0
 40
0.2519109085
 40
1.0
 40
1.0
 40
1.0
 40
1.0
 10
11.7462842523
 20
12.8929615585
 30
0.0
 10
11.7471572086
 20
12.8927559312
 30
0.0
 10
11.7505977411
 20
12.8918383162
 30
0.0
 10
11.7539316556
 20
12.8905165301
 30
0.0
 10
11.7563065968
 20
12.8893111347
 30
0.0
  0
SPLINE
  5
5B6
100
AcDbEntity
  8
0
100
AcDbSpline
 62
9
  6
CONTINUOUS
 70
0
 71
3
 72
9
 73
5
 74
0
 42
0.0000001
 43
0.0000001
 44
0.0000000001
 40
0.0
 40
0.0
 40
0.0
 40
0.0
 40
0.252986031
 40
1.0
 40
1.0
 40
1.0
 40
1.0
 10
11.7563065968
 20
12.8893111347
 30
0.0
 10
11.7570934394
 20
12.8889117747
 30
0.0
 10
11.7601542404
 20
12.8872386401
 30
0.0
 10
11.7630075975
 20
12.885178417
 30
0.0
 10
11.764947336
 20
12.883438855
 30
0.0
  0
SPLINE
  5
5B7
100
AcDbEntity
  8
0
100
AcDbSpline
 62
9
  6
CONTINUOUS
 70
0
 71
3
 72
9
 73
5
 74
0
 42
0.0000001
 43
0.0000001
 44
0.0000000001
 40
0.0
 40
0.0
 40
0.0
 40
0.0
 40
0.4936234648
 40
1.0
 40
1.0
 40
1.0
 40
1.0
 10
10.3296893725
 20
12.8834387752
 30
0.0
 10
10.3322799238
 20
12.8857620162
 30
0.0
 10
10.3382116336
 20
12.8897379051
 30
0.0
 10
10.3449112492
 20
12.8921528806
 30
0.0
 10
10.3483863481
 20
12.8929688652
 30
0.0
  0
SPLINE
  5
5B8
100
AcDbEntity
  8
0
100
AcDbSpline
 62
9
  6
CONTINUOUS
 70
0
 71
3
 72
9
 73
5
 74
0
 42
0.0000001
 43
0.0000001
 44
0.0000000001
 40
0.0
 40
0.0
 40
0.0
 40
0.0
 40
0.2496051234
 40
1.0
 40
1.0
 40
1.0
 40
1.0
 10
10.3483863481
 20
12.8929688652
 30
0.0
 10
10.3492290265
 20
12.8931667336
 30
0.0
 10
10.3526266978
 20
12.8938638361
 30
0.0
 10
10.3561048051
 20
12.8941733965
 30
0.0
 10
10.3587070746
 20
12.8941734721
 30
0.0
  0
SPLINE
  5
5B9
100
AcDbEntity
  8
0
100
AcDbSpline
 62
9
  6
CONTINUOUS
 70
0
 71
3
 72
20
 73
16
 74
0
 42
0.0000001
 43
0.0000001
 44
0.0000000001
 40
0.0
 40
0.0
 40
0.0
 40
0.0
 40
0.0962665445
 40
0.1482597032
 40
0.2026413602
 40
0.3181623646
 40
0.4419908449
 40
0.5067016215
 40
0.573092783
 40
0.6410290136
 40
0.7103770854
 40
0.7810054396
 40
0.8528243556
 40
0.9258195481
 40
1.0
 40
1.0
 40
1.0
 40
1.0
 10
10.7629155258
 20
12.2022412964
 30
0.0
 10
10.7507668944
 20
12.2251327425
 30
0.0
 10
10.7314350364
 20
12.2600606099
 30
0.0
 10
10.703985905
 20
12.3072048077
 30
0.0
 10
10.673192763
 20
12.3583939432
 30
0.0
 10
10.6311553828
 20
12.4253764931
 30
0.0
 10
10.5863048146
 20
12.4938537124
 30
0.0
 10
10.5481503102
 20
12.550898667
 30
0.0
 10
10.5181152637
 20
12.5952714781
 30
0.0
 10
10.487264735
 20
12.6405992834
 30
0.0
 10
10.4558465674
 20
12.6869206179
 30
0.0
 10
10.4240800993
 20
12.7342681739
 30
0.0
 10
10.3922045028
 20
12.7827231378
 30
0.0
 10
10.3605218433
 20
12.8324435807
 30
0.0
 10
10.339883155
 20
12.8662684545
 30
0.0
 10
10.3296875232
 20
12.8834393201
 30
0.0
  0
SPLINE
  5
5BA
100
AcDbEntity
  8
0
100
AcDbSpline
 62
9
  6
CONTINUOUS
 70
0
 71
3
 72
9
 73
5
 74
0
 42
0.0000001
 43
0.0000001
 44
0.0000000001
 40
0.0
 40
0.0
 40
0.0
 40
0.0
 40
0.2499921041
 40
1.0
 40
1.0
 40
1.0
 40
1.0
 10
12.3076453977
 20
11.7503624695
 30
0.0
 10
12.3083901737
 20
11.6498654682
 30
0.0
 10
12.3110842291
 20
11.247863671
 30
0.0
 10
12.3119348374
 20
10.8458418332
 30
0.0
 10
12.3103499851
 20
10.5443340185
 30
0.0
  0
SPLINE
  5
5BB
100
AcDbEntity
  8
0
100
AcDbSpline
 62
9
  6
CONTINUOUS
 70
0
 71
3
 72
23
 73
19
 74
0
 42
0.0000001
 43
0.0000001
 44
0.0000000001
 40
0.0
 40
0.0
 40
0.0
 40
0.0
 40
0.1009607205
 40
0.1968299464
 40
0.2426837581
 40
0.2870629843
 40
0.3713040045
 40
0.4494876667
 40
0.5216889633
 40
0.6497636656
 40
0.7066129937
 40
0.7593719209
 40
0.8083796905
 40
0.8537758948
 40
0.8956250086
 40
0.9339253497
 40
0.9686970491
 40
1.0
 40
1.0
 40
1.0
 40
1.0
 10
12.3103502278
 20
10.5443340174
 30
0.0
 10
12.2923737248
 20
10.5640629363
 30
0.0
 10
12.2573914363
 20
10.6025841352
 30
0.0
 10
12.2141751114
 20
10.6500028774
 30
0.0
 10
12.1808177335
 20
10.6861671342
 30
0.0
 10
12.1493436335
 20
10.7198852755
 30
0.0
 10
12.1116401341
 20
10.7594790156
 30
0.0
 10
12.0681902016
 20
10.8037488162
 30
0.0
 10
12.0157300736
 20
10.855397231
 30
0.0
 10
11.9662074911
 20
10.901975714
 30
0.0
 10
11.9196293814
 20
10.9441517761
 30
0.0
 10
11.8882958449
 20
10.9720192499
 30
0.0
 10
11.8590286553
 20
10.9976521769
 30
0.0
 10
11.8317145451
 20
11.0211355812
 30
0.0
 10
11.8062832035
 20
11.0424639405
 30
0.0
 10
11.7826318282
 20
11.0615375872
 30
0.0
 10
11.7606859302
 20
11.0782699108
 30
0.0
 10
11.7464154005
 20
11.0883547135
 30
0.0
 10
11.7395367994
 20
11.0929555254
 30
0.0
  0
SPLINE
  5
5BC
100
AcDbEntity
  8
0
100
AcDbSpline
 62
7
  6
CONTINUOUS
 70
0
 71
3
 72
10
 73
6
 74
0
 42
0.0000001
 43
0.0000001
 44
0.0000000001
 40
0.0
 40
0.0
 40
0.0
 40
0.0
 40
0.4366084021
 40
0.7067088199
 40
1.0
 40
1.0
 40
1.0
 40
1.0
 10
12.281960769
 20
10.4488993651
 30
0.0
 10
12.281727064
 20
10.4513996962
 30
0.0
 10
12.2814637803
 20
10.4554571404
 30
0.0
 10
12.2811643648
 20
10.4612007242
 30
0.0
 10
12.2810161707
 20
10.4644380085
 30
0.0
 10
12.2809607642
 20
10.4661240138
 30
0.0
  0
SPLINE
  5
5BD
100
AcDbEntity
  8
0
100
AcDbSpline
 62
9
  6
CONTINUOUS
 70
0
 71
3
 72
9
 73
5
 74
0
 42
0.0000001
 43
0.0000001
 44
0.0000000001
 40
0.0
 40
0.0
 40
0.0
 40
0.0
 40
0.2479095874
 40
1.0
 40
1.0
 40
1.0
 40
1.0
 10
12.2819608869
 20
10.4488993352
 30
0.0
 10
12.2835979568
 20
10.448996233
 30
0.0
 10
12.2902070219
 20
10.4492959304
 30
0.0
 10
12.2968268879
 20
10.4492702085
 30
0.0
 10
12.3018008297
 20
10.449162027
 30
0.0
  0
SPLINE
  5
5BE
100
AcDbEntity
  8
0
100
AcDbSpline
 62
9
  6
CONTINUOUS
 70
0
 71
3
 72
9
 73
5
 74
0
 42
0.0000001
 43
0.0000001
 44
0.0000000001
 40
0.0
 40
0.0
 40
0.0
 40
0.0
 40
0.4868649964
 40
1.0
 40
1.0
 40
1.0
 40
1.0
 10
12.3018002458
 20
10.4491589237
 30
0.0
 10
12.3324206145
 20
10.4170239011
 30
0.0
 10
12.3956245341
 20
10.3513147019
 30
0.0
 10
12.4598779448
 20
10.286624689
 30
0.0
 10
12.4932053548
 20
10.2537931815
 30
0.0
  0
LINE
  5
5BF
100
AcDbEntity
  8
0
100
AcDbLine
 62
9
  6
CONTINUOUS
 10
12.4932053548
 20
10.2537931815
 11
12.4989121216
 21
10.248178309
  0
SPLINE
  5
5C0
100
AcDbEntity
  8
0
100
AcDbSpline
 62
9
  6
CONTINUOUS
 70
0
 71
3
 72
9
 73
5
 74
0
 42
0.0000001
 43
0.0000001
 44
0.0000000001
 40
0.0
 40
0.0
 40
0.0
 40
0.0
 40
0.2478048587
 40
1.0
 40
1.0
 40
1.0
 40
1.0
 10
12.3450683237
 20
12.9735838005
 30
0.0
 10
12.3449726057
 20
12.9752739509
 30
0.0
 10
12.3446844277
 20
12.9821001957
 30
0.0
 10
12.3447447697
 20
12.9889366692
 30
0.0
 10
12.3448826265
 20
12.9940733793
 30
0.0
  0
SPLINE
  5
5C1
100
AcDbEntity
  8
0
100
AcDbSpline
 62
9
  6
CONTINUOUS
 70
0
 71
3
 72
11
 73
7
 74
0
 42
0.0000001
 43
0.0000001
 44
0.0000000001
 40
0.0
 40
0.0
 40
0.0
 40
0.0
 40
0.2388478743
 40
0.485441972
 40
0.7393091527
 40
1.0
 40
1.0
 40
1.0
 40
1.0
 10
12.3448825846
 20
12.9940733826
 30
0.0
 10
12.360607359
 20
13.0097095333
 30
0.0
 10
12.3924883133
 20
13.041568195
 30
0.0
 10
12.4406961509
 20
13.0904314555
 30
0.0
 10
12.4898997899
 20
13.141157776
 30
0.0
 10
12.522828189
 20
13.1757720393
 30
0.0
 10
12.5394097698
 20
13.1934034186
 30
0.0
  0
LINE
  5
5C2
100
AcDbEntity
  8
0
100
AcDbLine
 62
9
  6
CONTINUOUS
 10
12.5394097698
 20
13.1934034186
 11
12.5451187536
 21
13.199481841
  0
ENDSEC
  0
SECTION
  2
OBJECTS
  0
DICTIONARY
  5
C
100
AcDbDictionary
280
0
281
1
  3
ACAD_GROUP
350
D
  3
ACAD_MLINESTYLE
350
17
  3
ACAD_LAYOUT
350
1A
  3
ACAD_PLOTSETTINGS
350
19
  3
ACAD_PLOTSTYLENAME
350
E
  0
DICTIONARY
  5
D
102
{ACAD_REACTORS
330
C
102
}
100
AcDbDictionary
280
0
281
1
  0
ACDBDICTIONARYWDFLT
  5
E
102
{ACAD_REACTORS
330
C
102
}
100
AcDbDictionary
281
1
  3
Normal
350
F
100
AcDbDictionaryWithDefault
340
F
  0
DICTIONARY
  5
17
102
{ACAD_REACTORS
330
C
102
}
100
AcDbDictionary
280
0
281
1
  3
Standard
350
18
  0
DICTIONARY
  5
19
102
{ACAD_REACTORS
330
C
102
}
100
AcDbDictionary
281
1
  0
DICTIONARY
  5
1A
102
{ACAD_REACTORS
330
C
102
}
100
AcDbDictionary
281
1
  3
Model
350
5C3
  3
Layout1
350
5C4
  0
ACDBPLACEHOLDER
  5
F
102
{ACAD_REACTORS
330
E
102
}
  0
MLINESTYLE
  5
18
102
{ACAD_REACTORS
330
17
102
}
100
AcDbMlineStyle
  2
STANDARD
 70
0
  3

 62
256
 51
90.0
 52
90.0
 71
2
 49
0.5
 62
256
  6
BYLAYER
 49
-0.5
 62
256
  6
BYLAYER
  0
LAYOUT
  5
5C3
102
{ACAD_REACTORS
330
1A
102
}
100
AcDbPlotSettings
  1

  2
none_device
  4
ANSI_C_(22.00_x_17.00_Inches)
  6

 40
0.0
 41
0.0
 42
0.0
 43
0.0
 44
558.8
 45
431.8
 46
0.0
 47
0.0
 48
0.0
 49
0.0
140
0.0
141
0.0
142
1.0
143
1.0
 70
1024
 72
0
 73
0
 74
0
  7

 75
0
147
1.0
148
0.0
149
0.0
100
AcDbLayout
  1
Model
 70
0
 71
0
 10
0.0
 20
0.0
 11
22.0
 21
17.0
 12
0.0
 22
0.0
 32
0.0
 14
0.0
 24
0.0
 34
0.0
 15
0.0
 25
0.0
 35
0.0
146
0.0
 13
0.0
 23
0.0
 33
0.0
 16
1.0
 26
0.0
 36
0.0
 17
0.0
 27
1.0
 37
0.0
 76
0
330
202
345
0
346
0
  0
LAYOUT
  5
5C4
102
{ACAD_REACTORS
330
1A
102
}
100
AcDbPlotSettings
  1

  2
none_device
  4
ANSI_C_(22.00_x_17.00_Inches)
  6

 40
0.0
 41
0.0
 42
0.0
 43
0.0
 44
558.8
 45
431.8
 46
0.0
 47
0.0
 48
0.0
 49
0.0
140
0.0
141
0.0
142
1.0
143
1.0
 70
0
 72
0
 73
0
 74
0
  7

 75
0
147
1.0
148
0.0
149
0.0
100
AcDbLayout
  1
Layout1
 70
0
 71
1
 10
0.0
 20
0.0
 11
22.0
 21
17.0
 12
0.0
 22
0.0
 32
0.0
 14
0.0
 24
0.0
 34
0.0
 15
0.0
 25
0.0
 35
0.0
146
0.0
 13
0.0
 23
0.0
 33
0.0
 16
1.0
 26
0.0
 36
0.0
 17
0.0
 27
1.0
 37
0.0
 76
0
330
203
345
0
346
0
  0
ENDSEC
  0
EOF
