999
DXF file: E:\BT Custom\CADOUTPUT\_FRONT.dxf
999
Pro/ENGINEER 2018400 by Parametric Technology Corporation
  0
SECTION
  2
HEADER
  9
$ACADVER
  1
AC1018
  9
$DWGCODEPAGE
  3
ANSI_1252
  9
$EXTMAX
 10
22.0
 20
17.0
 30
0.0
  9
$EXTMIN
 10
0.0
 20
0.0
 30
0.0
  9
$LIMMIN
 10
0.0
 20
0.0
  9
$LIMMAX
 10
22.0
 20
17.0
  9
$VIEWCTR
 10
11.0
 20
8.5
  9
$VIEWSIZE
 40
17.0
  9
$CLAYER
  8
0
  9
$LTSCALE
 40
1.21
  9
$CELTYPE
  6
BYLAYER
  9
$DIMSCALE
 40
1.0
  9
$DIMASZ
 40
0.1
  9
$DIMEXO
 40
0.0625
  9
$DIMDLI
 40
0.836
  9
$DIMEXE
 40
0.125
  9
$DIMCEN
 40
0.198
  9
$DIMLFAC
 40
1.0
  9
$DIMBLK
  1
_FILLED
  9
$DIMALT
 70
1
  9
$DIMALTD
 70
2
  9
$DIMALTTD
 70
2
  9
$DIMALTF
 40
25.4
  9
$DIMTXT
 40
0.08
  9
$DIMTOL
 70
1
  9
$DIMLIM
 70
0
  9
$DIMTFAC
 40
1.0
  9
$DIMTP
 40
0.001
  9
$DIMTM
 40
0.001
  9
$DIMGAP
 40
0.09
  9
$DIMDSEP
 70
46
  9
$AUNITS
 70
0
  9
$PDMODE
 70
3
  9
$PDSIZE
 40
0.06
  9
$HANDSEED
  5
3E3
  9
$TILEMODE
 70
1
  9
$MEASUREMENT
 70
0
  9
$INSUNITS
 70
1
  0
ENDSEC
  0
SECTION
  2
CLASSES
  0
CLASS
  1
ACDBDICTIONARYWDFLT
  2
AcDbDictionaryWithDefault
  3
AutoCAD 2000
 90
0
 91
1
280
0
281
0
  0
CLASS
  1
ACDBPLACEHOLDER
  2
AcDbPlaceHolder
  3
AutoCAD 2000
 90
0
 91
1
280
0
281
0
  0
CLASS
  1
LAYOUT
  2
AcDbLayout
  3
AutoCAD 2000
 90
0
 91
0
280
0
281
0
  0
ENDSEC
  0
SECTION
  2
TABLES
  0
TABLE
  2
VPORT
  5
8
100
AcDbSymbolTable
 70
2
  0
VPORT
  5
1F4
100
AcDbSymbolTableRecord
100
AcDbViewportTableRecord
  2
*ACTIVE
 70
0
 10
0.0
 20
0.0
 11
1.0
 21
1.0
 12
11.0
 22
8.5
 13
0.0
 23
0.0
 14
1.0
 24
1.0
 15
0.0
 25
0.0
 16
0.0
 26
0.0
 36
1.0
 17
0.0
 27
0.0
 37
0.0
 40
17.0
 41
1.2941176471
 42
50.0
 43
0.0
 44
0.0
 50
0.0
 51
0.0
 71
0
 72
100
 73
1
 74
1
 75
0
 76
0
 77
0
 78
0
  0
ENDTAB
  0
TABLE
  2
LTYPE
  5
5
100
AcDbSymbolTable
 70
6
  0
LTYPE
  5
14
100
AcDbSymbolTableRecord
100
AcDbLinetypeTableRecord
  2
BYBLOCK
 70
0
  3

 72
65
 73
0
 40
0.0
  0
LTYPE
  5
15
100
AcDbSymbolTableRecord
100
AcDbLinetypeTableRecord
  2
BYLAYER
 70
0
  3

 72
65
 73
0
 40
0.0
  0
LTYPE
  5
16
100
AcDbSymbolTableRecord
100
AcDbLinetypeTableRecord
  2
CONTINUOUS
 70
64
  3
Solid line
 72
65
 73
0
 40
0.0
  0
LTYPE
  5
1F5
100
AcDbSymbolTableRecord
100
AcDbLinetypeTableRecord
  2
CENTER
 70
64
  3
____ _ ____ _ ____ _ ____ _ ____ _ ____ _ ____
 72
65
 73
4
 40
0.6
 49
0.375
 74
0
 49
-0.075
 74
0
 49
0.075
 74
0
 49
-0.075
 74
0
  0
LTYPE
  5
1F6
100
AcDbSymbolTableRecord
100
AcDbLinetypeTableRecord
  2
HIDDEN
 70
64
  3
- - - - - - - - - - - - - - - - - - - -
 72
65
 73
2
 40
0.2
 49
0.1
 74
0
 49
-0.1
 74
0
  0
LTYPE
  5
1F7
100
AcDbSymbolTableRecord
100
AcDbLinetypeTableRecord
  2
PHANTOM
 70
64
  3
_____ _ _ _____ _ _ _____ _ _ _____
 72
65
 73
6
 40
0.8
 49
0.45
 74
0
 49
-0.05
 74
0
 49
0.1
 74
0
 49
-0.05
 74
0
 49
0.1
 74
0
 49
-0.05
 74
0
  0
LTYPE
  5
1F8
100
AcDbSymbolTableRecord
100
AcDbLinetypeTableRecord
  2
DOT
 70
64
  3
. . . . . . . . . . . . . . . . . . . .
 72
65
 73
2
 40
0.2
 49
0.1
 74
0
 49
-0.1
 74
0
  0
LTYPE
  5
1F9
100
AcDbSymbolTableRecord
100
AcDbLinetypeTableRecord
  2
DASHED
 70
64
  3
- - - - - - - - - - - - - - - - - - - -
 72
65
 73
2
 40
0.2
 49
0.1
 74
0
 49
-0.1
 74
0
  0
ENDTAB
  0
TABLE
  2
LAYER
  5
2
100
AcDbSymbolTable
 70
36
  0
LAYER
  5
10
100
AcDbSymbolTableRecord
100
AcDbLayerTableRecord
  2
0
 70
0
 62
7
  6
CONTINUOUS
370
-3
390
F
  0
LAYER
  5
1FA
100
AcDbSymbolTableRecord
100
AcDbLayerTableRecord
  2
DEFAULT_1
 70
0
 62
7
  6
CENTER
370
-3
390
F
  0
LAYER
  5
1FB
100
AcDbSymbolTableRecord
100
AcDbLayerTableRecord
  2
DEFAULT_2
 70
0
 62
8
  6
HIDDEN
370
-3
390
F
  0
LAYER
  5
1FC
100
AcDbSymbolTableRecord
100
AcDbLayerTableRecord
  2
DEFAULT_3
 70
0
 62
7
  6
PHANTOM
370
-3
390
F
  0
LAYER
  5
1FD
100
AcDbSymbolTableRecord
100
AcDbLayerTableRecord
  2
ALL_FEATURES
 70
0
 62
7
  6
CONTINUOUS
370
-3
390
F
  0
LAYER
  5
1FE
100
AcDbSymbolTableRecord
100
AcDbLayerTableRecord
  2
AXES_FEATURES
 70
0
 62
7
  6
CONTINUOUS
370
-3
390
F
  0
LAYER
  5
1FF
100
AcDbSymbolTableRecord
100
AcDbLayerTableRecord
  2
DIMENSIONS
 70
0
 62
7
  6
CONTINUOUS
370
-3
390
F
  0
ENDTAB
  0
TABLE
  2
STYLE
  5
3
100
AcDbSymbolTable
 70
1
  0
STYLE
  5
11
100
AcDbSymbolTableRecord
100
AcDbTextStyleTableRecord
  2
STANDARD
 70
0
 40
0.0
 41
0.8
 50
0.0
 71
0
 42
0.2
  3
txt
  4

  0
STYLE
  5
200
100
AcDbSymbolTableRecord
100
AcDbTextStyleTableRecord
  2
TEXTSTYLE_1
 70
0
 40
0.0
 41
0.8
 50
0.0
 71
0
 42
0.2
  3
gdt
  4

  0
ENDTAB
  0
TABLE
  2
VIEW
  5
6
100
AcDbSymbolTable
 70
0
  0
ENDTAB
  0
TABLE
  2
UCS
  5
7
100
AcDbSymbolTable
 70
0
  0
ENDTAB
  0
TABLE
  2
APPID
  5
9
100
AcDbSymbolTable
 70
1
  0
APPID
  5
201
100
AcDbSymbolTableRecord
100
AcDbRegAppTableRecord
  2
ACAD
 70
0
  0
ENDTAB
  0
TABLE
  2
BLOCK_RECORD
  5
1
100
AcDbSymbolTable
 70
0
  0
BLOCK_RECORD
  5
202
100
AcDbSymbolTableRecord
100
AcDbBlockTableRecord
  2
*Model_Space
  0
BLOCK_RECORD
  5
203
100
AcDbSymbolTableRecord
100
AcDbBlockTableRecord
  2
*Paper_Space
  0
BLOCK_RECORD
  5
204
100
AcDbSymbolTableRecord
100
AcDbBlockTableRecord
  2
_FILLED
  0
ENDTAB
  0
TABLE
  2
DIMSTYLE
  5
A
100
AcDbSymbolTable
 70
1
100
AcDbDimStyleTable
 71
0
  0
DIMSTYLE
105
205
100
AcDbSymbolTableRecord
100
AcDbDimStyleTableRecord
  2
STANDARD
 70
0
  3

  4

 40
1.0
 41
0.1
 42
0.0625
 43
0.38
 44
0.125
 45
0.0
 46
0.0
 47
0.001
 48
0.001
140
0.08
141
0.09
142
0.0
143
25.4
144
1.0
145
0.0
146
1.0
147
0.09
 71
1.0
 72
0.0
 73
1
 74
1
 75
0
 76
0
 77
0
 78
4
 79
1
170
1
171
2
172
0
173
0
174
0
175
0
176
0
177
0
178
0
270
2
179
3
271
3
272
3
273
2
274
2
275
0
280
0
281
0
282
0
283
1
284
4
285
0
286
0
287
3
288
0
340
11
278
46
341
204
342
204
343
204
344
204
  0
ENDTAB
  0
ENDSEC
  0
SECTION
  2
BLOCKS
  0
BLOCK
  5
20
100
AcDbEntity
  8
0
100
AcDbBlockBegin
  2
*Model_Space
 70
0
 10
0.0
 20
0.0
 30
0.0
  3
*Model_Space
  1

  0
ENDBLK
  5
21
100
AcDbEntity
  8
0
100
AcDbBlockEnd
  0
BLOCK
  5
1C
100
AcDbEntity
  8
0
100
AcDbBlockBegin
  2
*Paper_Space
 70
0
 10
0.0
 20
0.0
 30
0.0
  3
*Paper_Space
  1

  0
ENDBLK
  5
1D
100
AcDbEntity
  8
0
100
AcDbBlockEnd
  0
BLOCK
  5
206
100
AcDbEntity
  8
0
100
AcDbBlockBegin
  2
_FILLED
 70
64
 10
0.0
 20
0.0
  3
_FILLED
  1

  0
SOLID
  5
207
100
AcDbEntity
  8
0
  6
BYBLOCK
 62
0
100
AcDbTrace
 10
0.0
 20
0.0
 11
-1.0
 21
0.2
 12
-1.0
 22
-0.2
 13
-1.0
 23
-0.2
  0
ENDBLK
  5
208
100
AcDbEntity
  8
0
  6
BYBLOCK
 62
0
100
AcDbBlockEnd
  0
ENDSEC
  0
SECTION
  2
ENTITIES
  0
LINE
  5
209
100
AcDbEntity
  8
0
100
AcDbLine
 62
7
  6
CONTINUOUS
 10
9.5175312446
 20
10.1867530949
 11
9.5175312446
 21
10.4772734301
  0
LINE
  5
20A
100
AcDbEntity
  8
0
100
AcDbLine
 62
9
  6
CONTINUOUS
 10
9.54047711
 20
10.1867734244
 11
9.5404770118
 21
10.4772530779
  0
LINE
  5
20B
100
AcDbEntity
  8
0
100
AcDbLine
 62
7
  6
CONTINUOUS
 10
9.6876923431
 20
7.8586695021
 11
12.1876923431
 21
7.8586695021
  0
LINE
  5
20C
100
AcDbEntity
  8
0
100
AcDbLine
 62
7
  6
CONTINUOUS
 10
9.6876923431
 20
7.8586695021
 11
9.6876923431
 21
8.0086695021
  0
LINE
  5
20D
100
AcDbEntity
  8
0
100
AcDbLine
 62
7
  6
CONTINUOUS
 10
9.6877109276
 20
8.3336695021
 11
9.6877109276
 21
8.2586695021
  0
LINE
  5
20E
100
AcDbEntity
  8
0
100
AcDbLine
 62
7
  6
CONTINUOUS
 10
9.6882344998
 20
8.2586695021
 11
9.6882344998
 21
8.3336695021
  0
LINE
  5
20F
100
AcDbEntity
  8
0
100
AcDbLine
 62
7
  6
CONTINUOUS
 10
9.6887102652
 20
8.3336695021
 11
9.6887102652
 21
8.2586695021
  0
LINE
  5
210
100
AcDbEntity
  8
0
100
AcDbLine
 62
7
  6
CONTINUOUS
 10
9.6902803439
 20
8.2586695021
 11
9.6902803439
 21
8.3336695021
  0
LINE
  5
211
100
AcDbEntity
  8
0
100
AcDbLine
 62
7
  6
CONTINUOUS
 10
9.6912312951
 20
8.3336695021
 11
9.6912312951
 21
8.2586695021
  0
LINE
  5
212
100
AcDbEntity
  8
0
100
AcDbLine
 62
7
  6
CONTINUOUS
 10
9.6938459674
 20
8.2586695021
 11
9.6938459674
 21
8.3336695021
  0
LINE
  5
213
100
AcDbEntity
  8
0
100
AcDbLine
 62
7
  6
CONTINUOUS
 10
9.6952709458
 20
8.3336695021
 11
9.6952709458
 21
8.2586695021
  0
LINE
  5
214
100
AcDbEntity
  8
0
100
AcDbLine
 62
7
  6
CONTINUOUS
 10
9.6989270261
 20
8.2586695021
 11
9.6989270261
 21
8.3336695021
  0
LINE
  5
215
100
AcDbEntity
  8
0
100
AcDbLine
 62
7
  6
CONTINUOUS
 10
9.7008242955
 20
8.3336695021
 11
9.7008242955
 21
8.2586695021
  0
LINE
  5
216
100
AcDbEntity
  8
0
100
AcDbLine
 62
7
  6
CONTINUOUS
 10
9.7055173295
 20
8.2586695021
 11
9.7055173295
 21
8.3336695021
  0
LINE
  5
217
100
AcDbEntity
  8
0
100
AcDbLine
 62
7
  6
CONTINUOUS
 10
9.7078845785
 20
8.3336695021
 11
9.7078845785
 21
8.2586695021
  0
LINE
  5
218
100
AcDbEntity
  8
0
100
AcDbLine
 62
7
  6
CONTINUOUS
 10
9.7136088484
 20
8.2586695021
 11
9.7136088484
 21
8.3336695021
  0
LINE
  5
219
100
AcDbEntity
  8
0
100
AcDbLine
 62
7
  6
CONTINUOUS
 10
9.7164431928
 20
8.3336695021
 11
9.7164431928
 21
8.2586695021
  0
LINE
  5
21A
100
AcDbEntity
  8
0
100
AcDbLine
 62
7
  6
CONTINUOUS
 10
9.7231917244
 20
8.2586695021
 11
9.7231917244
 21
8.3336695021
  0
LINE
  5
21B
100
AcDbEntity
  8
0
100
AcDbLine
 62
7
  6
CONTINUOUS
 10
9.726489711
 20
8.3336695021
 11
9.726489711
 21
8.2586695021
  0
LINE
  5
21C
100
AcDbEntity
  8
0
100
AcDbLine
 62
7
  6
CONTINUOUS
 10
9.7342542824
 20
8.2586695021
 11
9.7342542824
 21
8.3336695021
  0
LINE
  5
21D
100
AcDbEntity
  8
0
100
AcDbLine
 62
7
  6
CONTINUOUS
 10
9.7376923431
 20
8.0586695021
 11
9.7376923431
 21
8.2586695021
  0
LINE
  5
21E
100
AcDbEntity
  8
0
100
AcDbLine
 62
7
  6
CONTINUOUS
 10
9.7380118931
 20
8.3336695021
 11
9.7380118931
 21
8.2586695021
  0
LINE
  5
21F
100
AcDbEntity
  8
0
100
AcDbLine
 62
7
  6
CONTINUOUS
 10
9.7467830443
 20
8.2586695021
 11
9.7467830443
 21
8.3336695021
  0
LINE
  5
220
100
AcDbEntity
  8
0
100
AcDbLine
 62
7
  6
CONTINUOUS
 10
9.750995701
 20
8.3336695021
 11
9.750995701
 21
8.2586695021
  0
LINE
  5
221
100
AcDbEntity
  8
0
100
AcDbLine
 62
7
  6
CONTINUOUS
 10
10.5294192456
 20
10.4917850552
 11
10.5229126943
 21
10.486198545
  0
LINE
  5
222
100
AcDbEntity
  8
0
100
AcDbLine
 62
7
  6
CONTINUOUS
 10
10.5229126943
 20
10.486198545
 11
10.5208955773
 21
10.4851342766
  0
LINE
  5
223
100
AcDbEntity
  8
0
100
AcDbLine
 62
7
  6
CONTINUOUS
 10
12.1876923431
 20
8.0086695021
 11
9.6876923431
 21
8.0086695021
  0
LINE
  5
224
100
AcDbEntity
  8
0
100
AcDbLine
 62
7
  6
CONTINUOUS
 10
9.7376923431
 20
8.0586695021
 11
12.1376923431
 21
8.0586695021
  0
LINE
  5
225
100
AcDbEntity
  8
0
100
AcDbLine
 62
7
  6
CONTINUOUS
 10
9.7607627457
 20
8.2586695021
 11
9.7607627457
 21
8.3336695021
  0
LINE
  5
226
100
AcDbEntity
  8
0
100
AcDbLine
 62
7
  6
CONTINUOUS
 10
9.765425316
 20
8.3336695021
 11
9.765425316
 21
8.2586695021
  0
LINE
  5
227
100
AcDbEntity
  8
0
100
AcDbLine
 62
7
  6
CONTINUOUS
 10
9.7761763545
 20
8.2586695021
 11
9.7761763545
 21
8.3336695021
  0
LINE
  5
228
100
AcDbEntity
  8
0
100
AcDbLine
 62
7
  6
CONTINUOUS
 10
9.7812831578
 20
8.3336695021
 11
9.7812831578
 21
8.2586695021
  0
LINE
  5
229
100
AcDbEntity
  8
0
100
AcDbLine
 62
7
  6
CONTINUOUS
 10
9.7930050916
 20
8.2586695021
 11
9.7930050916
 21
8.3336695021
  0
LINE
  5
22A
100
AcDbEntity
  8
0
100
AcDbLine
 62
7
  6
CONTINUOUS
 10
9.798549906
 20
8.3336695021
 11
9.798549906
 21
8.2586695021
  0
LINE
  5
22B
100
AcDbEntity
  8
0
100
AcDbLine
 62
7
  6
CONTINUOUS
 10
9.8112284539
 20
8.2586695021
 11
9.8112284539
 21
8.3336695021
  0
LINE
  5
22C
100
AcDbEntity
  8
0
100
AcDbLine
 62
7
  6
CONTINUOUS
 10
9.8172045239
 20
8.3336695021
 11
9.8172045239
 21
8.2586695021
  0
LINE
  5
22D
100
AcDbEntity
  8
0
100
AcDbLine
 62
7
  6
CONTINUOUS
 10
9.8308242388
 20
8.2586695021
 11
9.8308242388
 21
8.3336695021
  0
LINE
  5
22E
100
AcDbEntity
  8
0
100
AcDbLine
 62
7
  6
CONTINUOUS
 10
9.8372242835
 20
8.3336695021
 11
9.8372242835
 21
8.2586695021
  0
LINE
  5
22F
100
AcDbEntity
  8
0
100
AcDbLine
 62
7
  6
CONTINUOUS
 10
9.8517685721
 20
8.2586695021
 11
9.8517685721
 21
8.3336695021
  0
LINE
  5
230
100
AcDbEntity
  8
0
100
AcDbLine
 62
7
  6
CONTINUOUS
 10
9.8585847939
 20
8.3336695021
 11
9.8585847939
 21
8.2586695021
  0
LINE
  5
231
100
AcDbEntity
  8
0
100
AcDbLine
 62
7
  6
CONTINUOUS
 10
9.8740359362
 20
8.2586695021
 11
9.8740359362
 21
8.3336695021
  0
LINE
  5
232
100
AcDbEntity
  8
0
100
AcDbLine
 62
7
  6
CONTINUOUS
 10
9.8812600307
 20
8.3336695021
 11
9.8812600307
 21
8.2586695021
  0
LINE
  5
233
100
AcDbEntity
  8
0
100
AcDbLine
 62
7
  6
CONTINUOUS
 10
9.8975992018
 20
8.2586695021
 11
9.8975992018
 21
8.3336695021
  0
LINE
  5
234
100
AcDbEntity
  8
0
100
AcDbLine
 62
7
  6
CONTINUOUS
 10
9.9052223675
 20
8.3336695021
 11
9.9052223675
 21
8.2586695021
  0
LINE
  5
235
100
AcDbEntity
  8
0
100
AcDbLine
 62
7
  6
CONTINUOUS
 10
9.9126923431
 20
9.2336695021
 11
9.9126923431
 21
9.4336695021
  0
LINE
  5
236
100
AcDbEntity
  8
0
100
AcDbLine
 62
7
  6
CONTINUOUS
 10
9.9224296606
 20
8.2586695021
 11
9.9224296606
 21
8.3336695021
  0
LINE
  5
237
100
AcDbEntity
  8
0
100
AcDbLine
 62
7
  6
CONTINUOUS
 10
9.93044261
 20
8.3336695021
 11
9.93044261
 21
8.2586695021
  0
LINE
  5
238
100
AcDbEntity
  8
0
100
AcDbLine
 62
7
  6
CONTINUOUS
 10
9.9484970607
 20
8.2586695021
 11
9.9484970607
 21
8.3336695021
  0
LINE
  5
239
100
AcDbEntity
  8
0
100
AcDbLine
 62
7
  6
CONTINUOUS
 10
9.9568900311
 20
8.3336695021
 11
9.9568900311
 21
8.2586695021
  0
LINE
  5
23A
100
AcDbEntity
  8
0
100
AcDbLine
 62
7
  6
CONTINUOUS
 10
9.9757696428
 20
8.2586695021
 11
9.9757696428
 21
8.3336695021
  0
LINE
  5
23B
100
AcDbEntity
  8
0
100
AcDbLine
 62
7
  6
CONTINUOUS
 10
9.9845324087
 20
8.3336695021
 11
9.9845324087
 21
8.2586695021
  0
LINE
  5
23C
100
AcDbEntity
  8
0
100
AcDbLine
 62
7
  6
CONTINUOUS
 10
9.9876923431
 20
9.1336695021
 11
9.9876923431
 21
9.2336695021
  0
LINE
  5
23D
100
AcDbEntity
  8
0
100
AcDbLine
 62
7
  6
CONTINUOUS
 10
9.9876923431
 20
9.4336695021
 11
9.9876923431
 21
9.4836695021
  0
LINE
  5
23E
100
AcDbEntity
  8
0
100
AcDbLine
 62
7
  6
CONTINUOUS
 10
10.0042141796
 20
8.2586695021
 11
10.0042141796
 21
8.3336695021
  0
LINE
  5
23F
100
AcDbEntity
  8
0
100
AcDbLine
 62
7
  6
CONTINUOUS
 10
10.0133360649
 20
8.3336695021
 11
10.0133360649
 21
8.2586695021
  0
LINE
  5
240
100
AcDbEntity
  8
0
100
AcDbLine
 62
7
  6
CONTINUOUS
 10
10.5360774067
 20
10.5037645129
 11
10.5294192456
 21
10.4917850552
  0
LINE
  5
241
100
AcDbEntity
  8
0
100
AcDbLine
 62
7
  6
CONTINUOUS
 10
9.6877109276
 20
8.2586695021
 11
9.6882344998
 21
8.2586695021
  0
LINE
  5
242
100
AcDbEntity
  8
0
100
AcDbLine
 62
7
  6
CONTINUOUS
 10
12.1848038386
 20
8.2586695021
 11
12.1876737586
 21
8.2586695021
  0
LINE
  5
243
100
AcDbEntity
  8
0
100
AcDbLine
 62
7
  6
CONTINUOUS
 10
9.6887102652
 20
8.2586695021
 11
12.1841533911
 21
8.2586695021
  0
LINE
  5
244
100
AcDbEntity
  8
0
100
AcDbLine
 62
7
  6
CONTINUOUS
 10
12.1876737586
 20
8.3336695021
 11
12.1871501864
 21
8.3336695021
  0
LINE
  5
245
100
AcDbEntity
  8
0
100
AcDbLine
 62
7
  6
CONTINUOUS
 10
9.6905808476
 20
8.3336695021
 11
9.6887102652
 21
8.3336695021
  0
LINE
  5
246
100
AcDbEntity
  8
0
100
AcDbLine
 62
7
  6
CONTINUOUS
 10
9.6883765784
 20
8.3336695021
 11
9.6877109276
 21
8.3336695021
  0
LINE
  5
247
100
AcDbEntity
  8
0
100
AcDbLine
 62
7
  6
CONTINUOUS
 10
9.6912312951
 20
8.3336695021
 11
12.186674421
 21
8.3336695021
  0
LINE
  5
248
100
AcDbEntity
  8
0
100
AcDbLine
 62
7
  6
CONTINUOUS
 10
10.0337960157
 20
8.2586695021
 11
10.0337960157
 21
8.3336695021
  0
LINE
  5
249
100
AcDbEntity
  8
0
100
AcDbLine
 62
7
  6
CONTINUOUS
 10
10.0432659068
 20
8.3336695021
 11
10.0432659068
 21
8.2586695021
  0
LINE
  5
24A
100
AcDbEntity
  8
0
100
AcDbLine
 62
7
  6
CONTINUOUS
 10
10.0626923431
 20
8.5336695021
 11
10.0626923431
 21
9.0586695021
  0
LINE
  5
24B
100
AcDbEntity
  8
0
100
AcDbLine
 62
7
  6
CONTINUOUS
 10
10.0644791102
 20
8.2586695021
 11
10.0644791102
 21
8.3336695021
  0
LINE
  5
24C
100
AcDbEntity
  8
0
100
AcDbLine
 62
7
  6
CONTINUOUS
 10
10.0742854696
 20
8.3336695021
 11
10.0742854696
 21
8.2586695021
  0
LINE
  5
24D
100
AcDbEntity
  8
0
100
AcDbLine
 62
7
  6
CONTINUOUS
 10
10.0954857505
 20
8.2586695021
 11
10.0954857505
 21
8.3336695021
  0
LINE
  5
24E
100
AcDbEntity
  8
0
100
AcDbLine
 62
7
  6
CONTINUOUS
 10
10.0962260806
 20
8.2586695021
 11
10.0962260806
 21
8.3336695021
  0
LINE
  5
24F
100
AcDbEntity
  8
0
100
AcDbLine
 62
7
  6
CONTINUOUS
 10
10.1063569606
 20
8.3336695021
 11
10.1063569606
 21
8.2586695021
  0
LINE
  5
250
100
AcDbEntity
  8
0
100
AcDbLine
 62
7
  6
CONTINUOUS
 10
10.1275184897
 20
8.2586695021
 11
10.1275184897
 21
8.3336695021
  0
LINE
  5
251
100
AcDbEntity
  8
0
100
AcDbLine
 62
7
  6
CONTINUOUS
 10
10.128998248
 20
8.2586695021
 11
10.128998248
 21
8.3336695021
  0
LINE
  5
252
100
AcDbEntity
  8
0
100
AcDbLine
 62
7
  6
CONTINUOUS
 10
10.1394413058
 20
8.3336695021
 11
10.1394413058
 21
8.2586695021
  0
LINE
  5
253
100
AcDbEntity
  8
0
100
AcDbLine
 62
7
  6
CONTINUOUS
 10
12.0126923431
 20
8.4336695021
 11
9.8626923431
 21
8.4336695021
  0
LINE
  5
254
100
AcDbEntity
  8
0
100
AcDbLine
 62
7
  6
CONTINUOUS
 10
10.160538301
 20
8.2586695021
 11
10.160538301
 21
8.3336695021
  0
LINE
  5
255
100
AcDbEntity
  8
0
100
AcDbLine
 62
7
  6
CONTINUOUS
 10
10.1627556846
 20
8.2586695021
 11
10.1627556846
 21
8.3336695021
  0
LINE
  5
256
100
AcDbEntity
  8
0
100
AcDbLine
 62
7
  6
CONTINUOUS
 10
10.1734981968
 20
8.3336695021
 11
10.1734981968
 21
8.2586695021
  0
LINE
  5
257
100
AcDbEntity
  8
0
100
AcDbLine
 62
7
  6
CONTINUOUS
 10
10.1876923431
 20
9.5836695021
 11
10.1876923431
 21
9.6336695021
  0
LINE
  5
258
100
AcDbEntity
  8
0
100
AcDbLine
 62
7
  6
CONTINUOUS
 10
10.1945049548
 20
8.2586695021
 11
10.1945049548
 21
8.3336695021
  0
LINE
  5
259
100
AcDbEntity
  8
0
100
AcDbLine
 62
7
  6
CONTINUOUS
 10
10.1974572621
 20
8.2586695021
 11
10.1974572621
 21
8.3336695021
  0
LINE
  5
25A
100
AcDbEntity
  8
0
100
AcDbLine
 62
7
  6
CONTINUOUS
 10
10.2084861407
 20
8.3336695021
 11
10.2084861407
 21
8.2586695021
  0
LINE
  5
25B
100
AcDbEntity
  8
0
100
AcDbLine
 62
7
  6
CONTINUOUS
 10
10.229377068
 20
8.2586695021
 11
10.229377068
 21
8.3336695021
  0
LINE
  5
25C
100
AcDbEntity
  8
0
100
AcDbLine
 62
7
  6
CONTINUOUS
 10
10.2330607021
 20
8.2586695021
 11
10.2330607021
 21
8.3336695021
  0
LINE
  5
25D
100
AcDbEntity
  8
0
100
AcDbLine
 62
7
  6
CONTINUOUS
 10
10.2443625101
 20
8.3336695021
 11
10.2443625101
 21
8.2586695021
  0
LINE
  5
25E
100
AcDbEntity
  8
0
100
AcDbLine
 62
7
  6
CONTINUOUS
 10
10.2651121541
 20
8.2586695021
 11
10.2651121541
 21
8.3336695021
  0
LINE
  5
25F
100
AcDbEntity
  8
0
100
AcDbLine
 62
7
  6
CONTINUOUS
 10
10.2695226271
 20
8.2586695021
 11
10.2695226271
 21
8.3336695021
  0
LINE
  5
260
100
AcDbEntity
  8
0
100
AcDbLine
 62
7
  6
CONTINUOUS
 10
10.2810835951
 20
8.3336695021
 11
10.2810835951
 21
8.2586695021
  0
LINE
  5
261
100
AcDbEntity
  8
0
100
AcDbLine
 62
7
  6
CONTINUOUS
 10
11.8626923431
 20
8.5336695021
 11
10.0126923431
 21
8.5336695021
  0
LINE
  5
262
100
AcDbEntity
  8
0
100
AcDbLine
 62
7
  6
CONTINUOUS
 10
10.0626923431
 20
9.0586695021
 11
9.9876923431
 21
9.1336695021
  0
LINE
  5
263
100
AcDbEntity
  8
0
100
AcDbLine
 62
7
  6
CONTINUOUS
 10
10.3016666757
 20
8.2586695021
 11
10.3016666757
 21
8.3336695021
  0
LINE
  5
264
100
AcDbEntity
  8
0
100
AcDbLine
 62
7
  6
CONTINUOUS
 10
10.3067986141
 20
8.2586695021
 11
10.3067986141
 21
8.3336695021
  0
LINE
  5
265
100
AcDbEntity
  8
0
100
AcDbLine
 62
7
  6
CONTINUOUS
 10
10.3186046566
 20
8.3336695021
 11
10.3186046566
 21
8.2586695021
  0
LINE
  5
266
100
AcDbEntity
  8
0
100
AcDbLine
 62
7
  6
CONTINUOUS
 10
10.3389960965
 20
8.2586695021
 11
10.3389960965
 21
8.3336695021
  0
LINE
  5
267
100
AcDbEntity
  8
0
100
AcDbLine
 62
7
  6
CONTINUOUS
 10
10.3448432478
 20
8.2586695021
 11
10.3448432478
 21
8.3336695021
  0
LINE
  5
268
100
AcDbEntity
  8
0
100
AcDbLine
 62
7
  6
CONTINUOUS
 10
10.3568799812
 20
8.3336695021
 11
10.3568799812
 21
8.2586695021
  0
LINE
  5
269
100
AcDbEntity
  8
0
100
AcDbLine
 62
7
  6
CONTINUOUS
 10
10.3770549365
 20
8.2586695021
 11
10.3770549365
 21
8.3336695021
  0
LINE
  5
26A
100
AcDbEntity
  8
0
100
AcDbLine
 62
7
  6
CONTINUOUS
 10
10.3836101769
 20
8.2586695021
 11
10.3836101769
 21
8.3336695021
  0
LINE
  5
26B
100
AcDbEntity
  8
0
100
AcDbLine
 62
7
  6
CONTINUOUS
 10
10.3958629361
 20
8.3336695021
 11
10.3958629361
 21
8.2586695021
  0
LINE
  5
26C
100
AcDbEntity
  8
0
100
AcDbLine
 62
7
  6
CONTINUOUS
 10
10.4157968269
 20
8.2586695021
 11
10.4157968269
 21
8.3336695021
  0
LINE
  5
26D
100
AcDbEntity
  8
0
100
AcDbLine
 62
7
  6
CONTINUOUS
 10
10.537691937
 20
10.5140125923
 11
10.5360774067
 21
10.5037645129
  0
LWPOLYLINE
  5
26E
100
AcDbEntity
  8
0
100
AcDbPolyline
 62
7
  6
CONTINUOUS
 90
3
 70
0
 10
11.35212831
 20
10.1437439931
 10
11.3559120569
 20
10.1458878029
 10
11.3564967663
 20
10.1461192023
  0
LINE
  5
26F
100
AcDbEntity
  8
0
100
AcDbLine
 62
7
  6
CONTINUOUS
 10
10.4230521698
 20
8.2586695021
 11
10.4230521698
 21
8.3336695021
  0
LINE
  5
270
100
AcDbEntity
  8
0
100
AcDbLine
 62
7
  6
CONTINUOUS
 10
10.4355060268
 20
8.3336695021
 11
10.4355060268
 21
8.2586695021
  0
LINE
  5
271
100
AcDbEntity
  8
0
100
AcDbLine
 62
7
  6
CONTINUOUS
 10
10.4551745665
 20
8.2586695021
 11
10.4551745665
 21
8.3336695021
  0
LINE
  5
272
100
AcDbEntity
  8
0
100
AcDbLine
 62
7
  6
CONTINUOUS
 10
10.4631211724
 20
8.2586695021
 11
10.4631211724
 21
8.3336695021
  0
LINE
  5
273
100
AcDbEntity
  8
0
100
AcDbLine
 62
7
  6
CONTINUOUS
 10
10.4757609541
 20
8.3336695021
 11
10.4757609541
 21
8.2586695021
  0
LINE
  5
274
100
AcDbEntity
  8
0
100
AcDbLine
 62
9
  6
CONTINUOUS
 10
10.4820054905
 20
10.4420016012
 11
10.4820054905
 21
10.1886438878
  0
LINE
  5
275
100
AcDbEntity
  8
0
100
AcDbLine
 62
7
  6
CONTINUOUS
 10
10.4951401797
 20
8.2586695021
 11
10.4951401797
 21
8.3336695021
  0
LINE
  5
276
100
AcDbEntity
  8
0
100
AcDbLine
 62
7
  6
CONTINUOUS
 10
10.5037683669
 20
8.2586695021
 11
10.5037683669
 21
8.3336695021
  0
LINE
  5
277
100
AcDbEntity
  8
0
100
AcDbLine
 62
7
  6
CONTINUOUS
 10
10.5165786736
 20
8.3336695021
 11
10.5165786736
 21
8.2586695021
  0
LINE
  5
278
100
AcDbEntity
  8
0
100
AcDbLine
 62
7
  6
CONTINUOUS
 10
10.5356449745
 20
8.2586695021
 11
10.5356449745
 21
8.3336695021
  0
LINE
  5
279
100
AcDbEntity
  8
0
100
AcDbLine
 62
7
  6
CONTINUOUS
 10
10.5376922443
 20
10.1153196504
 11
10.5376923431
 21
10.0766695021
  0
LINE
  5
27A
100
AcDbEntity
  8
0
100
AcDbLine
 62
7
  6
CONTINUOUS
 10
10.5376923431
 20
9.6336695021
 11
10.5376923431
 21
9.7336695021
  0
LINE
  5
27B
100
AcDbEntity
  8
0
100
AcDbLine
 62
9
  6
CONTINUOUS
 10
10.539034721
 20
10.1185100573
 11
10.539034721
 21
10.5102321988
  0
LINE
  5
27C
100
AcDbEntity
  8
0
100
AcDbLine
 62
7
  6
CONTINUOUS
 10
10.5449442309
 20
8.2586695021
 11
10.5449442309
 21
8.3336695021
  0
LINE
  5
27D
100
AcDbEntity
  8
0
100
AcDbLine
 62
7
  6
CONTINUOUS
 10
10.5376923431
 20
10.5516695021
 11
10.537691937
 21
10.5140125923
  0
LINE
  5
27E
100
AcDbEntity
  8
0
100
AcDbLine
 62
7
  6
CONTINUOUS
 10
10.5579094553
 20
8.3336695021
 11
10.5579094553
 21
8.2586695021
  0
LINE
  5
27F
100
AcDbEntity
  8
0
100
AcDbLine
 62
7
  6
CONTINUOUS
 10
10.5766396022
 20
8.2586695021
 11
10.5766396022
 21
8.3336695021
  0
LINE
  5
280
100
AcDbEntity
  8
0
100
AcDbLine
 62
7
  6
CONTINUOUS
 10
10.5865985979
 20
8.2586695021
 11
10.5865985979
 21
8.3336695021
  0
LINE
  5
281
100
AcDbEntity
  8
0
100
AcDbLine
 62
7
  6
CONTINUOUS
 10
10.5997029439
 20
8.3336695021
 11
10.5997029439
 21
8.2586695021
  0
LINE
  5
282
100
AcDbEntity
  8
0
100
AcDbLine
 62
7
  6
CONTINUOUS
 10
10.618074117
 20
8.2586695021
 11
10.618074117
 21
8.3336695021
  0
LINE
  5
283
100
AcDbEntity
  8
0
100
AcDbLine
 62
7
  6
CONTINUOUS
 10
10.6251923431
 20
10.0566695021
 11
10.6251923431
 21
9.7636695021
  0
LINE
  5
284
100
AcDbEntity
  8
0
100
AcDbLine
 62
7
  6
CONTINUOUS
 10
10.6286807187
 20
8.2586695021
 11
10.6286807187
 21
8.3336695021
  0
LINE
  5
285
100
AcDbEntity
  8
0
100
AcDbLine
 62
7
  6
CONTINUOUS
 10
10.6419082205
 20
8.3336695021
 11
10.6419082205
 21
8.2586695021
  0
LINE
  5
286
100
AcDbEntity
  8
0
100
AcDbLine
 62
7
  6
CONTINUOUS
 10
10.6598980373
 20
8.2586695021
 11
10.6598980373
 21
8.3336695021
  0
LINE
  5
287
100
AcDbEntity
  8
0
100
AcDbLine
 62
7
  6
CONTINUOUS
 10
10.666164325
 20
10.4772734301
 11
10.666164325
 21
10.1867530949
  0
LINE
  5
288
100
AcDbEntity
  8
0
100
AcDbLine
 62
7
  6
CONTINUOUS
 10
10.6711393225
 20
8.2586695021
 11
10.6711393225
 21
8.3336695021
  0
LINE
  5
289
100
AcDbEntity
  8
0
100
AcDbLine
 62
7
  6
CONTINUOUS
 10
10.6751923431
 20
10.6766695021
 11
10.6751923431
 21
10.6466695021
  0
LINE
  5
28A
100
AcDbEntity
  8
0
100
AcDbLine
 62
7
  6
CONTINUOUS
 10
10.6844738646
 20
8.3336695021
 11
10.6844738646
 21
8.2586695021
  0
LINE
  5
28B
100
AcDbEntity
  8
0
100
AcDbLine
 62
7
  6
CONTINUOUS
 10
10.536387349
 20
10.124745504
 11
10.537692139
 21
10.1153190884
  0
LINE
  5
28C
100
AcDbEntity
  8
0
100
AcDbLine
 62
7
  6
CONTINUOUS
 10
10.7020604072
 20
8.2586695021
 11
10.7020604072
 21
8.3336695021
  0
LINE
  5
28D
100
AcDbEntity
  8
0
100
AcDbLine
 62
9
  6
CONTINUOUS
 10
10.7061643342
 20
10.4772734701
 11
10.7061643352
 21
10.1867529533
  0
LINE
  5
28E
100
AcDbEntity
  8
0
100
AcDbLine
 62
9
  6
CONTINUOUS
 10
10.7100089586
 20
10.1463461651
 11
10.7100089586
 21
10.1185082581
  0
LINE
  5
28F
100
AcDbEntity
  8
0
100
AcDbLine
 62
7
  6
CONTINUOUS
 10
10.7139226801
 20
8.2586695021
 11
10.7139226801
 21
8.3336695021
  0
LINE
  5
290
100
AcDbEntity
  8
0
100
AcDbLine
 62
7
  6
CONTINUOUS
 10
10.7273480163
 20
8.3336695021
 11
10.7273480163
 21
8.2586695021
  0
LINE
  5
291
100
AcDbEntity
  8
0
100
AcDbLine
 62
7
  6
CONTINUOUS
 10
10.7376923431
 20
9.7336695021
 11
10.7376923431
 21
9.7636695021
  0
LINE
  5
292
100
AcDbEntity
  8
0
100
AcDbLine
 62
7
  6
CONTINUOUS
 10
10.7445098584
 20
8.2586695021
 11
10.7445098584
 21
8.3336695021
  0
LINE
  5
293
100
AcDbEntity
  8
0
100
AcDbLine
 62
7
  6
CONTINUOUS
 10
10.7569786665
 20
8.2586695021
 11
10.7569786665
 21
8.3336695021
  0
LINE
  5
294
100
AcDbEntity
  8
0
100
AcDbLine
 62
7
  6
CONTINUOUS
 10
10.7704784402
 20
8.3336695021
 11
10.7704784402
 21
8.2586695021
  0
LINE
  5
295
100
AcDbEntity
  8
0
100
AcDbLine
 62
7
  6
CONTINUOUS
 10
10.7871946726
 20
8.2586695021
 11
10.7871946726
 21
8.3336695021
  0
LINE
  5
296
100
AcDbEntity
  8
0
100
AcDbLine
 62
7
  6
CONTINUOUS
 10
10.8002548248
 20
8.2586695021
 11
10.8002548248
 21
8.3336695021
  0
LINE
  5
297
100
AcDbEntity
  8
0
100
AcDbLine
 62
7
  6
CONTINUOUS
 10
10.8138125885
 20
8.3336695021
 11
10.8138125885
 21
8.2586695021
  0
LINE
  5
298
100
AcDbEntity
  8
0
100
AcDbLine
 62
7
  6
CONTINUOUS
 10
11.3450034394
 20
10.1368886628
 11
11.3469903224
 21
10.1392533545
  0
LINE
  5
299
100
AcDbEntity
  8
0
100
AcDbLine
 62
7
  6
CONTINUOUS
 10
11.8126923431
 20
9.0586695021
 11
10.0626923431
 21
9.0586695021
  0
LINE
  5
29A
100
AcDbEntity
  8
0
100
AcDbLine
 62
7
  6
CONTINUOUS
 10
9.9876923431
 20
9.1336695021
 11
11.8876923431
 21
9.1336695021
  0
LINE
  5
29B
100
AcDbEntity
  8
0
100
AcDbLine
 62
7
  6
CONTINUOUS
 10
10.8300628451
 20
8.2586695021
 11
10.8300628451
 21
8.3336695021
  0
LINE
  5
29C
100
AcDbEntity
  8
0
100
AcDbLine
 62
7
  6
CONTINUOUS
 10
10.8436984294
 20
8.2586695021
 11
10.8436984294
 21
8.3336695021
  0
LINE
  5
29D
100
AcDbEntity
  8
0
100
AcDbLine
 62
7
  6
CONTINUOUS
 10
10.8572976652
 20
8.3336695021
 11
10.8572976652
 21
8.2586695021
  0
LINE
  5
29E
100
AcDbEntity
  8
0
100
AcDbLine
 62
7
  6
CONTINUOUS
 10
10.8730621476
 20
8.2586695021
 11
10.8730621476
 21
8.3336695021
  0
LINE
  5
29F
100
AcDbEntity
  8
0
100
AcDbLine
 62
7
  6
CONTINUOUS
 10
10.8872565512
 20
8.2586695021
 11
10.8872565512
 21
8.3336695021
  0
LINE
  5
2A0
100
AcDbEntity
  8
0
100
AcDbLine
 62
7
  6
CONTINUOUS
 10
10.9008806904
 20
8.3336695021
 11
10.9008806904
 21
8.2586695021
  0
LINE
  5
2A1
100
AcDbEntity
  8
0
100
AcDbLine
 62
7
  6
CONTINUOUS
 10
10.9161401919
 20
8.2586695021
 11
10.9161401919
 21
8.3336695021
  0
LINE
  5
2A2
100
AcDbEntity
  8
0
100
AcDbLine
 62
7
  6
CONTINUOUS
 10
10.9308761213
 20
8.2586695021
 11
10.9308761213
 21
8.3336695021
  0
LINE
  5
2A3
100
AcDbEntity
  8
0
100
AcDbLine
 62
7
  6
CONTINUOUS
 10
10.944508565
 20
8.3336695021
 11
10.944508565
 21
8.2586695021
  0
LINE
  5
2A4
100
AcDbEntity
  8
0
100
AcDbLine
 62
7
  6
CONTINUOUS
 10
11.3389977847
 20
10.1247480328
 11
11.3450034394
 21
10.1368886628
  0
LINE
  5
2A5
100
AcDbEntity
  8
0
100
AcDbLine
 62
7
  6
CONTINUOUS
 10
9.6876923431
 20
8.0086695021
 11
9.7376923431
 21
8.0586695021
  0
LINE
  5
2A6
100
AcDbEntity
  8
0
100
AcDbLine
 62
7
  6
CONTINUOUS
 10
9.9126923431
 20
9.2336695021
 11
11.9626923431
 21
9.2336695021
  0
LINE
  5
2A7
100
AcDbEntity
  8
0
100
AcDbLine
 62
7
  6
CONTINUOUS
 10
12.1876923431
 20
8.0086695021
 11
12.1376923431
 21
8.0586695021
  0
LINE
  5
2A8
100
AcDbEntity
  8
0
100
AcDbLine
 62
7
  6
CONTINUOUS
 10
10.9592444943
 20
8.2586695021
 11
10.9592444943
 21
8.3336695021
  0
LINE
  5
2A9
100
AcDbEntity
  8
0
100
AcDbLine
 62
7
  6
CONTINUOUS
 10
10.9745039958
 20
8.2586695021
 11
10.9745039958
 21
8.3336695021
  0
LINE
  5
2AA
100
AcDbEntity
  8
0
100
AcDbLine
 62
7
  6
CONTINUOUS
 10
10.988128135
 20
8.3336695021
 11
10.988128135
 21
8.2586695021
  0
LINE
  5
2AB
100
AcDbEntity
  8
0
100
AcDbLine
 62
7
  6
CONTINUOUS
 10
11.0023225387
 20
8.2586695021
 11
11.0023225387
 21
8.3336695021
  0
LINE
  5
2AC
100
AcDbEntity
  8
0
100
AcDbLine
 62
7
  6
CONTINUOUS
 10
11.018087021
 20
8.2586695021
 11
11.018087021
 21
8.3336695021
  0
LINE
  5
2AD
100
AcDbEntity
  8
0
100
AcDbLine
 62
7
  6
CONTINUOUS
 10
11.0316862568
 20
8.3336695021
 11
11.0316862568
 21
8.2586695021
  0
LINE
  5
2AE
100
AcDbEntity
  8
0
100
AcDbLine
 62
7
  6
CONTINUOUS
 10
11.0453218411
 20
8.2586695021
 11
11.0453218411
 21
8.3336695021
  0
LINE
  5
2AF
100
AcDbEntity
  8
0
100
AcDbLine
 62
7
  6
CONTINUOUS
 10
11.0615720977
 20
8.2586695021
 11
11.0615720977
 21
8.3336695021
  0
LINE
  5
2B0
100
AcDbEntity
  8
0
100
AcDbLine
 62
7
  6
CONTINUOUS
 10
11.0751298615
 20
8.3336695021
 11
11.0751298615
 21
8.2586695021
  0
LINE
  5
2B1
100
AcDbEntity
  8
0
100
AcDbLine
 62
7
  6
CONTINUOUS
 10
11.0881900136
 20
8.2586695021
 11
11.0881900136
 21
8.3336695021
  0
LINE
  5
2B2
100
AcDbEntity
  8
0
100
AcDbLine
 62
7
  6
CONTINUOUS
 10
10.5303851242
 20
10.1368835053
 11
10.536387349
 21
10.124745504
  0
LINE
  5
2B3
100
AcDbEntity
  8
0
100
AcDbLine
 62
7
  6
CONTINUOUS
 10
11.104906246
 20
8.2586695021
 11
11.104906246
 21
8.3336695021
  0
LINE
  5
2B4
100
AcDbEntity
  8
0
100
AcDbLine
 62
7
  6
CONTINUOUS
 10
11.1184060197
 20
8.3336695021
 11
11.1184060197
 21
8.2586695021
  0
LINE
  5
2B5
100
AcDbEntity
  8
0
100
AcDbLine
 62
7
  6
CONTINUOUS
 10
11.1308748278
 20
8.2586695021
 11
11.1308748278
 21
8.3336695021
  0
LINE
  5
2B6
100
AcDbEntity
  8
0
100
AcDbLine
 62
7
  6
CONTINUOUS
 10
11.1376923431
 20
9.7336695021
 11
11.1376923431
 21
9.7636695021
  0
LINE
  5
2B7
100
AcDbEntity
  8
0
100
AcDbLine
 62
7
  6
CONTINUOUS
 10
11.1480366699
 20
8.2586695021
 11
11.1480366699
 21
8.3336695021
  0
LINE
  5
2B8
100
AcDbEntity
  8
0
100
AcDbLine
 62
7
  6
CONTINUOUS
 10
11.1614620062
 20
8.3336695021
 11
11.1614620062
 21
8.2586695021
  0
LINE
  5
2B9
100
AcDbEntity
  8
0
100
AcDbLine
 62
9
  6
CONTINUOUS
 10
11.1653759243
 20
10.1185084771
 11
11.1653759243
 21
10.1463461514
  0
LINE
  5
2BA
100
AcDbEntity
  8
0
100
AcDbLine
 62
9
  6
CONTINUOUS
 10
11.1692203519
 20
10.1867532498
 11
11.1692203512
 21
10.4772733313
  0
LINE
  5
2BB
100
AcDbEntity
  8
0
100
AcDbLine
 62
7
  6
CONTINUOUS
 10
11.173324279
 20
8.2586695021
 11
11.173324279
 21
8.3336695021
  0
LINE
  5
2BC
100
AcDbEntity
  8
0
100
AcDbLine
 62
7
  6
CONTINUOUS
 10
11.1909108217
 20
8.2586695021
 11
11.1909108217
 21
8.3336695021
  0
LINE
  5
2BD
100
AcDbEntity
  8
0
100
AcDbLine
 62
7
  6
CONTINUOUS
 10
11.2001923431
 20
10.6766695021
 11
11.2001923431
 21
10.6466695021
  0
LINE
  5
2BE
100
AcDbEntity
  8
0
100
AcDbLine
 62
7
  6
CONTINUOUS
 10
11.2042453637
 20
8.3336695021
 11
11.2042453637
 21
8.2586695021
  0
LINE
  5
2BF
100
AcDbEntity
  8
0
100
AcDbLine
 62
7
  6
CONTINUOUS
 10
11.2092203612
 20
10.1867530949
 11
11.2092203612
 21
10.4772734301
  0
LINE
  5
2C0
100
AcDbEntity
  8
0
100
AcDbLine
 62
7
  6
CONTINUOUS
 10
11.2154866489
 20
8.2586695021
 11
11.2154866489
 21
8.3336695021
  0
LINE
  5
2C1
100
AcDbEntity
  8
0
100
AcDbLine
 62
7
  6
CONTINUOUS
 10
11.3376923395
 20
10.1153226382
 11
11.3389977847
 21
10.1247480328
  0
LINE
  5
2C2
100
AcDbEntity
  8
0
100
AcDbLine
 62
7
  6
CONTINUOUS
 10
11.9626923431
 20
9.4336695021
 11
9.9126923431
 21
9.4336695021
  0
LINE
  5
2C3
100
AcDbEntity
  8
0
100
AcDbLine
 62
7
  6
CONTINUOUS
 10
11.8876923431
 20
9.4836695021
 11
9.9876923431
 21
9.4836695021
  0
LINE
  5
2C4
100
AcDbEntity
  8
0
100
AcDbLine
 62
7
  6
CONTINUOUS
 10
10.5284024299
 20
10.1392446162
 11
10.5303851242
 21
10.1368835053
  0
LINE
  5
2C5
100
AcDbEntity
  8
0
100
AcDbLine
 62
7
  6
CONTINUOUS
 10
11.2334764657
 20
8.2586695021
 11
11.2334764657
 21
8.3336695021
  0
LINE
  5
2C6
100
AcDbEntity
  8
0
100
AcDbLine
 62
7
  6
CONTINUOUS
 10
11.2467039675
 20
8.3336695021
 11
11.2467039675
 21
8.2586695021
  0
LINE
  5
2C7
100
AcDbEntity
  8
0
100
AcDbLine
 62
7
  6
CONTINUOUS
 10
11.2501923431
 20
10.0566695021
 11
11.2501923431
 21
9.7636695021
  0
LINE
  5
2C8
100
AcDbEntity
  8
0
100
AcDbLine
 62
7
  6
CONTINUOUS
 10
11.2573105693
 20
8.2586695021
 11
11.2573105693
 21
8.3336695021
  0
LINE
  5
2C9
100
AcDbEntity
  8
0
100
AcDbLine
 62
7
  6
CONTINUOUS
 10
11.2756817423
 20
8.2586695021
 11
11.2756817423
 21
8.3336695021
  0
LINE
  5
2CA
100
AcDbEntity
  8
0
100
AcDbLine
 62
7
  6
CONTINUOUS
 10
11.2887860883
 20
8.3336695021
 11
11.2887860883
 21
8.2586695021
  0
LINE
  5
2CB
100
AcDbEntity
  8
0
100
AcDbLine
 62
7
  6
CONTINUOUS
 10
11.298745084
 20
8.2586695021
 11
11.298745084
 21
8.3336695021
  0
LINE
  5
2CC
100
AcDbEntity
  8
0
100
AcDbLine
 62
7
  6
CONTINUOUS
 10
11.317475231
 20
8.2586695021
 11
11.317475231
 21
8.3336695021
  0
LINE
  5
2CD
100
AcDbEntity
  8
0
100
AcDbLine
 62
7
  6
CONTINUOUS
 10
11.3304404554
 20
8.3336695021
 11
11.3304404554
 21
8.2586695021
  0
LINE
  5
2CE
100
AcDbEntity
  8
0
100
AcDbLine
 62
9
  6
CONTINUOUS
 10
11.3363499887
 20
10.5102321581
 11
11.3363499887
 21
10.1185093223
  0
LINE
  5
2CF
100
AcDbEntity
  8
0
100
AcDbLine
 62
7
  6
CONTINUOUS
 10
11.3376923431
 20
10.5516695021
 11
11.337692875
 21
10.5140094142
  0
LINE
  5
2D0
100
AcDbEntity
  8
0
100
AcDbLine
 62
7
  6
CONTINUOUS
 10
11.3376923431
 20
9.6336695021
 11
11.3376923431
 21
9.7336695021
  0
LINE
  5
2D1
100
AcDbEntity
  8
0
100
AcDbLine
 62
7
  6
CONTINUOUS
 10
11.3397397117
 20
8.2586695021
 11
11.3397397117
 21
8.3336695021
  0
LINE
  5
2D2
100
AcDbEntity
  8
0
100
AcDbLine
 62
7
  6
CONTINUOUS
 10
11.3376923431
 20
10.0766695021
 11
11.3376923395
 21
10.1153226382
  0
LINE
  5
2D3
100
AcDbEntity
  8
0
100
AcDbLine
 62
7
  6
CONTINUOUS
 10
11.7876923431
 20
9.5836695021
 11
10.0876923431
 21
9.5836695021
  0
LINE
  5
2D4
100
AcDbEntity
  8
0
100
AcDbLine
 62
7
  6
CONTINUOUS
 10
11.6876923431
 20
9.6336695021
 11
10.1876923431
 21
9.6336695021
  0
LINE
  5
2D5
100
AcDbEntity
  8
0
100
AcDbLine
 62
7
  6
CONTINUOUS
 10
11.3588060126
 20
8.2586695021
 11
11.3588060126
 21
8.3336695021
  0
LINE
  5
2D6
100
AcDbEntity
  8
0
100
AcDbLine
 62
7
  6
CONTINUOUS
 10
11.3716163194
 20
8.3336695021
 11
11.3716163194
 21
8.2586695021
  0
LINE
  5
2D7
100
AcDbEntity
  8
0
100
AcDbLine
 62
7
  6
CONTINUOUS
 10
11.3802445065
 20
8.2586695021
 11
11.3802445065
 21
8.3336695021
  0
LINE
  5
2D8
100
AcDbEntity
  8
0
100
AcDbLine
 62
9
  6
CONTINUOUS
 10
11.3933791957
 20
10.1886438749
 11
11.3933791957
 21
10.44200159
  0
LINE
  5
2D9
100
AcDbEntity
  8
0
100
AcDbLine
 62
7
  6
CONTINUOUS
 10
11.3996237322
 20
8.2586695021
 11
11.3996237322
 21
8.3336695021
  0
LINE
  5
2DA
100
AcDbEntity
  8
0
100
AcDbLine
 62
7
  6
CONTINUOUS
 10
11.4122635139
 20
8.3336695021
 11
11.4122635139
 21
8.2586695021
  0
LINE
  5
2DB
100
AcDbEntity
  8
0
100
AcDbLine
 62
7
  6
CONTINUOUS
 10
11.4202101197
 20
8.2586695021
 11
11.4202101197
 21
8.3336695021
  0
LINE
  5
2DC
100
AcDbEntity
  8
0
100
AcDbLine
 62
7
  6
CONTINUOUS
 10
11.4398786595
 20
8.2586695021
 11
11.4398786595
 21
8.3336695021
  0
LINE
  5
2DD
100
AcDbEntity
  8
0
100
AcDbLine
 62
7
  6
CONTINUOUS
 10
11.4523325165
 20
8.3336695021
 11
11.4523325165
 21
8.2586695021
  0
LINE
  5
2DE
100
AcDbEntity
  8
0
100
AcDbLine
 62
7
  6
CONTINUOUS
 10
11.4595878593
 20
8.2586695021
 11
11.4595878593
 21
8.3336695021
  0
LINE
  5
2DF
100
AcDbEntity
  8
0
100
AcDbLine
 62
7
  6
CONTINUOUS
 10
11.4795217501
 20
8.2586695021
 11
11.4795217501
 21
8.3336695021
  0
LINE
  5
2E0
100
AcDbEntity
  8
0
100
AcDbLine
 62
7
  6
CONTINUOUS
 10
11.3376923431
 20
9.7336695021
 11
10.5376923431
 21
9.7336695021
  0
LINE
  5
2E1
100
AcDbEntity
  8
0
100
AcDbLine
 62
7
  6
CONTINUOUS
 10
10.6251923431
 20
9.7636695021
 11
11.2501923431
 21
9.7636695021
  0
LINE
  5
2E2
100
AcDbEntity
  8
0
100
AcDbLine
 62
7
  6
CONTINUOUS
 10
11.4917745093
 20
8.3336695021
 11
11.4917745093
 21
8.2586695021
  0
LINE
  5
2E3
100
AcDbEntity
  8
0
100
AcDbLine
 62
7
  6
CONTINUOUS
 10
11.4983297497
 20
8.2586695021
 11
11.4983297497
 21
8.3336695021
  0
LINE
  5
2E4
100
AcDbEntity
  8
0
100
AcDbLine
 62
7
  6
CONTINUOUS
 10
11.518504705
 20
8.2586695021
 11
11.518504705
 21
8.3336695021
  0
LINE
  5
2E5
100
AcDbEntity
  8
0
100
AcDbLine
 62
7
  6
CONTINUOUS
 10
11.5305414384
 20
8.3336695021
 11
11.5305414384
 21
8.2586695021
  0
LINE
  5
2E6
100
AcDbEntity
  8
0
100
AcDbLine
 62
7
  6
CONTINUOUS
 10
11.5363885897
 20
8.2586695021
 11
11.5363885897
 21
8.3336695021
  0
LINE
  5
2E7
100
AcDbEntity
  8
0
100
AcDbLine
 62
7
  6
CONTINUOUS
 10
11.5567800296
 20
8.2586695021
 11
11.5567800296
 21
8.3336695021
  0
LINE
  5
2E8
100
AcDbEntity
  8
0
100
AcDbLine
 62
7
  6
CONTINUOUS
 10
11.5685860721
 20
8.3336695021
 11
11.5685860721
 21
8.2586695021
  0
LINE
  5
2E9
100
AcDbEntity
  8
0
100
AcDbLine
 62
7
  6
CONTINUOUS
 10
11.5737180105
 20
8.2586695021
 11
11.5737180105
 21
8.3336695021
  0
LINE
  5
2EA
100
AcDbEntity
  8
0
100
AcDbLine
 62
7
  6
CONTINUOUS
 10
11.5943010912
 20
8.2586695021
 11
11.5943010912
 21
8.3336695021
  0
LINE
  5
2EB
100
AcDbEntity
  8
0
100
AcDbLine
 62
7
  6
CONTINUOUS
 10
11.6058620591
 20
8.3336695021
 11
11.6058620591
 21
8.2586695021
  0
LINE
  5
2EC
100
AcDbEntity
  8
0
100
AcDbLine
 62
7
  6
CONTINUOUS
 10
11.6102725321
 20
8.2586695021
 11
11.6102725321
 21
8.3336695021
  0
LINE
  5
2ED
100
AcDbEntity
  8
0
100
AcDbLine
 62
7
  6
CONTINUOUS
 10
11.3393045498
 20
10.5037724379
 11
11.3376925344
 21
10.5140100869
  0
LINE
  5
2EE
100
AcDbEntity
  8
0
100
AcDbLine
 62
7
  6
CONTINUOUS
 10
11.6310221761
 20
8.2586695021
 11
11.6310221761
 21
8.3336695021
  0
LINE
  5
2EF
100
AcDbEntity
  8
0
100
AcDbLine
 62
7
  6
CONTINUOUS
 10
11.6423239841
 20
8.3336695021
 11
11.6423239841
 21
8.2586695021
  0
LINE
  5
2F0
100
AcDbEntity
  8
0
100
AcDbLine
 62
7
  6
CONTINUOUS
 10
11.6460076183
 20
8.2586695021
 11
11.6460076183
 21
8.3336695021
  0
LINE
  5
2F1
100
AcDbEntity
  8
0
100
AcDbLine
 62
7
  6
CONTINUOUS
 10
11.6668985455
 20
8.2586695021
 11
11.6668985455
 21
8.3336695021
  0
LINE
  5
2F2
100
AcDbEntity
  8
0
100
AcDbLine
 62
7
  6
CONTINUOUS
 10
11.6779274241
 20
8.3336695021
 11
11.6779274241
 21
8.2586695021
  0
LINE
  5
2F3
100
AcDbEntity
  8
0
100
AcDbLine
 62
7
  6
CONTINUOUS
 10
11.6808797314
 20
8.2586695021
 11
11.6808797314
 21
8.3336695021
  0
LINE
  5
2F4
100
AcDbEntity
  8
0
100
AcDbLine
 62
7
  6
CONTINUOUS
 10
11.6876923431
 20
9.5836695021
 11
11.6876923431
 21
9.6336695021
  0
LINE
  5
2F5
100
AcDbEntity
  8
0
100
AcDbLine
 62
7
  6
CONTINUOUS
 10
11.7018864894
 20
8.2586695021
 11
11.7018864894
 21
8.3336695021
  0
LINE
  5
2F6
100
AcDbEntity
  8
0
100
AcDbLine
 62
7
  6
CONTINUOUS
 10
11.7126290016
 20
8.3336695021
 11
11.7126290016
 21
8.2586695021
  0
LINE
  5
2F7
100
AcDbEntity
  8
0
100
AcDbLine
 62
7
  6
CONTINUOUS
 10
11.7148463852
 20
8.2586695021
 11
11.7148463852
 21
8.3336695021
  0
LINE
  5
2F8
100
AcDbEntity
  8
0
100
AcDbLine
 62
7
  6
CONTINUOUS
 10
11.7359433805
 20
8.2586695021
 11
11.7359433805
 21
8.3336695021
  0
LINE
  5
2F9
100
AcDbEntity
  8
0
100
AcDbLine
 62
7
  6
CONTINUOUS
 10
11.7463864382
 20
8.3336695021
 11
11.7463864382
 21
8.2586695021
  0
LINE
  5
2FA
100
AcDbEntity
  8
0
100
AcDbLine
 62
7
  6
CONTINUOUS
 10
11.7478661965
 20
8.2586695021
 11
11.7478661965
 21
8.3336695021
  0
LINE
  5
2FB
100
AcDbEntity
  8
0
100
AcDbLine
 62
7
  6
CONTINUOUS
 10
11.8126923431
 20
9.0586695021
 11
11.8876923431
 21
9.1336695021
  0
LINE
  5
2FC
100
AcDbEntity
  8
0
100
AcDbLine
 62
9
  6
CONTINUOUS
 10
12.3199565471
 20
10.1470480633
 11
12.3273072936
 21
10.1478861522
  0
LINE
  5
2FD
100
AcDbEntity
  8
0
100
AcDbLine
 62
9
  6
CONTINUOUS
 10
11.2501923431
 20
10.0566695021
 11
10.6252505677
 21
10.0566695021
  0
LINE
  5
2FE
100
AcDbEntity
  8
0
100
AcDbLine
 62
7
  6
CONTINUOUS
 10
10.5376923431
 20
10.0766695021
 11
11.3376923431
 21
10.0766695021
  0
LINE
  5
2FF
100
AcDbEntity
  8
0
100
AcDbLine
 62
9
  6
CONTINUOUS
 10
9.5554281531
 20
10.1470481783
 11
9.5480772579
 21
10.1478863722
  0
LWPOLYLINE
  5
300
100
AcDbEntity
  8
0
100
AcDbPolyline
 62
7
  6
CONTINUOUS
 90
4
 70
0
 10
10.5202478475
 20
10.1457647445
 10
10.5192275147
 20
10.1460186754
 10
10.5194769213
 20
10.1458859292
 10
10.5232581977
 20
10.143742885
  0
LINE
  5
301
100
AcDbEntity
  8
0
100
AcDbLine
 62
7
  6
CONTINUOUS
 10
11.7690277256
 20
8.2586695021
 11
11.7690277256
 21
8.3336695021
  0
LINE
  5
302
100
AcDbEntity
  8
0
100
AcDbLine
 62
7
  6
CONTINUOUS
 10
11.7791586056
 20
8.3336695021
 11
11.7791586056
 21
8.2586695021
  0
LINE
  5
303
100
AcDbEntity
  8
0
100
AcDbLine
 62
7
  6
CONTINUOUS
 10
11.7798989357
 20
8.2586695021
 11
11.7798989357
 21
8.3336695021
  0
LINE
  5
304
100
AcDbEntity
  8
0
100
AcDbLine
 62
7
  6
CONTINUOUS
 10
11.8010992167
 20
8.2586695021
 11
11.8010992167
 21
8.3336695021
  0
LINE
  5
305
100
AcDbEntity
  8
0
100
AcDbLine
 62
7
  6
CONTINUOUS
 10
11.810905576
 20
8.3336695021
 11
11.810905576
 21
8.2586695021
  0
LINE
  5
306
100
AcDbEntity
  8
0
100
AcDbLine
 62
7
  6
CONTINUOUS
 10
11.8126923431
 20
8.5336695021
 11
11.8126923431
 21
9.0586695021
  0
LINE
  5
307
100
AcDbEntity
  8
0
100
AcDbLine
 62
7
  6
CONTINUOUS
 10
11.8321187794
 20
8.2586695021
 11
11.8321187794
 21
8.3336695021
  0
LINE
  5
308
100
AcDbEntity
  8
0
100
AcDbLine
 62
7
  6
CONTINUOUS
 10
11.8415886705
 20
8.3336695021
 11
11.8415886705
 21
8.2586695021
  0
LINE
  5
309
100
AcDbEntity
  8
0
100
AcDbLine
 62
7
  6
CONTINUOUS
 10
11.8620486213
 20
8.2586695021
 11
11.8620486213
 21
8.3336695021
  0
LINE
  5
30A
100
AcDbEntity
  8
0
100
AcDbLine
 62
7
  6
CONTINUOUS
 10
11.8711705066
 20
8.3336695021
 11
11.8711705066
 21
8.2586695021
  0
LINE
  5
30B
100
AcDbEntity
  8
0
100
AcDbLine
 62
7
  6
CONTINUOUS
 10
11.8876923431
 20
9.1336695021
 11
11.8876923431
 21
9.2336695021
  0
LINE
  5
30C
100
AcDbEntity
  8
0
100
AcDbLine
 62
7
  6
CONTINUOUS
 10
11.8876923431
 20
9.4336695021
 11
11.8876923431
 21
9.4836695021
  0
LINE
  5
30D
100
AcDbEntity
  8
0
100
AcDbLine
 62
7
  6
CONTINUOUS
 10
10.2660598325
 20
10.1389767987
 11
10.5244825213
 21
10.1427468589
  0
LWPOLYLINE
  5
30E
100
AcDbEntity
  8
0
100
AcDbPolyline
 62
7
  6
CONTINUOUS
 90
3
 70
0
 10
9.6741195981
 20
10.1327318011
 10
9.957725377
 20
10.1346930522
 10
10.2660598325
 20
10.1389767987
  0
LINE
  5
30F
100
AcDbEntity
  8
0
100
AcDbLine
 62
9
  6
CONTINUOUS
 10
11.2092203612
 20
10.1867530949
 11
11.1692203612
 21
10.1867530949
  0
LINE
  5
310
100
AcDbEntity
  8
0
100
AcDbLine
 62
9
  6
CONTINUOUS
 10
9.5404770609
 20
10.1867530949
 11
9.5175312446
 21
10.1867530949
  0
LINE
  5
311
100
AcDbEntity
  8
0
100
AcDbLine
 62
9
  6
CONTINUOUS
 10
10.666164325
 20
10.1867530949
 11
10.706164325
 21
10.1867530949
  0
LINE
  5
312
100
AcDbEntity
  8
0
100
AcDbLine
 62
9
  6
CONTINUOUS
 10
12.3349076259
 20
10.1867530949
 11
12.3578534417
 21
10.1867530949
  0
LWPOLYLINE
  5
313
100
AcDbEntity
  8
0
100
AcDbPolyline
 62
7
  6
CONTINUOUS
 90
4
 70
0
 10
11.3509051513
 20
10.1427468153
 10
11.6093247006
 20
10.1389768011
 10
11.9176592048
 20
10.1346930534
 10
12.2012650882
 20
10.1327318011
  0
LINE
  5
314
100
AcDbEntity
  8
0
100
AcDbLine
 62
7
  6
CONTINUOUS
 10
11.3459575838
 20
10.4917941576
 11
11.3393045498
 21
10.5037724379
  0
LINE
  5
315
100
AcDbEntity
  8
0
100
AcDbLine
 62
7
  6
CONTINUOUS
 10
11.8908522775
 20
8.2586695021
 11
11.8908522775
 21
8.3336695021
  0
LINE
  5
316
100
AcDbEntity
  8
0
100
AcDbLine
 62
7
  6
CONTINUOUS
 10
11.8996150434
 20
8.3336695021
 11
11.8996150434
 21
8.2586695021
  0
LINE
  5
317
100
AcDbEntity
  8
0
100
AcDbLine
 62
7
  6
CONTINUOUS
 10
11.9184946551
 20
8.2586695021
 11
11.9184946551
 21
8.3336695021
  0
LINE
  5
318
100
AcDbEntity
  8
0
100
AcDbLine
 62
7
  6
CONTINUOUS
 10
11.9268876255
 20
8.3336695021
 11
11.9268876255
 21
8.2586695021
  0
LINE
  5
319
100
AcDbEntity
  8
0
100
AcDbLine
 62
7
  6
CONTINUOUS
 10
11.9449420762
 20
8.2586695021
 11
11.9449420762
 21
8.3336695021
  0
LINE
  5
31A
100
AcDbEntity
  8
0
100
AcDbLine
 62
7
  6
CONTINUOUS
 10
11.9529550256
 20
8.3336695021
 11
11.9529550256
 21
8.2586695021
  0
LINE
  5
31B
100
AcDbEntity
  8
0
100
AcDbLine
 62
7
  6
CONTINUOUS
 10
11.9626923431
 20
9.2336695021
 11
11.9626923431
 21
9.4336695021
  0
LINE
  5
31C
100
AcDbEntity
  8
0
100
AcDbLine
 62
7
  6
CONTINUOUS
 10
11.9701623187
 20
8.2586695021
 11
11.9701623187
 21
8.3336695021
  0
LINE
  5
31D
100
AcDbEntity
  8
0
100
AcDbLine
 62
7
  6
CONTINUOUS
 10
11.9777854844
 20
8.3336695021
 11
11.9777854844
 21
8.2586695021
  0
LINE
  5
31E
100
AcDbEntity
  8
0
100
AcDbLine
 62
7
  6
CONTINUOUS
 10
11.9941246555
 20
8.2586695021
 11
11.9941246555
 21
8.3336695021
  0
LINE
  5
31F
100
AcDbEntity
  8
0
100
AcDbLine
 62
7
  6
CONTINUOUS
 10
12.00134875
 20
8.3336695021
 11
12.00134875
 21
8.2586695021
  0
LINE
  5
320
100
AcDbEntity
  8
0
100
AcDbLine
 62
7
  6
CONTINUOUS
 10
12.0167998923
 20
8.2586695021
 11
12.0167998923
 21
8.3336695021
  0
LINE
  5
321
100
AcDbEntity
  8
0
100
AcDbLine
 62
7
  6
CONTINUOUS
 10
12.0236161141
 20
8.3336695021
 11
12.0236161141
 21
8.2586695021
  0
LINE
  5
322
100
AcDbEntity
  8
0
100
AcDbLine
 62
7
  6
CONTINUOUS
 10
12.0381604027
 20
8.2586695021
 11
12.0381604027
 21
8.3336695021
  0
LINE
  5
323
100
AcDbEntity
  8
0
100
AcDbLine
 62
7
  6
CONTINUOUS
 10
12.0445604474
 20
8.3336695021
 11
12.0445604474
 21
8.2586695021
  0
LINE
  5
324
100
AcDbEntity
  8
0
100
AcDbLine
 62
7
  6
CONTINUOUS
 10
12.0581801624
 20
8.2586695021
 11
12.0581801624
 21
8.3336695021
  0
LINE
  5
325
100
AcDbEntity
  8
0
100
AcDbLine
 62
7
  6
CONTINUOUS
 10
12.0641562323
 20
8.3336695021
 11
12.0641562323
 21
8.2586695021
  0
LINE
  5
326
100
AcDbEntity
  8
0
100
AcDbLine
 62
7
  6
CONTINUOUS
 10
12.0768347802
 20
8.2586695021
 11
12.0768347802
 21
8.3336695021
  0
LINE
  5
327
100
AcDbEntity
  8
0
100
AcDbLine
 62
7
  6
CONTINUOUS
 10
12.0823795946
 20
8.3336695021
 11
12.0823795946
 21
8.2586695021
  0
LINE
  5
328
100
AcDbEntity
  8
0
100
AcDbLine
 62
7
  6
CONTINUOUS
 10
12.0941015284
 20
8.2586695021
 11
12.0941015284
 21
8.3336695021
  0
LINE
  5
329
100
AcDbEntity
  8
0
100
AcDbLine
 62
7
  6
CONTINUOUS
 10
12.0992083317
 20
8.3336695021
 11
12.0992083317
 21
8.2586695021
  0
LINE
  5
32A
100
AcDbEntity
  8
0
100
AcDbLine
 62
7
  6
CONTINUOUS
 10
12.1099593702
 20
8.2586695021
 11
12.1099593702
 21
8.3336695021
  0
LINE
  5
32B
100
AcDbEntity
  8
0
100
AcDbLine
 62
7
  6
CONTINUOUS
 10
12.1146219406
 20
8.3336695021
 11
12.1146219406
 21
8.2586695021
  0
LINE
  5
32C
100
AcDbEntity
  8
0
100
AcDbLine
 62
7
  6
CONTINUOUS
 10
12.1243889852
 20
8.2586695021
 11
12.1243889852
 21
8.3336695021
  0
LINE
  5
32D
100
AcDbEntity
  8
0
100
AcDbLine
 62
7
  6
CONTINUOUS
 10
12.128601642
 20
8.3336695021
 11
12.128601642
 21
8.2586695021
  0
LINE
  5
32E
100
AcDbEntity
  8
0
100
AcDbLine
 62
7
  6
CONTINUOUS
 10
12.1373727931
 20
8.2586695021
 11
12.1373727931
 21
8.3336695021
  0
LINE
  5
32F
100
AcDbEntity
  8
0
100
AcDbLine
 62
7
  6
CONTINUOUS
 10
12.1376923431
 20
8.0586695021
 11
12.1376923431
 21
8.2586695021
  0
LINE
  5
330
100
AcDbEntity
  8
0
100
AcDbLine
 62
7
  6
CONTINUOUS
 10
12.1411304038
 20
8.3336695021
 11
12.1411304038
 21
8.2586695021
  0
LINE
  5
331
100
AcDbEntity
  8
0
100
AcDbLine
 62
7
  6
CONTINUOUS
 10
12.1488949752
 20
8.2586695021
 11
12.1488949752
 21
8.3336695021
  0
LINE
  5
332
100
AcDbEntity
  8
0
100
AcDbLine
 62
7
  6
CONTINUOUS
 10
12.1521929618
 20
8.3336695021
 11
12.1521929618
 21
8.2586695021
  0
LINE
  5
333
100
AcDbEntity
  8
0
100
AcDbLine
 62
7
  6
CONTINUOUS
 10
11.8516552173
 20
10.5160593884
 11
11.347878185
 21
10.4901442041
  0
LINE
  5
334
100
AcDbEntity
  8
0
100
AcDbLine
 62
7
  6
CONTINUOUS
 10
12.1818056262
 20
10.5309093871
 11
11.8516552173
 21
10.5160593884
  0
LINE
  5
335
100
AcDbEntity
  8
0
100
AcDbLine
 62
7
  6
CONTINUOUS
 10
12.1818818019
 20
10.5309151217
 11
12.1818053701
 21
10.5309121406
  0
LINE
  5
336
100
AcDbEntity
  8
0
100
AcDbLine
 62
9
  6
CONTINUOUS
 10
11.2092203612
 20
10.4772734301
 11
11.1692203612
 21
10.4772734301
  0
LINE
  5
337
100
AcDbEntity
  8
0
100
AcDbLine
 62
9
  6
CONTINUOUS
 10
9.5404770609
 20
10.4772734301
 11
9.5175312446
 21
10.4772734301
  0
LINE
  5
338
100
AcDbEntity
  8
0
100
AcDbLine
 62
9
  6
CONTINUOUS
 10
10.666164325
 20
10.4772734301
 11
10.706164325
 21
10.4772734301
  0
LINE
  5
339
100
AcDbEntity
  8
0
100
AcDbLine
 62
9
  6
CONTINUOUS
 10
12.3349076259
 20
10.4772734301
 11
12.3578534417
 21
10.4772734301
  0
LINE
  5
33A
100
AcDbEntity
  8
0
100
AcDbLine
 62
7
  6
CONTINUOUS
 10
9.6935793154
 20
10.530912145
 11
9.6935029335
 21
10.5309151241
  0
LWPOLYLINE
  5
33B
100
AcDbEntity
  8
0
100
AcDbPolyline
 62
7
  6
CONTINUOUS
 90
3
 70
0
 10
10.5275080693
 20
10.4901441236
 10
10.0237294029
 20
10.5160593917
 10
9.6935790593
 20
10.5309093871
  0
LINE
  5
33C
100
AcDbEntity
  8
0
100
AcDbLine
 62
7
  6
CONTINUOUS
 10
11.3524683801
 20
10.4862008511
 11
11.3459575838
 21
10.4917941576
  0
LINE
  5
33D
100
AcDbEntity
  8
0
100
AcDbLine
 62
7
  6
CONTINUOUS
 10
12.1589414934
 20
8.2586695021
 11
12.1589414934
 21
8.3336695021
  0
LINE
  5
33E
100
AcDbEntity
  8
0
100
AcDbLine
 62
7
  6
CONTINUOUS
 10
12.1617758379
 20
8.3336695021
 11
12.1617758379
 21
8.2586695021
  0
LINE
  5
33F
100
AcDbEntity
  8
0
100
AcDbLine
 62
7
  6
CONTINUOUS
 10
12.1675001077
 20
8.2586695021
 11
12.1675001077
 21
8.3336695021
  0
LINE
  5
340
100
AcDbEntity
  8
0
100
AcDbLine
 62
7
  6
CONTINUOUS
 10
12.1698673567
 20
8.3336695021
 11
12.1698673567
 21
8.2586695021
  0
LINE
  5
341
100
AcDbEntity
  8
0
100
AcDbLine
 62
7
  6
CONTINUOUS
 10
12.1745603907
 20
8.2586695021
 11
12.1745603907
 21
8.3336695021
  0
LINE
  5
342
100
AcDbEntity
  8
0
100
AcDbLine
 62
7
  6
CONTINUOUS
 10
12.1764576601
 20
8.3336695021
 11
12.1764576601
 21
8.2586695021
  0
LINE
  5
343
100
AcDbEntity
  8
0
100
AcDbLine
 62
7
  6
CONTINUOUS
 10
12.1801137404
 20
8.2586695021
 11
12.1801137404
 21
8.3336695021
  0
LINE
  5
344
100
AcDbEntity
  8
0
100
AcDbLine
 62
7
  6
CONTINUOUS
 10
12.1815387188
 20
8.3336695021
 11
12.1815387188
 21
8.2586695021
  0
LINE
  5
345
100
AcDbEntity
  8
0
100
AcDbLine
 62
7
  6
CONTINUOUS
 10
12.1841533911
 20
8.2586695021
 11
12.1841533911
 21
8.3336695021
  0
LINE
  5
346
100
AcDbEntity
  8
0
100
AcDbLine
 62
7
  6
CONTINUOUS
 10
12.1851043423
 20
8.3336695021
 11
12.1851043423
 21
8.2586695021
  0
LINE
  5
347
100
AcDbEntity
  8
0
100
AcDbLine
 62
7
  6
CONTINUOUS
 10
12.186674421
 20
8.2586695021
 11
12.186674421
 21
8.3336695021
  0
LINE
  5
348
100
AcDbEntity
  8
0
100
AcDbLine
 62
7
  6
CONTINUOUS
 10
12.1871501864
 20
8.3336695021
 11
12.1871501864
 21
8.2586695021
  0
LINE
  5
349
100
AcDbEntity
  8
0
100
AcDbLine
 62
7
  6
CONTINUOUS
 10
12.1876737586
 20
8.2586695021
 11
12.1876737586
 21
8.3336695021
  0
LINE
  5
34A
100
AcDbEntity
  8
0
100
AcDbLine
 62
7
  6
CONTINUOUS
 10
12.1876923431
 20
7.8586695021
 11
12.1876923431
 21
8.0086695021
  0
LINE
  5
34B
100
AcDbEntity
  8
0
100
AcDbLine
 62
7
  6
CONTINUOUS
 10
11.3376923431
 20
10.5516695021
 11
10.5376923431
 21
10.5516695021
  0
LWPOLYLINE
  5
34C
100
AcDbEntity
  8
0
100
AcDbPolyline
 62
7
  6
CONTINUOUS
 90
3
 70
0
 10
11.3539739723
 20
10.4852570588
 10
11.3547677999
 20
10.4850204337
 10
11.3524683801
 20
10.4862008511
  0
LINE
  5
34D
100
AcDbEntity
  8
0
100
AcDbLine
 62
9
  6
CONTINUOUS
 10
12.3349076757
 20
10.4772529923
 11
12.3349075762
 21
10.186773339
  0
LINE
  5
34E
100
AcDbEntity
  8
0
100
AcDbLine
 62
7
  6
CONTINUOUS
 10
12.3578534417
 20
10.4772734301
 11
12.3578534417
 21
10.1867530949
  0
LINE
  5
34F
100
AcDbEntity
  8
0
100
AcDbLine
 62
9
  6
CONTINUOUS
 10
9.5565345026
 20
10.5169462642
 11
9.5480718186
 21
10.5161390197
  0
LINE
  5
350
100
AcDbEntity
  8
0
100
AcDbLine
 62
7
  6
CONTINUOUS
 10
11.2501923431
 20
10.6266695021
 11
10.6251923431
 21
10.6266695021
  0
LINE
  5
351
100
AcDbEntity
  8
0
100
AcDbLine
 62
9
  6
CONTINUOUS
 10
10.6752685039
 20
10.6466695021
 11
11.2001923431
 21
10.6466695021
  0
LINE
  5
352
100
AcDbEntity
  8
0
100
AcDbLine
 62
7
  6
CONTINUOUS
 10
11.2001923431
 20
10.6766695021
 11
10.6751923431
 21
10.6766695021
  0
LINE
  5
353
100
AcDbEntity
  8
0
100
AcDbLine
 62
9
  6
CONTINUOUS
 10
12.3188502049
 20
10.5169461527
 11
12.3273129734
 21
10.5161388037
  0
ARC
  5
354
100
AcDbEntity
  8
0
100
AcDbCircle
 62
9
  6
CONTINUOUS
 10
1.2669276678
 20
-225.2591985108
 40
235.9218263185
100
AcDbArc
 50
87.7573206514
 51
87.9863782149
  0
ARC
  5
355
100
AcDbEntity
  8
0
100
AcDbCircle
 62
9
  6
CONTINUOUS
 10
3.0932781381
 20
-174.3116186236
 40
184.9013073995
100
AcDbArc
 50
87.7098288368
 51
88.0017870964
  0
ARC
  5
356
100
AcDbEntity
  8
0
100
AcDbCircle
 62
9
  6
CONTINUOUS
 10
9.6263117799
 20
239.6752803537
 40
229.5282434093
100
AcDbArc
 50
269.9823059806
 51
270.2175807368
  0
ARC
  5
357
100
AcDbEntity
  8
0
100
AcDbCircle
 62
9
  6
CONTINUOUS
 10
9.6466743624
 20
193.6800087716
 40
183.4932662896
100
AcDbArc
 50
269.9668399019
 51
270.2608330781
  0
ARC
  5
358
100
AcDbEntity
  8
0
100
AcDbCircle
 62
9
  6
CONTINUOUS
 10
10.4937133263
 20
11.6719370865
 40
1.5232510427
100
AcDbArc
 50
270.1591139096
 51
270.4444201847
  0
ARC
  5
359
100
AcDbEntity
  8
0
100
AcDbCircle
 62
9
  6
CONTINUOUS
 10
10.4517500472
 20
9.2424811745
 40
1.2403433782
100
AcDbArc
 50
87.5670692853
 51
87.8141931532
  0
ARC
  5
35A
100
AcDbEntity
  8
0
100
AcDbCircle
 62
9
  6
CONTINUOUS
 10
10.4787675178
 20
10.967174124
 40
0.7785904157
100
AcDbArc
 50
270.2382787324
 51
270.6365751682
  0
ARC
  5
35B
100
AcDbEntity
  8
0
100
AcDbCircle
 62
9
  6
CONTINUOUS
 10
10.4475826328
 20
9.8025496345
 40
0.64043114
100
AcDbArc
 50
86.5770910145
 51
86.9188973038
  0
ARC
  5
35C
100
AcDbEntity
  8
0
100
AcDbCircle
 62
7
  6
CONTINUOUS
 10
9.6779812658
 20
10.6820266306
 40
0.5497100016
100
AcDbArc
 50
256.3309404912
 51
257.1079058424
  0
ARC
  5
35D
100
AcDbEntity
  8
0
100
AcDbCircle
 62
7
  6
CONTINUOUS
 10
9.677784063
 20
9.9831810702
 40
0.5485156719
100
AcDbArc
 50
102.7851032357
 51
103.6788000466
  0
ARC
  5
35E
100
AcDbEntity
  8
0
100
AcDbCircle
 62
7
  6
CONTINUOUS
 10
9.6736970892
 20
10.6601579689
 40
0.5274319794
100
AcDbArc
 50
257.0315321761
 51
270.0458745221
  0
ARC
  5
35F
100
AcDbEntity
  8
0
100
AcDbCircle
 62
9
  6
CONTINUOUS
 10
10.3492596113
 20
10.3901407784
 40
0.4515798201
100
AcDbArc
 50
323.0214394996
 51
327.1032483177
  0
ARC
  5
360
100
AcDbEntity
  8
0
100
AcDbCircle
 62
7
  6
CONTINUOUS
 10
10.5392517955
 20
10.2799190088
 40
0.1360235093
100
AcDbArc
 50
261.4683688062
 51
263.2003475387
  0
ARC
  5
361
100
AcDbEntity
  8
0
100
AcDbCircle
 62
7
  6
CONTINUOUS
 10
10.5390026711
 20
10.3632055543
 40
0.1241680478
100
AcDbArc
 50
97.4873739337
 51
98.8255337372
  0
ARC
  5
362
100
AcDbEntity
  8
0
100
AcDbCircle
 62
7
  6
CONTINUOUS
 10
10.5363515154
 20
10.2598529951
 40
0.1157493227
100
AcDbArc
 50
261.1582588499
 51
261.4145548104
  0
ARC
  5
363
100
AcDbEntity
  8
0
100
AcDbCircle
 62
9
  6
CONTINUOUS
 10
10.4350005075
 20
10.1133272101
 40
0.1038921525
100
AcDbArc
 50
16.8811512876
 51
19.1520795238
  0
ARC
  5
364
100
AcDbEntity
  8
0
100
AcDbCircle
 62
7
  6
CONTINUOUS
 10
9.9876923431
 20
9.5836695021
 40
0.1
100
AcDbArc
 50
270.0
 51
360.0
  0
ARC
  5
365
100
AcDbEntity
  8
0
100
AcDbCircle
 62
7
  6
CONTINUOUS
 10
9.9126923431
 20
8.5336695021
 40
0.1
100
AcDbArc
 50
270.0
 51
360.0
  0
ARC
  5
366
100
AcDbEntity
  8
0
100
AcDbCircle
 62
7
  6
CONTINUOUS
 10
9.7626923431
 20
8.4336695021
 40
0.1
100
AcDbArc
 50
274.1983587504
 51
360.0
  0
ARC
  5
367
100
AcDbEntity
  8
0
100
AcDbCircle
 62
9
  6
CONTINUOUS
 10
10.4405818974
 20
10.5149682876
 40
0.0982437859
100
AcDbArc
 50
339.524578022
 51
342.5379866962
  0
ARC
  5
368
100
AcDbEntity
  8
0
100
AcDbCircle
 62
7
  6
CONTINUOUS
 10
10.5501923431
 20
10.6266695021
 40
0.075
100
AcDbArc
 50
270.0
 51
360.0
  0
ARC
  5
369
100
AcDbEntity
  8
0
100
AcDbCircle
 62
9
  6
CONTINUOUS
 10
10.4911614921
 20
10.5228582111
 40
0.0494780848
100
AcDbArc
 50
332.3289209429
 51
337.06754084
  0
ARC
  5
36A
100
AcDbEntity
  8
0
100
AcDbCircle
 62
7
  6
CONTINUOUS
 10
9.5575327014
 20
10.1867550821
 40
0.0400017781
100
AcDbArc
 50
180.0028629407
 51
256.3049045058
  0
ARC
  5
36B
100
AcDbEntity
  8
0
100
AcDbCircle
 62
7
  6
CONTINUOUS
 10
10.706164325
 20
10.4772734301
 40
0.04
100
AcDbArc
 50
96.9485270539
 51
180.0
  0
ARC
  5
36C
100
AcDbEntity
  8
0
100
AcDbCircle
 62
7
  6
CONTINUOUS
 10
10.706164325
 20
10.1867530949
 40
0.04
100
AcDbArc
 50
180.0
 51
263.0557832852
  0
ARC
  5
36D
100
AcDbEntity
  8
0
100
AcDbCircle
 62
7
  6
CONTINUOUS
 10
9.5575301817
 20
10.4772734407
 40
0.0399988349
100
AcDbArc
 50
103.6960842132
 51
179.9999078634
  0
ARC
  5
36E
100
AcDbEntity
  8
0
100
AcDbCircle
 62
9
  6
CONTINUOUS
 10
10.4978841054
 20
10.5143241803
 40
0.0398090256
100
AcDbArc
 50
338.7264150083
 51
359.5515374999
  0
ARC
  5
36F
100
AcDbEntity
  8
0
100
AcDbCircle
 62
9
  6
CONTINUOUS
 10
10.5033064501
 20
10.5149327563
 40
0.0349684569
100
AcDbArc
 50
319.2431799247
 51
322.5273869732
  0
ARC
  5
370
100
AcDbEntity
  8
0
100
AcDbCircle
 62
7
  6
CONTINUOUS
 10
10.5039734362
 20
10.1165663951
 40
0.0333492723
100
AcDbArc
 50
42.0315059987
 51
42.8896918749
  0
ARC
  5
371
100
AcDbEntity
  8
0
100
AcDbCircle
 62
9
  6
CONTINUOUS
 10
10.5045704083
 20
10.5138607261
 40
0.0333111524
100
AcDbArc
 50
316.9363686743
 51
319.2206034947
  0
ARC
  5
372
100
AcDbEntity
  8
0
100
AcDbCircle
 62
9
  6
CONTINUOUS
 10
10.5057550103
 20
10.5127352455
 40
0.0316772003
100
AcDbArc
 50
305.2180591935
 51
316.9606295583
  0
ARC
  5
373
100
AcDbEntity
  8
0
100
AcDbCircle
 62
7
  6
CONTINUOUS
 10
10.6551923431
 20
10.6466695021
 40
0.02
100
AcDbArc
 50
270.0
 51
360.0
  0
ARC
  5
374
100
AcDbEntity
  8
0
100
AcDbCircle
 62
7
  6
CONTINUOUS
 10
10.6051923431
 20
10.0566695021
 40
0.02
100
AcDbArc
 50
0.0
 51
90.0
  0
ARC
  5
375
100
AcDbEntity
  8
0
100
AcDbCircle
 62
9
  6
CONTINUOUS
 10
20.6084180701
 20
-225.2581546094
 40
235.9207816939
100
AcDbArc
 50
92.0136212375
 51
92.2426797433
  0
ARC
  5
376
100
AcDbEntity
  8
0
100
AcDbCircle
 62
9
  6
CONTINUOUS
 10
18.778647123
 20
-174.2186114144
 40
184.8082362503
100
AcDbArc
 50
91.9981464601
 51
92.2902517527
  0
ARC
  5
377
100
AcDbEntity
  8
0
100
AcDbCircle
 62
7
  6
CONTINUOUS
 10
10.9376924509
 20
12.0905295734
 40
1.9578019291
100
AcDbArc
 50
263.0658026966
 51
276.9341920116
  0
ARC
  5
378
100
AcDbEntity
  8
0
100
AcDbCircle
 62
7
  6
CONTINUOUS
 10
10.9376922368
 20
8.5745729715
 40
1.9567354488
100
AcDbArc
 50
83.0621315236
 51
96.9380733368
  0
ARC
  5
379
100
AcDbEntity
  8
0
100
AcDbCircle
 62
9
  6
CONTINUOUS
 10
10.9376924526
 20
12.090780174
 40
1.9180506052
100
AcDbArc
 50
263.0669190972
 51
276.9330755007
  0
ARC
  5
37A
100
AcDbEntity
  8
0
100
AcDbCircle
 62
9
  6
CONTINUOUS
 10
10.9376922335
 20
8.5745748702
 40
1.9167317591
100
AcDbArc
 50
83.0621245084
 51
96.9378685064
  0
ARC
  5
37B
100
AcDbEntity
  8
0
100
AcDbCircle
 62
9
  6
CONTINUOUS
 10
11.3815784351
 20
11.6543673767
 40
1.5056811432
100
AcDbArc
 50
269.5539300654
 51
269.8425600548
  0
ARC
  5
37C
100
AcDbEntity
  8
0
100
AcDbCircle
 62
9
  6
CONTINUOUS
 10
11.4236186942
 20
9.2431092986
 40
1.2397151365
100
AcDbArc
 50
92.1860627014
 51
92.4334230721
  0
ARC
  5
37D
100
AcDbEntity
  8
0
100
AcDbCircle
 62
9
  6
CONTINUOUS
 10
11.3966908809
 20
10.9768280986
 40
0.7882446188
100
AcDbArc
 50
269.3658637501
 51
269.7592822796
  0
ARC
  5
37E
100
AcDbEntity
  8
0
100
AcDbCircle
 62
9
  6
CONTINUOUS
 10
11.4274945489
 20
9.807960907
 40
0.6350111675
100
AcDbArc
 50
93.0796410418
 51
93.4243636448
  0
ARC
  5
37F
100
AcDbEntity
  8
0
100
AcDbCircle
 62
9
  6
CONTINUOUS
 10
11.5262571763
 20
10.3902401844
 40
0.4517448564
100
AcDbArc
 50
212.8982523978
 51
216.9785470715
  0
ARC
  5
380
100
AcDbEntity
  8
0
100
AcDbCircle
 62
7
  6
CONTINUOUS
 10
11.3344319286
 20
10.348833306
 40
0.138671797
100
AcDbArc
 50
82.4887589488
 51
82.7901098243
  0
ARC
  5
381
100
AcDbEntity
  8
0
100
AcDbCircle
 62
7
  6
CONTINUOUS
 10
11.3356447913
 20
10.3579617177
 40
0.1294631682
100
AcDbArc
 50
81.4956941143
 51
82.4928230082
  0
ARC
  5
382
100
AcDbEntity
  8
0
100
AcDbCircle
 62
7
  6
CONTINUOUS
 10
11.3400929439
 20
10.2530963379
 40
0.1089099794
100
AcDbArc
 50
278.8377757756
 51
279.4128031438
  0
ARC
  5
383
100
AcDbEntity
  8
0
100
AcDbCircle
 62
9
  6
CONTINUOUS
 10
11.4403043722
 20
10.1133569353
 40
0.1038070744
100
AcDbArc
 50
160.8474585217
 51
163.1146160292
  0
ARC
  5
384
100
AcDbEntity
  8
0
100
AcDbCircle
 62
9
  6
CONTINUOUS
 10
11.4355726293
 20
10.5152312695
 40
0.099057061
100
AcDbArc
 50
197.4790118843
 51
200.288733419
  0
ARC
  5
385
100
AcDbEntity
  8
0
100
AcDbCircle
 62
7
  6
CONTINUOUS
 10
11.3251923431
 20
10.6266695021
 40
0.075
100
AcDbArc
 50
180.0
 51
270.0
  0
ARC
  5
386
100
AcDbEntity
  8
0
100
AcDbCircle
 62
9
  6
CONTINUOUS
 10
11.3889134518
 20
10.1054778748
 40
0.0541138196
100
AcDbArc
 50
153.8897378423
 51
158.2194677795
  0
ARC
  5
387
100
AcDbEntity
  8
0
100
AcDbCircle
 62
7
  6
CONTINUOUS
 10
11.1692203612
 20
10.4772734301
 40
0.04
100
AcDbArc
 50
0.0
 51
83.0621315373
  0
ARC
  5
388
100
AcDbEntity
  8
0
100
AcDbCircle
 62
7
  6
CONTINUOUS
 10
11.1692203612
 20
10.1867530949
 40
0.04
100
AcDbArc
 50
276.9442697194
 51
360.0
  0
ARC
  5
389
100
AcDbEntity
  8
0
100
AcDbCircle
 62
9
  6
CONTINUOUS
 10
11.3776157275
 20
10.1150421647
 40
0.0399243532
100
AcDbArc
 50
159.0861578983
 51
179.597486971
  0
ARC
  5
38A
100
AcDbEntity
  8
0
100
AcDbCircle
 62
9
  6
CONTINUOUS
 10
11.3717979059
 20
10.5147054451
 40
0.0346069353
100
AcDbArc
 50
217.5330868451
 51
220.7659258995
  0
ARC
  5
38B
100
AcDbEntity
  8
0
100
AcDbCircle
 62
7
  6
CONTINUOUS
 10
11.3714052394
 20
10.1165706389
 40
0.0333419976
100
AcDbArc
 50
137.088424716
 51
137.9417620307
  0
ARC
  5
38C
100
AcDbEntity
  8
0
100
AcDbCircle
 62
9
  6
CONTINUOUS
 10
11.3707032537
 20
10.5137608035
 40
0.0331610408
100
AcDbArc
 50
220.7647499082
 51
223.0641445323
  0
ARC
  5
38D
100
AcDbEntity
  8
0
100
AcDbCircle
 62
9
  6
CONTINUOUS
 10
11.3695105122
 20
10.5125957482
 40
0.0314941384
100
AcDbArc
 50
222.9972804828
 51
234.7922144914
  0
ARC
  5
38E
100
AcDbEntity
  8
0
100
AcDbCircle
 62
7
  6
CONTINUOUS
 10
11.2201923431
 20
10.6466695021
 40
0.02
100
AcDbArc
 50
180.0
 51
270.0
  0
ARC
  5
38F
100
AcDbEntity
  8
0
100
AcDbCircle
 62
7
  6
CONTINUOUS
 10
11.2701923431
 20
10.0566695021
 40
0.02
100
AcDbArc
 50
90.0
 51
180.0
  0
ARC
  5
390
100
AcDbEntity
  8
0
100
AcDbCircle
 62
7
  6
CONTINUOUS
 10
12.1974475127
 20
9.9825297379
 40
0.549184755
100
AcDbArc
 50
76.3217483938
 51
77.2143531829
  0
ARC
  5
391
100
AcDbEntity
  8
0
100
AcDbCircle
 62
7
  6
CONTINUOUS
 10
12.197537714
 20
10.6814574937
 40
0.5491252318
100
AcDbArc
 50
282.8916832328
 51
283.6694777577
  0
ARC
  5
392
100
AcDbEntity
  8
0
100
AcDbCircle
 62
7
  6
CONTINUOUS
 10
12.2016874627
 20
10.6601582351
 40
0.5274322491
100
AcDbArc
 50
269.9541215429
 51
282.9684741144
  0
ARC
  5
393
100
AcDbEntity
  8
0
100
AcDbCircle
 62
7
  6
CONTINUOUS
 10
11.8876923431
 20
9.5836695021
 40
0.1
100
AcDbArc
 50
180.0
 51
270.0
  0
ARC
  5
394
100
AcDbEntity
  8
0
100
AcDbCircle
 62
7
  6
CONTINUOUS
 10
11.9626923431
 20
8.5336695021
 40
0.1
100
AcDbArc
 50
180.0
 51
270.0
  0
ARC
  5
395
100
AcDbEntity
  8
0
100
AcDbCircle
 62
7
  6
CONTINUOUS
 10
12.1126923431
 20
8.4336695021
 40
0.1
100
AcDbArc
 50
180.0
 51
265.8016412496
  0
ARC
  5
396
100
AcDbEntity
  8
0
100
AcDbCircle
 62
7
  6
CONTINUOUS
 10
12.3178543909
 20
10.4772733262
 40
0.0399989829
100
AcDbArc
 50
0.0001489577
 51
76.3016198631
  0
ARC
  5
397
100
AcDbEntity
  8
0
100
AcDbCircle
 62
7
  6
CONTINUOUS
 10
12.3178545036
 20
10.1867530849
 40
0.0399988359
100
AcDbArc
 50
283.6902154881
 51
0.0000142934
  0
ARC
  5
398
100
AcDbEntity
  8
0
100
AcDbCircle
 62
9
  6
CONTINUOUS
 10
12.2490749565
 20
239.6764881205
 40
229.5294511748
100
AcDbArc
 50
269.7824198603
 51
270.0176934192
  0
ARC
  5
399
100
AcDbEntity
  8
0
100
AcDbCircle
 62
9
  6
CONTINUOUS
 10
12.2288778079
 20
193.7756357856
 40
183.5888930648
100
AcDbArc
 50
269.7392505139
 51
270.0330905561
  0
SPLINE
  5
39A
100
AcDbEntity
  8
0
100
AcDbSpline
 62
7
  6
CONTINUOUS
 70
0
 71
3
 72
11
 73
7
 74
0
 42
0.0000001
 43
0.0000001
 44
0.0000000001
 40
0.0
 40
0.0
 40
0.0
 40
0.0
 40
0.2517134173
 40
0.5018150215
 40
0.7510306659
 40
1.0
 40
1.0
 40
1.0
 40
1.0
 10
12.3189844086
 20
10.5180973602
 30
0.0
 10
12.3076868957
 20
10.5206609472
 30
0.0
 10
12.2849946857
 20
10.5250567398
 30
0.0
 10
12.2506812236
 20
10.5294137874
 30
0.0
 10
12.2162810649
 20
10.5314929203
 30
0.0
 10
12.1933335482
 20
10.5313593534
 30
0.0
 10
12.1818837701
 20
10.5309141693
 30
0.0
  0
SPLINE
  5
39B
100
AcDbEntity
  8
0
100
AcDbSpline
 62
7
  6
CONTINUOUS
 70
0
 71
3
 72
11
 73
7
 74
0
 42
0.0000001
 43
0.0000001
 44
0.0000000001
 40
0.0
 40
0.0
 40
0.0
 40
0.0
 40
0.2189243282
 40
0.4553758804
 40
0.7146250979
 40
1.0
 40
1.0
 40
1.0
 40
1.0
 10
11.3521501784
 20
10.1437589724
 30
0.0
 10
11.3532727758
 20
10.1445342692
 30
0.0
 10
11.3557273695
 20
10.1459824858
 30
0.0
 10
11.3598889518
 20
10.1476207091
 30
0.0
 10
11.364668909
 20
10.1486475225
 30
0.0
 10
11.3680786811
 20
10.1487965112
 30
0.0
 10
11.3698559195
 20
10.148732058
 30
0.0
  0
SPLINE
  5
39C
100
AcDbEntity
  8
0
100
AcDbSpline
 62
7
  6
CONTINUOUS
 70
0
 71
3
 72
9
 73
5
 74
0
 42
0.0000001
 43
0.0000001
 44
0.0000000001
 40
0.0
 40
0.0
 40
0.0
 40
0.0
 40
0.2429974142
 40
1.0
 40
1.0
 40
1.0
 40
1.0
 10
11.3469853817
 20
10.1392721664
 30
0.0
 10
11.3473630956
 20
10.1396784601
 30
0.0
 10
11.3489592634
 20
10.1413108307
 30
0.0
 10
11.350728164
 20
10.1427768899
 30
0.0
 10
11.3521501784
 20
10.1437589724
 30
0.0
  0
SPLINE
  5
39D
100
AcDbEntity
  8
0
100
AcDbSpline
 62
7
  6
CONTINUOUS
 70
0
 71
3
 72
11
 73
7
 74
0
 42
0.0000001
 43
0.0000001
 44
0.0000000001
 40
0.0
 40
0.0
 40
0.0
 40
0.0
 40
0.2489693305
 40
0.4981849603
 40
0.7482865612
 40
1.0
 40
1.0
 40
1.0
 40
1.0
 10
9.6935009664
 20
10.5309141714
 30
0.0
 10
9.6820511871
 20
10.5313593542
 30
0.0
 10
9.6591036686
 20
10.5314929191
 30
0.0
 10
9.6247035072
 20
10.5294137828
 30
0.0
 10
9.5903900413
 20
10.5250567326
 30
0.0
 10
9.567697828
 20
10.5206609388
 30
0.0
 10
9.5564003128
 20
10.518097351
 30
0.0
  0
SPLINE
  5
39E
100
AcDbEntity
  8
0
100
AcDbSpline
 62
7
  6
CONTINUOUS
 70
0
 71
3
 72
11
 73
7
 74
0
 42
0.0000001
 43
0.0000001
 44
0.0000000001
 40
0.0
 40
0.0
 40
0.0
 40
0.0
 40
0.2972437645
 40
0.5627648507
 40
0.7968366569
 40
1.0
 40
1.0
 40
1.0
 40
1.0
 10
10.51856018
 20
10.1454791602
 30
0.0
 10
10.517242527
 20
10.1456841439
 30
0.0
 10
10.514754204
 20
10.1461155939
 30
0.0
 10
10.5112610157
 20
10.1468819634
 30
0.0
 10
10.5082216863
 20
10.1477262622
 30
0.0
 10
10.5063707559
 20
10.1483838073
 30
0.0
 10
10.5055284671
 20
10.1487320393
 30
0.0
  0
SPLINE
  5
39F
100
AcDbEntity
  8
0
100
AcDbSpline
 62
7
  6
CONTINUOUS
 70
0
 71
3
 72
9
 73
5
 74
0
 42
0.0000001
 43
0.0000001
 44
0.0000000001
 40
0.0
 40
0.0
 40
0.0
 40
0.0
 40
0.5081409551
 40
1.0
 40
1.0
 40
1.0
 40
1.0
 10
10.5287445009
 20
10.1388950384
 30
0.0
 10
10.5300512806
 20
10.1374453531
 30
0.0
 10
10.5323734508
 20
10.1343607907
 30
0.0
 10
10.5342317739
 20
10.1309892797
 30
0.0
 10
10.5350631504
 20
10.1292928507
 30
0.0
  0
SPLINE
  5
3A0
100
AcDbEntity
  8
0
100
AcDbSpline
 62
7
  6
CONTINUOUS
 70
0
 71
3
 72
9
 73
5
 74
0
 42
0.0000001
 43
0.0000001
 44
0.0000000001
 40
0.0
 40
0.0
 40
0.0
 40
0.0
 40
0.2581530235
 40
1.0
 40
1.0
 40
1.0
 40
1.0
 10
10.5232378513
 20
10.1437567811
 30
0.0
 10
10.5237233268
 20
10.1434213969
 30
0.0
 10
10.5255637098
 20
10.142064659
 30
0.0
 10
10.5272532467
 20
10.1405058628
 30
0.0
 10
10.5284072926
 20
10.1392635451
 30
0.0
  0
SPLINE
  5
3A1
100
AcDbEntity
  8
0
100
AcDbSpline
 62
7
  6
CONTINUOUS
 70
0
 71
3
 72
11
 73
7
 74
0
 42
0.0000001
 43
0.0000001
 44
0.0000000001
 40
0.0
 40
0.0
 40
0.0
 40
0.0
 40
0.3020336732
 40
0.5689639865
 40
0.8012969528
 40
1.0
 40
1.0
 40
1.0
 40
1.0
 10
11.3547902884
 20
10.4860014063
 30
0.0
 10
11.3564635179
 20
10.4857507498
 30
0.0
 10
11.3596064132
 20
10.4852130662
 30
0.0
 10
11.3639861821
 20
10.4842176111
 30
0.0
 10
11.3677336454
 20
10.48309136
 30
0.0
 10
11.3699795595
 20
10.4821894962
 30
0.0
 10
11.3709822631
 20
10.4817062591
 30
0.0
  0
SPLINE
  5
3A2
100
AcDbEntity
  8
0
100
AcDbSpline
 62
7
  6
CONTINUOUS
 70
0
 71
3
 72
11
 73
7
 74
0
 42
0.0000001
 43
0.0000001
 44
0.0000000001
 40
0.0
 40
0.0
 40
0.0
 40
0.0
 40
0.205572239
 40
0.440462965
 40
0.705181224
 40
1.0
 40
1.0
 40
1.0
 40
1.0
 10
11.3698562221
 20
10.1487321127
 30
0.0
 10
11.3690732098
 20
10.1484083971
 30
0.0
 10
11.3673625123
 20
10.1477940731
 30
0.0
 10
11.3645659252
 20
10.1469970309
 30
0.0
 10
11.3613725642
 20
10.1462676687
 30
0.0
 10
11.3591035431
 20
10.1458515298
 30
0.0
 10
11.3579047806
 20
10.1456527616
 30
0.0
  0
SPLINE
  5
3A3
100
AcDbEntity
  8
0
100
AcDbSpline
 62
7
  6
CONTINUOUS
 70
0
 71
3
 72
9
 73
5
 74
0
 42
0.0000001
 43
0.0000001
 44
0.0000000001
 40
0.0
 40
0.0
 40
0.0
 40
0.0
 40
0.4918542635
 40
1.0
 40
1.0
 40
1.0
 40
1.0
 10
11.3403213125
 20
10.1292929985
 30
0.0
 10
11.3411537355
 20
10.1309915692
 30
0.0
 10
11.3430146963
 20
10.1343672512
 30
0.0
 10
11.3453408659
 20
10.1374550319
 30
0.0
 10
11.3466499963
 20
10.1389059638
 30
0.0
  0
SPLINE
  5
3A4
100
AcDbEntity
  8
0
100
AcDbSpline
 62
7
  6
CONTINUOUS
 70
0
 71
3
 72
11
 73
7
 74
0
 42
0.0000001
 43
0.0000001
 44
0.0000000001
 40
0.0
 40
0.0
 40
0.0
 40
0.0
 40
0.2853738339
 40
0.5446225429
 40
0.781073482
 40
1.0
 40
1.0
 40
1.0
 40
1.0
 10
10.5055287445
 20
10.1487319941
 30
0.0
 10
10.5073063589
 20
10.1487964347
 30
0.0
 10
10.5107168521
 20
10.148647358
 30
0.0
 10
10.5154977991
 20
10.1476201759
 30
0.0
 10
10.5196601632
 20
10.1459812628
 30
0.0
 10
10.5221151115
 20
10.1445324112
 30
0.0
 10
10.5232378513
 20
10.1437567811
 30
0.0
  0
SPLINE
  5
3A5
100
AcDbEntity
  8
0
100
AcDbSpline
 62
7
  6
CONTINUOUS
 70
0
 71
3
 72
11
 73
7
 74
0
 42
0.0000001
 43
0.0000001
 44
0.0000000001
 40
0.0
 40
0.0
 40
0.0
 40
0.0
 40
0.1998969604
 40
0.4326409075
 40
0.6991738433
 40
1.0
 40
1.0
 40
1.0
 40
1.0
 10
10.5044024391
 20
10.4817063293
 30
0.0
 10
10.5053721769
 20
10.4821736861
 30
0.0
 10
10.5075372247
 20
10.483048378
 30
0.0
 10
10.5111417412
 20
10.4841470401
 30
0.0
 10
10.5153411885
 20
10.4851230144
 30
0.0
 10
10.5183512519
 20
10.4856546617
 30
0.0
 10
10.5199520365
 20
10.4859034656
 30
0.0
  0
SPLINE
  5
3A6
100
AcDbEntity
  8
0
100
AcDbSpline
 62
9
  6
CONTINUOUS
 70
0
 71
3
 72
20
 73
16
 74
0
 42
0.0000001
 43
0.0000001
 44
0.0000000001
 40
0.0
 40
0.0
 40
0.0
 40
0.0
 40
0.0335119589
 40
0.0701765226
 40
0.1108218056
 40
0.1562146111
 40
0.2069462702
 40
0.2630338775
 40
0.324247292
 40
0.3902815973
 40
0.4607102311
 40
0.5347165591
 40
0.6895035055
 40
0.8468915721
 40
1.0
 40
1.0
 40
1.0
 40
1.0
 10
10.4990568474
 20
10.4819220544
 30
0.0
 10
10.4985529179
 20
10.4818352095
 30
0.0
 10
10.4975144806
 20
10.4815440653
 30
0.0
 10
10.4959880243
 20
10.4807988044
 30
0.0
 10
10.4944520458
 20
10.4797156874
 30
0.0
 10
10.4929274482
 20
10.4782818358
 30
0.0
 10
10.4914383225
 20
10.4764933119
 30
0.0
 10
10.4899980644
 20
10.4743678821
 30
0.0
 10
10.4886279455
 20
10.4719255227
 30
0.0
 10
10.4873513842
 20
10.4691898163
 30
0.0
 10
10.4861934439
 20
10.4661919452
 30
0.0
 10
10.4847960253
 20
10.4618432509
 30
0.0
 10
10.4834265077
 20
10.4561013697
 30
0.0
 10
10.4824006834
 20
10.4490686972
 30
0.0
 10
10.4820759756
 20
10.4443368293
 30
0.0
 10
10.482003827
 20
10.442001667
 30
0.0
  0
SPLINE
  5
3A7
100
AcDbEntity
  8
0
100
AcDbSpline
 62
9
  6
CONTINUOUS
 70
0
 71
3
 72
19
 73
15
 74
0
 42
0.0000001
 43
0.0000001
 44
0.0000000001
 40
0.0
 40
0.0
 40
0.0
 40
0.0
 40
0.035626142
 40
0.0742197668
 40
0.1165074724
 40
0.1631900859
 40
0.2148276769
 40
0.2714442445
 40
0.398598053
 40
0.4685566266
 40
0.5418381245
 40
0.694598739
 40
0.8495006256
 40
1.0
 40
1.0
 40
1.0
 40
1.0
 10
10.5044024897
 20
10.4817065035
 30
0.0
 10
10.5038554686
 20
10.4816222312
 30
0.0
 10
10.5027305917
 20
10.4813382478
 30
0.0
 10
10.5010688789
 20
10.4806022315
 30
0.0
 10
10.4993951581
 20
10.4795277259
 30
0.0
 10
10.4977326166
 20
10.4781012823
 30
0.0
 10
10.4961077619
 20
10.4763184483
 30
0.0
 10
10.4939283337
 20
10.4733756898
 30
0.0
 10
10.4920199862
 20
10.4699035497
 30
0.0
 10
10.4903868641
 20
10.4660317139
 30
0.0
 10
10.4888646877
 20
10.461689535
 30
0.0
 10
10.4873711134
 20
10.4559508037
 30
0.0
 10
10.4862520497
 20
10.4489125512
 30
0.0
 10
10.4858982127
 20
10.4441750585
 30
0.0
 10
10.4858198652
 20
10.4418382698
 30
0.0
  0
SPLINE
  5
3A8
100
AcDbEntity
  8
0
100
AcDbSpline
 62
9
  6
CONTINUOUS
 70
0
 71
3
 72
19
 73
15
 74
0
 42
0.0000001
 43
0.0000001
 44
0.0000000001
 40
0.0
 40
0.0
 40
0.0
 40
0.0
 40
0.15037784
 40
0.3048867981
 40
0.4570586752
 40
0.5300192546
 40
0.599669374
 40
0.6652737359
 40
0.7264694491
 40
0.7830080336
 40
0.8347153565
 40
0.9241872475
 40
0.963471213
 40
1.0
 40
1.0
 40
1.0
 40
1.0
 10
10.4874177047
 20
10.1886317618
 30
0.0
 10
10.4874320064
 20
10.1862938896
 30
0.0
 10
10.4876624983
 20
10.1815528623
 30
0.0
 10
10.4886203282
 20
10.1745022868
 30
0.0
 10
10.4900044129
 20
10.1687511927
 30
0.0
 10
10.4914580432
 20
10.1644023436
 30
0.0
 10
10.4926813929
 20
10.1614023534
 30
0.0
 10
10.4940465488
 20
10.1586665938
 30
0.0
 10
10.4955257127
 20
10.1562262828
 30
0.0
 10
10.4970946682
 20
10.1541037975
 30
0.0
 10
10.4991722541
 20
10.1518348153
 30
0.0
 10
10.5014445967
 20
10.1501128467
 30
0.0
 10
10.5038141619
 20
10.1490935835
 30
0.0
 10
10.5049666179
 20
10.148814269
 30
0.0
 10
10.5055285171
 20
10.1487318541
 30
0.0
  0
SPLINE
  5
3A9
100
AcDbEntity
  8
0
100
AcDbSpline
 62
9
  6
CONTINUOUS
 70
0
 71
3
 72
9
 73
5
 74
0
 42
0.0000001
 43
0.0000001
 44
0.0000000001
 40
0.0
 40
0.0
 40
0.0
 40
0.0
 40
0.524340547
 40
1.0
 40
1.0
 40
1.0
 40
1.0
 10
10.5344154839
 20
10.1434974967
 30
0.0
 10
10.5338593125
 20
10.1410504942
 30
0.0
 10
10.5334124129
 20
10.1362165691
 30
0.0
 10
10.5343119562
 20
10.1314427681
 30
0.0
 10
10.5350628599
 20
10.1292937484
 30
0.0
  0
SPLINE
  5
3AA
100
AcDbEntity
  8
0
100
AcDbSpline
 62
9
  6
CONTINUOUS
 70
0
 71
3
 72
16
 73
12
 74
0
 42
0.0000001
 43
0.0000001
 44
0.0000000001
 40
0.0
 40
0.0
 40
0.0
 40
0.0
 40
0.0695133601
 40
0.1371203439
 40
0.2030132059
 40
0.2674937254
 40
0.3932162002
 40
0.5163650108
 40
0.7587979414
 40
0.8795215298
 40
1.0
 40
1.0
 40
1.0
 40
1.0
 10
10.4874177317
 20
10.1886318401
 30
0.0
 10
10.4889408606
 20
10.188648733
 30
0.0
 10
10.4919510043
 20
10.1884941849
 30
0.0
 10
10.4963411762
 20
10.1877124829
 30
0.0
 10
10.500499327
 20
10.1864393559
 30
0.0
 10
10.5056533971
 20
10.1841947418
 30
0.0
 10
10.5114828964
 20
10.1804753764
 30
0.0
 10
10.5194300364
 20
10.1731540855
 30
0.0
 10
10.5256265803
 20
10.1643298085
 30
0.0
 10
10.5303431941
 20
10.1548341662
 30
0.0
 10
10.5322757455
 20
10.1499055206
 30
0.0
 10
10.5331423431
 20
10.147411803
 30
0.0
  0
SPLINE
  5
3AB
100
AcDbEntity
  8
0
100
AcDbSpline
 62
9
  6
CONTINUOUS
 70
0
 71
3
 72
11
 73
7
 74
0
 42
0.0000001
 43
0.0000001
 44
0.0000000001
 40
0.0
 40
0.0
 40
0.0
 40
0.0
 40
0.2489319899
 40
0.4979756646
 40
0.7480496119
 40
1.0
 40
1.0
 40
1.0
 40
1.0
 10
9.6935029298
 20
10.5309153212
 30
0.0
 10
9.6820523913
 20
10.5313610711
 30
0.0
 10
9.6591067001
 20
10.5314492835
 30
0.0
 10
9.6247204479
 20
10.5291541469
 30
0.0
 10
9.5904422503
 20
10.524435725
 30
0.0
 10
9.567800393
 20
10.5197025295
 30
0.0
 10
9.5565345026
 20
10.5169462642
 30
0.0
  0
SPLINE
  5
3AC
100
AcDbEntity
  8
0
100
AcDbSpline
 62
9
  6
CONTINUOUS
 70
0
 71
3
 72
11
 73
7
 74
0
 42
0.0000001
 43
0.0000001
 44
0.0000000001
 40
0.0
 40
0.0
 40
0.0
 40
0.0
 40
0.2487250978
 40
0.4978616852
 40
0.7480774661
 40
1.0
 40
1.0
 40
1.0
 40
1.0
 10
12.2012650834
 20
10.1327282598
 30
0.0
 10
12.211199614
 20
10.1327125055
 30
0.0
 10
12.2310913712
 20
10.1332870219
 30
0.0
 10
12.2608681029
 20
10.1359699982
 30
0.0
 10
12.2905539112
 20
10.1404695335
 30
0.0
 10
12.3101819
 20
10.1446594983
 30
0.0
 10
12.3199565471
 20
10.1470480633
 30
0.0
  0
LINE
  5
3AD
100
AcDbEntity
  8
0
100
AcDbLine
 62
9
  6
CONTINUOUS
 10
10.7013252215
 20
10.5169791731
 11
10.7061643342
 21
10.4772734701
  0
LINE
  5
3AE
100
AcDbEntity
  8
0
100
AcDbLine
 62
9
  6
CONTINUOUS
 10
10.535062732
 20
10.1292940694
 11
10.5366743243
 21
10.1256780718
  0
SPLINE
  5
3AF
100
AcDbEntity
  8
0
100
AcDbSpline
 62
9
  6
CONTINUOUS
 70
0
 71
3
 72
9
 73
5
 74
0
 42
0.0000001
 43
0.0000001
 44
0.0000000001
 40
0.0
 40
0.0
 40
0.0
 40
0.0
 40
0.5044558298
 40
1.0
 40
1.0
 40
1.0
 40
1.0
 10
10.5366743243
 20
10.1256780718
 30
0.0
 10
10.5371495072
 20
10.1245006064
 30
0.0
 10
10.5380147381
 20
10.1221346454
 30
0.0
 10
10.5387213396
 20
10.1197169413
 30
0.0
 10
10.5390363023
 20
10.11851006
 30
0.0
  0
SPLINE
  5
3B0
100
AcDbEntity
  8
0
100
AcDbSpline
 62
9
  6
CONTINUOUS
 70
0
 71
3
 72
11
 73
7
 74
0
 42
0.0000001
 43
0.0000001
 44
0.0000000001
 40
0.0
 40
0.0
 40
0.0
 40
0.0
 40
0.2509790405
 40
0.501535435
 40
0.7509920962
 40
1.0
 40
1.0
 40
1.0
 40
1.0
 10
10.5342984988
 20
10.4854871061
 30
0.0
 10
10.534933621
 20
10.4875012257
 30
0.0
 10
10.5360801761
 20
10.4915658436
 30
0.0
 10
10.5374329567
 20
10.4977421679
 30
0.0
 10
10.53843452
 20
10.5039675742
 30
0.0
 10
10.5388808762
 20
10.5081409971
 30
0.0
 10
10.5390348341
 20
10.5102306319
 30
0.0
  0
SPLINE
  5
3B1
100
AcDbEntity
  8
0
100
AcDbSpline
 62
9
  6
CONTINUOUS
 70
0
 71
3
 72
16
 73
12
 74
0
 42
0.0000001
 43
0.0000001
 44
0.0000000001
 40
0.0
 40
0.0
 40
0.0
 40
0.0
 40
0.0702237477
 40
0.1384850024
 40
0.2696046934
 40
0.3957343271
 40
0.5188182499
 40
0.6401868821
 40
0.7606139126
 40
0.8804920397
 40
1.0
 40
1.0
 40
1.0
 40
1.0
 10
10.4858198885
 20
10.4418382062
 30
0.0
 10
10.4873419465
 20
10.4417465308
 30
0.0
 10
10.4903584756
 20
10.4417499246
 30
0.0
 10
10.4961789242
 20
10.4424797796
 30
0.0
 10
10.5029887826
 20
10.4446162266
 30
0.0
 10
10.5102001508
 20
10.4487476834
 30
0.0
 10
10.5163733865
 20
10.453966049
 30
0.0
 10
10.5216080875
 20
10.4599455666
 30
0.0
 10
10.5260156941
 20
10.4664659778
 30
0.0
 10
10.5296923045
 20
10.4733731295
 30
0.0
 10
10.5317107615
 20
10.4781711924
 30
0.0
 10
10.53261887
 20
10.4806020663
 30
0.0
  0
SPLINE
  5
3B2
100
AcDbEntity
  8
0
100
AcDbSpline
 62
9
  6
CONTINUOUS
 70
0
 71
3
 72
11
 73
7
 74
0
 42
0.0000001
 43
0.0000001
 44
0.0000000001
 40
0.0
 40
0.0
 40
0.0
 40
0.0
 40
0.2492690778
 40
0.4987916062
 40
0.7492787026
 40
1.0
 40
1.0
 40
1.0
 40
1.0
 10
10.5390348442
 20
10.1185113968
 30
0.0
 10
10.538884305
 20
10.1206212256
 30
0.0
 10
10.5384463532
 20
10.1248337556
 30
0.0
 10
10.537469399
 20
10.1311188759
 30
0.0
 10
10.5361515703
 20
10.1373547841
 30
0.0
 10
10.5350347016
 20
10.1414614976
 30
0.0
 10
10.5344161647
 20
10.1434971141
 30
0.0
  0
SPLINE
  5
3B3
100
AcDbEntity
  8
0
100
AcDbSpline
 62
9
  6
CONTINUOUS
 70
0
 71
3
 72
9
 73
5
 74
0
 42
0.0000001
 43
0.0000001
 44
0.0000000001
 40
0.0
 40
0.0
 40
0.0
 40
0.0
 40
0.4756265895
 40
1.0
 40
1.0
 40
1.0
 40
1.0
 10
10.5349808598
 20
10.4998807632
 30
0.0
 10
10.5342187347
 20
10.4977036613
 30
0.0
 10
10.5333022994
 20
10.4928677952
 30
0.0
 10
10.5337421716
 20
10.4879689032
 30
0.0
 10
10.5342981791
 20
10.4854873782
 30
0.0
  0
SPLINE
  5
3B4
100
AcDbEntity
  8
0
100
AcDbSpline
 62
9
  6
CONTINUOUS
 70
0
 71
3
 72
12
 73
8
 74
0
 42
0.0000001
 43
0.0000001
 44
0.0000000001
 40
0.0
 40
0.0
 40
0.0
 40
0.0
 40
0.1095974968
 40
0.2256947222
 40
0.4719712327
 40
0.7315950404
 40
1.0
 40
1.0
 40
1.0
 40
1.0
 10
11.1069769129
 20
10.1417106502
 30
0.0
 10
11.1091109742
 20
10.1408645593
 30
0.0
 10
11.1134989576
 20
10.1391053265
 30
0.0
 10
11.1226664882
 20
10.1354052407
 30
0.0
 10
11.1347495022
 20
10.13053235
 30
0.0
 10
11.1498203759
 20
10.124538732
 30
0.0
 10
11.1601272965
 20
10.1205262266
 30
0.0
 10
11.1653749382
 20
10.1185087279
 30
0.0
  0
SPLINE
  5
3B5
100
AcDbEntity
  8
0
100
AcDbSpline
 62
9
  6
CONTINUOUS
 70
0
 71
3
 72
9
 73
5
 74
0
 42
0.0000001
 43
0.0000001
 44
0.0000000001
 40
0.0
 40
0.0
 40
0.0
 40
0.0
 40
0.2455985233
 40
1.0
 40
1.0
 40
1.0
 40
1.0
 10
10.5349810765
 20
10.4998814491
 30
0.0
 10
10.5347015588
 20
10.4993476287
 30
0.0
 10
10.5335280303
 20
10.4971932698
 30
0.0
 10
10.5321852592
 20
10.4951273627
 30
0.0
 10
10.5310589643
 20
10.4936585716
 30
0.0
  0
SPLINE
  5
3B6
100
AcDbEntity
  8
0
100
AcDbSpline
 62
9
  6
CONTINUOUS
 70
0
 71
3
 72
11
 73
7
 74
0
 42
0.0000001
 43
0.0000001
 44
0.0000000001
 40
0.0
 40
0.0
 40
0.0
 40
0.0
 40
0.2151204333
 40
0.4494591205
 40
0.7099216979
 40
1.0
 40
1.0
 40
1.0
 40
1.0
 10
10.52402293
 20
10.4868561394
 30
0.0
 10
10.522810704
 20
10.4860023633
 30
0.0
 10
10.5201402659
 20
10.4844031163
 30
0.0
 10
10.5155537667
 20
10.4826284451
 30
0.0
 10
10.5102152608
 20
10.4815942325
 30
0.0
 10
10.5063960823
 20
10.4815547412
 30
0.0
 10
10.5044024869
 20
10.4817063649
 30
0.0
  0
LINE
  5
3B7
100
AcDbEntity
  8
0
100
AcDbLine
 62
9
  6
CONTINUOUS
 10
11.1740565153
 20
10.1470465528
 11
11.1692203519
 21
10.1867532498
  0
LINE
  5
3B8
100
AcDbEntity
  8
0
100
AcDbLine
 62
9
  6
CONTINUOUS
 10
11.1740594576
 20
10.516979291
 11
11.1692203512
 21
10.4772733313
  0
SPLINE
  5
3B9
100
AcDbEntity
  8
0
100
AcDbSpline
 62
9
  6
CONTINUOUS
 70
0
 71
3
 72
8
 73
4
 74
0
 42
0.0000001
 43
0.0000001
 44
0.0000000001
 40
0.0
 40
0.0
 40
0.0
 40
0.0
 40
1.0
 40
1.0
 40
1.0
 40
1.0
 10
11.3376929061
 20
10.5140094144
 30
0.0
 10
11.3377263302
 20
10.5092140394
 30
0.0
 10
11.3386597887
 20
10.5043476859
 30
0.0
 10
11.3404042745
 20
10.4998807508
 30
0.0
  0
LINE
  5
3BA
100
AcDbEntity
  8
0
100
AcDbLine
 62
9
  6
CONTINUOUS
 10
10.7013282507
 20
10.1470464274
 11
10.7061644854
 21
10.1867541876
  0
SPLINE
  5
3BB
100
AcDbEntity
  8
0
100
AcDbSpline
 62
9
  6
CONTINUOUS
 70
0
 71
3
 72
11
 73
7
 74
0
 42
0.0000001
 43
0.0000001
 44
0.0000000001
 40
0.0
 40
0.0
 40
0.0
 40
0.0
 40
0.2899598962
 40
0.5504292335
 40
0.7848069905
 40
1.0
 40
1.0
 40
1.0
 40
1.0
 10
11.3709819939
 20
10.4817063289
 30
0.0
 10
11.3689881302
 20
10.4815551262
 30
0.0
 10
11.3651678081
 20
10.4815951243
 30
0.0
 10
11.3598268638
 20
10.4826292786
 30
0.0
 10
11.3552374543
 20
10.4844061551
 30
0.0
 10
11.3525656561
 20
10.4860078691
 30
0.0
 10
11.3513527763
 20
10.4868629408
 30
0.0
  0
SPLINE
  5
3BC
100
AcDbEntity
  8
0
100
AcDbSpline
 62
9
  6
CONTINUOUS
 70
0
 71
3
 72
9
 73
5
 74
0
 42
0.0000001
 43
0.0000001
 44
0.0000000001
 40
0.0
 40
0.0
 40
0.0
 40
0.0
 40
0.2548466995
 40
1.0
 40
1.0
 40
1.0
 40
1.0
 10
11.3443545486
 20
10.4936222264
 30
0.0
 10
11.3439709644
 20
10.4941210761
 30
0.0
 10
11.3425171236
 20
10.4961180358
 30
0.0
 10
11.3412572471
 20
10.4982516887
 30
0.0
 10
11.3404035299
 20
10.4998815989
 30
0.0
  0
SPLINE
  5
3BD
100
AcDbEntity
  8
0
100
AcDbSpline
 62
9
  6
CONTINUOUS
 70
0
 71
3
 72
12
 73
8
 74
0
 42
0.0000001
 43
0.0000001
 44
0.0000000001
 40
0.0
 40
0.0
 40
0.0
 40
0.0
 40
0.2684240485
 40
0.5280340913
 40
0.7743072873
 40
0.8904037787
 40
1.0
 40
1.0
 40
1.0
 40
1.0
 10
10.7100102315
 20
10.1185086442
 30
0.0
 10
10.715258718
 20
10.1205255761
 30
0.0
 10
10.7255660741
 20
10.1245382951
 30
0.0
 10
10.7406370358
 20
10.1305332479
 30
0.0
 10
10.7527200902
 20
10.1354061876
 30
0.0
 10
10.7618878453
 20
10.1391062903
 30
0.0
 10
10.7662759582
 20
10.140865506
 30
0.0
 10
10.7684100784
 20
10.1417115814
 30
0.0
  0
SPLINE
  5
3BE
100
AcDbEntity
  8
0
100
AcDbSpline
 62
9
  6
CONTINUOUS
 70
0
 71
3
 72
9
 73
5
 74
0
 42
0.0000001
 43
0.0000001
 44
0.0000000001
 40
0.0
 40
0.0
 40
0.0
 40
0.0
 40
0.524373937
 40
1.0
 40
1.0
 40
1.0
 40
1.0
 10
11.3410865932
 20
10.4854873021
 30
0.0
 10
11.3416426023
 20
10.4879688613
 30
0.0
 10
11.3420824522
 20
10.4928678199
 30
0.0
 10
11.3411659407
 20
10.4977037366
 30
0.0
 10
11.3404037702
 20
10.4998808499
 30
0.0
  0
SPLINE
  5
3BF
100
AcDbEntity
  8
0
100
AcDbSpline
 62
9
  6
CONTINUOUS
 70
0
 71
3
 72
17
 73
13
 74
0
 42
0.0000001
 43
0.0000001
 44
0.0000000001
 40
0.0
 40
0.0
 40
0.0
 40
0.0
 40
0.0702199417
 40
0.13846662
 40
0.2048856637
 40
0.2697559612
 40
0.3958394084
 40
0.5188845086
 40
0.6402271616
 40
0.7606340491
 40
0.8805013449
 40
1.0
 40
1.0
 40
1.0
 40
1.0
 10
11.3895648033
 20
10.4418381779
 30
0.0
 10
11.3880354668
 20
10.4417467241
 30
0.0
 10
11.3850051395
 20
10.4417515332
 30
0.0
 10
11.3805595179
 20
10.4423128128
 30
0.0
 10
11.3763277046
 20
10.4433792474
 30
0.0
 10
11.3710665142
 20
10.4453712386
 30
0.0
 10
11.3650854162
 20
10.4488141902
 30
0.0
 10
11.358901103
 20
10.4540731654
 30
0.0
 10
11.353659943
 20
10.4600959331
 30
0.0
 10
11.3492515414
 20
10.4666598458
 30
0.0
 10
11.3455791277
 20
10.4736108842
 30
0.0
 10
11.3435660859
 20
10.4784378831
 30
0.0
 10
11.3426613519
 20
10.4808831128
 30
0.0
  0
LINE
  5
3C0
100
AcDbEntity
  8
0
100
AcDbLine
 62
9
  6
CONTINUOUS
 10
11.3404042745
 20
10.4998807508
 11
11.3387528493
 21
10.5033521828
  0
SPLINE
  5
3C1
100
AcDbEntity
  8
0
100
AcDbSpline
 62
9
  6
CONTINUOUS
 70
0
 71
3
 72
9
 73
5
 74
0
 42
0.0000001
 43
0.0000001
 44
0.0000000001
 40
0.0
 40
0.0
 40
0.0
 40
0.0
 40
0.5054761968
 40
1.0
 40
1.0
 40
1.0
 40
1.0
 10
11.3387528493
 20
10.5033521828
 30
0.0
 10
11.3382674215
 20
10.5044809538
 30
0.0
 10
11.3373848624
 20
10.5067484844
 30
0.0
 10
11.336666801
 20
10.5090729877
 30
0.0
 10
11.3363484727
 20
10.5102321746
 30
0.0
  0
SPLINE
  5
3C2
100
AcDbEntity
  8
0
100
AcDbSpline
 62
9
  6
CONTINUOUS
 70
0
 71
3
 72
15
 73
11
 74
0
 42
0.0000001
 43
0.0000001
 44
0.0000000001
 40
0.0
 40
0.0
 40
0.0
 40
0.0
 40
0.1146785118
 40
0.2380776819
 40
0.3675155308
 40
0.5000000075
 40
0.6324846498
 40
0.761922582
 40
0.8853214239
 40
1.0
 40
1.0
 40
1.0
 40
1.0
 10
10.7100094301
 20
10.1185086674
 30
0.0
 10
10.7273192459
 20
10.1162428562
 30
0.0
 10
10.7633206241
 20
10.1120241526
 30
0.0
 10
10.8190637265
 20
10.1071458745
 30
0.0
 10
10.8776492674
 20
10.1040179354
 30
0.0
 10
10.9376924767
 20
10.1028881518
 30
0.0
 10
10.9977356999
 20
10.1040178697
 30
0.0
 10
11.0563212315
 20
10.1071457756
 30
0.0
 10
11.1120643006
 20
10.1120241314
 30
0.0
 10
11.1480656295
 20
10.1162429073
 30
0.0
 10
11.1653754528
 20
10.1185087368
 30
0.0
  0
SPLINE
  5
3C3
100
AcDbEntity
  8
0
100
AcDbSpline
 62
9
  6
CONTINUOUS
 70
0
 71
3
 72
9
 73
5
 74
0
 42
0.0000001
 43
0.0000001
 44
0.0000000001
 40
0.0
 40
0.0
 40
0.0
 40
0.0
 40
0.5047272426
 40
1.0
 40
1.0
 40
1.0
 40
1.0
 10
11.338662712
 20
10.125556934
 30
0.0
 10
11.3381994817
 20
10.124397582
 30
0.0
 10
11.3373590314
 20
10.1220697826
 30
0.0
 10
11.3366464291
 20
10.1196984668
 30
0.0
 10
11.3363499771
 20
10.1185097917
 30
0.0
  0
SPLINE
  5
3C4
100
AcDbEntity
  8
0
100
AcDbSpline
 62
9
  6
CONTINUOUS
 70
0
 71
3
 72
9
 73
5
 74
0
 42
0.0000001
 43
0.0000001
 44
0.0000000001
 40
0.0
 40
0.0
 40
0.0
 40
0.0
 40
0.532632823
 40
1.0
 40
1.0
 40
1.0
 40
1.0
 10
10.539036214
 20
10.5102329632
 30
0.0
 10
10.5386241891
 20
10.5108766381
 30
0.0
 10
10.5379606814
 20
10.5121663432
 30
0.0
 10
10.5376932809
 20
10.5136058137
 30
0.0
 10
10.537692893
 20
10.5142764192
 30
0.0
  0
SPLINE
  5
3C5
100
AcDbEntity
  8
0
100
AcDbSpline
 62
9
  6
CONTINUOUS
 70
0
 71
3
 72
10
 73
6
 74
0
 42
0.0000001
 43
0.0000001
 44
0.0000000001
 40
0.0
 40
0.0
 40
0.0
 40
0.0
 40
0.2243519211
 40
0.461637285
 40
1.0
 40
1.0
 40
1.0
 40
1.0
 10
10.53769292
 20
10.1150882541
 30
0.0
 10
10.5376931189
 20
10.1153673702
 30
0.0
 10
10.5377538538
 20
10.1159430748
 30
0.0
 10
10.53811768
 20
10.1171385935
 30
0.0
 10
10.5386309516
 20
10.1179761068
 30
0.0
 10
10.5390363069
 20
10.1185092936
 30
0.0
  0
SPLINE
  5
3C6
100
AcDbEntity
  8
0
100
AcDbSpline
 62
9
  6
CONTINUOUS
 70
0
 71
3
 72
9
 73
5
 74
0
 42
0.0000001
 43
0.0000001
 44
0.0000000001
 40
0.0
 40
0.0
 40
0.0
 40
0.0
 40
0.4756593061
 40
1.0
 40
1.0
 40
1.0
 40
1.0
 10
11.3403214987
 20
10.1292935631
 30
0.0
 10
11.3410724816
 20
10.1314425978
 30
0.0
 10
11.3419721738
 20
10.1362164631
 30
0.0
 10
11.3415253627
 20
10.1410504883
 30
0.0
 10
11.3409692203
 20
10.1434975445
 30
0.0
  0
SPLINE
  5
3C7
100
AcDbEntity
  8
0
100
AcDbSpline
 62
9
  6
CONTINUOUS
 70
0
 71
3
 72
10
 73
6
 74
0
 42
0.0000001
 43
0.0000001
 44
0.0000000001
 40
0.0
 40
0.0
 40
0.0
 40
0.0
 40
0.5383386736
 40
0.7756269254
 40
1.0
 40
1.0
 40
1.0
 40
1.0
 10
11.3363494334
 20
10.118508688
 30
0.0
 10
11.3367547504
 20
10.1179755855
 30
0.0
 10
11.3372679275
 20
10.1171381208
 30
0.0
 10
11.3376314581
 20
10.115942623
 30
0.0
 10
11.3376920121
 20
10.1153669182
 30
0.0
 10
11.3376921189
 20
10.1150878009
 30
0.0
  0
SPLINE
  5
3C8
100
AcDbEntity
  8
0
100
AcDbSpline
 62
9
  6
CONTINUOUS
 70
0
 71
3
 72
9
 73
5
 74
0
 42
0.0000001
 43
0.0000001
 44
0.0000000001
 40
0.0
 40
0.0
 40
0.0
 40
0.0
 40
0.4673493259
 40
1.0
 40
1.0
 40
1.0
 40
1.0
 10
11.3376919752
 20
10.5142760498
 30
0.0
 10
11.337691624
 20
10.5136054599
 30
0.0
 10
11.3374241533
 20
10.5121659591
 30
0.0
 10
11.3367605343
 20
10.5108762925
 30
0.0
 10
11.3363484573
 20
10.5102326069
 30
0.0
  0
SPLINE
  5
3C9
100
AcDbEntity
  8
0
100
AcDbSpline
 62
9
  6
CONTINUOUS
 70
0
 71
3
 72
11
 73
7
 74
0
 42
0.0000001
 43
0.0000001
 44
0.0000000001
 40
0.0
 40
0.0
 40
0.0
 40
0.0
 40
0.2519503818
 40
0.5020243309
 40
0.7510680069
 40
1.0
 40
1.0
 40
1.0
 40
1.0
 10
12.3188502082
 20
10.5169462876
 30
0.0
 10
12.3075843197
 20
10.5197025501
 30
0.0
 10
12.2849424662
 20
10.5244357401
 30
0.0
 10
12.2506642747
 20
10.5291541548
 30
0.0
 10
12.2162780286
 20
10.5314492855
 30
0.0
 10
12.1933323418
 20
10.53136107
 30
0.0
 10
12.1818818055
 20
10.5309153188
 30
0.0
  0
SPLINE
  5
3CA
100
AcDbEntity
  8
0
100
AcDbSpline
 62
9
  6
CONTINUOUS
 70
0
 71
3
 72
13
 73
9
 74
0
 42
0.0000001
 43
0.0000001
 44
0.0000000001
 40
0.0
 40
0.0
 40
0.0
 40
0.0
 40
0.2735134875
 40
0.4075009474
 40
0.5376680006
 40
0.78227097
 40
0.8949660914
 40
1.0
 40
1.0
 40
1.0
 40
1.0
 10
12.3349075612
 20
10.4772734301
 30
0.0
 10
12.3348272643
 20
10.4801363514
 30
0.0
 10
12.334500683
 20
10.4843990457
 30
0.0
 10
12.3336914995
 20
10.4899722371
 30
0.0
 10
12.332678895
 20
10.4952035487
 30
0.0
 10
12.3313164611
 20
10.5001386993
 30
0.0
 10
12.329552035
 20
10.5046504206
 30
0.0
 10
12.3285715985
 20
10.5067116909
 30
0.0
 10
12.3280580601
 20
10.5076842824
 30
0.0
  0
SPLINE
  5
3CB
100
AcDbEntity
  8
0
100
AcDbSpline
 62
9
  6
CONTINUOUS
 70
0
 71
3
 72
9
 73
5
 74
0
 42
0.0000001
 43
0.0000001
 44
0.0000000001
 40
0.0
 40
0.0
 40
0.0
 40
0.0
 40
0.531763089
 40
1.0
 40
1.0
 40
1.0
 40
1.0
 10
12.3280580601
 20
10.5076842824
 30
0.0
 10
12.3274364671
 20
10.5088615189
 30
0.0
 10
12.3261558879
 20
10.5110195236
 30
0.0
 10
12.3245797818
 20
10.5129826962
 30
0.0
 10
12.3237559449
 20
10.5138166075
 30
0.0
  0
SPLINE
  5
3CC
100
AcDbEntity
  8
0
100
AcDbSpline
 62
9
  6
CONTINUOUS
 70
0
 71
3
 72
9
 73
5
 74
0
 42
0.0000001
 43
0.0000001
 44
0.0000000001
 40
0.0
 40
0.0
 40
0.0
 40
0.0
 40
0.2763783216
 40
1.0
 40
1.0
 40
1.0
 40
1.0
 10
12.3237559449
 20
10.5138166075
 30
0.0
 10
12.323377051
 20
10.5142001347
 30
0.0
 10
12.3219443619
 20
10.5155190563
 30
0.0
 10
12.3202058208
 20
10.5165527422
 30
0.0
 10
12.3188502049
 20
10.5169461527
 30
0.0
  0
SPLINE
  5
3CD
100
AcDbEntity
  8
0
100
AcDbSpline
 62
9
  6
CONTINUOUS
 70
0
 71
3
 72
20
 73
16
 74
0
 42
0.0000001
 43
0.0000001
 44
0.0000000001
 40
0.0
 40
0.0
 40
0.0
 40
0.0
 40
0.1531084026
 40
0.3104964549
 40
0.4652833985
 40
0.5392897288
 40
0.6097183667
 40
0.6757526774
 40
0.7369660983
 40
0.793053712
 40
0.8437853772
 40
0.8891781878
 40
0.9298234746
 40
0.9664880405
 40
1.0
 40
1.0
 40
1.0
 40
1.0
 10
11.3933808596
 20
10.4420016558
 30
0.0
 10
11.3933087114
 20
10.4443368183
 30
0.0
 10
11.3929840041
 20
10.4490686868
 30
0.0
 10
11.3919581807
 20
10.4561013605
 30
0.0
 10
11.3905886636
 20
10.4618432431
 30
0.0
 10
11.3891912454
 20
10.4661919386
 30
0.0
 10
11.3880333052
 20
10.4691898109
 30
0.0
 10
11.386756744
 20
10.4719255183
 30
0.0
 10
11.385386625
 20
10.4743678789
 30
0.0
 10
11.3839463669
 20
10.4764933097
 30
0.0
 10
11.3824572411
 20
10.4782818346
 30
0.0
 10
11.3809326433
 20
10.4797156871
 30
0.0
 10
11.3793966646
 20
10.4807988049
 30
0.0
 10
11.3778702081
 20
10.4815440664
 30
0.0
 10
11.3768317705
 20
10.481835211
 30
0.0
 10
11.3763278409
 20
10.481922056
 30
0.0
  0
SPLINE
  5
3CE
100
AcDbEntity
  8
0
100
AcDbSpline
 62
9
  6
CONTINUOUS
 70
0
 71
3
 72
20
 73
16
 74
0
 42
0.0000001
 43
0.0000001
 44
0.0000000001
 40
0.0
 40
0.0
 40
0.0
 40
0.0
 40
0.0334868969
 40
0.0699657933
 40
0.1103109307
 40
0.1553402967
 40
0.2056952422
 40
0.2614344466
 40
0.3223593302
 40
0.3881904388
 40
0.4585206914
 40
0.5325395499
 40
0.6876789001
 40
0.8458235427
 40
1.0
 40
1.0
 40
1.0
 40
1.0
 10
11.3774400912
 20
10.148691961
 30
0.0
 10
11.3779408346
 20
10.1487757053
 30
0.0
 10
11.3789708739
 20
10.1490603242
 30
0.0
 10
11.3804803035
 20
10.1497989928
 30
0.0
 10
11.3819896421
 20
10.1508773314
 30
0.0
 10
11.3834773414
 20
10.1523081748
 30
0.0
 10
11.3849190201
 20
10.1540953209
 30
0.0
 10
11.3863018867
 20
10.1562208818
 30
0.0
 10
11.3876052555
 20
10.1586649406
 30
0.0
 10
11.3888062819
 20
10.1614038878
 30
0.0
 10
11.3898806305
 20
10.1644062827
 30
0.0
 10
11.3911568655
 20
10.1687658409
 30
0.0
 10
11.3923638238
 20
10.1745231029
 30
0.0
 10
11.3931874284
 20
10.1815698008
 30
0.0
 10
11.3933748787
 20
10.1863063956
 30
0.0
 10
11.3933793125
 20
10.1886438744
 30
0.0
  0
SPLINE
  5
3CF
100
AcDbEntity
  8
0
100
AcDbSpline
 62
9
  6
CONTINUOUS
 70
0
 71
3
 72
9
 73
5
 74
0
 42
0.0000001
 43
0.0000001
 44
0.0000000001
 40
0.0
 40
0.0
 40
0.0
 40
0.0
 40
0.4686844201
 40
1.0
 40
1.0
 40
1.0
 40
1.0
 10
12.3199565413
 20
10.1470481742
 30
0.0
 10
12.3208145244
 20
10.1472939675
 30
0.0
 10
12.3225597277
 20
10.148131167
 30
0.0
 10
12.3240225372
 20
10.1493768594
 30
0.0
 10
12.3247282366
 20
10.1501018773
 30
0.0
  0
SPLINE
  5
3D0
100
AcDbEntity
  8
0
100
AcDbSpline
 62
9
  6
CONTINUOUS
 70
0
 71
3
 72
9
 73
5
 74
0
 42
0.0000001
 43
0.0000001
 44
0.0000000001
 40
0.0
 40
0.0
 40
0.0
 40
0.0
 40
0.4675040836
 40
1.0
 40
1.0
 40
1.0
 40
1.0
 10
12.3247282366
 20
10.1501018773
 30
0.0
 10
12.3255360012
 20
10.1509317543
 30
0.0
 10
12.3270725736
 20
10.1528941291
 30
0.0
 10
12.3283006937
 20
10.1550526771
 30
0.0
 10
12.3288930046
 20
10.1562313057
 30
0.0
  0
SPLINE
  5
3D1
100
AcDbEntity
  8
0
100
AcDbSpline
 62
9
  6
CONTINUOUS
 70
0
 71
3
 72
14
 73
10
 74
0
 42
0.0000001
 43
0.0000001
 44
0.0000000001
 40
0.0
 40
0.0
 40
0.0
 40
0.0
 40
0.1042931846
 40
0.2164345805
 40
0.3355198389
 40
0.4606552928
 40
0.5909062635
 40
0.7252127701
 40
1.0
 40
1.0
 40
1.0
 40
1.0
 10
12.3288930046
 20
10.1562313057
 30
0.0
 10
12.3293825685
 20
10.1572054796
 30
0.0
 10
12.330311013
 20
10.159271838
 30
0.0
 10
12.3315108172
 20
10.162570595
 30
0.0
 10
12.3325426316
 20
10.1661531396
 30
0.0
 10
12.3333878804
 20
10.1699777119
 30
0.0
 10
12.3340522898
 20
10.1739988412
 30
0.0
 10
12.3347055888
 20
10.1796003435
 30
0.0
 10
12.3349103702
 20
10.1838804686
 30
0.0
 10
12.3349075762
 20
10.1867530628
 30
0.0
  0
SPLINE
  5
3D2
100
AcDbEntity
  8
0
100
AcDbSpline
 62
9
  6
CONTINUOUS
 70
0
 71
3
 72
19
 73
15
 74
0
 42
0.0000001
 43
0.0000001
 44
0.0000000001
 40
0.0
 40
0.0
 40
0.0
 40
0.0
 40
0.1504992683
 40
0.3054011227
 40
0.4581617678
 40
0.5314432948
 40
0.6014019008
 40
0.7285557679
 40
0.7851723561
 40
0.836809958
 40
0.8834925716
 40
0.9257802683
 40
0.9643738775
 40
1.0
 40
1.0
 40
1.0
 40
1.0
 10
11.3895648323
 20
10.4418381798
 30
0.0
 10
11.3894864872
 20
10.4441749717
 30
0.0
 10
11.3891326545
 20
10.4489124721
 30
0.0
 10
11.3880135955
 20
10.4559507382
 30
0.0
 10
11.3865200233
 20
10.4616894828
 30
0.0
 10
11.3849978472
 20
10.4660316731
 30
0.0
 10
11.3833647245
 20
10.4699035199
 30
0.0
 10
11.3814563752
 20
10.4733756701
 30
0.0
 10
11.379276944
 20
10.4763184372
 30
0.0
 10
11.3776520869
 20
10.4781012762
 30
0.0
 10
11.3759895427
 20
10.4795277236
 30
0.0
 10
11.3743158191
 20
10.4806022315
 30
0.0
 10
11.3726541036
 20
10.4813382491
 30
0.0
 10
11.3715292247
 20
10.4816222325
 30
0.0
 10
11.3709822028
 20
10.4817065046
 30
0.0
  0
SPLINE
  5
3D3
100
AcDbEntity
  8
0
100
AcDbSpline
 62
9
  6
CONTINUOUS
 70
0
 71
3
 72
9
 73
5
 74
0
 42
0.0000001
 43
0.0000001
 44
0.0000000001
 40
0.0
 40
0.0
 40
0.0
 40
0.0
 40
0.4999687327
 40
1.0
 40
1.0
 40
1.0
 40
1.0
 10
11.3409726484
 20
10.1435085414
 30
0.0
 10
11.3397386971
 20
10.1394487051
 30
0.0
 10
11.3377333901
 20
10.1311807027
 30
0.0
 10
11.336662971
 20
10.1227428406
 30
0.0
 10
11.3363499245
 20
10.1185106529
 30
0.0
  0
SPLINE
  5
3D4
100
AcDbEntity
  8
0
100
AcDbSpline
 62
9
  6
CONTINUOUS
 70
0
 71
3
 72
16
 73
12
 74
0
 42
0.0000001
 43
0.0000001
 44
0.0000000001
 40
0.0
 40
0.0
 40
0.0
 40
0.0
 40
0.0695129595
 40
0.1371196569
 40
0.203012394
 40
0.2674931352
 40
0.3932161436
 40
0.5163649048
 40
0.7587962206
 40
0.8795188824
 40
1.0
 40
1.0
 40
1.0
 40
1.0
 10
11.3879669613
 20
10.1886318708
 30
0.0
 10
11.386443905
 20
10.1886488004
 30
0.0
 10
11.383433898
 20
10.1884942465
 30
0.0
 10
11.3790439316
 20
10.1877125781
 30
0.0
 10
11.3748859325
 20
10.1864395883
 30
0.0
 10
11.3697320531
 20
10.1841950806
 30
0.0
 10
11.3639027542
 20
10.1804759254
 30
0.0
 10
11.3559557363
 20
10.1731552112
 30
0.0
 10
11.3497591834
 20
10.1643315634
 30
0.0
 10
11.3450423912
 20
10.1548365
 30
0.0
 10
11.343109776
 20
10.14990807
 30
0.0
 10
11.3422431804
 20
10.1474144066
 30
0.0
  0
SPLINE
  5
3D5
100
AcDbEntity
  8
0
100
AcDbSpline
 62
9
  6
CONTINUOUS
 70
0
 71
3
 72
11
 73
7
 74
0
 42
0.0000001
 43
0.0000001
 44
0.0000000001
 40
0.0
 40
0.0
 40
0.0
 40
0.0
 40
0.2490172971
 40
0.498465766
 40
0.7490356393
 40
1.0
 40
1.0
 40
1.0
 40
1.0
 10
11.3363498791
 20
10.5102311184
 30
0.0
 10
11.3365032269
 20
10.508140538
 30
0.0
 10
11.33695072
 20
10.5039655383
 30
0.0
 10
11.3379526471
 20
10.497737605
 30
0.0
 10
11.3393061292
 20
10.4915589638
 30
0.0
 10
11.3404535962
 20
10.4874928981
 30
0.0
 10
11.3410891038
 20
10.4854781637
 30
0.0
  0
SPLINE
  5
3D6
100
AcDbEntity
  8
0
100
AcDbSpline
 62
9
  6
CONTINUOUS
 70
0
 71
3
 72
19
 73
15
 74
0
 42
0.0000001
 43
0.0000001
 44
0.0000000001
 40
0.0
 40
0.0
 40
0.0
 40
0.0
 40
0.0365287605
 40
0.075812703
 40
0.1652845713
 40
0.2169919017
 40
0.2735305059
 40
0.3347262483
 40
0.4003306458
 40
0.4699808037
 40
0.5429414196
 40
0.695113341
 40
0.849622273
 40
1.0
 40
1.0
 40
1.0
 40
1.0
 10
11.3698561677
 20
10.1487318493
 30
0.0
 10
11.3704180681
 20
10.1488142638
 30
0.0
 10
11.3715705265
 20
10.149093578
 30
0.0
 10
11.3739400971
 20
10.1501128426
 30
0.0
 10
11.3762124447
 20
10.1518348161
 30
0.0
 10
11.3782900345
 20
10.1541038055
 30
0.0
 10
11.3798589928
 20
10.1562262983
 30
0.0
 10
11.3813381591
 20
10.158666618
 30
0.0
 10
11.3827033166
 20
10.1614023874
 30
0.0
 10
11.383926667
 20
10.1644023882
 30
0.0
 10
11.3853802969
 20
10.1687512517
 30
0.0
 10
11.3867643791
 20
10.174502363
 30
0.0
 10
11.387722203
 20
10.1815529563
 30
0.0
 10
11.3879526895
 20
10.1862939939
 30
0.0
 10
11.3879669882
 20
10.1886318704
 30
0.0
  0
SPLINE
  5
3D7
100
AcDbEntity
  8
0
100
AcDbSpline
 62
9
  6
CONTINUOUS
 70
0
 71
3
 72
8
 73
4
 74
0
 42
0.0000001
 43
0.0000001
 44
0.0000000001
 40
0.0
 40
0.0
 40
0.0
 40
0.0
 40
1.0
 40
1.0
 40
1.0
 40
1.0
 10
10.5376922216
 20
10.1153196503
 30
0.0
 10
10.5376636623
 20
10.1200594494
 30
0.0
 10
10.5367592757
 20
10.1248682077
 30
0.0
 10
10.535062732
 20
10.1292940694
 30
0.0
  0
SPLINE
  5
3D8
100
AcDbEntity
  8
0
100
AcDbSpline
 62
9
  6
CONTINUOUS
 70
0
 71
3
 72
10
 73
6
 74
0
 42
0.0000001
 43
0.0000001
 44
0.0000000001
 40
0.0
 40
0.0
 40
0.0
 40
0.0
 40
0.5052908361
 40
0.7476317973
 40
1.0
 40
1.0
 40
1.0
 40
1.0
 10
10.5367290671
 20
10.5035792853
 30
0.0
 10
10.5371901613
 20
10.504672801
 30
0.0
 10
10.5378112641
 20
10.5063165095
 30
0.0
 10
10.5385751191
 20
10.5085376732
 30
0.0
 10
10.538892767
 20
10.5096563789
 30
0.0
 10
10.5390347197
 20
10.5102318555
 30
0.0
  0
SPLINE
  5
3D9
100
AcDbEntity
  8
0
100
AcDbSpline
 62
9
  6
CONTINUOUS
 70
0
 71
3
 72
9
 73
5
 74
0
 42
0.0000001
 43
0.0000001
 44
0.0000000001
 40
0.0
 40
0.0
 40
0.0
 40
0.0
 40
0.4667890198
 40
1.0
 40
1.0
 40
1.0
 40
1.0
 10
9.5565345052
 20
10.5169461564
 30
0.0
 10
9.5556398297
 20
10.5166865154
 30
0.0
 10
9.5538153819
 20
10.5157997874
 30
0.0
 10
9.5522853553
 20
10.5144918295
 30
0.0
 10
9.5515431338
 20
10.5137292538
 30
0.0
  0
SPLINE
  5
3DA
100
AcDbEntity
  8
0
100
AcDbSpline
 62
9
  6
CONTINUOUS
 70
0
 71
3
 72
9
 73
5
 74
0
 42
0.0000001
 43
0.0000001
 44
0.0000000001
 40
0.0
 40
0.0
 40
0.0
 40
0.0
 40
0.469042258
 40
1.0
 40
1.0
 40
1.0
 40
1.0
 10
9.5515431338
 20
10.5137292538
 30
0.0
 10
9.5507443343
 20
10.5129085485
 30
0.0
 10
9.5492142942
 20
10.5109892867
 30
0.0
 10
9.5479638774
 20
10.508885682
 30
0.0
 10
9.5473564601
 20
10.5077403347
 30
0.0
  0
SPLINE
  5
3DB
100
AcDbEntity
  8
0
100
AcDbSpline
 62
9
  6
CONTINUOUS
 70
0
 71
3
 72
14
 73
10
 74
0
 42
0.0000001
 43
0.0000001
 44
0.0000000001
 40
0.0
 40
0.0
 40
0.0
 40
0.0
 40
0.1049394052
 40
0.217571341
 40
0.3369649594
 40
0.4622130079
 40
0.5923761936
 40
0.7263906107
 40
1.0
 40
1.0
 40
1.0
 40
1.0
 10
9.5473564601
 20
10.5077403347
 30
0.0
 10
9.5468405217
 20
10.5067674802
 30
0.0
 10
9.5458552958
 20
10.5047049494
 30
0.0
 10
9.5445626229
 20
10.5014109061
 30
0.0
 10
9.5434300842
 20
10.4978340688
 30
0.0
 10
9.5424776839
 20
10.4940158471
 30
0.0
 10
9.5416999919
 20
10.490002197
 30
0.0
 10
9.5408872625
 20
10.4844165018
 30
0.0
 10
9.5405575083
 20
10.4801434132
 30
0.0
 10
9.5404770118
 20
10.4772733775
 30
0.0
  0
SPLINE
  5
3DC
100
AcDbEntity
  8
0
100
AcDbSpline
 62
9
  6
CONTINUOUS
 70
0
 71
3
 72
11
 73
7
 74
0
 42
0.0000001
 43
0.0000001
 44
0.0000000001
 40
0.0
 40
0.0
 40
0.0
 40
0.0
 40
0.2519225271
 40
0.5021383102
 40
0.7512749005
 40
1.0
 40
1.0
 40
1.0
 40
1.0
 10
9.5554281432
 20
10.1470480412
 30
0.0
 10
9.5652027797
 20
10.1446594802
 30
0.0
 10
9.5848307474
 20
10.1404695224
 30
0.0
 10
9.6145165234
 20
10.1359699944
 30
0.0
 10
9.6442932229
 20
10.133287022
 30
0.0
 10
9.6641849585
 20
10.132712506
 30
0.0
 10
9.6741194783
 20
10.13272826
 30
0.0
  0
SPLINE
  5
3DD
100
AcDbEntity
  8
0
100
AcDbSpline
 62
9
  6
CONTINUOUS
 70
0
 71
3
 72
14
 73
10
 74
0
 42
0.0000001
 43
0.0000001
 44
0.0000000001
 40
0.0
 40
0.0
 40
0.0
 40
0.0
 40
0.274677235
 40
0.4089474301
 40
0.5391882646
 40
0.6643365177
 40
0.7834493522
 40
0.8956350608
 40
1.0
 40
1.0
 40
1.0
 40
1.0
 10
9.5404770432
 20
10.1867530949
 30
0.0
 10
9.5404742535
 20
10.1838864879
 30
0.0
 10
9.5406769498
 20
10.1796150734
 30
0.0
 10
9.541327486
 20
10.1740244313
 30
0.0
 10
9.5419902802
 20
10.1700103483
 30
0.0
 10
9.5428332135
 20
10.1661917248
 30
0.0
 10
9.543861008
 20
10.1626136775
 30
0.0
 10
9.5450557736
 20
10.1593178127
 30
0.0
 10
9.545980275
 20
10.157252564
 30
0.0
 10
9.546467827
 20
10.156278598
 30
0.0
  0
SPLINE
  5
3DE
100
AcDbEntity
  8
0
100
AcDbSpline
 62
9
  6
CONTINUOUS
 70
0
 71
3
 72
9
 73
5
 74
0
 42
0.0000001
 43
0.0000001
 44
0.0000000001
 40
0.0
 40
0.0
 40
0.0
 40
0.0
 40
0.5323004147
 40
1.0
 40
1.0
 40
1.0
 40
1.0
 10
9.546467827
 20
10.156278598
 30
0.0
 10
9.5470571929
 20
10.1551012419
 30
0.0
 10
9.5482795547
 20
10.1529437766
 30
0.0
 10
9.5498080177
 20
10.1509801283
 30
0.0
 10
9.5506116853
 20
10.1501480196
 30
0.0
  0
SPLINE
  5
3DF
100
AcDbEntity
  8
0
100
AcDbSpline
 62
9
  6
CONTINUOUS
 70
0
 71
3
 72
9
 73
5
 74
0
 42
0.0000001
 43
0.0000001
 44
0.0000000001
 40
0.0
 40
0.0
 40
0.0
 40
0.0
 40
0.5316912426
 40
1.0
 40
1.0
 40
1.0
 40
1.0
 10
9.5506116853
 20
10.1501480196
 30
0.0
 10
9.5513229198
 20
10.1494116151
 30
0.0
 10
9.5527976021
 20
10.1481465343
 30
0.0
 10
9.5545612791
 20
10.1472965196
 30
0.0
 10
9.5554281531
 20
10.1470481783
 30
0.0
  0
SPLINE
  5
3E0
100
AcDbEntity
  8
0
100
AcDbSpline
 62
9
  6
CONTINUOUS
 70
0
 71
3
 72
20
 73
16
 74
0
 42
0.0000001
 43
0.0000001
 44
0.0000000001
 40
0.0
 40
0.0
 40
0.0
 40
0.0
 40
0.1541764306
 40
0.3123210585
 40
0.4674604065
 40
0.5414792677
 40
0.6118095249
 40
0.6776406394
 40
0.7385655297
 40
0.7943047409
 40
0.8446596927
 40
0.8896890636
 40
0.9300342046
 40
0.9665131028
 40
1.0
 40
1.0
 40
1.0
 40
1.0
 10
10.4820053737
 20
10.1886438872
 30
0.0
 10
10.4820098072
 20
10.1863064082
 30
0.0
 10
10.4821972567
 20
10.1815698128
 30
0.0
 10
10.4830208605
 20
10.1745231136
 30
0.0
 10
10.4842278182
 20
10.1687658501
 30
0.0
 10
10.4855040529
 20
10.1644062906
 30
0.0
 10
10.4865784013
 20
10.1614038945
 30
0.0
 10
10.4877794276
 20
10.1586649461
 30
0.0
 10
10.4890827964
 20
10.1562208862
 30
0.0
 10
10.4904656631
 20
10.1540953242
 30
0.0
 10
10.4919073419
 20
10.1523081771
 30
0.0
 10
10.4933950414
 20
10.1508773328
 30
0.0
 10
10.4949043803
 20
10.1497989934
 30
0.0
 10
10.4964138101
 20
10.1490603242
 30
0.0
 10
10.4974438496
 20
10.1487757049
 30
0.0
 10
10.4979445931
 20
10.1486919605
 30
0.0
  0
ENDSEC
  0
SECTION
  2
OBJECTS
  0
DICTIONARY
  5
C
100
AcDbDictionary
280
0
281
1
  3
ACAD_GROUP
350
D
  3
ACAD_MLINESTYLE
350
17
  3
ACAD_LAYOUT
350
1A
  3
ACAD_PLOTSETTINGS
350
19
  3
ACAD_PLOTSTYLENAME
350
E
  0
DICTIONARY
  5
D
102
{ACAD_REACTORS
330
C
102
}
100
AcDbDictionary
280
0
281
1
  0
ACDBDICTIONARYWDFLT
  5
E
102
{ACAD_REACTORS
330
C
102
}
100
AcDbDictionary
281
1
  3
Normal
350
F
100
AcDbDictionaryWithDefault
340
F
  0
DICTIONARY
  5
17
102
{ACAD_REACTORS
330
C
102
}
100
AcDbDictionary
280
0
281
1
  3
Standard
350
18
  0
DICTIONARY
  5
19
102
{ACAD_REACTORS
330
C
102
}
100
AcDbDictionary
281
1
  0
DICTIONARY
  5
1A
102
{ACAD_REACTORS
330
C
102
}
100
AcDbDictionary
281
1
  3
Model
350
3E1
  3
Layout1
350
3E2
  0
ACDBPLACEHOLDER
  5
F
102
{ACAD_REACTORS
330
E
102
}
  0
MLINESTYLE
  5
18
102
{ACAD_REACTORS
330
17
102
}
100
AcDbMlineStyle
  2
STANDARD
 70
0
  3

 62
256
 51
90.0
 52
90.0
 71
2
 49
0.5
 62
256
  6
BYLAYER
 49
-0.5
 62
256
  6
BYLAYER
  0
LAYOUT
  5
3E1
102
{ACAD_REACTORS
330
1A
102
}
100
AcDbPlotSettings
  1

  2
none_device
  4
ANSI_C_(22.00_x_17.00_Inches)
  6

 40
0.0
 41
0.0
 42
0.0
 43
0.0
 44
558.8
 45
431.8
 46
0.0
 47
0.0
 48
0.0
 49
0.0
140
0.0
141
0.0
142
1.0
143
1.0
 70
1024
 72
0
 73
0
 74
0
  7

 75
0
147
1.0
148
0.0
149
0.0
100
AcDbLayout
  1
Model
 70
0
 71
0
 10
0.0
 20
0.0
 11
22.0
 21
17.0
 12
0.0
 22
0.0
 32
0.0
 14
0.0
 24
0.0
 34
0.0
 15
0.0
 25
0.0
 35
0.0
146
0.0
 13
0.0
 23
0.0
 33
0.0
 16
1.0
 26
0.0
 36
0.0
 17
0.0
 27
1.0
 37
0.0
 76
0
330
202
345
0
346
0
  0
LAYOUT
  5
3E2
102
{ACAD_REACTORS
330
1A
102
}
100
AcDbPlotSettings
  1

  2
none_device
  4
ANSI_C_(22.00_x_17.00_Inches)
  6

 40
0.0
 41
0.0
 42
0.0
 43
0.0
 44
558.8
 45
431.8
 46
0.0
 47
0.0
 48
0.0
 49
0.0
140
0.0
141
0.0
142
1.0
143
1.0
 70
0
 72
0
 73
0
 74
0
  7

 75
0
147
1.0
148
0.0
149
0.0
100
AcDbLayout
  1
Layout1
 70
0
 71
1
 10
0.0
 20
0.0
 11
22.0
 21
17.0
 12
0.0
 22
0.0
 32
0.0
 14
0.0
 24
0.0
 34
0.0
 15
0.0
 25
0.0
 35
0.0
146
0.0
 13
0.0
 23
0.0
 33
0.0
 16
1.0
 26
0.0
 36
0.0
 17
0.0
 27
1.0
 37
0.0
 76
0
330
203
345
0
346
0
  0
ENDSEC
  0
EOF
