999
DXF file: E:\BT Custom\CADOUTPUT\_TOP.dxf
999
Pro/ENGINEER 2018400 by Parametric Technology Corporation
  0
SECTION
  2
HEADER
  9
$ACADVER
  1
AC1018
  9
$DWGCODEPAGE
  3
ANSI_1252
  9
$EXTMAX
 10
22.0
 20
17.0
 30
0.0
  9
$EXTMIN
 10
0.0
 20
0.0
 30
0.0
  9
$LIMMIN
 10
0.0
 20
0.0
  9
$LIMMAX
 10
22.0
 20
17.0
  9
$VIEWCTR
 10
11.0
 20
8.5
  9
$VIEWSIZE
 40
17.0
  9
$CLAYER
  8
0
  9
$LTSCALE
 40
1.21
  9
$CELTYPE
  6
BYLAYER
  9
$DIMSCALE
 40
1.0
  9
$DIMASZ
 40
0.1
  9
$DIMEXO
 40
0.0625
  9
$DIMDLI
 40
0.836
  9
$DIMEXE
 40
0.125
  9
$DIMCEN
 40
0.198
  9
$DIMLFAC
 40
1.0
  9
$DIMBLK
  1
_FILLED
  9
$DIMALT
 70
1
  9
$DIMALTD
 70
2
  9
$DIMALTTD
 70
2
  9
$DIMALTF
 40
25.4
  9
$DIMTXT
 40
0.08
  9
$DIMTOL
 70
1
  9
$DIMLIM
 70
0
  9
$DIMTFAC
 40
1.0
  9
$DIMTP
 40
0.001
  9
$DIMTM
 40
0.001
  9
$DIMGAP
 40
0.09
  9
$DIMDSEP
 70
46
  9
$AUNITS
 70
0
  9
$PDMODE
 70
3
  9
$PDSIZE
 40
0.06
  9
$HANDSEED
  5
3C0
  9
$TILEMODE
 70
1
  9
$MEASUREMENT
 70
0
  9
$INSUNITS
 70
1
  0
ENDSEC
  0
SECTION
  2
CLASSES
  0
CLASS
  1
ACDBDICTIONARYWDFLT
  2
AcDbDictionaryWithDefault
  3
AutoCAD 2000
 90
0
 91
1
280
0
281
0
  0
CLASS
  1
ACDBPLACEHOLDER
  2
AcDbPlaceHolder
  3
AutoCAD 2000
 90
0
 91
1
280
0
281
0
  0
CLASS
  1
LAYOUT
  2
AcDbLayout
  3
AutoCAD 2000
 90
0
 91
0
280
0
281
0
  0
ENDSEC
  0
SECTION
  2
TABLES
  0
TABLE
  2
VPORT
  5
8
100
AcDbSymbolTable
 70
2
  0
VPORT
  5
1F4
100
AcDbSymbolTableRecord
100
AcDbViewportTableRecord
  2
*ACTIVE
 70
0
 10
0.0
 20
0.0
 11
1.0
 21
1.0
 12
11.0
 22
8.5
 13
0.0
 23
0.0
 14
1.0
 24
1.0
 15
0.0
 25
0.0
 16
0.0
 26
0.0
 36
1.0
 17
0.0
 27
0.0
 37
0.0
 40
17.0
 41
1.2941176471
 42
50.0
 43
0.0
 44
0.0
 50
0.0
 51
0.0
 71
0
 72
100
 73
1
 74
1
 75
0
 76
0
 77
0
 78
0
  0
ENDTAB
  0
TABLE
  2
LTYPE
  5
5
100
AcDbSymbolTable
 70
6
  0
LTYPE
  5
14
100
AcDbSymbolTableRecord
100
AcDbLinetypeTableRecord
  2
BYBLOCK
 70
0
  3

 72
65
 73
0
 40
0.0
  0
LTYPE
  5
15
100
AcDbSymbolTableRecord
100
AcDbLinetypeTableRecord
  2
BYLAYER
 70
0
  3

 72
65
 73
0
 40
0.0
  0
LTYPE
  5
16
100
AcDbSymbolTableRecord
100
AcDbLinetypeTableRecord
  2
CONTINUOUS
 70
64
  3
Solid line
 72
65
 73
0
 40
0.0
  0
LTYPE
  5
1F5
100
AcDbSymbolTableRecord
100
AcDbLinetypeTableRecord
  2
CENTER
 70
64
  3
____ _ ____ _ ____ _ ____ _ ____ _ ____ _ ____
 72
65
 73
4
 40
0.6
 49
0.375
 74
0
 49
-0.075
 74
0
 49
0.075
 74
0
 49
-0.075
 74
0
  0
LTYPE
  5
1F6
100
AcDbSymbolTableRecord
100
AcDbLinetypeTableRecord
  2
HIDDEN
 70
64
  3
- - - - - - - - - - - - - - - - - - - -
 72
65
 73
2
 40
0.2
 49
0.1
 74
0
 49
-0.1
 74
0
  0
LTYPE
  5
1F7
100
AcDbSymbolTableRecord
100
AcDbLinetypeTableRecord
  2
PHANTOM
 70
64
  3
_____ _ _ _____ _ _ _____ _ _ _____
 72
65
 73
6
 40
0.8
 49
0.45
 74
0
 49
-0.05
 74
0
 49
0.1
 74
0
 49
-0.05
 74
0
 49
0.1
 74
0
 49
-0.05
 74
0
  0
LTYPE
  5
1F8
100
AcDbSymbolTableRecord
100
AcDbLinetypeTableRecord
  2
DOT
 70
64
  3
. . . . . . . . . . . . . . . . . . . .
 72
65
 73
2
 40
0.2
 49
0.1
 74
0
 49
-0.1
 74
0
  0
LTYPE
  5
1F9
100
AcDbSymbolTableRecord
100
AcDbLinetypeTableRecord
  2
DASHED
 70
64
  3
- - - - - - - - - - - - - - - - - - - -
 72
65
 73
2
 40
0.2
 49
0.1
 74
0
 49
-0.1
 74
0
  0
ENDTAB
  0
TABLE
  2
LAYER
  5
2
100
AcDbSymbolTable
 70
36
  0
LAYER
  5
10
100
AcDbSymbolTableRecord
100
AcDbLayerTableRecord
  2
0
 70
0
 62
7
  6
CONTINUOUS
370
-3
390
F
  0
LAYER
  5
1FA
100
AcDbSymbolTableRecord
100
AcDbLayerTableRecord
  2
DEFAULT_1
 70
0
 62
7
  6
CENTER
370
-3
390
F
  0
LAYER
  5
1FB
100
AcDbSymbolTableRecord
100
AcDbLayerTableRecord
  2
DEFAULT_2
 70
0
 62
8
  6
HIDDEN
370
-3
390
F
  0
LAYER
  5
1FC
100
AcDbSymbolTableRecord
100
AcDbLayerTableRecord
  2
DEFAULT_3
 70
0
 62
7
  6
PHANTOM
370
-3
390
F
  0
LAYER
  5
1FD
100
AcDbSymbolTableRecord
100
AcDbLayerTableRecord
  2
ALL_FEATURES
 70
0
 62
7
  6
CONTINUOUS
370
-3
390
F
  0
LAYER
  5
1FE
100
AcDbSymbolTableRecord
100
AcDbLayerTableRecord
  2
AXES_FEATURES
 70
0
 62
7
  6
CONTINUOUS
370
-3
390
F
  0
LAYER
  5
1FF
100
AcDbSymbolTableRecord
100
AcDbLayerTableRecord
  2
DIMENSIONS
 70
0
 62
7
  6
CONTINUOUS
370
-3
390
F
  0
ENDTAB
  0
TABLE
  2
STYLE
  5
3
100
AcDbSymbolTable
 70
1
  0
STYLE
  5
11
100
AcDbSymbolTableRecord
100
AcDbTextStyleTableRecord
  2
STANDARD
 70
0
 40
0.0
 41
0.8
 50
0.0
 71
0
 42
0.2
  3
txt
  4

  0
STYLE
  5
200
100
AcDbSymbolTableRecord
100
AcDbTextStyleTableRecord
  2
TEXTSTYLE_1
 70
0
 40
0.0
 41
0.8
 50
0.0
 71
0
 42
0.2
  3
gdt
  4

  0
ENDTAB
  0
TABLE
  2
VIEW
  5
6
100
AcDbSymbolTable
 70
0
  0
ENDTAB
  0
TABLE
  2
UCS
  5
7
100
AcDbSymbolTable
 70
0
  0
ENDTAB
  0
TABLE
  2
APPID
  5
9
100
AcDbSymbolTable
 70
1
  0
APPID
  5
201
100
AcDbSymbolTableRecord
100
AcDbRegAppTableRecord
  2
ACAD
 70
0
  0
ENDTAB
  0
TABLE
  2
BLOCK_RECORD
  5
1
100
AcDbSymbolTable
 70
0
  0
BLOCK_RECORD
  5
202
100
AcDbSymbolTableRecord
100
AcDbBlockTableRecord
  2
*Model_Space
  0
BLOCK_RECORD
  5
203
100
AcDbSymbolTableRecord
100
AcDbBlockTableRecord
  2
*Paper_Space
  0
BLOCK_RECORD
  5
204
100
AcDbSymbolTableRecord
100
AcDbBlockTableRecord
  2
_FILLED
  0
ENDTAB
  0
TABLE
  2
DIMSTYLE
  5
A
100
AcDbSymbolTable
 70
1
100
AcDbDimStyleTable
 71
0
  0
DIMSTYLE
105
205
100
AcDbSymbolTableRecord
100
AcDbDimStyleTableRecord
  2
STANDARD
 70
0
  3

  4

 40
1.0
 41
0.1
 42
0.0625
 43
0.38
 44
0.125
 45
0.0
 46
0.0
 47
0.001
 48
0.001
140
0.08
141
0.09
142
0.0
143
25.4
144
1.0
145
0.0
146
1.0
147
0.09
 71
1.0
 72
0.0
 73
1
 74
1
 75
0
 76
0
 77
0
 78
4
 79
1
170
1
171
2
172
0
173
0
174
0
175
0
176
0
177
0
178
0
270
2
179
3
271
3
272
3
273
2
274
2
275
0
280
0
281
0
282
0
283
1
284
4
285
0
286
0
287
3
288
0
340
11
278
46
341
204
342
204
343
204
344
204
  0
ENDTAB
  0
ENDSEC
  0
SECTION
  2
BLOCKS
  0
BLOCK
  5
20
100
AcDbEntity
  8
0
100
AcDbBlockBegin
  2
*Model_Space
 70
0
 10
0.0
 20
0.0
 30
0.0
  3
*Model_Space
  1

  0
ENDBLK
  5
21
100
AcDbEntity
  8
0
100
AcDbBlockEnd
  0
BLOCK
  5
1C
100
AcDbEntity
  8
0
100
AcDbBlockBegin
  2
*Paper_Space
 70
0
 10
0.0
 20
0.0
 30
0.0
  3
*Paper_Space
  1

  0
ENDBLK
  5
1D
100
AcDbEntity
  8
0
100
AcDbBlockEnd
  0
BLOCK
  5
206
100
AcDbEntity
  8
0
100
AcDbBlockBegin
  2
_FILLED
 70
64
 10
0.0
 20
0.0
  3
_FILLED
  1

  0
SOLID
  5
207
100
AcDbEntity
  8
0
  6
BYBLOCK
 62
0
100
AcDbTrace
 10
0.0
 20
0.0
 11
-1.0
 21
0.2
 12
-1.0
 22
-0.2
 13
-1.0
 23
-0.2
  0
ENDBLK
  5
208
100
AcDbEntity
  8
0
  6
BYBLOCK
 62
0
100
AcDbBlockEnd
  0
ENDSEC
  0
SECTION
  2
ENTITIES
  0
LINE
  5
209
100
AcDbEntity
  8
0
100
AcDbLine
 62
7
  6
CONTINUOUS
 10
9.8640442374
 20
8.5578411766
 11
9.6325162289
 21
8.1568229026
  0
LINE
  5
20A
100
AcDbEntity
  8
0
100
AcDbLine
 62
9
  6
CONTINUOUS
 10
9.902524073
 20
8.5412084922
 11
9.6661604981
 21
8.1318147565
  0
LINE
  5
20B
100
AcDbEntity
  8
0
100
AcDbLine
 62
7
  6
CONTINUOUS
 10
10.8157903298
 20
6.1073320392
 11
11.2788463467
 21
6.1073320392
  0
LINE
  5
20C
100
AcDbEntity
  8
0
100
AcDbLine
 62
9
  6
CONTINUOUS
 10
10.8109547402
 20
6.1489729126
 11
11.2836819029
 21
6.148972884
  0
LINE
  5
20D
100
AcDbEntity
  8
0
100
AcDbLine
 62
7
  6
CONTINUOUS
 10
9.9613945676
 20
6.9882443528
 11
9.9672417189
 21
7.0086357927
  0
LINE
  5
20E
100
AcDbEntity
  8
0
100
AcDbLine
 62
7
  6
CONTINUOUS
 10
10.4486220921
 20
8.687408659
 11
10.4544692434
 21
8.7078000989
  0
LINE
  5
20F
100
AcDbEntity
  8
0
100
AcDbLine
 62
7
  6
CONTINUOUS
 10
9.9404502344
 20
7.0265196773
 11
9.9470054748
 21
7.0466946327
  0
LINE
  5
210
100
AcDbEntity
  8
0
100
AcDbLine
 62
7
  6
CONTINUOUS
 10
10.4866809321
 20
8.7076449031
 11
10.4932361725
 21
8.7278198585
  0
LINE
  5
211
100
AcDbEntity
  8
0
100
AcDbLine
 62
7
  6
CONTINUOUS
 10
9.9208544494
 20
7.0655026323
 11
9.9281097923
 21
7.085436523
  0
LINE
  5
212
100
AcDbEntity
  8
0
100
AcDbLine
 62
7
  6
CONTINUOUS
 10
10.5254228224
 20
8.7265405856
 11
10.5326781653
 21
8.7464744763
  0
LINE
  5
213
100
AcDbEntity
  8
0
100
AcDbLine
 62
7
  6
CONTINUOUS
 10
9.9026310872
 20
7.1051457229
 11
9.9105776931
 21
7.1248142626
  0
LINE
  5
214
100
AcDbEntity
  8
0
100
AcDbLine
 62
7
  6
CONTINUOUS
 10
10.564800562
 20
8.7440726848
 11
10.5727471679
 21
8.7637412246
  0
LINE
  5
215
100
AcDbEntity
  8
0
100
AcDbLine
 62
7
  6
CONTINUOUS
 10
9.88580235
 20
7.1454006502
 11
9.8944305372
 21
7.1647798758
  0
LINE
  5
216
100
AcDbEntity
  8
0
100
AcDbLine
 62
7
  6
CONTINUOUS
 10
10.6047661752
 20
8.7602198407
 11
10.6133943624
 21
8.7795990664
  0
LINE
  5
217
100
AcDbEntity
  8
0
100
AcDbLine
 62
7
  6
CONTINUOUS
 10
9.8703887412
 20
7.1862183697
 11
9.8796879975
 21
7.2052846707
  0
LINE
  5
218
100
AcDbEntity
  8
0
100
AcDbLine
 62
7
  6
CONTINUOUS
 10
10.6452709701
 20
8.7749623804
 11
10.6545702264
 21
8.7940286813
  0
LINE
  5
219
100
AcDbEntity
  8
0
100
AcDbLine
 62
7
  6
CONTINUOUS
 10
9.8564090398
 20
7.2275491514
 11
9.8663680356
 21
7.2462792983
  0
LINE
  5
21A
100
AcDbEntity
  8
0
100
AcDbLine
 62
7
  6
CONTINUOUS
 10
10.6862655977
 20
8.7882823423
 11
10.6962245935
 21
8.8070124892
  0
LINE
  5
21B
100
AcDbEntity
  8
0
100
AcDbLine
 62
7
  6
CONTINUOUS
 10
9.8438802779
 20
7.26934264
 11
9.8544868796
 21
7.2877138131
  0
LINE
  5
21C
100
AcDbEntity
  8
0
100
AcDbLine
 62
7
  6
CONTINUOUS
 10
10.7277001125
 20
8.8001634983
 11
10.7383067142
 21
8.8185346713
  0
LINE
  5
21D
100
AcDbEntity
  8
0
100
AcDbLine
 62
7
  6
CONTINUOUS
 10
9.83281772
 20
7.3115479167
 11
9.8440590051
 21
7.3295377335
  0
LINE
  5
21E
100
AcDbEntity
  8
0
100
AcDbLine
 62
7
  6
CONTINUOUS
 10
10.7695240329
 20
8.8105913728
 11
10.780765318
 21
8.8285811896
  0
LINE
  5
21F
100
AcDbEntity
  8
0
100
AcDbLine
 62
7
  6
CONTINUOUS
 10
9.8232348439
 20
7.3541135607
 11
9.8350971167
 21
7.3717001034
  0
LINE
  5
220
100
AcDbEntity
  8
0
100
AcDbLine
 62
7
  6
CONTINUOUS
 10
10.8116864028
 20
8.8195532612
 11
10.8235486756
 21
8.8371398039
  0
LINE
  5
221
100
AcDbEntity
  8
0
100
AcDbLine
 62
7
  6
CONTINUOUS
 10
9.815143325
 20
7.3969877124
 11
9.8276121332
 21
7.4141495545
  0
LINE
  5
222
100
AcDbEntity
  8
0
100
AcDbLine
 62
7
  6
CONTINUOUS
 10
10.8541358539
 20
8.8270382447
 11
10.8666046621
 21
8.8442000868
  0
LINE
  5
223
100
AcDbEntity
  8
0
100
AcDbLine
 62
7
  6
CONTINUOUS
 10
9.8085530216
 20
7.4401181364
 11
9.8216131737
 21
7.4568343688
  0
LINE
  5
224
100
AcDbEntity
  8
0
100
AcDbLine
 62
7
  6
CONTINUOUS
 10
10.8968206682
 20
8.8330372042
 11
10.9098808203
 21
8.8497534366
  0
LINE
  5
225
100
AcDbEntity
  8
0
100
AcDbLine
 62
7
  6
CONTINUOUS
 10
9.8034719629
 20
7.4834522846
 11
9.8171075473
 21
7.4997025413
  0
LINE
  5
226
100
AcDbEntity
  8
0
100
AcDbLine
 62
7
  6
CONTINUOUS
 10
10.9396888407
 20
8.8375428306
 11
10.953324425
 21
8.8537930873
  0
LINE
  5
227
100
AcDbEntity
  8
0
100
AcDbLine
 62
7
  6
CONTINUOUS
 10
9.7999063395
 20
7.5269373613
 11
9.8141007431
 21
7.5427018437
  0
LINE
  5
228
100
AcDbEntity
  8
0
100
AcDbLine
 62
7
  6
CONTINUOUS
 10
10.9826881431
 20
8.8405496348
 11
10.9968825468
 21
8.8563141171
  0
LINE
  5
229
100
AcDbEntity
  8
0
100
AcDbLine
 62
7
  6
CONTINUOUS
 10
9.7978604953
 20
7.5705203865
 11
9.8125964247
 21
7.5857798881
  0
LINE
  5
22A
100
AcDbEntity
  8
0
100
AcDbLine
 62
7
  6
CONTINUOUS
 10
11.0257661875
 20
8.8420539532
 11
11.0405021168
 21
8.8573134548
  0
LINE
  5
22B
100
AcDbEntity
  8
0
100
AcDbLine
 62
7
  6
CONTINUOUS
 10
9.7973369231
 20
7.6141482611
 11
9.8125964247
 21
7.6288841904
  0
LINE
  5
22C
100
AcDbEntity
  8
0
100
AcDbLine
 62
7
  6
CONTINUOUS
 10
11.0688704898
 20
8.8420539532
 11
11.0841299914
 21
8.8567898826
  0
LINE
  5
22D
100
AcDbEntity
  8
0
100
AcDbLine
 62
7
  6
CONTINUOUS
 10
9.7983362608
 20
7.6577678311
 11
9.8141007431
 21
7.6719622348
  0
LINE
  5
22E
100
AcDbEntity
  8
0
100
AcDbLine
 62
7
  6
CONTINUOUS
 10
11.1119485342
 20
8.8405496348
 11
11.1277130166
 21
8.8547440385
  0
LINE
  5
22F
100
AcDbEntity
  8
0
100
AcDbLine
 62
7
  6
CONTINUOUS
 10
9.8008572907
 20
7.7013259529
 11
9.8171075473
 21
7.7149615372
  0
LINE
  5
230
100
AcDbEntity
  8
0
100
AcDbLine
 62
7
  6
CONTINUOUS
 10
11.1549478367
 20
8.8375428306
 11
11.1711980933
 21
8.851178415
  0
LINE
  5
231
100
AcDbEntity
  8
0
100
AcDbLine
 62
7
  6
CONTINUOUS
 10
9.8048969413
 20
7.7447695576
 11
9.8216131737
 21
7.7578297097
  0
LINE
  5
232
100
AcDbEntity
  8
0
100
AcDbLine
 62
7
  6
CONTINUOUS
 10
11.1978160091
 20
8.8330372042
 11
11.2145322416
 21
8.8460973563
  0
LINE
  5
233
100
AcDbEntity
  8
0
100
AcDbLine
 62
7
  6
CONTINUOUS
 10
9.8104502911
 20
7.7880457158
 11
9.8276121332
 21
7.800514524
  0
LINE
  5
234
100
AcDbEntity
  8
0
100
AcDbLine
 62
7
  6
CONTINUOUS
 10
11.2405008234
 20
8.8270382447
 11
11.2576626655
 21
8.8395070529
  0
LINE
  5
235
100
AcDbEntity
  8
0
100
AcDbLine
 62
7
  6
CONTINUOUS
 10
9.817510574
 20
7.8311017023
 11
9.8350971167
 21
7.8429639751
  0
LINE
  5
236
100
AcDbEntity
  8
0
100
AcDbLine
 62
7
  6
CONTINUOUS
 10
11.2829502745
 20
8.8195532612
 11
11.3005368172
 21
8.831415534
  0
LINE
  5
237
100
AcDbEntity
  8
0
100
AcDbLine
 62
7
  6
CONTINUOUS
 10
9.8260691883
 20
7.8738850599
 11
9.8440590051
 21
7.885126345
  0
LINE
  5
238
100
AcDbEntity
  8
0
100
AcDbLine
 62
7
  6
CONTINUOUS
 10
11.3251126444
 20
8.8105913728
 11
11.3431024612
 21
8.821832658
  0
LINE
  5
239
100
AcDbEntity
  8
0
100
AcDbLine
 62
7
  6
CONTINUOUS
 10
9.8361157066
 20
7.9163436637
 11
9.8544868796
 21
7.9269502654
  0
LINE
  5
23A
100
AcDbEntity
  8
0
100
AcDbLine
 62
7
  6
CONTINUOUS
 10
11.3669365648
 20
8.8001634983
 11
11.3853077379
 21
8.8107701
  0
LINE
  5
23B
100
AcDbEntity
  8
0
100
AcDbLine
 62
7
  6
CONTINUOUS
 10
9.8476378887
 20
7.9584257844
 11
9.8663680356
 21
7.9683847802
  0
LINE
  5
23C
100
AcDbEntity
  8
0
100
AcDbLine
 62
7
  6
CONTINUOUS
 10
11.4083710796
 20
8.7882823423
 11
11.4271012265
 21
8.7982413381
  0
LINE
  5
23D
100
AcDbEntity
  8
0
100
AcDbLine
 62
7
  6
CONTINUOUS
 10
9.8606216966
 20
8.0000801515
 11
9.8620133817
 21
8.0007589217
  0
LINE
  5
23E
100
AcDbEntity
  8
0
100
AcDbLine
 62
7
  6
CONTINUOUS
 10
11.4493657072
 20
8.7749623804
 11
11.4684320082
 21
8.7842616367
  0
LINE
  5
23F
100
AcDbEntity
  8
0
100
AcDbLine
 62
7
  6
CONTINUOUS
 10
11.4898705021
 20
8.7602198407
 11
11.5092497277
 21
8.7688480279
  0
LINE
  5
240
100
AcDbEntity
  8
0
100
AcDbLine
 62
7
  6
CONTINUOUS
 10
11.5298361153
 20
8.7440726848
 11
11.549504655
 21
8.7520192907
  0
LINE
  5
241
100
AcDbEntity
  8
0
100
AcDbLine
 62
7
  6
CONTINUOUS
 10
11.5692138549
 20
8.7265405856
 11
11.5891477456
 21
8.7337959285
  0
LINE
  5
242
100
AcDbEntity
  8
0
100
AcDbLine
 62
7
  6
CONTINUOUS
 10
11.6079557452
 20
8.7076449031
 11
11.6281307006
 21
8.7142001435
  0
LINE
  5
243
100
AcDbEntity
  8
0
100
AcDbLine
 62
7
  6
CONTINUOUS
 10
11.6460145852
 20
8.687408659
 11
11.6664060251
 21
8.6932558103
  0
LINE
  5
244
100
AcDbEntity
  8
0
100
AcDbLine
 62
7
  6
CONTINUOUS
 10
10.2723816801
 20
6.6265297272
 11
10.2701642966
 21
6.6476267225
  0
LINE
  5
245
100
AcDbEntity
  8
0
100
AcDbLine
 62
7
  6
CONTINUOUS
 10
10.2386242436
 20
6.6541721048
 11
10.2371444853
 21
6.675333634
  0
LINE
  5
246
100
AcDbEntity
  8
0
100
AcDbLine
 62
7
  6
CONTINUOUS
 10
10.1139481855
 20
8.437122802
 11
10.1138401751
 21
8.4386674218
  0
LINE
  5
247
100
AcDbEntity
  8
0
100
AcDbLine
 62
7
  6
CONTINUOUS
 10
10.1434220112
 20
8.4707389128
 11
10.1441623414
 21
8.4495386319
  0
LINE
  5
248
100
AcDbEntity
  8
0
100
AcDbLine
 62
7
  6
CONTINUOUS
 10
10.205111746
 20
6.704176042
 11
10.2058520762
 21
6.682975761
  0
LINE
  5
249
100
AcDbEntity
  8
0
100
AcDbLine
 62
7
  6
CONTINUOUS
 10
10.1741051058
 20
8.5017584755
 11
10.1741051058
 21
8.4805452721
  0
LINE
  5
24A
100
AcDbEntity
  8
0
100
AcDbLine
 62
7
  6
CONTINUOUS
 10
10.1741051058
 20
6.7341188064
 11
10.1741051058
 21
6.7129056029
  0
LINE
  5
24B
100
AcDbEntity
  8
0
100
AcDbLine
 62
7
  6
CONTINUOUS
 10
10.2058520762
 20
8.5316883175
 11
10.205111746
 21
8.5104880365
  0
LINE
  5
24C
100
AcDbEntity
  8
0
100
AcDbLine
 62
7
  6
CONTINUOUS
 10
10.1441623414
 20
6.7651254466
 11
10.1434220112
 21
6.7439251657
  0
LINE
  5
24D
100
AcDbEntity
  8
0
100
AcDbLine
 62
7
  6
CONTINUOUS
 10
10.1138401751
 20
6.7759966567
 11
10.1153199334
 21
6.7971581859
  0
LINE
  5
24E
100
AcDbEntity
  8
0
100
AcDbLine
 62
7
  6
CONTINUOUS
 10
10.2371444853
 20
8.5393304445
 11
10.2386242436
 21
8.5604919737
  0
LINE
  5
24F
100
AcDbEntity
  8
0
100
AcDbLine
 62
7
  6
CONTINUOUS
 10
10.0853956384
 20
6.8090810019
 11
10.0876130219
 21
6.8301779972
  0
LINE
  5
250
100
AcDbEntity
  8
0
100
AcDbLine
 62
7
  6
CONTINUOUS
 10
10.2701642966
 20
8.567037356
 11
10.2723816801
 21
8.5881343513
  0
LINE
  5
251
100
AcDbEntity
  8
0
100
AcDbLine
 62
7
  6
CONTINUOUS
 10
10.0581230562
 20
6.843137893
 11
10.0610753635
 21
6.864144651
  0
LINE
  5
252
100
AcDbEntity
  8
0
100
AcDbLine
 62
7
  6
CONTINUOUS
 10
10.3041309504
 20
8.5935750144
 11
10.3070832577
 21
8.6145817724
  0
LINE
  5
253
100
AcDbEntity
  8
0
100
AcDbLine
 62
7
  6
CONTINUOUS
 10
10.0320556562
 20
6.8781258369
 11
10.0357392903
 21
6.8990167641
  0
LINE
  5
254
100
AcDbEntity
  8
0
100
AcDbLine
 62
7
  6
CONTINUOUS
 10
10.3390030635
 20
8.6189110876
 11
10.3426866976
 21
8.6398020148
  0
LINE
  5
255
100
AcDbEntity
  8
0
100
AcDbLine
 62
7
  6
CONTINUOUS
 10
10.0072251973
 20
6.9140022062
 11
10.0116356703
 21
6.9347518503
  0
LINE
  5
256
100
AcDbEntity
  8
0
100
AcDbLine
 62
7
  6
CONTINUOUS
 10
10.3747381497
 20
8.6430147076
 11
10.3791486227
 21
8.6637643516
  0
LINE
  5
257
100
AcDbEntity
  8
0
100
AcDbLine
 62
7
  6
CONTINUOUS
 10
9.9836619317
 20
6.9507232912
 11
9.9887938701
 21
6.9713063718
  0
LINE
  5
258
100
AcDbEntity
  8
0
100
AcDbLine
 62
7
  6
CONTINUOUS
 10
10.4112926712
 20
8.6658565078
 11
10.4164246096
 21
8.6864395884
  0
LINE
  5
259
100
AcDbEntity
  8
0
100
AcDbLine
 62
7
  6
CONTINUOUS
 10
9.8216131737
 20
7.4568343688
 11
9.8048969413
 21
7.4698945209
  0
LINE
  5
25A
100
AcDbEntity
  8
0
100
AcDbLine
 62
7
  6
CONTINUOUS
 10
9.8171075473
 20
7.4997025413
 11
9.8008572907
 21
7.5133381256
  0
LINE
  5
25B
100
AcDbEntity
  8
0
100
AcDbLine
 62
7
  6
CONTINUOUS
 10
9.8141007431
 20
7.5427018437
 11
9.7983362608
 21
7.5568962474
  0
LINE
  5
25C
100
AcDbEntity
  8
0
100
AcDbLine
 62
7
  6
CONTINUOUS
 10
9.8125964247
 20
7.5857798881
 11
9.7973369231
 21
7.6005158174
  0
LINE
  5
25D
100
AcDbEntity
  8
0
100
AcDbLine
 62
7
  6
CONTINUOUS
 10
9.8125964247
 20
7.6288841904
 11
9.7978604953
 21
7.6441436919
  0
LINE
  5
25E
100
AcDbEntity
  8
0
100
AcDbLine
 62
7
  6
CONTINUOUS
 10
9.8141007431
 20
7.6719622348
 11
9.7999063395
 21
7.6877267172
  0
LINE
  5
25F
100
AcDbEntity
  8
0
100
AcDbLine
 62
7
  6
CONTINUOUS
 10
9.8171075473
 20
7.7149615372
 11
9.8034719629
 21
7.7312117939
  0
LINE
  5
260
100
AcDbEntity
  8
0
100
AcDbLine
 62
7
  6
CONTINUOUS
 10
9.8216131737
 20
7.7578297097
 11
9.8085530216
 21
7.7745459421
  0
LINE
  5
261
100
AcDbEntity
  8
0
100
AcDbLine
 62
7
  6
CONTINUOUS
 10
9.8276121332
 20
7.800514524
 11
9.815143325
 21
7.817676366
  0
LINE
  5
262
100
AcDbEntity
  8
0
100
AcDbLine
 62
7
  6
CONTINUOUS
 10
9.8350971167
 20
7.8429639751
 11
9.8232348439
 21
7.8605505178
  0
LINE
  5
263
100
AcDbEntity
  8
0
100
AcDbLine
 62
7
  6
CONTINUOUS
 10
10.780765318
 20
6.3860828889
 11
10.7695240329
 21
6.4040727057
  0
LINE
  5
264
100
AcDbEntity
  8
0
100
AcDbLine
 62
7
  6
CONTINUOUS
 10
9.8440590051
 20
7.885126345
 11
9.83281772
 21
7.9031161618
  0
LINE
  5
265
100
AcDbEntity
  8
0
100
AcDbLine
 62
7
  6
CONTINUOUS
 10
10.7383067142
 20
6.3961294072
 11
10.7277001125
 21
6.4145005802
  0
LINE
  5
266
100
AcDbEntity
  8
0
100
AcDbLine
 62
7
  6
CONTINUOUS
 10
9.8544868796
 20
7.9269502654
 11
9.8438802779
 21
7.9453214385
  0
LINE
  5
267
100
AcDbEntity
  8
0
100
AcDbLine
 62
7
  6
CONTINUOUS
 10
10.6962245935
 20
6.4076515893
 11
10.6862655977
 21
6.4263817362
  0
LINE
  5
268
100
AcDbEntity
  8
0
100
AcDbLine
 62
7
  6
CONTINUOUS
 10
9.8663680356
 20
7.9683847802
 11
9.8564090398
 21
7.9871149271
  0
LINE
  5
269
100
AcDbEntity
  8
0
100
AcDbLine
 62
7
  6
CONTINUOUS
 10
10.6545702264
 20
6.4206353972
 11
10.6452709701
 21
6.4397016981
  0
LINE
  5
26A
100
AcDbEntity
  8
0
100
AcDbLine
 62
7
  6
CONTINUOUS
 10
10.6133943624
 20
6.4350650121
 11
10.6047661752
 21
6.4544442378
  0
LINE
  5
26B
100
AcDbEntity
  8
0
100
AcDbLine
 62
7
  6
CONTINUOUS
 10
10.5727471679
 20
6.4509228539
 11
10.564800562
 21
6.4705913937
  0
LINE
  5
26C
100
AcDbEntity
  8
0
100
AcDbLine
 62
7
  6
CONTINUOUS
 10
10.5326781653
 20
6.4681896022
 11
10.5254228224
 21
6.4881234929
  0
LINE
  5
26D
100
AcDbEntity
  8
0
100
AcDbLine
 62
7
  6
CONTINUOUS
 10
10.4932361725
 20
6.48684422
 11
10.4866809321
 21
6.5070191754
  0
LINE
  5
26E
100
AcDbEntity
  8
0
100
AcDbLine
 62
7
  6
CONTINUOUS
 10
10.4544692434
 20
6.5068639796
 11
10.4486220921
 21
6.5272554195
  0
LINE
  5
26F
100
AcDbEntity
  8
0
100
AcDbLine
 62
7
  6
CONTINUOUS
 10
10.4164246096
 20
6.5282244901
 11
10.4112926712
 21
6.5488075707
  0
LINE
  5
270
100
AcDbEntity
  8
0
100
AcDbLine
 62
7
  6
CONTINUOUS
 10
10.3791486227
 20
6.5508997269
 11
10.3747381497
 21
6.5716493709
  0
LINE
  5
271
100
AcDbEntity
  8
0
100
AcDbLine
 62
7
  6
CONTINUOUS
 10
10.3426866976
 20
6.5748620637
 11
10.3390030635
 21
6.5957529909
  0
LINE
  5
272
100
AcDbEntity
  8
0
100
AcDbLine
 62
7
  6
CONTINUOUS
 10
10.3070832577
 20
6.6000823061
 11
10.3041309504
 21
6.6210890641
  0
LINE
  5
273
100
AcDbEntity
  8
0
100
AcDbLine
 62
7
  6
CONTINUOUS
 10
12.1264258878
 20
6.9764383102
 11
12.1058428072
 21
6.9713063718
  0
LINE
  5
274
100
AcDbEntity
  8
0
100
AcDbLine
 62
7
  6
CONTINUOUS
 10
10.4112926712
 20
6.5488075707
 11
10.3907095906
 21
6.5436756323
  0
LINE
  5
275
100
AcDbEntity
  8
0
100
AcDbLine
 62
7
  6
CONTINUOUS
 10
12.103750651
 20
6.9391623233
 11
12.083001007
 21
6.9347518503
  0
LINE
  5
276
100
AcDbEntity
  8
0
100
AcDbLine
 62
7
  6
CONTINUOUS
 10
10.3747381497
 20
6.5716493709
 11
10.3539885056
 21
6.5672388979
  0
LINE
  5
277
100
AcDbEntity
  8
0
100
AcDbLine
 62
7
  6
CONTINUOUS
 10
12.0797883142
 20
6.9027003982
 11
12.058897387
 21
6.8990167641
  0
LINE
  5
278
100
AcDbEntity
  8
0
100
AcDbLine
 62
7
  6
CONTINUOUS
 10
10.3390030635
 20
6.5957529909
 11
10.3181121363
 21
6.5920693568
  0
LINE
  5
279
100
AcDbEntity
  8
0
100
AcDbLine
 62
7
  6
CONTINUOUS
 10
12.0545680718
 20
6.8670969583
 11
12.0335613138
 21
6.864144651
  0
LINE
  5
27A
100
AcDbEntity
  8
0
100
AcDbLine
 62
7
  6
CONTINUOUS
 10
10.3041309504
 20
6.6210890641
 11
10.2831241924
 21
6.6181367568
  0
LINE
  5
27B
100
AcDbEntity
  8
0
100
AcDbLine
 62
7
  6
CONTINUOUS
 10
12.0281206507
 20
6.8323953807
 11
12.0070236554
 21
6.8301779972
  0
LINE
  5
27C
100
AcDbEntity
  8
0
100
AcDbLine
 62
7
  6
CONTINUOUS
 10
10.2701642966
 20
6.6476267225
 11
10.2490673013
 21
6.6454093389
  0
LINE
  5
27D
100
AcDbEntity
  8
0
100
AcDbLine
 62
7
  6
CONTINUOUS
 10
12.0004782731
 20
6.7986379442
 11
11.9793167439
 21
6.7971581859
  0
LINE
  5
27E
100
AcDbEntity
  8
0
100
AcDbLine
 62
7
  6
CONTINUOUS
 10
10.2371444853
 20
6.675333634
 11
10.2159829562
 21
6.6738538757
  0
LINE
  5
27F
100
AcDbEntity
  8
0
100
AcDbLine
 62
7
  6
CONTINUOUS
 10
10.1839114651
 20
6.7034357118
 11
10.205111746
 21
6.704176042
  0
LINE
  5
280
100
AcDbEntity
  8
0
100
AcDbLine
 62
7
  6
CONTINUOUS
 10
11.950474336
 20
6.7651254466
 11
11.9716746169
 21
6.7658657768
  0
LINE
  5
281
100
AcDbEntity
  8
0
100
AcDbLine
 62
7
  6
CONTINUOUS
 10
10.1528919024
 20
6.7341188064
 11
10.1741051058
 21
6.7341188064
  0
LINE
  5
282
100
AcDbEntity
  8
0
100
AcDbLine
 62
7
  6
CONTINUOUS
 10
11.9205315715
 20
6.7341188064
 11
11.941744775
 21
6.7341188064
  0
LINE
  5
283
100
AcDbEntity
  8
0
100
AcDbLine
 62
7
  6
CONTINUOUS
 10
10.1229620604
 20
6.7658657768
 11
10.1441623414
 21
6.7651254466
  0
LINE
  5
284
100
AcDbEntity
  8
0
100
AcDbLine
 62
7
  6
CONTINUOUS
 10
11.8895249313
 20
6.704176042
 11
11.9107252122
 21
6.7034357118
  0
LINE
  5
285
100
AcDbEntity
  8
0
100
AcDbLine
 62
7
  6
CONTINUOUS
 10
11.8786537212
 20
6.6738538757
 11
11.857492192
 21
6.675333634
  0
LINE
  5
286
100
AcDbEntity
  8
0
100
AcDbLine
 62
7
  6
CONTINUOUS
 10
10.1153199334
 20
6.7971581859
 11
10.0941584043
 21
6.7986379442
  0
LINE
  5
287
100
AcDbEntity
  8
0
100
AcDbLine
 62
7
  6
CONTINUOUS
 10
11.845569376
 20
6.6454093389
 11
11.8244723807
 21
6.6476267225
  0
LINE
  5
288
100
AcDbEntity
  8
0
100
AcDbLine
 62
7
  6
CONTINUOUS
 10
10.0876130219
 20
6.8301779972
 11
10.0665160266
 21
6.8323953807
  0
LINE
  5
289
100
AcDbEntity
  8
0
100
AcDbLine
 62
7
  6
CONTINUOUS
 10
11.8115124849
 20
6.6181367568
 11
11.7905057269
 21
6.6210890641
  0
LINE
  5
28A
100
AcDbEntity
  8
0
100
AcDbLine
 62
7
  6
CONTINUOUS
 10
10.0610753635
 20
6.864144651
 11
10.0400686055
 21
6.8670969583
  0
LINE
  5
28B
100
AcDbEntity
  8
0
100
AcDbLine
 62
7
  6
CONTINUOUS
 10
11.776524541
 20
6.5920693568
 11
11.7556336138
 21
6.5957529909
  0
LINE
  5
28C
100
AcDbEntity
  8
0
100
AcDbLine
 62
7
  6
CONTINUOUS
 10
10.0357392903
 20
6.8990167641
 11
10.0148483631
 21
6.9027003982
  0
LINE
  5
28D
100
AcDbEntity
  8
0
100
AcDbLine
 62
7
  6
CONTINUOUS
 10
11.7406481717
 20
6.5672388979
 11
11.7198985276
 21
6.5716493709
  0
LINE
  5
28E
100
AcDbEntity
  8
0
100
AcDbLine
 62
7
  6
CONTINUOUS
 10
10.0116356703
 20
6.9347518503
 11
9.9908860263
 21
6.9391623233
  0
LINE
  5
28F
100
AcDbEntity
  8
0
100
AcDbLine
 62
7
  6
CONTINUOUS
 10
11.7039270867
 20
6.5436756323
 11
11.6833440061
 21
6.5488075707
  0
LINE
  5
290
100
AcDbEntity
  8
0
100
AcDbLine
 62
7
  6
CONTINUOUS
 10
9.9887938701
 20
6.9713063718
 11
9.9682107895
 21
6.9764383102
  0
LINE
  5
291
100
AcDbEntity
  8
0
100
AcDbLine
 62
7
  6
CONTINUOUS
 10
11.6664060251
 20
6.5214082682
 11
11.6460145852
 21
6.5272554195
  0
LINE
  5
292
100
AcDbEntity
  8
0
100
AcDbLine
 62
7
  6
CONTINUOUS
 10
9.9672417189
 20
7.0086357927
 11
9.946850279
 21
7.014482944
  0
LINE
  5
293
100
AcDbEntity
  8
0
100
AcDbLine
 62
7
  6
CONTINUOUS
 10
11.6281307006
 20
6.500463935
 11
11.6079557452
 21
6.5070191754
  0
LINE
  5
294
100
AcDbEntity
  8
0
100
AcDbLine
 62
7
  6
CONTINUOUS
 10
9.9470054748
 20
7.0466946327
 11
9.9268305194
 21
7.0532498731
  0
LINE
  5
295
100
AcDbEntity
  8
0
100
AcDbLine
 62
7
  6
CONTINUOUS
 10
11.5891477456
 20
6.48086815
 11
11.5692138549
 21
6.4881234929
  0
LINE
  5
296
100
AcDbEntity
  8
0
100
AcDbLine
 62
7
  6
CONTINUOUS
 10
9.9281097923
 20
7.085436523
 11
9.9081759016
 21
7.0926918659
  0
LINE
  5
297
100
AcDbEntity
  8
0
100
AcDbLine
 62
7
  6
CONTINUOUS
 10
11.549504655
 20
6.4626447878
 11
11.5298361153
 21
6.4705913937
  0
LINE
  5
298
100
AcDbEntity
  8
0
100
AcDbLine
 62
7
  6
CONTINUOUS
 10
9.9105776931
 20
7.1248142626
 11
9.8909091533
 21
7.1327608685
  0
LINE
  5
299
100
AcDbEntity
  8
0
100
AcDbLine
 62
7
  6
CONTINUOUS
 10
11.5092497277
 20
6.4458160506
 11
11.4898705021
 21
6.4544442378
  0
LINE
  5
29A
100
AcDbEntity
  8
0
100
AcDbLine
 62
7
  6
CONTINUOUS
 10
9.8944305372
 20
7.1647798758
 11
9.8750513116
 21
7.173408063
  0
LINE
  5
29B
100
AcDbEntity
  8
0
100
AcDbLine
 62
7
  6
CONTINUOUS
 10
11.4684320082
 20
6.4304024418
 11
11.4493657072
 21
6.4397016981
  0
LINE
  5
29C
100
AcDbEntity
  8
0
100
AcDbLine
 62
7
  6
CONTINUOUS
 10
9.8796879975
 20
7.2052846707
 11
9.8606216966
 21
7.214583927
  0
LINE
  5
29D
100
AcDbEntity
  8
0
100
AcDbLine
 62
7
  6
CONTINUOUS
 10
11.4271012265
 20
6.4164227404
 11
11.4083710796
 21
6.4263817362
  0
LINE
  5
29E
100
AcDbEntity
  8
0
100
AcDbLine
 62
7
  6
CONTINUOUS
 10
9.8663680356
 20
7.2462792983
 11
9.8476378887
 21
7.2562382941
  0
LINE
  5
29F
100
AcDbEntity
  8
0
100
AcDbLine
 62
7
  6
CONTINUOUS
 10
11.3853077379
 20
6.4038939785
 11
11.3669365648
 21
6.4145005802
  0
LINE
  5
2A0
100
AcDbEntity
  8
0
100
AcDbLine
 62
7
  6
CONTINUOUS
 10
9.8544868796
 20
7.2877138131
 11
9.8361157066
 21
7.2983204148
  0
LINE
  5
2A1
100
AcDbEntity
  8
0
100
AcDbLine
 62
7
  6
CONTINUOUS
 10
11.3431024612
 20
6.3928314205
 11
11.3251126444
 21
6.4040727057
  0
LINE
  5
2A2
100
AcDbEntity
  8
0
100
AcDbLine
 62
7
  6
CONTINUOUS
 10
9.8440590051
 20
7.3295377335
 11
9.8260691883
 21
7.3407790186
  0
LINE
  5
2A3
100
AcDbEntity
  8
0
100
AcDbLine
 62
7
  6
CONTINUOUS
 10
11.3005368172
 20
6.3832485445
 11
11.2992531424
 21
6.3841143941
  0
LINE
  5
2A4
100
AcDbEntity
  8
0
100
AcDbLine
 62
7
  6
CONTINUOUS
 10
9.8350971167
 20
7.3717001034
 11
9.817510574
 21
7.3835623762
  0
LINE
  5
2A5
100
AcDbEntity
  8
0
100
AcDbLine
 62
7
  6
CONTINUOUS
 10
9.8276121332
 20
7.4141495545
 11
9.8104502911
 21
7.4266183627
  0
LINE
  5
2A6
100
AcDbEntity
  8
0
100
AcDbLine
 62
7
  6
CONTINUOUS
 10
12.1731438126
 20
8.5707016941
 11
11.3180551179
 21
7.9772039408
  0
LINE
  5
2A7
100
AcDbEntity
  8
0
100
AcDbLine
 62
7
  6
CONTINUOUS
 10
10.7759284812
 20
6.1506537498
 11
10.8623682654
 21
7.1879311598
  0
LINE
  5
2A8
100
AcDbEntity
  8
0
100
AcDbLine
 62
7
  6
CONTINUOUS
 10
9.6501030074
 20
8.1006406725
 11
10.5916314861
 21
7.6568610171
  0
LINE
  5
2A9
100
AcDbEntity
  8
0
100
AcDbLine
 62
7
  6
CONTINUOUS
 10
12.4445336712
 20
8.1006406731
 11
11.5030051912
 21
7.6568610171
  0
LINE
  5
2AA
100
AcDbEntity
  8
0
100
AcDbLine
 62
7
  6
CONTINUOUS
 10
11.3187081956
 20
6.1506537558
 11
11.2322684119
 21
7.1879311598
  0
LINE
  5
2AB
100
AcDbEntity
  8
0
100
AcDbLine
 62
7
  6
CONTINUOUS
 10
9.9214928636
 20
8.5707016949
 11
10.7765815594
 21
7.9772039408
  0
LINE
  5
2AC
100
AcDbEntity
  8
0
100
AcDbLine
 62
7
  6
CONTINUOUS
 10
12.2618189574
 20
7.9031161618
 11
12.2505776722
 21
7.885126345
  0
LINE
  5
2AD
100
AcDbEntity
  8
0
100
AcDbLine
 62
7
  6
CONTINUOUS
 10
11.3251126444
 20
6.4040727057
 11
11.3138713593
 21
6.3860828889
  0
LINE
  5
2AE
100
AcDbEntity
  8
0
100
AcDbLine
 62
7
  6
CONTINUOUS
 10
12.2714018334
 20
7.8605505178
 11
12.2595395606
 21
7.8429639751
  0
LINE
  5
2AF
100
AcDbEntity
  8
0
100
AcDbLine
 62
7
  6
CONTINUOUS
 10
12.2794933523
 20
7.817676366
 11
12.2670245441
 21
7.800514524
  0
LINE
  5
2B0
100
AcDbEntity
  8
0
100
AcDbLine
 62
7
  6
CONTINUOUS
 10
12.2860836557
 20
7.7745459421
 11
12.2730235036
 21
7.7578297097
  0
LINE
  5
2B1
100
AcDbEntity
  8
0
100
AcDbLine
 62
7
  6
CONTINUOUS
 10
12.2911647144
 20
7.7312117939
 11
12.27752913
 21
7.7149615372
  0
LINE
  5
2B2
100
AcDbEntity
  8
0
100
AcDbLine
 62
7
  6
CONTINUOUS
 10
12.2947303379
 20
7.6877267172
 11
12.2805359342
 21
7.6719622348
  0
LINE
  5
2B3
100
AcDbEntity
  8
0
100
AcDbLine
 62
7
  6
CONTINUOUS
 10
12.296776182
 20
7.6441436919
 11
12.2820402526
 21
7.6288841904
  0
LINE
  5
2B4
100
AcDbEntity
  8
0
100
AcDbLine
 62
7
  6
CONTINUOUS
 10
12.2972997542
 20
7.6005158174
 11
12.2820402526
 21
7.5857798881
  0
LINE
  5
2B5
100
AcDbEntity
  8
0
100
AcDbLine
 62
7
  6
CONTINUOUS
 10
12.2963004165
 20
7.5568962474
 11
12.2805359342
 21
7.5427018437
  0
LINE
  5
2B6
100
AcDbEntity
  8
0
100
AcDbLine
 62
7
  6
CONTINUOUS
 10
12.2937793867
 20
7.5133381256
 11
12.27752913
 21
7.4997025413
  0
LINE
  5
2B7
100
AcDbEntity
  8
0
100
AcDbLine
 62
7
  6
CONTINUOUS
 10
12.289739736
 20
7.4698945209
 11
12.2730235036
 21
7.4568343688
  0
LINE
  5
2B8
100
AcDbEntity
  8
0
100
AcDbLine
 62
7
  6
CONTINUOUS
 10
12.2841863862
 20
7.4266183627
 11
12.2670245441
 21
7.4141495545
  0
LINE
  5
2B9
100
AcDbEntity
  8
0
100
AcDbLine
 62
7
  6
CONTINUOUS
 10
12.2771261033
 20
7.3835623762
 11
12.2595395606
 21
7.3717001034
  0
LINE
  5
2BA
100
AcDbEntity
  8
0
100
AcDbLine
 62
7
  6
CONTINUOUS
 10
10.7953835349
 20
6.3841143941
 11
10.7940998601
 21
6.3832485445
  0
LINE
  5
2BB
100
AcDbEntity
  8
0
100
AcDbLine
 62
7
  6
CONTINUOUS
 10
12.268567489
 20
7.3407790186
 11
12.2505776722
 21
7.3295377335
  0
LINE
  5
2BC
100
AcDbEntity
  8
0
100
AcDbLine
 62
7
  6
CONTINUOUS
 10
10.7695240329
 20
6.4040727057
 11
10.7515342161
 21
6.3928314205
  0
LINE
  5
2BD
100
AcDbEntity
  8
0
100
AcDbLine
 62
7
  6
CONTINUOUS
 10
12.2585209707
 20
7.2983204148
 11
12.2401497977
 21
7.2877138131
  0
LINE
  5
2BE
100
AcDbEntity
  8
0
100
AcDbLine
 62
7
  6
CONTINUOUS
 10
10.7277001125
 20
6.4145005802
 11
10.7093289394
 21
6.4038939785
  0
LINE
  5
2BF
100
AcDbEntity
  8
0
100
AcDbLine
 62
7
  6
CONTINUOUS
 10
12.2469987887
 20
7.2562382941
 11
12.2282686417
 21
7.2462792983
  0
LINE
  5
2C0
100
AcDbEntity
  8
0
100
AcDbLine
 62
7
  6
CONTINUOUS
 10
10.6862655977
 20
6.4263817362
 11
10.6675354508
 21
6.4164227404
  0
LINE
  5
2C1
100
AcDbEntity
  8
0
100
AcDbLine
 62
7
  6
CONTINUOUS
 10
12.2340149807
 20
7.214583927
 11
12.2149486798
 21
7.2052846707
  0
LINE
  5
2C2
100
AcDbEntity
  8
0
100
AcDbLine
 62
7
  6
CONTINUOUS
 10
10.6452709701
 20
6.4397016981
 11
10.6262046691
 21
6.4304024418
  0
LINE
  5
2C3
100
AcDbEntity
  8
0
100
AcDbLine
 62
7
  6
CONTINUOUS
 10
12.2195853658
 20
7.173408063
 11
12.2002061401
 21
7.1647798758
  0
LINE
  5
2C4
100
AcDbEntity
  8
0
100
AcDbLine
 62
7
  6
CONTINUOUS
 10
10.6047661752
 20
6.4544442378
 11
10.5853869496
 21
6.4458160506
  0
LINE
  5
2C5
100
AcDbEntity
  8
0
100
AcDbLine
 62
7
  6
CONTINUOUS
 10
12.203727524
 20
7.1327608685
 11
12.1840589843
 21
7.1248142626
  0
LINE
  5
2C6
100
AcDbEntity
  8
0
100
AcDbLine
 62
7
  6
CONTINUOUS
 10
10.564800562
 20
6.4705913937
 11
10.5451320223
 21
6.4626447878
  0
LINE
  5
2C7
100
AcDbEntity
  8
0
100
AcDbLine
 62
7
  6
CONTINUOUS
 10
12.1864607757
 20
7.0926918659
 11
12.166526885
 21
7.085436523
  0
LINE
  5
2C8
100
AcDbEntity
  8
0
100
AcDbLine
 62
7
  6
CONTINUOUS
 10
10.5254228224
 20
6.4881234929
 11
10.5054889317
 21
6.48086815
  0
LINE
  5
2C9
100
AcDbEntity
  8
0
100
AcDbLine
 62
7
  6
CONTINUOUS
 10
12.1678061579
 20
7.0532498731
 11
12.1476312026
 21
7.0466946327
  0
LINE
  5
2CA
100
AcDbEntity
  8
0
100
AcDbLine
 62
7
  6
CONTINUOUS
 10
10.4866809321
 20
6.5070191754
 11
10.4665059767
 21
6.500463935
  0
LINE
  5
2CB
100
AcDbEntity
  8
0
100
AcDbLine
 62
7
  6
CONTINUOUS
 10
12.1477863983
 20
7.014482944
 11
12.1273949584
 21
7.0086357927
  0
LINE
  5
2CC
100
AcDbEntity
  8
0
100
AcDbLine
 62
7
  6
CONTINUOUS
 10
10.4486220921
 20
6.5272554195
 11
10.4282306522
 21
6.5214082682
  0
LINE
  5
2CD
100
AcDbEntity
  8
0
100
AcDbLine
 62
7
  6
CONTINUOUS
 10
11.8222549972
 20
8.5881343513
 11
11.8244723807
 21
8.567037356
  0
LINE
  5
2CE
100
AcDbEntity
  8
0
100
AcDbLine
 62
7
  6
CONTINUOUS
 10
12.0070236554
 20
6.8301779972
 11
12.009241039
 21
6.8090810019
  0
LINE
  5
2CF
100
AcDbEntity
  8
0
100
AcDbLine
 62
7
  6
CONTINUOUS
 10
11.8560124338
 20
8.5604919737
 11
11.857492192
 21
8.5393304445
  0
LINE
  5
2D0
100
AcDbEntity
  8
0
100
AcDbLine
 62
7
  6
CONTINUOUS
 10
11.9793167439
 20
6.7971581859
 11
11.9807965022
 21
6.7759966567
  0
LINE
  5
2D1
100
AcDbEntity
  8
0
100
AcDbLine
 62
7
  6
CONTINUOUS
 10
11.9512146661
 20
6.7439251657
 11
11.950474336
 21
6.7651254466
  0
LINE
  5
2D2
100
AcDbEntity
  8
0
100
AcDbLine
 62
7
  6
CONTINUOUS
 10
11.8895249313
 20
8.5104880365
 11
11.8887846011
 21
8.5316883175
  0
LINE
  5
2D3
100
AcDbEntity
  8
0
100
AcDbLine
 62
7
  6
CONTINUOUS
 10
11.9205315715
 20
6.7129056029
 11
11.9205315715
 21
6.7341188064
  0
LINE
  5
2D4
100
AcDbEntity
  8
0
100
AcDbLine
 62
7
  6
CONTINUOUS
 10
11.9205315715
 20
8.4805452721
 11
11.9205315715
 21
8.5017584755
  0
LINE
  5
2D5
100
AcDbEntity
  8
0
100
AcDbLine
 62
7
  6
CONTINUOUS
 10
11.8887846011
 20
6.682975761
 11
11.8895249313
 21
6.704176042
  0
LINE
  5
2D6
100
AcDbEntity
  8
0
100
AcDbLine
 62
7
  6
CONTINUOUS
 10
11.950474336
 20
8.4495386319
 11
11.9512146661
 21
8.4707389128
  0
LINE
  5
2D7
100
AcDbEntity
  8
0
100
AcDbLine
 62
7
  6
CONTINUOUS
 10
11.9807965022
 20
8.4386674218
 11
11.9806884919
 21
8.437122802
  0
LINE
  5
2D8
100
AcDbEntity
  8
0
100
AcDbLine
 62
7
  6
CONTINUOUS
 10
11.857492192
 20
6.675333634
 11
11.8560124338
 21
6.6541721048
  0
LINE
  5
2D9
100
AcDbEntity
  8
0
100
AcDbLine
 62
7
  6
CONTINUOUS
 10
11.8244723807
 20
6.6476267225
 11
11.8222549972
 21
6.6265297272
  0
LINE
  5
2DA
100
AcDbEntity
  8
0
100
AcDbLine
 62
7
  6
CONTINUOUS
 10
11.7905057269
 20
6.6210890641
 11
11.7875534196
 21
6.6000823061
  0
LINE
  5
2DB
100
AcDbEntity
  8
0
100
AcDbLine
 62
7
  6
CONTINUOUS
 10
11.7556336138
 20
6.5957529909
 11
11.7519499797
 21
6.5748620637
  0
LINE
  5
2DC
100
AcDbEntity
  8
0
100
AcDbLine
 62
7
  6
CONTINUOUS
 10
11.7198985276
 20
6.5716493709
 11
11.7154880546
 21
6.5508997269
  0
LINE
  5
2DD
100
AcDbEntity
  8
0
100
AcDbLine
 62
7
  6
CONTINUOUS
 10
11.6833440061
 20
6.5488075707
 11
11.6782120677
 21
6.5282244901
  0
LINE
  5
2DE
100
AcDbEntity
  8
0
100
AcDbLine
 62
7
  6
CONTINUOUS
 10
11.6460145852
 20
6.5272554195
 11
11.6401674339
 21
6.5068639796
  0
LINE
  5
2DF
100
AcDbEntity
  8
0
100
AcDbLine
 62
7
  6
CONTINUOUS
 10
11.6079557452
 20
6.5070191754
 11
11.6014005049
 21
6.48684422
  0
LINE
  5
2E0
100
AcDbEntity
  8
0
100
AcDbLine
 62
7
  6
CONTINUOUS
 10
11.5692138549
 20
6.4881234929
 11
11.561958512
 21
6.4681896022
  0
LINE
  5
2E1
100
AcDbEntity
  8
0
100
AcDbLine
 62
7
  6
CONTINUOUS
 10
11.5298361153
 20
6.4705913937
 11
11.5218895094
 21
6.4509228539
  0
LINE
  5
2E2
100
AcDbEntity
  8
0
100
AcDbLine
 62
7
  6
CONTINUOUS
 10
11.4898705021
 20
6.4544442378
 11
11.4812423149
 21
6.4350650121
  0
LINE
  5
2E3
100
AcDbEntity
  8
0
100
AcDbLine
 62
7
  6
CONTINUOUS
 10
11.4493657072
 20
6.4397016981
 11
11.4400664509
 21
6.4206353972
  0
LINE
  5
2E4
100
AcDbEntity
  8
0
100
AcDbLine
 62
7
  6
CONTINUOUS
 10
12.2382276375
 20
7.9871149271
 11
12.2282686417
 21
7.9683847802
  0
LINE
  5
2E5
100
AcDbEntity
  8
0
100
AcDbLine
 62
7
  6
CONTINUOUS
 10
11.4083710796
 20
6.4263817362
 11
11.3984120838
 21
6.4076515893
  0
LINE
  5
2E6
100
AcDbEntity
  8
0
100
AcDbLine
 62
7
  6
CONTINUOUS
 10
12.2507563994
 20
7.9453214385
 11
12.2401497977
 21
7.9269502654
  0
LINE
  5
2E7
100
AcDbEntity
  8
0
100
AcDbLine
 62
7
  6
CONTINUOUS
 10
11.3669365648
 20
6.4145005802
 11
11.3563299631
 21
6.3961294072
  0
LINE
  5
2E8
100
AcDbEntity
  8
0
100
AcDbLine
 62
7
  6
CONTINUOUS
 10
11.3138713593
 20
8.8285811896
 11
11.3251126444
 21
8.8105913728
  0
LINE
  5
2E9
100
AcDbEntity
  8
0
100
AcDbLine
 62
7
  6
CONTINUOUS
 10
12.2505776722
 20
7.3295377335
 11
12.2618189574
 21
7.3115479167
  0
LINE
  5
2EA
100
AcDbEntity
  8
0
100
AcDbLine
 62
7
  6
CONTINUOUS
 10
11.3563299631
 20
8.8185346713
 11
11.3669365648
 21
8.8001634983
  0
LINE
  5
2EB
100
AcDbEntity
  8
0
100
AcDbLine
 62
7
  6
CONTINUOUS
 10
12.2401497977
 20
7.2877138131
 11
12.2507563994
 21
7.26934264
  0
LINE
  5
2EC
100
AcDbEntity
  8
0
100
AcDbLine
 62
7
  6
CONTINUOUS
 10
11.3984120838
 20
8.8070124892
 11
11.4083710796
 21
8.7882823423
  0
LINE
  5
2ED
100
AcDbEntity
  8
0
100
AcDbLine
 62
7
  6
CONTINUOUS
 10
12.2282686417
 20
7.2462792983
 11
12.2382276375
 21
7.2275491514
  0
LINE
  5
2EE
100
AcDbEntity
  8
0
100
AcDbLine
 62
7
  6
CONTINUOUS
 10
11.4400664509
 20
8.7940286813
 11
11.4493657072
 21
8.7749623804
  0
LINE
  5
2EF
100
AcDbEntity
  8
0
100
AcDbLine
 62
7
  6
CONTINUOUS
 10
12.2149486798
 20
7.2052846707
 11
12.2242479361
 21
7.1862183697
  0
LINE
  5
2F0
100
AcDbEntity
  8
0
100
AcDbLine
 62
7
  6
CONTINUOUS
 10
11.4812423149
 20
8.7795990664
 11
11.4898705021
 21
8.7602198407
  0
LINE
  5
2F1
100
AcDbEntity
  8
0
100
AcDbLine
 62
7
  6
CONTINUOUS
 10
12.2002061401
 20
7.1647798758
 11
12.2088343273
 21
7.1454006502
  0
LINE
  5
2F2
100
AcDbEntity
  8
0
100
AcDbLine
 62
7
  6
CONTINUOUS
 10
11.5218895094
 20
8.7637412246
 11
11.5298361153
 21
8.7440726848
  0
LINE
  5
2F3
100
AcDbEntity
  8
0
100
AcDbLine
 62
7
  6
CONTINUOUS
 10
12.1840589843
 20
7.1248142626
 11
12.1920055901
 21
7.1051457229
  0
LINE
  5
2F4
100
AcDbEntity
  8
0
100
AcDbLine
 62
7
  6
CONTINUOUS
 10
11.561958512
 20
8.7464744763
 11
11.5692138549
 21
8.7265405856
  0
LINE
  5
2F5
100
AcDbEntity
  8
0
100
AcDbLine
 62
7
  6
CONTINUOUS
 10
12.166526885
 20
7.085436523
 11
12.1737822279
 21
7.0655026323
  0
LINE
  5
2F6
100
AcDbEntity
  8
0
100
AcDbLine
 62
7
  6
CONTINUOUS
 10
11.6014005049
 20
8.7278198585
 11
11.6079557452
 21
8.7076449031
  0
LINE
  5
2F7
100
AcDbEntity
  8
0
100
AcDbLine
 62
7
  6
CONTINUOUS
 10
12.1476312026
 20
7.0466946327
 11
12.1541864429
 21
7.0265196773
  0
LINE
  5
2F8
100
AcDbEntity
  8
0
100
AcDbLine
 62
7
  6
CONTINUOUS
 10
11.6401674339
 20
8.7078000989
 11
11.6460145852
 21
8.687408659
  0
LINE
  5
2F9
100
AcDbEntity
  8
0
100
AcDbLine
 62
7
  6
CONTINUOUS
 10
12.1273949584
 20
7.0086357927
 11
12.1332421097
 21
6.9882443528
  0
LINE
  5
2FA
100
AcDbEntity
  8
0
100
AcDbLine
 62
7
  6
CONTINUOUS
 10
11.6782120677
 20
8.6864395884
 11
11.6833440061
 21
8.6658565078
  0
LINE
  5
2FB
100
AcDbEntity
  8
0
100
AcDbLine
 62
7
  6
CONTINUOUS
 10
12.1058428072
 20
6.9713063718
 11
12.1109747456
 21
6.9507232912
  0
LINE
  5
2FC
100
AcDbEntity
  8
0
100
AcDbLine
 62
7
  6
CONTINUOUS
 10
11.7154880546
 20
8.6637643516
 11
11.7198985276
 21
8.6430147076
  0
LINE
  5
2FD
100
AcDbEntity
  8
0
100
AcDbLine
 62
7
  6
CONTINUOUS
 10
12.083001007
 20
6.9347518503
 11
12.08741148
 21
6.9140022062
  0
LINE
  5
2FE
100
AcDbEntity
  8
0
100
AcDbLine
 62
7
  6
CONTINUOUS
 10
11.7519499797
 20
8.6398020148
 11
11.7556336138
 21
8.6189110876
  0
LINE
  5
2FF
100
AcDbEntity
  8
0
100
AcDbLine
 62
7
  6
CONTINUOUS
 10
12.058897387
 20
6.8990167641
 11
12.0625810211
 21
6.8781258369
  0
LINE
  5
300
100
AcDbEntity
  8
0
100
AcDbLine
 62
7
  6
CONTINUOUS
 10
11.7875534196
 20
8.6145817724
 11
11.7905057269
 21
8.5935750144
  0
LINE
  5
301
100
AcDbEntity
  8
0
100
AcDbLine
 62
7
  6
CONTINUOUS
 10
12.0335613138
 20
6.864144651
 11
12.0365136211
 21
6.843137893
  0
LINE
  5
302
100
AcDbEntity
  8
0
100
AcDbLine
 62
7
  6
CONTINUOUS
 10
11.6833440061
 20
8.6658565078
 11
11.7039270867
 21
8.6709884462
  0
LINE
  5
303
100
AcDbEntity
  8
0
100
AcDbLine
 62
7
  6
CONTINUOUS
 10
11.7198985276
 20
8.6430147076
 11
11.7406481717
 21
8.6474251806
  0
LINE
  5
304
100
AcDbEntity
  8
0
100
AcDbLine
 62
7
  6
CONTINUOUS
 10
11.7556336138
 20
8.6189110876
 11
11.776524541
 21
8.6225947217
  0
LINE
  5
305
100
AcDbEntity
  8
0
100
AcDbLine
 62
7
  6
CONTINUOUS
 10
11.7905057269
 20
8.5935750144
 11
11.8115124849
 21
8.5965273217
  0
LINE
  5
306
100
AcDbEntity
  8
0
100
AcDbLine
 62
7
  6
CONTINUOUS
 10
11.8244723807
 20
8.567037356
 11
11.845569376
 21
8.5692547395
  0
LINE
  5
307
100
AcDbEntity
  8
0
100
AcDbLine
 62
7
  6
CONTINUOUS
 10
11.857492192
 20
8.5393304445
 11
11.8786537212
 21
8.5408102028
  0
LINE
  5
308
100
AcDbEntity
  8
0
100
AcDbLine
 62
7
  6
CONTINUOUS
 10
11.9107252122
 20
8.5112283667
 11
11.8895249313
 21
8.5104880365
  0
LINE
  5
309
100
AcDbEntity
  8
0
100
AcDbLine
 62
7
  6
CONTINUOUS
 10
10.1441623414
 20
8.4495386319
 11
10.1229620604
 21
8.4487983017
  0
LINE
  5
30A
100
AcDbEntity
  8
0
100
AcDbLine
 62
7
  6
CONTINUOUS
 10
11.941744775
 20
8.4805452721
 11
11.9205315715
 21
8.4805452721
  0
LINE
  5
30B
100
AcDbEntity
  8
0
100
AcDbLine
 62
7
  6
CONTINUOUS
 10
10.1741051058
 20
8.4805452721
 11
10.1528919024
 21
8.4805452721
  0
LINE
  5
30C
100
AcDbEntity
  8
0
100
AcDbLine
 62
7
  6
CONTINUOUS
 10
11.9716746169
 20
8.4487983017
 11
11.950474336
 21
8.4495386319
  0
LINE
  5
30D
100
AcDbEntity
  8
0
100
AcDbLine
 62
7
  6
CONTINUOUS
 10
10.205111746
 20
8.5104880365
 11
10.1839114651
 21
8.5112283667
  0
LINE
  5
30E
100
AcDbEntity
  8
0
100
AcDbLine
 62
7
  6
CONTINUOUS
 10
10.2159829562
 20
8.5408102028
 11
10.2371444853
 21
8.5393304445
  0
LINE
  5
30F
100
AcDbEntity
  8
0
100
AcDbLine
 62
7
  6
CONTINUOUS
 10
10.2490673013
 20
8.5692547395
 11
10.2701642966
 21
8.567037356
  0
LINE
  5
310
100
AcDbEntity
  8
0
100
AcDbLine
 62
7
  6
CONTINUOUS
 10
10.2831241924
 20
8.5965273217
 11
10.3041309504
 21
8.5935750144
  0
LINE
  5
311
100
AcDbEntity
  8
0
100
AcDbLine
 62
7
  6
CONTINUOUS
 10
10.3181121363
 20
8.6225947217
 11
10.3390030635
 21
8.6189110876
  0
LINE
  5
312
100
AcDbEntity
  8
0
100
AcDbLine
 62
7
  6
CONTINUOUS
 10
10.3539885056
 20
8.6474251806
 11
10.3747381497
 21
8.6430147076
  0
LINE
  5
313
100
AcDbEntity
  8
0
100
AcDbLine
 62
7
  6
CONTINUOUS
 10
10.3907095906
 20
8.6709884462
 11
10.4112926712
 21
8.6658565078
  0
LINE
  5
314
100
AcDbEntity
  8
0
100
AcDbLine
 62
7
  6
CONTINUOUS
 10
10.4282306522
 20
8.6932558103
 11
10.4486220921
 21
8.687408659
  0
LINE
  5
315
100
AcDbEntity
  8
0
100
AcDbLine
 62
7
  6
CONTINUOUS
 10
10.4665059767
 20
8.7142001435
 11
10.4866809321
 21
8.7076449031
  0
LINE
  5
316
100
AcDbEntity
  8
0
100
AcDbLine
 62
7
  6
CONTINUOUS
 10
10.5054889317
 20
8.7337959285
 11
10.5254228224
 21
8.7265405856
  0
LINE
  5
317
100
AcDbEntity
  8
0
100
AcDbLine
 62
7
  6
CONTINUOUS
 10
10.5451320223
 20
8.7520192907
 11
10.564800562
 21
8.7440726848
  0
LINE
  5
318
100
AcDbEntity
  8
0
100
AcDbLine
 62
7
  6
CONTINUOUS
 10
10.5853869496
 20
8.7688480279
 11
10.6047661752
 21
8.7602198407
  0
LINE
  5
319
100
AcDbEntity
  8
0
100
AcDbLine
 62
7
  6
CONTINUOUS
 10
10.6262046691
 20
8.7842616367
 11
10.6452709701
 21
8.7749623804
  0
LINE
  5
31A
100
AcDbEntity
  8
0
100
AcDbLine
 62
7
  6
CONTINUOUS
 10
12.2326232956
 20
8.0007589217
 11
12.2340149807
 21
8.0000801515
  0
LINE
  5
31B
100
AcDbEntity
  8
0
100
AcDbLine
 62
7
  6
CONTINUOUS
 10
10.6675354508
 20
8.7982413381
 11
10.6862655977
 21
8.7882823423
  0
LINE
  5
31C
100
AcDbEntity
  8
0
100
AcDbLine
 62
7
  6
CONTINUOUS
 10
12.2282686417
 20
7.9683847802
 11
12.2469987887
 21
7.9584257844
  0
LINE
  5
31D
100
AcDbEntity
  8
0
100
AcDbLine
 62
7
  6
CONTINUOUS
 10
10.7093289394
 20
8.8107701
 11
10.7277001125
 21
8.8001634983
  0
LINE
  5
31E
100
AcDbEntity
  8
0
100
AcDbLine
 62
7
  6
CONTINUOUS
 10
12.2401497977
 20
7.9269502654
 11
12.2585209707
 21
7.9163436637
  0
LINE
  5
31F
100
AcDbEntity
  8
0
100
AcDbLine
 62
7
  6
CONTINUOUS
 10
10.7515342161
 20
8.821832658
 11
10.7695240329
 21
8.8105913728
  0
LINE
  5
320
100
AcDbEntity
  8
0
100
AcDbLine
 62
7
  6
CONTINUOUS
 10
12.2505776722
 20
7.885126345
 11
12.268567489
 21
7.8738850599
  0
LINE
  5
321
100
AcDbEntity
  8
0
100
AcDbLine
 62
7
  6
CONTINUOUS
 10
10.7940998601
 20
8.831415534
 11
10.8116864028
 21
8.8195532612
  0
LINE
  5
322
100
AcDbEntity
  8
0
100
AcDbLine
 62
7
  6
CONTINUOUS
 10
12.2595395606
 20
7.8429639751
 11
12.2771261033
 21
7.8311017023
  0
LINE
  5
323
100
AcDbEntity
  8
0
100
AcDbLine
 62
7
  6
CONTINUOUS
 10
10.8369740119
 20
8.8395070529
 11
10.8541358539
 21
8.8270382447
  0
LINE
  5
324
100
AcDbEntity
  8
0
100
AcDbLine
 62
7
  6
CONTINUOUS
 10
12.2670245441
 20
7.800514524
 11
12.2841863862
 21
7.7880457158
  0
LINE
  5
325
100
AcDbEntity
  8
0
100
AcDbLine
 62
7
  6
CONTINUOUS
 10
10.8801044358
 20
8.8460973563
 11
10.8968206682
 21
8.8330372042
  0
LINE
  5
326
100
AcDbEntity
  8
0
100
AcDbLine
 62
7
  6
CONTINUOUS
 10
12.2730235036
 20
7.7578297097
 11
12.289739736
 21
7.7447695576
  0
LINE
  5
327
100
AcDbEntity
  8
0
100
AcDbLine
 62
7
  6
CONTINUOUS
 10
10.9234385841
 20
8.851178415
 11
10.9396888407
 21
8.8375428306
  0
LINE
  5
328
100
AcDbEntity
  8
0
100
AcDbLine
 62
7
  6
CONTINUOUS
 10
12.27752913
 20
7.7149615372
 11
12.2937793867
 21
7.7013259529
  0
LINE
  5
329
100
AcDbEntity
  8
0
100
AcDbLine
 62
7
  6
CONTINUOUS
 10
10.9669236607
 20
8.8547440385
 11
10.9826881431
 21
8.8405496348
  0
LINE
  5
32A
100
AcDbEntity
  8
0
100
AcDbLine
 62
7
  6
CONTINUOUS
 10
12.2805359342
 20
7.6719622348
 11
12.2963004165
 21
7.6577678311
  0
LINE
  5
32B
100
AcDbEntity
  8
0
100
AcDbLine
 62
7
  6
CONTINUOUS
 10
11.010506686
 20
8.8567898826
 11
11.0257661875
 21
8.8420539532
  0
LINE
  5
32C
100
AcDbEntity
  8
0
100
AcDbLine
 62
7
  6
CONTINUOUS
 10
12.2820402526
 20
7.6288841904
 11
12.2972997542
 21
7.6141482611
  0
LINE
  5
32D
100
AcDbEntity
  8
0
100
AcDbLine
 62
7
  6
CONTINUOUS
 10
11.0541345605
 20
8.8573134548
 11
11.0688704898
 21
8.8420539532
  0
LINE
  5
32E
100
AcDbEntity
  8
0
100
AcDbLine
 62
7
  6
CONTINUOUS
 10
12.2820402526
 20
7.5857798881
 11
12.296776182
 21
7.5705203865
  0
LINE
  5
32F
100
AcDbEntity
  8
0
100
AcDbLine
 62
7
  6
CONTINUOUS
 10
11.0977541305
 20
8.8563141171
 11
11.1119485342
 21
8.8405496348
  0
LINE
  5
330
100
AcDbEntity
  8
0
100
AcDbLine
 62
7
  6
CONTINUOUS
 10
12.2805359342
 20
7.5427018437
 11
12.2947303379
 21
7.5269373613
  0
LINE
  5
331
100
AcDbEntity
  8
0
100
AcDbLine
 62
7
  6
CONTINUOUS
 10
11.1413122523
 20
8.8537930873
 11
11.1549478367
 21
8.8375428306
  0
LINE
  5
332
100
AcDbEntity
  8
0
100
AcDbLine
 62
7
  6
CONTINUOUS
 10
12.27752913
 20
7.4997025413
 11
12.2911647144
 21
7.4834522846
  0
LINE
  5
333
100
AcDbEntity
  8
0
100
AcDbLine
 62
7
  6
CONTINUOUS
 10
11.184755857
 20
8.8497534366
 11
11.1978160091
 21
8.8330372042
  0
LINE
  5
334
100
AcDbEntity
  8
0
100
AcDbLine
 62
7
  6
CONTINUOUS
 10
12.2730235036
 20
7.4568343688
 11
12.2860836557
 21
7.4401181364
  0
LINE
  5
335
100
AcDbEntity
  8
0
100
AcDbLine
 62
7
  6
CONTINUOUS
 10
11.2280320152
 20
8.8442000868
 11
11.2405008234
 21
8.8270382447
  0
LINE
  5
336
100
AcDbEntity
  8
0
100
AcDbLine
 62
7
  6
CONTINUOUS
 10
12.2670245441
 20
7.4141495545
 11
12.2794933523
 21
7.3969877124
  0
LINE
  5
337
100
AcDbEntity
  8
0
100
AcDbLine
 62
7
  6
CONTINUOUS
 10
11.2710880017
 20
8.8371398039
 11
11.2829502745
 21
8.8195532612
  0
LINE
  5
338
100
AcDbEntity
  8
0
100
AcDbLine
 62
7
  6
CONTINUOUS
 10
12.2595395606
 20
7.3717001034
 11
12.2714018334
 21
7.3541135607
  0
LINE
  5
339
100
AcDbEntity
  8
0
100
AcDbLine
 62
9
  6
CONTINUOUS
 10
12.4284762038
 20
8.131814729
 11
12.1921126159
 21
8.5412084572
  0
LINE
  5
33A
100
AcDbEntity
  8
0
100
AcDbLine
 62
7
  6
CONTINUOUS
 10
12.4621204488
 20
8.1568229019
 11
12.2305924403
 21
8.5578411759
  0
ARC
  5
33B
100
AcDbEntity
  8
0
100
AcDbCircle
 62
9
  6
CONTINUOUS
 10
-136.7421768499
 20
-202.783305947
 40
257.2211451237
100
AcDbArc
 50
55.0101189909
 51
55.2420076733
  0
ARC
  5
33C
100
AcDbEntity
  8
0
100
AcDbCircle
 62
9
  6
CONTINUOUS
 10
-245.0513772606
 20
-15.1868338109
 40
257.2214571302
100
AcDbArc
 50
4.7579927084
 51
4.9898808075
  0
ARC
  5
33D
100
AcDbEntity
  8
0
100
AcDbCircle
 62
9
  6
CONTINUOUS
 10
10.217777817
 20
7.541874376
 40
0.4320581959
100
AcDbArc
 50
7.2779225535
 51
8.6678089106
  0
ARC
  5
33E
100
AcDbEntity
  8
0
100
AcDbCircle
 62
9
  6
CONTINUOUS
 10
10.2743533239
 20
7.5502480301
 40
0.3748669811
100
AcDbArc
 50
8.7057474988
 51
8.9984348161
  0
ARC
  5
33F
100
AcDbEntity
  8
0
100
AcDbCircle
 62
7
  6
CONTINUOUS
 10
9.6671572401
 20
8.1368228939
 40
0.04
100
AcDbArc
 50
150.0
 51
244.7635652646
  0
ARC
  5
340
100
AcDbEntity
  8
0
100
AcDbCircle
 62
7
  6
CONTINUOUS
 10
9.8986852582
 20
8.5378411846
 40
0.04
100
AcDbArc
 50
55.2364357439
 51
150.0
  0
ARC
  5
341
100
AcDbEntity
  8
0
100
AcDbCircle
 62
9
  6
CONTINUOUS
 10
10.762361057
 20
7.1980409879
 40
0.1375536349
100
AcDbArc
 50
355.0767518425
 51
357.5610758104
  0
ARC
  5
342
100
AcDbEntity
  8
0
100
AcDbCircle
 62
7
  6
CONTINUOUS
 10
10.7627136895
 20
7.1962357078
 40
0.1
100
AcDbArc
 50
355.2363583093
 51
55.3046606012
  0
ARC
  5
343
100
AcDbEntity
  8
0
100
AcDbCircle
 62
7
  6
CONTINUOUS
 10
10.8157903206
 20
6.1473320392
 40
0.04
100
AcDbArc
 50
175.2364357444
 51
270.0
  0
ARC
  5
344
100
AcDbEntity
  8
0
100
AcDbCircle
 62
9
  6
CONTINUOUS
 10
11.0308671945
 20
7.6168288822
 40
0.4227259663
100
AcDbArc
 50
129.5741784858
 51
170.425436172
  0
ARC
  5
345
100
AcDbEntity
  8
0
100
AcDbCircle
 62
9
  6
CONTINUOUS
 10
10.5500993723
 20
7.5646066935
 40
0.138208896
100
AcDbArc
 50
62.4479478734
 51
64.9203369909
  0
ARC
  5
346
100
AcDbEntity
  8
0
100
AcDbCircle
 62
9
  6
CONTINUOUS
 10
10.8349570909
 20
8.0581953112
 40
0.136872914
100
AcDbArc
 50
235.0746038746
 51
237.5703471321
  0
ARC
  5
347
100
AcDbEntity
  8
0
100
AcDbCircle
 62
7
  6
CONTINUOUS
 10
10.8336007968
 20
8.0593550611
 40
0.1
100
AcDbArc
 50
235.2363583093
 51
295.3051869082
  0
ARC
  5
348
100
AcDbEntity
  8
0
100
AcDbCircle
 62
7
  6
CONTINUOUS
 10
10.5489961477
 20
7.5664053488
 40
0.1
100
AcDbArc
 50
4.6941912694
 51
64.7636416907
  0
ARC
  5
349
100
AcDbEntity
  8
0
100
AcDbCircle
 62
9
  6
CONTINUOUS
 10
-97.2607244542
 20
240.7903059493
 40
257.2191537676
100
AcDbArc
 50
295.0101188975
 51
295.2420082574
  0
ARC
  5
34A
100
AcDbEntity
  8
0
100
AcDbCircle
 62
9
  6
CONTINUOUS
 10
11.3321521688
 20
7.1980303075
 40
0.1374297286
100
AcDbArc
 50
182.4366483446
 51
184.923133245
  0
ARC
  5
34B
100
AcDbEntity
  8
0
100
AcDbCircle
 62
7
  6
CONTINUOUS
 10
11.3319229878
 20
7.1962357078
 40
0.1
100
AcDbArc
 50
124.6952023384
 51
184.7636416907
  0
ARC
  5
34C
100
AcDbEntity
  8
0
100
AcDbCircle
 62
7
  6
CONTINUOUS
 10
11.2788463567
 20
6.1473320392
 40
0.04
100
AcDbArc
 50
270.0
 51
4.7635686101
  0
ARC
  5
34D
100
AcDbEntity
  8
0
100
AcDbCircle
 62
7
  6
CONTINUOUS
 10
11.0473183387
 20
7.6073320392
 40
1.25
100
AcDbArc
 50
344.3602728294
 51
352.3124341436
  0
ARC
  5
34E
100
AcDbEntity
  8
0
100
AcDbCircle
 62
7
  6
CONTINUOUS
 10
11.0473183387
 20
7.6073320392
 40
1.25
100
AcDbArc
 50
319.6875658564
 51
344.3124341436
  0
ARC
  5
34F
100
AcDbEntity
  8
0
100
AcDbCircle
 62
7
  6
CONTINUOUS
 10
11.0473183387
 20
7.6073320392
 40
1.25
100
AcDbArc
 50
318.3571304608
 51
319.6526461076
  0
ARC
  5
350
100
AcDbEntity
  8
0
100
AcDbCircle
 62
7
  6
CONTINUOUS
 10
11.0473183387
 20
7.6073320392
 40
1.25
100
AcDbArc
 50
311.6875658564
 51
318.3124341436
  0
ARC
  5
351
100
AcDbEntity
  8
0
100
AcDbCircle
 62
7
  6
CONTINUOUS
 10
11.0473183387
 20
7.6073320392
 40
1.25
100
AcDbArc
 50
310.3473538924
 51
311.6428695392
  0
ARC
  5
352
100
AcDbEntity
  8
0
100
AcDbCircle
 62
7
  6
CONTINUOUS
 10
11.0473183387
 20
7.6073320392
 40
1.25
100
AcDbArc
 50
285.6875658564
 51
310.3124341436
  0
ARC
  5
353
100
AcDbEntity
  8
0
100
AcDbCircle
 62
7
  6
CONTINUOUS
 10
11.0473183387
 20
7.6073320392
 40
1.25
100
AcDbArc
 50
281.6875658564
 51
285.6397271706
  0
ARC
  5
354
100
AcDbEntity
  8
0
100
AcDbCircle
 62
7
  6
CONTINUOUS
 10
11.0473183387
 20
7.6073320392
 40
1.25
100
AcDbArc
 50
258.3499230491
 51
258.4498169832
  0
ARC
  5
355
100
AcDbEntity
  8
0
100
AcDbCircle
 62
7
  6
CONTINUOUS
 10
11.0473183387
 20
7.6073320392
 40
1.25
100
AcDbArc
 50
254.3602728294
 51
258.3124341436
  0
ARC
  5
356
100
AcDbEntity
  8
0
100
AcDbCircle
 62
7
  6
CONTINUOUS
 10
11.0473183387
 20
7.6073320392
 40
1.25
100
AcDbArc
 50
229.6875658564
 51
254.3124341436
  0
ARC
  5
357
100
AcDbEntity
  8
0
100
AcDbCircle
 62
7
  6
CONTINUOUS
 10
11.0473183387
 20
7.6073320392
 40
1.25
100
AcDbArc
 50
228.3571304608
 51
229.6526461076
  0
ARC
  5
358
100
AcDbEntity
  8
0
100
AcDbCircle
 62
7
  6
CONTINUOUS
 10
11.0473183387
 20
7.6073320392
 40
1.25
100
AcDbArc
 50
221.6875658564
 51
228.3124341436
  0
ARC
  5
359
100
AcDbEntity
  8
0
100
AcDbCircle
 62
7
  6
CONTINUOUS
 10
11.0473183387
 20
7.6073320392
 40
1.25
100
AcDbArc
 50
220.3473538924
 51
221.6428695392
  0
ARC
  5
35A
100
AcDbEntity
  8
0
100
AcDbCircle
 62
7
  6
CONTINUOUS
 10
11.0473183387
 20
7.6073320392
 40
1.25
100
AcDbArc
 50
195.6875658564
 51
220.3124341436
  0
ARC
  5
35B
100
AcDbEntity
  8
0
100
AcDbCircle
 62
7
  6
CONTINUOUS
 10
11.0473183387
 20
7.6073320392
 40
1.25
100
AcDbArc
 50
187.6875658564
 51
195.6397271706
  0
ARC
  5
35C
100
AcDbEntity
  8
0
100
AcDbCircle
 62
7
  6
CONTINUOUS
 10
11.0473183387
 20
7.6073320392
 40
1.25
100
AcDbArc
 50
172.3484517069
 51
187.6515482931
  0
ARC
  5
35D
100
AcDbEntity
  8
0
100
AcDbCircle
 62
7
  6
CONTINUOUS
 10
11.0473183387
 20
7.6073320392
 40
1.25
100
AcDbArc
 50
164.3602728294
 51
172.3124341436
  0
ARC
  5
35E
100
AcDbEntity
  8
0
100
AcDbCircle
 62
7
  6
CONTINUOUS
 10
11.0473183387
 20
7.6073320392
 40
1.25
100
AcDbArc
 50
161.6875658564
 51
164.3124341436
  0
ARC
  5
35F
100
AcDbEntity
  8
0
100
AcDbCircle
 62
7
  6
CONTINUOUS
 10
11.0473183387
 20
7.6073320392
 40
1.25
100
AcDbArc
 50
161.5773280491
 51
161.6421769358
  0
ARC
  5
360
100
AcDbEntity
  8
0
100
AcDbCircle
 62
7
  6
CONTINUOUS
 10
11.0473183387
 20
7.6073320392
 40
1.25
100
AcDbArc
 50
131.6875658564
 51
138.3124341436
  0
ARC
  5
361
100
AcDbEntity
  8
0
100
AcDbCircle
 62
7
  6
CONTINUOUS
 10
11.0473183387
 20
7.6073320392
 40
1.25
100
AcDbArc
 50
130.3473538924
 51
131.6428695392
  0
ARC
  5
362
100
AcDbEntity
  8
0
100
AcDbCircle
 62
7
  6
CONTINUOUS
 10
11.0473183387
 20
7.6073320392
 40
1.25
100
AcDbArc
 50
105.6875658564
 51
130.3124341436
  0
ARC
  5
363
100
AcDbEntity
  8
0
100
AcDbCircle
 62
7
  6
CONTINUOUS
 10
11.0473183387
 20
7.6073320392
 40
1.25
100
AcDbArc
 50
97.6875658564
 51
105.6397271706
  0
ARC
  5
364
100
AcDbEntity
  8
0
100
AcDbCircle
 62
7
  6
CONTINUOUS
 10
11.0473183387
 20
7.6073320392
 40
1.25
100
AcDbArc
 50
82.3484517069
 51
97.6515482931
  0
ARC
  5
365
100
AcDbEntity
  8
0
100
AcDbCircle
 62
7
  6
CONTINUOUS
 10
11.0473183387
 20
7.6073320392
 40
1.25
100
AcDbArc
 50
74.3602728294
 51
82.3124341436
  0
ARC
  5
366
100
AcDbEntity
  8
0
100
AcDbCircle
 62
7
  6
CONTINUOUS
 10
11.0473183387
 20
7.6073320392
 40
1.25
100
AcDbArc
 50
49.6875658564
 51
74.3124341436
  0
ARC
  5
367
100
AcDbEntity
  8
0
100
AcDbCircle
 62
7
  6
CONTINUOUS
 10
11.0473183387
 20
7.6073320392
 40
1.25
100
AcDbArc
 50
48.3571304608
 51
49.6526461076
  0
ARC
  5
368
100
AcDbEntity
  8
0
100
AcDbCircle
 62
7
  6
CONTINUOUS
 10
11.0473183387
 20
7.6073320392
 40
1.25
100
AcDbArc
 50
41.6875658564
 51
48.3124341436
  0
ARC
  5
369
100
AcDbEntity
  8
0
100
AcDbCircle
 62
7
  6
CONTINUOUS
 10
11.0473183387
 20
7.6073320392
 40
1.25
100
AcDbArc
 50
18.3578230642
 51
18.4226719509
  0
ARC
  5
36A
100
AcDbEntity
  8
0
100
AcDbCircle
 62
7
  6
CONTINUOUS
 10
11.0473183387
 20
7.6073320392
 40
1.25
100
AcDbArc
 50
15.6875658564
 51
18.3124341436
  0
ARC
  5
36B
100
AcDbEntity
  8
0
100
AcDbCircle
 62
7
  6
CONTINUOUS
 10
11.0473183387
 20
7.6073320392
 40
1.25
100
AcDbArc
 50
7.6875658564
 51
15.6397271706
  0
ARC
  5
36C
100
AcDbEntity
  8
0
100
AcDbCircle
 62
7
  6
CONTINUOUS
 10
11.0473183387
 20
7.6073320392
 40
1.25
100
AcDbArc
 50
352.3484517069
 51
7.6515482931
  0
ARC
  5
36D
100
AcDbEntity
  8
0
100
AcDbCircle
 62
9
  6
CONTINUOUS
 10
11.0473183387
 20
7.6073320392
 40
1.175
100
AcDbArc
 50
42.0792476659
 51
137.919941735
  0
ARC
  5
36E
100
AcDbEntity
  8
0
100
AcDbCircle
 62
9
  6
CONTINUOUS
 10
11.0473183387
 20
7.6073320392
 40
1.175
100
AcDbArc
 50
162.0783725783
 51
257.9203952998
  0
ARC
  5
36F
100
AcDbEntity
  8
0
100
AcDbCircle
 62
9
  6
CONTINUOUS
 10
11.0473183387
 20
7.6073320392
 40
1.175
100
AcDbArc
 50
282.0791223207
 51
17.9211746841
  0
ARC
  5
370
100
AcDbEntity
  8
0
100
AcDbCircle
 62
7
  6
CONTINUOUS
 10
11.0473183387
 20
7.6073320392
 40
1.075
100
AcDbArc
 50
42.7585030646
 51
137.2423246191
  0
ARC
  5
371
100
AcDbEntity
  8
0
100
AcDbCircle
 62
7
  6
CONTINUOUS
 10
11.0473183387
 20
7.6073320392
 40
1.075
100
AcDbArc
 50
282.7580219971
 51
17.242889099
  0
ARC
  5
372
100
AcDbEntity
  8
0
100
AcDbCircle
 62
7
  6
CONTINUOUS
 10
11.0473183387
 20
7.6073320392
 40
1.075
100
AcDbArc
 50
162.7575594018
 51
257.2426214277
  0
ARC
  5
373
100
AcDbEntity
  8
0
100
AcDbCircle
 62
7
  6
CONTINUOUS
 10
11.0473183387
 20
7.6073320392
 40
1.025
100
AcDbArc
 50
43.1661819893
 51
136.8341609227
  0
ARC
  5
374
100
AcDbEntity
  8
0
100
AcDbCircle
 62
7
  6
CONTINUOUS
 10
11.0473183387
 20
7.6073320392
 40
1.025
100
AcDbArc
 50
283.1731900567
 51
16.8405567138
  0
ARC
  5
375
100
AcDbEntity
  8
0
100
AcDbCircle
 62
7
  6
CONTINUOUS
 10
11.0473183387
 20
7.6073320392
 40
1.025
100
AcDbArc
 50
163.1608466881
 51
256.824475064
  0
ARC
  5
376
100
AcDbEntity
  8
0
100
AcDbCircle
 62
7
  6
CONTINUOUS
 10
11.0473183387
 20
7.6073320392
 40
0.95
100
AcDbArc
 50
43.8263854332
 51
136.1736145668
  0
ARC
  5
377
100
AcDbEntity
  8
0
100
AcDbCircle
 62
7
  6
CONTINUOUS
 10
11.0473183387
 20
7.6073320392
 40
0.95
100
AcDbArc
 50
283.8440763526
 51
16.1613947876
  0
ARC
  5
378
100
AcDbEntity
  8
0
100
AcDbCircle
 62
7
  6
CONTINUOUS
 10
11.0473183387
 20
7.6073320392
 40
0.95
100
AcDbArc
 50
163.8386052124
 51
256.1559236474
  0
ARC
  5
379
100
AcDbEntity
  8
0
100
AcDbCircle
 62
7
  6
CONTINUOUS
 10
11.0473183387
 20
7.6073320392
 40
0.85
100
AcDbArc
 50
44.8935109138
 51
135.1063401755
  0
ARC
  5
37A
100
AcDbEntity
  8
0
100
AcDbCircle
 62
7
  6
CONTINUOUS
 10
11.0473183387
 20
7.6073320392
 40
0.85
100
AcDbArc
 50
284.9184910309
 51
15.0822020851
  0
ARC
  5
37B
100
AcDbEntity
  8
0
100
AcDbCircle
 62
7
  6
CONTINUOUS
 10
11.0473183387
 20
7.6073320392
 40
0.85
100
AcDbArc
 50
164.9207458654
 51
255.0784830357
  0
ARC
  5
37C
100
AcDbEntity
  8
0
100
AcDbCircle
 62
7
  6
CONTINUOUS
 10
11.0473183387
 20
7.6073320392
 40
0.75
100
AcDbArc
 50
46.2768831883
 51
133.7236224578
  0
ARC
  5
37D
100
AcDbEntity
  8
0
100
AcDbCircle
 62
7
  6
CONTINUOUS
 10
11.0473183387
 20
7.6073320392
 40
0.75
100
AcDbArc
 50
286.2868625496
 51
13.7025171535
  0
ARC
  5
37E
100
AcDbEntity
  8
0
100
AcDbCircle
 62
7
  6
CONTINUOUS
 10
11.0473183387
 20
7.6073320392
 40
0.75
100
AcDbArc
 50
166.3011824037
 51
253.7131229629
  0
ARC
  5
37F
100
AcDbEntity
  8
0
100
AcDbCircle
 62
9
  6
CONTINUOUS
 10
11.0637712495
 20
7.616829451
 40
0.4227241819
100
AcDbArc
 50
9.5745316874
 51
50.4259747329
  0
ARC
  5
380
100
AcDbEntity
  8
0
100
AcDbCircle
 62
9
  6
CONTINUOUS
 10
11.0473183352
 20
7.5882136855
 40
0.4226069475
100
AcDbArc
 50
249.5685605564
 51
290.4314595821
  0
CIRCLE
  5
381
100
AcDbEntity
  8
0
100
AcDbCircle
 62
7
  6
CONTINUOUS
 10
11.0473183387
 20
7.6073320392
 40
0.4
  0
CIRCLE
  5
382
100
AcDbEntity
  8
0
100
AcDbCircle
 62
9
  6
CONTINUOUS
 10
11.0473183387
 20
7.6073320392
 40
0.3875
  0
CIRCLE
  5
383
100
AcDbEntity
  8
0
100
AcDbCircle
 62
7
  6
CONTINUOUS
 10
11.0473183387
 20
7.6073320392
 40
0.3125
  0
CIRCLE
  5
384
100
AcDbEntity
  8
0
100
AcDbCircle
 62
9
  6
CONTINUOUS
 10
11.0473183387
 20
7.6073320392
 40
0.2825
  0
CIRCLE
  5
385
100
AcDbEntity
  8
0
100
AcDbCircle
 62
7
  6
CONTINUOUS
 10
11.0473183387
 20
7.6073320392
 40
0.2625
  0
ARC
  5
386
100
AcDbEntity
  8
0
100
AcDbCircle
 62
9
  6
CONTINUOUS
 10
11.2596449925
 20
8.058250814
 40
0.1369382485
100
AcDbArc
 50
302.429347821
 51
304.9249170304
  0
ARC
  5
387
100
AcDbEntity
  8
0
100
AcDbCircle
 62
7
  6
CONTINUOUS
 10
11.2610358805
 20
8.0593550611
 40
0.1
100
AcDbArc
 50
244.6946730167
 51
304.7636416907
  0
ARC
  5
388
100
AcDbEntity
  8
0
100
AcDbCircle
 62
9
  6
CONTINUOUS
 10
11.5445547824
 20
7.5645716124
 40
0.1382480937
100
AcDbArc
 50
115.0789207387
 51
117.5517090138
  0
ARC
  5
389
100
AcDbEntity
  8
0
100
AcDbCircle
 62
7
  6
CONTINUOUS
 10
11.5456405296
 20
7.5664053488
 40
0.1
100
AcDbArc
 50
115.2363583093
 51
175.3056441735
  0
ARC
  5
38A
100
AcDbEntity
  8
0
100
AcDbCircle
 62
9
  6
CONTINUOUS
 10
11.4309294801
 20
7.6011624808
 40
0.0206005134
100
AcDbArc
 50
19.9179002405
 51
22.0013202835
  0
ARC
  5
38B
100
AcDbEntity
  8
0
100
AcDbCircle
 62
9
  6
CONTINUOUS
 10
11.9122352016
 20
7.5366280916
 40
0.467818186
100
AcDbArc
 50
171.1153228075
 51
171.3504393762
  0
ARC
  5
38C
100
AcDbEntity
  8
0
100
AcDbCircle
 62
9
  6
CONTINUOUS
 10
11.8974325132
 20
7.538857072
 40
0.4528486366
100
AcDbArc
 50
171.34758563
 51
172.577180116
  0
ARC
  5
38D
100
AcDbEntity
  8
0
100
AcDbCircle
 62
7
  6
CONTINUOUS
 10
12.4274794372
 20
8.1368228939
 40
0.04
100
AcDbArc
 50
295.2364357443
 51
30.0
  0
ARC
  5
38E
100
AcDbEntity
  8
0
100
AcDbCircle
 62
7
  6
CONTINUOUS
 10
12.1959514191
 20
8.5378411846
 40
0.04
100
AcDbArc
 50
30.0
 51
124.763566941
  0
ARC
  5
38F
100
AcDbEntity
  8
0
100
AcDbCircle
 62
9
  6
CONTINUOUS
 10
158.8374765608
 20
-202.784256428
 40
257.222304009
100
AcDbArc
 50
124.7579929631
 51
124.9898807661
  0
ARC
  5
390
100
AcDbEntity
  8
0
100
AcDbCircle
 62
9
  6
CONTINUOUS
 10
267.144720693
 20
-15.1867231435
 40
257.2201591645
100
AcDbArc
 50
175.010118946
 51
175.2420079576
  0
ARC
  5
391
100
AcDbEntity
  8
0
100
AcDbCircle
 62
9
  6
CONTINUOUS
 10
119.3557823132
 20
240.7912054695
 40
257.2201470046
100
AcDbArc
 50
244.7579923305
 51
244.9898808674
  0
SPLINE
  5
392
100
AcDbEntity
  8
0
100
AcDbSpline
 62
9
  6
CONTINUOUS
 70
0
 71
3
 72
24
 73
20
 74
0
 42
0.0000001
 43
0.0000001
 44
0.0000000001
 40
0.0
 40
0.0
 40
0.0
 40
0.0
 40
0.200763227
 40
0.2975667851
 40
0.3907203312
 40
0.5631321622
 40
0.6410548141
 40
0.7126220394
 40
0.7772586539
 40
0.834388741
 40
0.8835324114
 40
0.9243469669
 40
0.9565124349
 40
0.9797886483
 40
0.9880699989
 40
0.9941201851
 40
0.9963237936
 40
0.9980009899
 40
1.0
 40
1.0
 40
1.0
 40
1.0
 10
9.6661605008
 20
8.1318147701
 30
0.0
 10
9.6651499616
 20
8.1296921867
 30
0.0
 10
9.6636350594
 20
8.1265542916
 30
0.0
 10
9.661632511
 20
8.1224406409
 30
0.0
 10
9.6597748983
 20
8.1186256802
 30
0.0
 10
9.6580073309
 20
8.1150126681
 30
0.0
 10
9.6563080956
 20
8.1116479941
 30
0.0
 10
9.6551567591
 20
8.10942059
 30
0.0
 10
9.654103314
 20
8.1074167454
 30
0.0
 10
9.6531650946
 20
8.1056489952
 30
0.0
 10
9.6523527804
 20
8.1041302306
 30
0.0
 10
9.6516652774
 20
8.1028762474
 30
0.0
 10
9.6511007286
 20
8.1019005196
 30
0.0
 10
9.6506996255
 20
8.1012708381
 30
0.0
 10
9.6504367387
 20
8.100916796
 30
0.0
 10
9.6503117998
 20
8.1007694345
 30
0.0
 10
9.6502253831
 20
8.1006894755
 30
0.0
 10
9.6501723675
 20
8.1006497678
 30
0.0
 10
9.6501240985
 20
8.1006305196
 30
0.0
 10
9.6501030073
 20
8.1006406725
 30
0.0
  0
SPLINE
  5
393
100
AcDbEntity
  8
0
100
AcDbSpline
 62
9
  6
CONTINUOUS
 70
0
 71
3
 72
23
 73
19
 74
0
 42
0.0000001
 43
0.0000001
 44
0.0000000001
 40
0.0
 40
0.0
 40
0.0
 40
0.0
 40
0.1888090874
 40
0.3720144685
 40
0.5417100945
 40
0.619432179
 40
0.6913933889
 40
0.7569173161
 40
0.8153470941
 40
0.8661452481
 40
0.9089324432
 40
0.9433947821
 40
0.9574615671
 40
0.9694558191
 40
0.9794594858
 40
0.9876309101
 40
0.9942811635
 40
1.0
 40
1.0
 40
1.0
 40
1.0
 10
12.1921126159
 20
8.5412084572
 30
0.0
 10
12.1944230596
 20
8.5425563911
 30
0.0
 10
12.1990075988
 20
8.5451575229
 30
0.0
 10
12.2057773967
 20
8.5487743024
 30
0.0
 10
12.2112379205
 20
8.5514971
 30
0.0
 10
12.2153335364
 20
8.5534207688
 30
0.0
 10
12.2181161451
 20
8.5546673616
 30
0.0
 10
12.2206739363
 20
8.555745847
 30
0.0
 10
12.2229823213
 20
8.556641786
 30
0.0
 10
12.2250185823
 20
8.5573453269
 30
0.0
 10
12.2267606766
 20
8.5578536059
 30
0.0
 10
12.2280261689
 20
8.5581321067
 30
0.0
 10
12.228877216
 20
8.5582415368
 30
0.0
 10
12.2293881419
 20
8.5582676519
 30
0.0
 10
12.2298160463
 20
8.5582441961
 30
0.0
 10
12.230161962
 20
8.5581704156
 30
0.0
 10
12.2304282559
 20
8.558043329
 30
0.0
 10
12.2305523134
 20
8.5579113934
 30
0.0
 10
12.2305928055
 20
8.5578412178
 30
0.0
  0
SPLINE
  5
394
100
AcDbEntity
  8
0
100
AcDbSpline
 62
9
  6
CONTINUOUS
 70
0
 71
3
 72
18
 73
14
 74
0
 42
0.0000001
 43
0.0000001
 44
0.0000000001
 40
0.0
 40
0.0
 40
0.0
 40
0.0
 40
0.1703876756
 40
0.3423133852
 40
0.5082148576
 40
0.6599466257
 40
0.7892619626
 40
0.8436655614
 40
0.8906915733
 40
0.9299535381
 40
0.9611181162
 40
0.98432584
 40
1.0
 40
1.0
 40
1.0
 40
1.0
 10
11.1952300221
 20
7.1862362465
 30
0.0
 10
11.1973096655
 20
7.1864041698
 30
0.0
 10
11.2014886705
 20
7.1867299302
 30
0.0
 10
11.2076957038
 20
7.1871778556
 30
0.0
 10
11.2136777824
 20
7.1875674925
 30
0.0
 10
11.2191419052
 20
7.1878787791
 30
0.0
 10
11.2232453335
 20
7.1880678828
 30
0.0
 10
11.2260693168
 20
7.1881611428
 30
0.0
 10
11.227791717
 20
7.1882000996
 30
0.0
 10
11.2292298825
 20
7.1882127273
 30
0.0
 10
11.2303766355
 20
7.1881999973
 30
0.0
 10
11.2312334201
 20
7.1881626198
 30
0.0
 10
11.2317083434
 20
7.1881181346
 30
0.0
 10
11.2318974938
 20
7.1880855802
 30
0.0
  0
LINE
  5
395
100
AcDbEntity
  8
0
100
AcDbLine
 62
9
  6
CONTINUOUS
 10
11.2318974938
 20
7.1880855802
 11
11.2322685295
 21
7.1879293068
  0
SPLINE
  5
396
100
AcDbEntity
  8
0
100
AcDbSpline
 62
9
  6
CONTINUOUS
 70
0
 71
3
 72
23
 73
19
 74
0
 42
0.0000001
 43
0.0000001
 44
0.0000000001
 40
0.0
 40
0.0
 40
0.0
 40
0.0
 40
0.1888099919
 40
0.3720210811
 40
0.541724788
 40
0.6194498974
 40
0.6914121467
 40
0.7569368734
 40
0.8153688602
 40
0.8661675742
 40
0.9089550582
 40
0.9434194435
 40
0.9574863964
 40
0.9694792761
 40
0.9794800311
 40
0.987646825
 40
0.9942903353
 40
1.0
 40
1.0
 40
1.0
 40
1.0
 10
12.4284762004
 20
8.1318147459
 30
0.0
 10
12.4307989529
 20
8.1331412478
 30
0.0
 10
12.4353438237
 20
8.1358110347
 30
0.0
 10
12.4418606371
 20
8.1398659807
 30
0.0
 10
12.4469489775
 20
8.1432335827
 30
0.0
 10
12.4506628205
 20
8.1458186302
 30
0.0
 10
12.4531337788
 20
8.1476050302
 30
0.0
 10
12.4553467105
 20
8.1492808262
 30
0.0
 10
12.4572768001
 20
8.1508319751
 30
0.0
 10
12.4589039454
 20
8.1522439602
 30
0.0
 10
12.4602148045
 20
8.1534989049
 30
0.0
 10
12.4610884862
 20
8.1544558272
 30
0.0
 10
12.4616087456
 20
8.1551381504
 30
0.0
 10
12.4618868332
 20
8.1555674744
 30
0.0
 10
12.4620805222
 20
8.1559495954
 30
0.0
 10
12.462189686
 20
8.1562857954
 30
0.0
 10
12.4622129584
 20
8.1565796342
 30
0.0
 10
12.4621608955
 20
8.1567528524
 30
0.0
 10
12.4621204488
 20
8.1568229019
 30
0.0
  0
SPLINE
  5
397
100
AcDbEntity
  8
0
100
AcDbSpline
 62
9
  6
CONTINUOUS
 70
0
 71
3
 72
23
 73
19
 74
0
 42
0.0000001
 43
0.0000001
 44
0.0000000001
 40
0.0
 40
0.0
 40
0.0
 40
0.0
 40
0.1888090874
 40
0.3720144685
 40
0.5417100946
 40
0.6194321791
 40
0.691393389
 40
0.7569173162
 40
0.8153470943
 40
0.8661452484
 40
0.9089324437
 40
0.9433947826
 40
0.9574615676
 40
0.9694558196
 40
0.9794594863
 40
0.9876309105
 40
0.9942811637
 40
1.0
 40
1.0
 40
1.0
 40
1.0
 10
9.6661604981
 20
8.1318147565
 30
0.0
 10
9.6638379313
 20
8.1331416925
 30
0.0
 10
9.6592930155
 20
8.135811454
 30
0.0
 10
9.6527758937
 20
8.1398658812
 30
0.0
 10
9.6476876199
 20
8.1432334348
 30
0.0
 10
9.6439738658
 20
8.1458185077
 30
0.0
 10
9.6415029805
 20
8.1476050211
 30
0.0
 10
9.6392900891
 20
8.1492808906
 30
0.0
 10
9.6373599907
 20
8.1508320411
 30
0.0
 10
9.6357325759
 20
8.1522437244
 30
0.0
 10
9.6344213462
 20
8.1534982828
 30
0.0
 10
9.6335474113
 20
8.154454981
 30
0.0
 10
9.6330271185
 20
8.1551372943
 30
0.0
 10
9.6327490392
 20
8.1555667116
 30
0.0
 10
9.6325554003
 20
8.1559490156
 30
0.0
 10
9.6324463382
 20
8.1562854775
 30
0.0
 10
9.6324232515
 20
8.1565796381
 30
0.0
 10
9.6324754823
 20
8.1567530429
 30
0.0
 10
9.6325160101
 20
8.1568231979
 30
0.0
  0
SPLINE
  5
398
100
AcDbEntity
  8
0
100
AcDbSpline
 62
9
  6
CONTINUOUS
 70
0
 71
3
 72
23
 73
19
 74
0
 42
0.0000001
 43
0.0000001
 44
0.0000000001
 40
0.0
 40
0.0
 40
0.0
 40
0.0
 40
0.1888099917
 40
0.3720210806
 40
0.5417247873
 40
0.6194498966
 40
0.6914121459
 40
0.7569368726
 40
0.8153688593
 40
0.8661675734
 40
0.9089550574
 40
0.9434194428
 40
0.9574863958
 40
0.9694792755
 40
0.9794800306
 40
0.9876468247
 40
0.9942903352
 40
1.0
 40
1.0
 40
1.0
 40
1.0
 10
9.9025240599
 20
8.5412084808
 30
0.0
 10
9.9002138994
 20
8.5425567926
 30
0.0
 10
9.8956293608
 20
8.5451578727
 30
0.0
 10
9.8888592678
 20
8.5487741257
 30
0.0
 10
9.8833986687
 20
8.5514969567
 30
0.0
 10
9.8793030304
 20
8.5534207153
 30
0.0
 10
9.8765204835
 20
8.554667428
 30
0.0
 10
9.8739627358
 20
8.5557459851
 30
0.0
 10
9.8716543566
 20
8.5566419172
 30
0.0
 10
9.869617969
 20
8.5573450739
 30
0.0
 10
9.8678757254
 20
8.5578528388
 30
0.0
 10
9.8666101656
 20
8.5581310082
 30
0.0
 10
9.8657591266
 20
8.5582404044
 30
0.0
 10
9.8652482773
 20
8.5582665734
 30
0.0
 10
9.8648205063
 20
8.5582432524
 30
0.0
 10
9.8644747667
 20
8.5581696911
 30
0.0
 10
9.8642086586
 20
8.5580429261
 30
0.0
 10
9.8640846787
 20
8.5579112292
 30
0.0
 10
9.8640442374
 20
8.5578411766
 30
0.0
  0
SPLINE
  5
399
100
AcDbEntity
  8
0
100
AcDbSpline
 62
9
  6
CONTINUOUS
 70
0
 71
3
 72
24
 73
20
 74
0
 42
0.0000001
 43
0.0000001
 44
0.0000000001
 40
0.0
 40
0.0
 40
0.0
 40
0.0
 40
0.0019954563
 40
0.0036701257
 40
0.0058712336
 40
0.0119169993
 40
0.0201950863
 40
0.0434694983
 40
0.0756391517
 40
0.1164592529
 40
0.1656061536
 40
0.2227348124
 40
0.287366743
 40
0.3589277527
 40
0.4368439366
 40
0.6092486842
 40
0.7024095954
 40
0.7992238577
 40
1.0
 40
1.0
 40
1.0
 40
1.0
 10
9.9214929675
 20
8.5707016227
 30
0.0
 10
9.9215122713
 20
8.5706884575
 30
0.0
 10
9.9215196708
 20
8.5706370769
 30
0.0
 10
9.921511622
 20
8.5705714343
 30
0.0
 10
9.9214853325
 20
8.570456788
 30
0.0
 10
9.9214198136
 20
8.5702751734
 30
0.0
 10
9.9212440164
 20
8.5698708914
 30
0.0
 10
9.9208987866
 20
8.5692089775
 30
0.0
 10
9.9203366033
 20
8.5682318045
 30
0.0
 10
9.9195954625
 20
8.5670086024
 30
0.0
 10
9.9186873826
 20
8.5655450072
 30
0.0
 10
9.9176258931
 20
8.563848483
 30
0.0
 10
9.9164169685
 20
8.5619346256
 30
0.0
 10
9.9150631392
 20
8.5598244459
 30
0.0
 10
9.9129981955
 20
8.5566713069
 30
0.0
 10
9.9107533132
 20
8.5533340058
 30
0.0
 10
9.9083787402
 20
8.5498173804
 30
0.0
 10
9.9058174359
 20
8.5460259715
 30
0.0
 10
9.9038570687
 20
8.5431450228
 30
0.0
 10
9.9025240599
 20
8.5412084808
 30
0.0
  0
SPLINE
  5
39A
100
AcDbEntity
  8
0
100
AcDbSpline
 62
9
  6
CONTINUOUS
 70
0
 71
3
 72
14
 73
10
 74
0
 42
0.0000001
 43
0.0000001
 44
0.0000000001
 40
0.0
 40
0.0
 40
0.0
 40
0.0
 40
0.030050168
 40
0.0802367602
 40
0.1571157137
 40
0.2630070895
 40
0.3992602875
 40
0.5669150299
 40
1.0
 40
1.0
 40
1.0
 40
1.0
 10
10.7765800132
 20
7.9772049696
 30
0.0
 10
10.7765956185
 20
7.977195003
 30
0.0
 10
10.7766160052
 20
7.9771430143
 30
0.0
 10
10.7766037313
 20
7.9770473342
 30
0.0
 10
10.7765682796
 20
7.9769075928
 30
0.0
 10
10.7765001834
 20
7.9767231012
 30
0.0
 10
10.7764010824
 20
7.9764907523
 30
0.0
 10
10.7762070277
 20
7.9760801073
 30
0.0
 10
10.7760352838
 20
7.975752027
 30
0.0
 10
10.7759087217
 20
7.9755170888
 30
0.0
  0
SPLINE
  5
39B
100
AcDbEntity
  8
0
100
AcDbSpline
 62
9
  6
CONTINUOUS
 70
0
 71
3
 72
14
 73
10
 74
0
 42
0.0000001
 43
0.0000001
 44
0.0000000001
 40
0.0
 40
0.0
 40
0.0
 40
0.0
 40
0.0623174191
 40
0.149618454
 40
0.2597988846
 40
0.3899582911
 40
0.5347474979
 40
0.6883183625
 40
1.0
 40
1.0
 40
1.0
 40
1.0
 10
10.7759087217
 20
7.9755170888
 30
0.0
 10
10.7755609179
 20
7.9748714576
 30
0.0
 10
10.7746766636
 20
7.9733481981
 30
0.0
 10
10.7730812155
 20
7.9707402095
 30
0.0
 10
10.7710172238
 20
7.9674832586
 30
0.0
 10
10.7685482918
 20
7.9636825135
 30
0.0
 10
10.7657672716
 20
7.959475779
 30
0.0
 10
10.7617674664
 20
7.9535142386
 30
0.0
 10
10.7586781757
 20
7.9489937838
 30
0.0
 10
10.7565945292
 20
7.945975215
 30
0.0
  0
SPLINE
  5
39C
100
AcDbEntity
  8
0
100
AcDbSpline
 62
9
  6
CONTINUOUS
 70
0
 71
3
 72
24
 73
20
 74
0
 42
0.0000001
 43
0.0000001
 44
0.0000000001
 40
0.0
 40
0.0
 40
0.0
 40
0.0
 40
0.0019954561
 40
0.0036701256
 40
0.0058712334
 40
0.0119169992
 40
0.0201950862
 40
0.0434694984
 40
0.0756391519
 40
0.1164592531
 40
0.1656061537
 40
0.2227348125
 40
0.287366743
 40
0.3589277527
 40
0.4368439367
 40
0.6092486842
 40
0.7024095954
 40
0.7992238577
 40
1.0
 40
1.0
 40
1.0
 40
1.0
 10
12.4445335567
 20
8.1006406191
 30
0.0
 10
12.4445125035
 20
8.1006304842
 30
0.0
 10
12.4444643068
 20
8.1006497663
 30
0.0
 10
12.444411483
 20
8.1006895581
 30
0.0
 10
12.4443253411
 20
8.1007696486
 30
0.0
 10
12.4442008178
 20
8.1009171969
 30
0.0
 10
12.4439385979
 20
8.1012715828
 30
0.0
 10
12.4435379785
 20
8.1019015176
 30
0.0
 10
12.4429728135
 20
8.1028769691
 30
0.0
 10
12.4422840598
 20
8.1041304169
 30
0.0
 10
12.4414705892
 20
8.1056486347
 30
0.0
 10
12.4405321008
 20
8.1074161737
 30
0.0
 10
12.439479114
 20
8.1094200618
 30
0.0
 10
12.4383285594
 20
8.1116476022
 30
0.0
 10
12.4366303328
 20
8.1150124654
 30
0.0
 10
12.4348625865
 20
8.1186252411
 30
0.0
 10
12.433004386
 20
8.1224399943
 30
0.0
 10
12.4310015818
 20
8.1265538534
 30
0.0
 10
12.4294867906
 20
8.1296920555
 30
0.0
 10
12.4284762004
 20
8.1318147459
 30
0.0
  0
SPLINE
  5
39D
100
AcDbEntity
  8
0
100
AcDbSpline
 62
9
  6
CONTINUOUS
 70
0
 71
3
 72
14
 73
10
 74
0
 42
0.0000001
 43
0.0000001
 44
0.0000000001
 40
0.0
 40
0.0
 40
0.0
 40
0.0
 40
0.0300501709
 40
0.0802367679
 40
0.1571157253
 40
0.2630071031
 40
0.3992603012
 40
0.5669150414
 40
1.0
 40
1.0
 40
1.0
 40
1.0
 10
11.5030068552
 20
7.6568618417
 30
0.0
 10
11.5029904212
 20
7.6568533104
 30
0.0
 10
11.5029352044
 20
7.6568616493
 30
0.0
 10
11.5028584799
 20
7.6569201189
 30
0.0
 10
11.5027551862
 20
7.6570206917
 30
0.0
 10
11.5026294598
 20
7.6571719105
 30
0.0
 10
11.5024777903
 20
7.657373909
 30
0.0
 10
11.5022191887
 20
7.6577472877
 30
0.0
 10
11.5020209348
 20
7.6580600625
 30
0.0
 10
11.5018807533
 20
7.6582871376
 30
0.0
  0
SPLINE
  5
39E
100
AcDbEntity
  8
0
100
AcDbSpline
 62
9
  6
CONTINUOUS
 70
0
 71
3
 72
14
 73
10
 74
0
 42
0.0000001
 43
0.0000001
 44
0.0000000001
 40
0.0
 40
0.0
 40
0.0
 40
0.0
 40
0.062317419
 40
0.149618454
 40
0.2597988846
 40
0.3899582911
 40
0.5347474979
 40
0.6883183625
 40
1.0
 40
1.0
 40
1.0
 40
1.0
 10
11.5018807533
 20
7.6582871376
 30
0.0
 10
11.5014955222
 20
7.6589111601
 30
0.0
 10
11.500618468
 20
7.6604385766
 30
0.0
 10
11.4991576076
 20
7.6631242694
 30
0.0
 10
11.4973690012
 20
7.6665402141
 30
0.0
 10
11.4953119254
 20
7.6705787445
 30
0.0
 10
11.4930592966
 20
7.6750905459
 30
0.0
 10
11.4898963537
 20
7.681535249
 30
0.0
 10
11.4875261704
 20
7.6864708806
 30
0.0
 10
11.4859538364
 20
7.6897846558
 30
0.0
  0
SPLINE
  5
39F
100
AcDbEntity
  8
0
100
AcDbSpline
 62
9
  6
CONTINUOUS
 70
0
 71
3
 72
24
 73
20
 74
0
 42
0.0000001
 43
0.0000001
 44
0.0000000001
 40
0.0
 40
0.0
 40
0.0
 40
0.0
 40
0.0019954565
 40
0.0036701262
 40
0.0058712342
 40
0.0119170002
 40
0.0201950873
 40
0.0434694989
 40
0.0756391515
 40
0.116459252
 40
0.1656061525
 40
0.2227348119
 40
0.2873667431
 40
0.3589277526
 40
0.436843935
 40
0.6092486799
 40
0.7024095916
 40
0.7992238558
 40
1.0
 40
1.0
 40
1.0
 40
1.0
 10
10.7759284917
 20
6.1506538759
 30
0.0
 10
10.7759302412
 20
6.150677176
 30
0.0
 10
10.7759710384
 20
6.1507092746
 30
0.0
 10
10.7760319109
 20
6.1507351254
 30
0.0
 10
10.7761443423
 20
6.1507696812
 30
0.0
 10
10.7763343845
 20
6.1508037475
 30
0.0
 10
10.7767724017
 20
6.1508536437
 30
0.0
 10
10.7775182509
 20
6.1508856228
 30
0.0
 10
10.7786455991
 20
6.1508873439
 30
0.0
 10
10.7800754936
 20
6.150857098
 30
0.0
 10
10.7817970441
 20
6.1508024754
 30
0.0
 10
10.7837970219
 20
6.1507314614
 30
0.0
 10
10.7860589333
 20
6.1506414318
 30
0.0
 10
10.7885633172
 20
6.1505240713
 30
0.0
 10
10.7923264872
 20
6.1503123447
 30
0.0
 10
10.7963391156
 20
6.1500368654
 30
0.0
 10
10.8005718892
 20
6.1497387417
 30
0.0
 10
10.8051359986
 20
6.1494163033
 30
0.0
 10
10.8086111576
 20
6.1491590588
 30
0.0
 10
10.8109547566
 20
6.1489729103
 30
0.0
  0
SPLINE
  5
3A0
100
AcDbEntity
  8
0
100
AcDbSpline
 62
9
  6
CONTINUOUS
 70
0
 71
3
 72
14
 73
10
 74
0
 42
0.0000001
 43
0.0000001
 44
0.0000000001
 40
0.0
 40
0.0
 40
0.0
 40
0.0
 40
0.1099253939
 40
0.2267304996
 40
0.3485679773
 40
0.4743435487
 40
0.6028607902
 40
0.7336279424
 40
1.0
 40
1.0
 40
1.0
 40
1.0
 10
11.4806079894
 20
7.6871418644
 30
0.0
 10
11.4783188624
 20
7.6850093227
 30
0.0
 10
11.4740256594
 20
7.680142911
 30
0.0
 10
11.4686003883
 20
7.6718070212
 30
0.0
 10
11.46401358
 20
7.6624824755
 30
0.0
 10
11.4601677157
 20
7.652481766
 30
0.0
 10
11.4569111598
 20
7.642011004
 30
0.0
 10
11.4532502162
 20
7.6274996368
 30
0.0
 10
11.4512090017
 20
7.6163700034
 30
0.0
 10
11.4500295254
 20
7.6088811864
 30
0.0
  0
SPLINE
  5
3A1
100
AcDbEntity
  8
0
100
AcDbSpline
 62
9
  6
CONTINUOUS
 70
0
 71
3
 72
16
 73
12
 74
0
 42
0.0000001
 43
0.0000001
 44
0.0000000001
 40
0.0
 40
0.0
 40
0.0
 40
0.0
 40
0.264199481
 40
0.3950642207
 40
0.5242497713
 40
0.6508978427
 40
0.773609705
 40
0.8332034024
 40
0.8910751725
 40
0.9467608138
 40
1.0
 40
1.0
 40
1.0
 40
1.0
 10
11.2182913509
 20
7.9689501661
 30
0.0
 10
11.2278390604
 20
7.9644370829
 30
0.0
 10
11.2423276618
 20
7.9581166408
 30
0.0
 10
11.2619748234
 20
7.9508141028
 30
0.0
 10
11.2767148736
 20
7.9461351132
 30
0.0
 10
11.2914007122
 20
7.9424411911
 30
0.0
 10
11.3036379289
 20
7.9405613186
 30
0.0
 10
11.3132339177
 20
7.9400755582
 30
0.0
 10
11.3201610536
 20
7.9402630919
 30
0.0
 10
11.3267913828
 20
7.9410534756
 30
0.0
 10
11.3310444939
 20
7.9420445516
 30
0.0
 10
11.3330791404
 20
7.9426682155
 30
0.0
  0
SPLINE
  5
3A2
100
AcDbEntity
  8
0
100
AcDbSpline
 62
9
  6
CONTINUOUS
 70
0
 71
3
 72
11
 73
7
 74
0
 42
0.0000001
 43
0.0000001
 44
0.0000000001
 40
0.0
 40
0.0
 40
0.0
 40
0.0
 40
0.2468840512
 40
0.4940082753
 40
0.7446439406
 40
1.0
 40
1.0
 40
1.0
 40
1.0
 10
11.4507125887
 20
7.5978488086
 30
0.0
 10
11.4509848708
 20
7.598670882
 30
0.0
 10
11.4513651616
 20
7.6003748286
 30
0.0
 10
11.451451124
 20
7.602998267
 30
0.0
 10
11.4510978754
 20
7.6056269509
 30
0.0
 10
11.4506027754
 20
7.6073383689
 30
0.0
 10
11.4502977067
 20
7.6081805256
 30
0.0
  0
SPLINE
  5
3A3
100
AcDbEntity
  8
0
100
AcDbSpline
 62
9
  6
CONTINUOUS
 70
0
 71
3
 72
23
 73
19
 74
0
 42
0.0000001
 43
0.0000001
 44
0.0000000001
 40
0.0
 40
0.0
 40
0.0
 40
0.0
 40
0.1888093536
 40
0.3720198813
 40
0.5417231731
 40
0.61944815
 40
0.6914103252
 40
0.7569350388
 40
0.8153670741
 40
0.8661659004
 40
0.9089535663
 40
0.9434182146
 40
0.9574853339
 40
0.9694784037
 40
0.9794793714
 40
0.9876463961
 40
0.9942901395
 40
1.0
 40
1.0
 40
1.0
 40
1.0
 10
10.8109547566
 20
6.1489729103
 30
0.0
 10
10.8109421644
 20
6.1462981049
 30
0.0
 10
10.8109818314
 20
6.1410272532
 30
0.0
 10
10.811235108
 20
6.1333560746
 30
0.0
 10
10.8116073637
 20
6.1272656552
 30
0.0
 10
10.8119891574
 20
6.1227568563
 30
0.0
 10
10.8123007452
 20
6.1197237457
 30
0.0
 10
10.8126455598
 20
6.1169693921
 30
0.0
 10
10.8130238463
 20
6.1145223077
 30
0.0
 10
10.8134330837
 20
6.1124071594
 30
0.0
 10
10.8138644642
 20
6.1106444401
 30
0.0
 10
10.8142563411
 20
6.1094093385
 30
0.0
 10
10.8145871219
 20
6.1086176097
 30
0.0
 10
10.8148198861
 20
6.1081621088
 30
0.0
 10
10.8150539716
 20
6.1078033002
 30
0.0
 10
10.8152905518
 20
6.1075406525
 30
0.0
 10
10.8155333922
 20
6.1073735693
 30
0.0
 10
10.815709439
 20
6.1073320399
 30
0.0
 10
10.8157903298
 20
6.1073320392
 30
0.0
  0
SPLINE
  5
3A4
100
AcDbEntity
  8
0
100
AcDbSpline
 62
9
  6
CONTINUOUS
 70
0
 71
3
 72
14
 73
10
 74
0
 42
0.0000001
 43
0.0000001
 44
0.0000000001
 40
0.0
 40
0.0
 40
0.0
 40
0.0
 40
0.0620735986
 40
0.1347254254
 40
0.2244634423
 40
0.3345746551
 40
0.4666403769
 40
0.6214072699
 40
1.0
 40
1.0
 40
1.0
 40
1.0
 10
11.4473179712
 20
7.6073313093
 30
0.0
 10
11.4473178667
 20
7.6073986655
 30
0.0
 10
11.4473535435
 20
7.6075457495
 30
0.0
 10
11.4474962527
 20
7.6077473693
 30
0.0
 10
11.4477197288
 20
7.6079434879
 30
0.0
 10
11.4480244578
 20
7.6081372204
 30
0.0
 10
11.4484105423
 20
7.6083293909
 30
0.0
 10
11.4490798574
 20
7.6086015122
 30
0.0
 10
11.4496342124
 20
7.6087717059
 30
0.0
 10
11.45003027
 20
7.6088808174
 30
0.0
  0
SPLINE
  5
3A5
100
AcDbEntity
  8
0
100
AcDbSpline
 62
9
  6
CONTINUOUS
 70
0
 71
3
 72
14
 73
10
 74
0
 42
0.0000001
 43
0.0000001
 44
0.0000000001
 40
0.0
 40
0.0
 40
0.0
 40
0.0
 40
0.0300501688
 40
0.0802367622
 40
0.1571157167
 40
0.263007093
 40
0.3992602911
 40
0.5669150328
 40
1.0
 40
1.0
 40
1.0
 40
1.0
 10
10.8623681475
 20
7.1879293065
 30
0.0
 10
10.8623689762
 20
7.1879478044
 30
0.0
 10
10.8624038064
 20
7.1879914541
 30
0.0
 10
10.8624928047
 20
7.1880286646
 30
0.0
 10
10.8626315502
 20
7.1880678332
 30
0.0
 10
10.8628253727
 20
7.188101106
 30
0.0
 10
10.8630761433
 20
7.1881314565
 30
0.0
 10
10.8635287996
 20
7.1881687227
 30
0.0
 10
10.8638987974
 20
7.1881840282
 30
0.0
 10
10.8641655409
 20
7.1881918914
 30
0.0
  0
SPLINE
  5
3A6
100
AcDbEntity
  8
0
100
AcDbSpline
 62
9
  6
CONTINUOUS
 70
0
 71
3
 72
14
 73
10
 74
0
 42
0.0000001
 43
0.0000001
 44
0.0000000001
 40
0.0
 40
0.0
 40
0.0
 40
0.0
 40
0.062317419
 40
0.149618454
 40
0.2597988846
 40
0.389958291
 40
0.5347474977
 40
0.6883183623
 40
1.0
 40
1.0
 40
1.0
 40
1.0
 10
10.8641655409
 20
7.1881918914
 30
0.0
 10
10.8648985759
 20
7.1882135001
 30
0.0
 10
10.8666598844
 20
7.1882093431
 30
0.0
 10
10.8697161928
 20
7.1881316388
 30
0.0
 10
10.8735687909
 20
7.1879726451
 30
0.0
 10
10.8780947987
 20
7.1877348598
 30
0.0
 10
10.8831284477
 20
7.1874297929
 30
0.0
 10
10.8902911958
 20
7.1869466302
 30
0.0
 10
10.8957506698
 20
7.1865314533
 30
0.0
 10
10.8994066503
 20
7.1862362469
 30
0.0
  0
SPLINE
  5
3A7
100
AcDbEntity
  8
0
100
AcDbSpline
 62
9
  6
CONTINUOUS
 70
0
 71
3
 72
24
 73
20
 74
0
 42
0.0000001
 43
0.0000001
 44
0.0000000001
 40
0.0
 40
0.0
 40
0.0
 40
0.0
 40
0.1862704871
 40
0.3735223377
 40
0.5515415466
 40
0.6336453489
 40
0.7092667572
 40
0.7771453668
 40
0.8366097459
 40
0.8871371978
 40
0.9282090503
 40
0.9594888861
 40
0.9715631354
 40
0.9813558111
 40
0.9889471049
 40
0.99443522
 40
0.996437186
 40
0.9979850329
 40
1.0
 40
1.0
 40
1.0
 40
1.0
 10
11.1948466986
 20
7.1921875213
 30
0.0
 10
11.1971575016
 20
7.1922749276
 30
0.0
 10
11.2017918808
 20
7.192434782
 30
0.0
 10
11.2086364767
 20
7.1926226884
 30
0.0
 10
11.2141895306
 20
7.1927271483
 30
0.0
 10
11.2183574162
 20
7.1927714552
 30
0.0
 10
11.2211581751
 20
7.1927831946
 30
0.0
 10
11.2236778929
 20
7.1927732025
 30
0.0
 10
11.225885892
 20
7.1927426317
 30
0.0
 10
11.2277607028
 20
7.1926931694
 30
0.0
 10
11.2292847827
 20
7.1926263475
 30
0.0
 10
11.2303306074
 20
7.1925529897
 30
0.0
 10
11.2309866529
 20
7.1924819618
 30
0.0
 10
11.2313488168
 20
7.1924305791
 30
0.0
 10
11.2316277411
 20
7.1923761955
 30
0.0
 10
11.2318084516
 20
7.1923267119
 30
0.0
 10
11.2319122177
 20
7.1922816388
 30
0.0
 10
11.2319706072
 20
7.1922474627
 30
0.0
 10
11.2320040909
 20
7.1922087358
 30
0.0
 10
11.2320051043
 20
7.1921837415
 30
0.0
  0
SPLINE
  5
3A8
100
AcDbEntity
  8
0
100
AcDbSpline
 62
9
  6
CONTINUOUS
 70
0
 71
3
 72
18
 73
14
 74
0
 42
0.0000001
 43
0.0000001
 44
0.0000000001
 40
0.0
 40
0.0
 40
0.0
 40
0.0
 40
0.1703879614
 40
0.3423139469
 40
0.5082156409
 40
0.6599475265
 40
0.7892628373
 40
0.8436663715
 40
0.8906922828
 40
0.9299541087
 40
0.9611185136
 40
0.9843260457
 40
1.0
 40
1.0
 40
1.0
 40
1.0
 10
10.608682843
 20
7.6897846602
 30
0.0
 10
10.6077884452
 20
7.6878996706
 30
0.0
 10
10.6059810558
 20
7.6841176582
 30
0.0
 10
10.6032654485
 20
7.6785182362
 30
0.0
 10
10.6006118401
 20
7.673142777
 30
0.0
 10
10.5981493579
 20
7.6682550593
 30
0.0
 10
10.596261411
 20
7.6646068328
 30
0.0
 10
10.594930185
 20
7.6621145629
 30
0.0
 10
10.5941027235
 20
7.6606034451
 30
0.0
 10
10.5933945783
 20
7.6593516475
 30
0.0
 10
10.5928101796
 20
7.6583649006
 30
0.0
 10
10.5923494202
 20
7.6576415984
 30
0.0
 10
10.5920734351
 20
7.6572525497
 30
0.0
 10
10.5919506678
 20
7.6571050202
 30
0.0
  0
LINE
  5
3A9
100
AcDbEntity
  8
0
100
AcDbLine
 62
9
  6
CONTINUOUS
 10
10.5919506678
 20
7.6571050202
 11
10.5916298225
 21
7.6568618418
  0
SPLINE
  5
3AA
100
AcDbEntity
  8
0
100
AcDbSpline
 62
9
  6
CONTINUOUS
 70
0
 71
3
 72
24
 73
20
 74
0
 42
0.0000001
 43
0.0000001
 44
0.0000000001
 40
0.0
 40
0.0
 40
0.0
 40
0.0
 40
0.186269729
 40
0.3735212707
 40
0.5515405565
 40
0.633644492
 40
0.7092660648
 40
0.7771448481
 40
0.8366093953
 40
0.8871369962
 40
0.9282089651
 40
0.9594888749
 40
0.971563146
 40
0.9813558347
 40
0.9889471333
 40
0.9944352456
 40
0.9964372074
 40
0.9979850485
 40
1.0
 40
1.0
 40
1.0
 40
1.0
 10
10.6140284853
 20
7.6871414537
 30
0.0
 10
10.6129487758
 20
7.6850965198
 30
0.0
 10
10.6107700131
 20
7.6810030641
 30
0.0
 10
10.6075104269
 20
7.6749814541
 30
0.0
 10
10.604824344
 20
7.6701200799
 30
0.0
 10
10.6027787536
 20
7.6664883829
 30
0.0
 10
10.6013885268
 20
7.6640569497
 30
0.0
 10
10.6001200012
 20
7.6618797737
 30
0.0
 10
10.5989895146
 20
7.6599828469
 30
0.0
 10
10.5980092632
 20
7.6583839197
 30
0.0
 10
10.5971893451
 20
7.6570974188
 30
0.0
 10
10.5966028971
 20
7.6562283736
 30
0.0
 10
10.5962133586
 20
7.6556957273
 30
0.0
 10
10.595987776
 20
7.6554077712
 30
0.0
 10
10.5958012147
 20
7.6551934044
 30
0.0
 10
10.5956680044
 20
7.6550616444
 30
0.0
 10
10.5955770862
 20
7.6549943158
 30
0.0
 10
10.5955182939
 20
7.6549608366
 30
0.0
 10
10.5954680132
 20
7.6549512022
 30
0.0
 10
10.5954458608
 20
7.6549628218
 30
0.0
  0
SPLINE
  5
3AB
100
AcDbEntity
  8
0
100
AcDbSpline
 62
9
  6
CONTINUOUS
 70
0
 71
3
 72
14
 73
10
 74
0
 42
0.0000001
 43
0.0000001
 44
0.0000000001
 40
0.0
 40
0.0
 40
0.0
 40
0.0
 40
0.0322663527
 40
0.0839788778
 40
0.1616640764
 40
0.2677474191
 40
0.4036286825
 40
0.570367775
 40
1.0
 40
1.0
 40
1.0
 40
1.0
 10
10.7801328646
 20
7.9748495471
 30
0.0
 10
10.7801498025
 20
7.9748388304
 30
0.0
 10
10.7801743494
 20
7.9747863037
 30
0.0
 10
10.7801696913
 20
7.9746859603
 30
0.0
 10
10.780142886
 20
7.9745416065
 30
0.0
 10
10.7800860187
 20
7.9743512164
 30
0.0
 10
10.7800002583
 20
7.974112165
 30
0.0
 10
10.7798293893
 20
7.9736905265
 30
0.0
 10
10.7796752181
 20
7.9733534855
 30
0.0
 10
10.7795611018
 20
7.9731122324
 30
0.0
  0
SPLINE
  5
3AC
100
AcDbEntity
  8
0
100
AcDbSpline
 62
9
  6
CONTINUOUS
 70
0
 71
3
 72
14
 73
10
 74
0
 42
0.0000001
 43
0.0000001
 44
0.0000000001
 40
0.0
 40
0.0
 40
0.0
 40
0.0
 40
0.0623787187
 40
0.1497419054
 40
0.2599750674
 40
0.390171818
 40
0.5349750574
 40
0.6885203318
 40
1.0
 40
1.0
 40
1.0
 40
1.0
 10
10.7795611018
 20
7.9731122324
 30
0.0
 10
10.7792465417
 20
7.9724472212
 30
0.0
 10
10.7784364478
 20
7.9708772331
 30
0.0
 10
10.7769627093
 20
7.9681887115
 30
0.0
 10
10.7750464079
 20
7.964831065
 30
0.0
 10
10.7727463288
 20
7.9609130724
 30
0.0
 10
10.7701496173
 20
7.9565771134
 30
0.0
 10
10.7664087946
 20
7.9504345885
 30
0.0
 10
10.763512713
 20
7.9457772343
 30
0.0
 10
10.7615570892
 20
7.9426676772
 30
0.0
  0
SPLINE
  5
3AD
100
AcDbEntity
  8
0
100
AcDbSpline
 62
9
  6
CONTINUOUS
 70
0
 71
3
 72
14
 73
10
 74
0
 42
0.0000001
 43
0.0000001
 44
0.0000000001
 40
0.0
 40
0.0
 40
0.0
 40
0.0
 40
0.0322661432
 40
0.0839785509
 40
0.1616636898
 40
0.2677470164
 40
0.4036283061
 40
0.5703674704
 40
1.0
 40
1.0
 40
1.0
 40
1.0
 10
10.8626315714
 20
7.192183725
 30
0.0
 10
10.8626323834
 20
7.192203752
 30
0.0
 10
10.8626656001
 20
7.1922512737
 30
0.0
 10
10.86275483
 20
7.1922974112
 30
0.0
 10
10.8628932483
 20
7.192346374
 30
0.0
 10
10.8630865668
 20
7.1923923203
 30
0.0
 10
10.8633364745
 20
7.1924375749
 30
0.0
 10
10.863787064
 20
7.1925004166
 30
0.0
 10
10.86415604
 20
7.1925354203
 30
0.0
 10
10.8644220326
 20
7.1925572188
 30
0.0
  0
SPLINE
  5
3AE
100
AcDbEntity
  8
0
100
AcDbSpline
 62
9
  6
CONTINUOUS
 70
0
 71
3
 72
14
 73
10
 74
0
 42
0.0000001
 43
0.0000001
 44
0.0000000001
 40
0.0
 40
0.0
 40
0.0
 40
0.0
 40
0.062378872
 40
0.1497422583
 40
0.2599756322
 40
0.3901725643
 40
0.5349758909
 40
0.6885210923
 40
1.0
 40
1.0
 40
1.0
 40
1.0
 10
10.8644220326
 20
7.1925572188
 30
0.0
 10
10.8651552372
 20
7.1926173061
 30
0.0
 10
10.8669199528
 20
7.192700735
 30
0.0
 10
10.8699851822
 20
7.192768695
 30
0.0
 10
10.8738511791
 20
7.192787945
 30
0.0
 10
10.878394343
 20
7.1927550052
 30
0.0
 10
10.8834477933
 20
7.1926741564
 30
0.0
 10
10.8906378377
 20
7.1925057568
 30
0.0
 10
10.8961193008
 20
7.1923263425
 30
0.0
 10
10.8997900894
 20
7.1921874937
 30
0.0
  0
SPLINE
  5
3AF
100
AcDbEntity
  8
0
100
AcDbSpline
 62
9
  6
CONTINUOUS
 70
0
 71
3
 72
18
 73
14
 74
0
 42
0.0000001
 43
0.0000001
 44
0.0000000001
 40
0.0
 40
0.0
 40
0.0
 40
0.0
 40
0.1703869033
 40
0.3423118666
 40
0.5082127398
 40
0.65994419
 40
0.7892595971
 40
0.8436633706
 40
0.8906896546
 40
0.9299519947
 40
0.9611170413
 40
0.9843252836
 40
1.0
 40
1.0
 40
1.0
 40
1.0
 10
11.3380421509
 20
7.945975211
 30
0.0
 10
11.33685691
 20
7.9476922639
 30
0.0
 10
11.3344853036
 20
7.951148489
 30
0.0
 10
11.3309938903
 20
7.9562999477
 30
0.0
 10
11.3276654299
 20
7.9612857387
 30
0.0
 10
11.3246637945
 20
7.9658621504
 30
0.0
 10
11.3224483135
 20
7.9693212666
 30
0.0
 10
11.3209555533
 20
7.9717202798
 30
0.0
 10
11.3200606104
 20
7.9731924502
 30
0.0
 10
11.3193305841
 20
7.9744316339
 30
0.0
 10
11.3187682227
 20
7.9754311285
 30
0.0
 10
11.3183721895
 20
7.9761918291
 30
0.0
 10
11.3181732456
 20
7.9766253777
 30
0.0
 10
11.3181068587
 20
7.9768054693
 30
0.0
  0
LINE
  5
3B0
100
AcDbEntity
  8
0
100
AcDbLine
 62
9
  6
CONTINUOUS
 10
11.3181068587
 20
7.9768054693
 11
11.3180566639
 21
7.9772049691
  0
SPLINE
  5
3B1
100
AcDbEntity
  8
0
100
AcDbSpline
 62
9
  6
CONTINUOUS
 70
0
 71
3
 72
24
 73
20
 74
0
 42
0.0000001
 43
0.0000001
 44
0.0000000001
 40
0.0
 40
0.0
 40
0.0
 40
0.0
 40
0.1862709283
 40
0.3735229605
 40
0.5515421328
 40
0.6336458636
 40
0.7092671828
 40
0.7771456981
 40
0.8366099851
 40
0.8871373537
 40
0.9282091379
 40
0.9594889253
 40
0.9715631572
 40
0.9813558195
 40
0.9889471036
 40
0.9944352126
 40
0.9964371773
 40
0.9979850245
 40
1.0
 40
1.0
 40
1.0
 40
1.0
 10
11.3330793885
 20
7.9426676258
 30
0.0
 10
11.3318483026
 20
7.9446251313
 30
0.0
 10
11.3293927001
 20
7.9485586806
 30
0.0
 10
11.3258077097
 20
7.9543922974
 30
0.0
 10
11.3229407524
 20
7.9591491293
 30
0.0
 10
11.3208184662
 20
7.9627364501
 30
0.0
 10
11.3194079394
 20
7.9651560935
 30
0.0
 10
11.3181567517
 20
7.967343215
 30
0.0
 10
11.3170792428
 20
7.9692706708
 30
0.0
 10
11.3161846865
 20
7.9709190245
 30
0.0
 10
11.3154805271
 20
7.9722723183
 30
0.0
 10
11.315021152
 20
7.9732147016
 30
0.0
 10
11.314754646
 20
7.9738183636
 30
0.0
 10
11.3146180655
 20
7.9741576958
 30
0.0
 10
11.3145257031
 20
7.9744264413
 30
0.0
 10
11.3144782034
 20
7.9746076818
 30
0.0
 10
11.3144653557
 20
7.9747200817
 30
0.0
 10
11.3144657588
 20
7.9747877362
 30
0.0
 10
11.314482556
 20
7.9748360969
 30
0.0
 10
11.314503695
 20
7.9748494715
 30
0.0
  0
SPLINE
  5
3B2
100
AcDbEntity
  8
0
100
AcDbSpline
 62
9
  6
CONTINUOUS
 70
0
 71
3
 72
9
 73
5
 74
0
 42
0.0000001
 43
0.0000001
 44
0.0000000001
 40
0.0
 40
0.0
 40
0.0
 40
0.0
 40
0.2527098477
 40
1.0
 40
1.0
 40
1.0
 40
1.0
 10
10.6446068553
 20
7.6088800321
 30
0.0
 10
10.6444806972
 20
7.6085677048
 30
0.0
 10
10.6440114185
 20
7.6073200504
 30
0.0
 10
10.6436663155
 20
7.6060245645
 30
0.0
 10
10.6434928106
 20
7.6050437068
 30
0.0
  0
SPLINE
  5
3B3
100
AcDbEntity
  8
0
100
AcDbSpline
 62
9
  6
CONTINUOUS
 70
0
 71
3
 72
9
 73
5
 74
0
 42
0.0000001
 43
0.0000001
 44
0.0000000001
 40
0.0
 40
0.0
 40
0.0
 40
0.0
 40
0.2523087472
 40
1.0
 40
1.0
 40
1.0
 40
1.0
 10
10.6434928106
 20
7.6050437068
 30
0.0
 10
10.6434385434
 20
7.6047369235
 30
0.0
 10
10.6432559173
 20
7.603515654
 30
0.0
 10
10.6432097583
 20
7.6022727683
 30
0.0
 10
10.6432633291
 20
7.601351089
 30
0.0
  0
SPLINE
  5
3B4
100
AcDbEntity
  8
0
100
AcDbSpline
 62
9
  6
CONTINUOUS
 70
0
 71
3
 72
9
 73
5
 74
0
 42
0.0000001
 43
0.0000001
 44
0.0000000001
 40
0.0
 40
0.0
 40
0.0
 40
0.0
 40
0.7487796727
 40
1.0
 40
1.0
 40
1.0
 40
1.0
 10
10.6432633291
 20
7.601351089
 30
0.0
 10
10.6433150302
 20
7.6004615771
 30
0.0
 10
10.6434948065
 20
7.5992749248
 30
0.0
 10
10.6438301824
 20
7.5981326863
 30
0.0
 10
10.6439241746
 20
7.5978489066
 30
0.0
  0
SPLINE
  5
3B5
100
AcDbEntity
  8
0
100
AcDbSpline
 62
9
  6
CONTINUOUS
 70
0
 71
3
 72
14
 73
10
 74
0
 42
0.0000001
 43
0.0000001
 44
0.0000000001
 40
0.0
 40
0.0
 40
0.0
 40
0.0
 40
0.0587740021
 40
0.1277681724
 40
0.213577892
 40
0.3203137795
 40
0.4506260689
 40
0.606406211
 40
1.0
 40
1.0
 40
1.0
 40
1.0
 10
10.6473188102
 20
7.6073314528
 30
0.0
 10
10.6473188921
 20
7.607395241
 30
0.0
 10
10.6472871792
 20
7.6075347802
 30
0.0
 10
10.647156315
 20
7.6077300634
 30
0.0
 10
10.646945678
 20
7.6079228618
 30
0.0
 10
10.6466520382
 20
7.6081158594
 30
0.0
 10
10.6462717338
 20
7.6083098868
 30
0.0
 10
10.6455895161
 20
7.6085918738
 30
0.0
 10
10.6450183142
 20
7.6087673883
 30
0.0
 10
10.6446064837
 20
7.6088808444
 30
0.0
  0
SPLINE
  5
3B6
100
AcDbEntity
  8
0
100
AcDbSpline
 62
9
  6
CONTINUOUS
 70
0
 71
3
 72
16
 73
12
 74
0
 42
0.0000001
 43
0.0000001
 44
0.0000000001
 40
0.0
 40
0.0
 40
0.0
 40
0.0
 40
0.0531705608
 40
0.1088006054
 40
0.1666286687
 40
0.22619197
 40
0.3488850627
 40
0.4755421782
 40
0.6047420451
 40
0.7356720605
 40
1.0
 40
1.0
 40
1.0
 40
1.0
 10
10.7615572325
 20
7.9426679773
 30
0.0
 10
10.7635894158
 20
7.9420456635
 30
0.0
 10
10.7678376933
 20
7.9410561474
 30
0.0
 10
10.7744611666
 20
7.9402655518
 30
0.0
 10
10.7813830208
 20
7.9400762034
 30
0.0
 10
10.790975423
 20
7.9405589102
 30
0.0
 10
10.8032113968
 20
7.9424363538
 30
0.0
 10
10.8178979234
 20
7.9461280802
 30
0.0
 10
10.8326417371
 20
7.9508068529
 30
0.0
 10
10.8522966136
 20
7.9581122837
 30
0.0
 10
10.8667927863
 20
7.9644346205
 30
0.0
 10
10.8763450663
 20
7.9689499624
 30
0.0
  0
SPLINE
  5
3B7
100
AcDbEntity
  8
0
100
AcDbSpline
 62
9
  6
CONTINUOUS
 70
0
 71
3
 72
14
 73
10
 74
0
 42
0.0000001
 43
0.0000001
 44
0.0000000001
 40
0.0
 40
0.0
 40
0.0
 40
0.0
 40
0.2662426889
 40
0.3969638542
 40
0.5254540976
 40
0.6512273476
 40
0.7730959922
 40
0.889970386
 40
1.0
 40
1.0
 40
1.0
 40
1.0
 10
10.6446070721
 20
7.6088811912
 30
0.0
 10
10.643428579
 20
7.6163664209
 30
0.0
 10
10.6413888954
 20
7.6274912342
 30
0.0
 10
10.6377300566
 20
7.641997163
 30
0.0
 10
10.6344746266
 20
7.6524660047
 30
0.0
 10
10.6306293386
 20
7.6624669692
 30
0.0
 10
10.6260423259
 20
7.671794456
 30
0.0
 10
10.6206160967
 20
7.680136619
 30
0.0
 10
10.616320047
 20
7.6850073287
 30
0.0
 10
10.6140284824
 20
7.6871415965
 30
0.0
  0
SPLINE
  5
3B8
100
AcDbEntity
  8
0
100
AcDbSpline
 62
9
  6
CONTINUOUS
 70
0
 71
3
 72
24
 73
20
 74
0
 42
0.0000001
 43
0.0000001
 44
0.0000000001
 40
0.0
 40
0.0
 40
0.0
 40
0.0
 40
0.0020149008
 40
0.0035627005
 40
0.0055646179
 40
0.0110526387
 40
0.0186438472
 40
0.0284364497
 40
0.04051064
 40
0.0717904083
 40
0.1128622683
 40
0.1633897955
 40
0.2228543056
 40
0.29073309
 40
0.3663547018
 40
0.448458709
 40
0.6264782084
 40
0.8137300124
 40
1.0
 40
1.0
 40
1.0
 40
1.0
 10
11.4991908279
 20
7.6549628266
 30
0.0
 10
11.4991686767
 20
7.654951206
 30
0.0
 10
11.4991183964
 20
7.6549608379
 30
0.0
 10
11.499059605
 20
7.6549943155
 30
0.0
 10
11.4989686878
 20
7.6550616418
 30
0.0
 10
11.4988354788
 20
7.6551933993
 30
0.0
 10
11.498648919
 20
7.6554077632
 30
0.0
 10
11.4984233378
 20
7.6556957165
 30
0.0
 10
11.4980338009
 20
7.6562283594
 30
0.0
 10
11.4974473545
 20
7.6570974013
 30
0.0
 10
11.4966274379
 20
7.6583838991
 30
0.0
 10
11.4956471873
 20
7.6599828245
 30
0.0
 10
11.4945167009
 20
7.6618797508
 30
0.0
 10
11.4932481748
 20
7.6640569276
 30
0.0
 10
11.4918579469
 20
7.6664883629
 30
0.0
 10
11.4898123538
 20
7.670120065
 30
0.0
 10
11.487126267
 20
7.6749814471
 30
0.0
 10
11.4838666757
 20
7.6810030677
 30
0.0
 10
11.4816879096
 20
7.6850965309
 30
0.0
 10
11.4806081984
 20
7.6871414684
 30
0.0
  0
SPLINE
  5
3B9
100
AcDbEntity
  8
0
100
AcDbSpline
 62
9
  6
CONTINUOUS
 70
0
 71
3
 72
16
 73
12
 74
0
 42
0.0000001
 43
0.0000001
 44
0.0000000001
 40
0.0
 40
0.0
 40
0.0
 40
0.0
 40
0.2642058846
 40
0.395064311
 40
0.5242396474
 40
0.6508864807
 40
0.7736034681
 40
0.8331998954
 40
0.8910737448
 40
0.9467605715
 40
1.0
 40
1.0
 40
1.0
 40
1.0
 10
11.2750010871
 20
7.2784552224
 30
0.0
 10
11.2663186156
 20
7.2724431651
 30
0.0
 10
11.253600906
 20
7.2630557681
 30
0.0
 10
11.2374535252
 20
7.2496925571
 30
0.0
 10
11.2260321198
 20
7.2392672221
 30
0.0
 10
11.2154907632
 20
7.2283958312
 30
0.0
 10
11.207744155
 20
7.218737836
 30
0.0
 10
11.202525107
 20
7.2106702192
 30
0.0
 10
11.1992236275
 20
7.2045773475
 30
0.0
 10
11.1965926742
 20
7.1984401525
 30
0.0
 10
11.1953242935
 20
7.1942613241
 30
0.0
 10
11.1948470577
 20
7.1921874505
 30
0.0
  0
SPLINE
  5
3BA
100
AcDbEntity
  8
0
100
AcDbSpline
 62
9
  6
CONTINUOUS
 70
0
 71
3
 72
16
 73
12
 74
0
 42
0.0000001
 43
0.0000001
 44
0.0000000001
 40
0.0
 40
0.0
 40
0.0
 40
0.0
 40
0.0531705453
 40
0.1088014907
 40
0.1666314059
 40
0.2261973624
 40
0.3488961927
 40
0.4755537452
 40
0.604744941
 40
0.7356651602
 40
1.0
 40
1.0
 40
1.0
 40
1.0
 10
10.8997901305
 20
7.1921874832
 30
0.0
 10
10.8993129695
 20
7.1942585349
 30
0.0
 10
10.8980456809
 20
7.1984323705
 30
0.0
 10
10.8954183687
 20
7.2045636943
 30
0.0
 10
10.8921211131
 20
7.2106528582
 30
0.0
 10
10.8869064678
 20
7.2187188582
 30
0.0
 10
10.8791624376
 20
7.2283769464
 30
0.0
 10
10.8686224778
 20
7.2392500253
 30
0.0
 10
10.8571994768
 20
7.2496787517
 30
0.0
 10
10.8410459283
 20
7.2630472656
 30
0.0
 10
10.8283226744
 20
7.2724398304
 30
0.0
 10
10.8196360727
 20
7.2784548615
 30
0.0
  0
SPLINE
  5
3BB
100
AcDbEntity
  8
0
100
AcDbSpline
 62
9
  6
CONTINUOUS
 70
0
 71
3
 72
24
 73
20
 74
0
 42
0.0000001
 43
0.0000001
 44
0.0000000001
 40
0.0
 40
0.0
 40
0.0
 40
0.0
 40
0.2007730672
 40
0.3907434866
 40
0.479520283
 40
0.5632187754
 40
0.6411542968
 40
0.7127118385
 40
0.7773306695
 40
0.8344595535
 40
0.8836401084
 40
0.9245117282
 40
0.9567162468
 40
0.9799770538
 40
0.9882267118
 40
0.9942295312
 40
0.9964039874
 40
0.9980498275
 40
1.0
 40
1.0
 40
1.0
 40
1.0
 10
11.2836811832
 20
6.1489728276
 30
0.0
 10
11.2860244738
 20
6.1491589513
 30
0.0
 10
11.2905849235
 20
6.1495219848
 30
0.0
 10
11.2961854544
 20
6.1499165381
 30
0.0
 10
11.3004211755
 20
6.1501744598
 30
0.0
 10
11.3033481435
 20
6.1503433178
 30
0.0
 10
11.3060739156
 20
6.1504992607
 30
0.0
 10
11.3085768533
 20
6.1506391829
 30
0.0
 10
11.3108372574
 20
6.1507528627
 30
0.0
 10
11.3128370952
 20
6.1508298984
 30
0.0
 10
11.3145599837
 20
6.1508672178
 30
0.0
 10
11.3159914349
 20
6.1508742895
 30
0.0
 10
11.3171193232
 20
6.1508574509
 30
0.0
 10
11.3178648503
 20
6.1508300307
 30
0.0
 10
11.3183027226
 20
6.1507893278
 30
0.0
 10
11.3184924712
 20
6.1507611451
 30
0.0
 10
11.3186048763
 20
6.1507306387
 30
0.0
 10
11.3186655512
 20
6.1507076202
 30
0.0
 10
11.3187064762
 20
6.1506766334
 30
0.0
 10
11.3187081865
 20
6.1506538648
 30
0.0
  0
SPLINE
  5
3BC
100
AcDbEntity
  8
0
100
AcDbSpline
 62
9
  6
CONTINUOUS
 70
0
 71
3
 72
23
 73
19
 74
0
 42
0.0000001
 43
0.0000001
 44
0.0000000001
 40
0.0
 40
0.0
 40
0.0
 40
0.0
 40
0.1887905667
 40
0.3719742303
 40
0.5416396501
 40
0.6193553822
 40
0.6913209259
 40
0.7568520821
 40
0.8152788638
 40
0.8660571884
 40
0.9088131349
 40
0.9432469456
 40
0.9573096241
 40
0.9693093355
 40
0.9793293079
 40
0.9875297969
 40
0.9942238542
 40
1.0
 40
1.0
 40
1.0
 40
1.0
 10
11.2836819029
 20
6.148972884
 30
0.0
 10
11.283695144
 20
6.1462980726
 30
0.0
 10
11.283649636
 20
6.1410273104
 30
0.0
 10
11.2833951733
 20
6.1333567516
 30
0.0
 10
11.2830344591
 20
6.1272660296
 30
0.0
 10
11.2826519346
 20
6.1227573959
 30
0.0
 10
11.2823356595
 20
6.1197244299
 30
0.0
 10
11.2819860577
 20
6.1169703351
 30
0.0
 10
11.2816067272
 20
6.1145234919
 30
0.0
 10
11.281201911
 20
6.1124081548
 30
0.0
 10
11.2807766078
 20
6.1106450214
 30
0.0
 10
11.2803887317
 20
6.1094094271
 30
0.0
 10
11.2800587165
 20
6.1086176913
 30
0.0
 10
11.2798254902
 20
6.1081620025
 30
0.0
 10
11.2795900893
 20
6.1078029649
 30
0.0
 10
11.2793514507
 20
6.1075400986
 30
0.0
 10
11.279105941
 20
6.107373036
 30
0.0
 10
11.278928185
 20
6.1073316985
 30
0.0
 10
11.2788463467
 20
6.107331702
 30
0.0
  0
SPLINE
  5
3BD
100
AcDbEntity
  8
0
100
AcDbSpline
 62
9
  6
CONTINUOUS
 70
0
 71
3
 72
24
 73
20
 74
0
 42
0.0000001
 43
0.0000001
 44
0.0000000001
 40
0.0
 40
0.0
 40
0.0
 40
0.0
 40
0.2007632271
 40
0.2975667853
 40
0.3907203315
 40
0.5631321625
 40
0.6410548144
 40
0.7126220398
 40
0.7772586542
 40
0.8343887413
 40
0.8835324116
 40
0.9243469671
 40
0.9565124351
 40
0.9797886486
 40
0.9880699993
 40
0.9941201854
 40
0.9963237939
 40
0.9980009901
 40
1.0
 40
1.0
 40
1.0
 40
1.0
 10
12.1921126264
 20
8.5412084481
 30
0.0
 10
12.1907796848
 20
8.5431448924
 30
0.0
 10
12.1888196391
 20
8.5460257837
 30
0.0
 10
12.1862583872
 20
8.5498168668
 30
0.0
 10
12.1838833407
 20
8.553333087
 30
0.0
 10
12.1816381641
 20
8.5566703513
 30
0.0
 10
12.1795738886
 20
8.5598242692
 30
0.0
 10
12.1782205683
 20
8.5619350579
 30
0.0
 10
12.1770119105
 20
8.5638492905
 30
0.0
 10
12.1759501037
 20
8.5655456874
 30
0.0
 10
12.1750409721
 20
8.5670085544
 30
0.0
 10
12.1742987422
 20
8.5682309411
 30
0.0
 10
12.1737360115
 20
8.5692077186
 30
0.0
 10
12.1733912429
 20
8.5698699248
 30
0.0
 10
12.1732160769
 20
8.5702746125
 30
0.0
 10
12.1731509276
 20
8.5704564935
 30
0.0
 10
12.1731248893
 20
8.5705713121
 30
0.0
 10
12.1731170093
 20
8.5706370788
 30
0.0
 10
12.1731244744
 20
8.5706885051
 30
0.0
 10
12.1731438126
 20
8.5707016941
 30
0.0
  0
ENDSEC
  0
SECTION
  2
OBJECTS
  0
DICTIONARY
  5
C
100
AcDbDictionary
280
0
281
1
  3
ACAD_GROUP
350
D
  3
ACAD_MLINESTYLE
350
17
  3
ACAD_LAYOUT
350
1A
  3
ACAD_PLOTSETTINGS
350
19
  3
ACAD_PLOTSTYLENAME
350
E
  0
DICTIONARY
  5
D
102
{ACAD_REACTORS
330
C
102
}
100
AcDbDictionary
280
0
281
1
  0
ACDBDICTIONARYWDFLT
  5
E
102
{ACAD_REACTORS
330
C
102
}
100
AcDbDictionary
281
1
  3
Normal
350
F
100
AcDbDictionaryWithDefault
340
F
  0
DICTIONARY
  5
17
102
{ACAD_REACTORS
330
C
102
}
100
AcDbDictionary
280
0
281
1
  3
Standard
350
18
  0
DICTIONARY
  5
19
102
{ACAD_REACTORS
330
C
102
}
100
AcDbDictionary
281
1
  0
DICTIONARY
  5
1A
102
{ACAD_REACTORS
330
C
102
}
100
AcDbDictionary
281
1
  3
Model
350
3BE
  3
Layout1
350
3BF
  0
ACDBPLACEHOLDER
  5
F
102
{ACAD_REACTORS
330
E
102
}
  0
MLINESTYLE
  5
18
102
{ACAD_REACTORS
330
17
102
}
100
AcDbMlineStyle
  2
STANDARD
 70
0
  3

 62
256
 51
90.0
 52
90.0
 71
2
 49
0.5
 62
256
  6
BYLAYER
 49
-0.5
 62
256
  6
BYLAYER
  0
LAYOUT
  5
3BE
102
{ACAD_REACTORS
330
1A
102
}
100
AcDbPlotSettings
  1

  2
none_device
  4
ANSI_C_(22.00_x_17.00_Inches)
  6

 40
0.0
 41
0.0
 42
0.0
 43
0.0
 44
558.8
 45
431.8
 46
0.0
 47
0.0
 48
0.0
 49
0.0
140
0.0
141
0.0
142
1.0
143
1.0
 70
1024
 72
0
 73
0
 74
0
  7

 75
0
147
1.0
148
0.0
149
0.0
100
AcDbLayout
  1
Model
 70
0
 71
0
 10
0.0
 20
0.0
 11
22.0
 21
17.0
 12
0.0
 22
0.0
 32
0.0
 14
0.0
 24
0.0
 34
0.0
 15
0.0
 25
0.0
 35
0.0
146
0.0
 13
0.0
 23
0.0
 33
0.0
 16
1.0
 26
0.0
 36
0.0
 17
0.0
 27
1.0
 37
0.0
 76
0
330
202
345
0
346
0
  0
LAYOUT
  5
3BF
102
{ACAD_REACTORS
330
1A
102
}
100
AcDbPlotSettings
  1

  2
none_device
  4
ANSI_C_(22.00_x_17.00_Inches)
  6

 40
0.0
 41
0.0
 42
0.0
 43
0.0
 44
558.8
 45
431.8
 46
0.0
 47
0.0
 48
0.0
 49
0.0
140
0.0
141
0.0
142
1.0
143
1.0
 70
0
 72
0
 73
0
 74
0
  7

 75
0
147
1.0
148
0.0
149
0.0
100
AcDbLayout
  1
Layout1
 70
0
 71
1
 10
0.0
 20
0.0
 11
22.0
 21
17.0
 12
0.0
 22
0.0
 32
0.0
 14
0.0
 24
0.0
 34
0.0
 15
0.0
 25
0.0
 35
0.0
146
0.0
 13
0.0
 23
0.0
 33
0.0
 16
1.0
 26
0.0
 36
0.0
 17
0.0
 27
1.0
 37
0.0
 76
0
330
203
345
0
346
0
  0
ENDSEC
  0
EOF
