999
DXF file: E:\BT Custom\CADOUTPUT\_FRONT.dxf
999
Pro/ENGINEER 2018400 by Parametric Technology Corporation
  0
SECTION
  2
HEADER
  9
$ACADVER
  1
AC1018
  9
$DWGCODEPAGE
  3
ANSI_1252
  9
$EXTMAX
 10
22.0
 20
17.0
 30
0.0
  9
$EXTMIN
 10
0.0
 20
0.0
 30
0.0
  9
$LIMMIN
 10
0.0
 20
0.0
  9
$LIMMAX
 10
22.0
 20
17.0
  9
$VIEWCTR
 10
11.0
 20
8.5
  9
$VIEWSIZE
 40
17.0
  9
$CLAYER
  8
0
  9
$LTSCALE
 40
1.21
  9
$CELTYPE
  6
BYLAYER
  9
$DIMSCALE
 40
1.0
  9
$DIMASZ
 40
0.1
  9
$DIMEXO
 40
0.0625
  9
$DIMDLI
 40
0.836
  9
$DIMEXE
 40
0.125
  9
$DIMCEN
 40
0.198
  9
$DIMLFAC
 40
1.0
  9
$DIMBLK
  1
_FILLED
  9
$DIMALT
 70
1
  9
$DIMALTD
 70
2
  9
$DIMALTTD
 70
2
  9
$DIMALTF
 40
25.4
  9
$DIMTXT
 40
0.08
  9
$DIMTOL
 70
1
  9
$DIMLIM
 70
0
  9
$DIMTFAC
 40
1.0
  9
$DIMTP
 40
0.001
  9
$DIMTM
 40
0.001
  9
$DIMGAP
 40
0.09
  9
$DIMDSEP
 70
46
  9
$AUNITS
 70
0
  9
$PDMODE
 70
3
  9
$PDSIZE
 40
0.06
  9
$HANDSEED
  5
2A8
  9
$TILEMODE
 70
1
  9
$MEASUREMENT
 70
0
  9
$INSUNITS
 70
1
  0
ENDSEC
  0
SECTION
  2
CLASSES
  0
CLASS
  1
ACDBDICTIONARYWDFLT
  2
AcDbDictionaryWithDefault
  3
AutoCAD 2000
 90
0
 91
1
280
0
281
0
  0
CLASS
  1
ACDBPLACEHOLDER
  2
AcDbPlaceHolder
  3
AutoCAD 2000
 90
0
 91
1
280
0
281
0
  0
CLASS
  1
LAYOUT
  2
AcDbLayout
  3
AutoCAD 2000
 90
0
 91
0
280
0
281
0
  0
ENDSEC
  0
SECTION
  2
TABLES
  0
TABLE
  2
VPORT
  5
8
100
AcDbSymbolTable
 70
2
  0
VPORT
  5
1F4
100
AcDbSymbolTableRecord
100
AcDbViewportTableRecord
  2
*ACTIVE
 70
0
 10
0.0
 20
0.0
 11
1.0
 21
1.0
 12
11.0
 22
8.5
 13
0.0
 23
0.0
 14
1.0
 24
1.0
 15
0.0
 25
0.0
 16
0.0
 26
0.0
 36
1.0
 17
0.0
 27
0.0
 37
0.0
 40
17.0
 41
1.2941176471
 42
50.0
 43
0.0
 44
0.0
 50
0.0
 51
0.0
 71
0
 72
100
 73
1
 74
1
 75
0
 76
0
 77
0
 78
0
  0
ENDTAB
  0
TABLE
  2
LTYPE
  5
5
100
AcDbSymbolTable
 70
6
  0
LTYPE
  5
14
100
AcDbSymbolTableRecord
100
AcDbLinetypeTableRecord
  2
BYBLOCK
 70
0
  3

 72
65
 73
0
 40
0.0
  0
LTYPE
  5
15
100
AcDbSymbolTableRecord
100
AcDbLinetypeTableRecord
  2
BYLAYER
 70
0
  3

 72
65
 73
0
 40
0.0
  0
LTYPE
  5
16
100
AcDbSymbolTableRecord
100
AcDbLinetypeTableRecord
  2
CONTINUOUS
 70
64
  3
Solid line
 72
65
 73
0
 40
0.0
  0
LTYPE
  5
1F5
100
AcDbSymbolTableRecord
100
AcDbLinetypeTableRecord
  2
CENTER
 70
64
  3
____ _ ____ _ ____ _ ____ _ ____ _ ____ _ ____
 72
65
 73
4
 40
0.6
 49
0.375
 74
0
 49
-0.075
 74
0
 49
0.075
 74
0
 49
-0.075
 74
0
  0
LTYPE
  5
1F6
100
AcDbSymbolTableRecord
100
AcDbLinetypeTableRecord
  2
HIDDEN
 70
64
  3
- - - - - - - - - - - - - - - - - - - -
 72
65
 73
2
 40
0.2
 49
0.1
 74
0
 49
-0.1
 74
0
  0
LTYPE
  5
1F7
100
AcDbSymbolTableRecord
100
AcDbLinetypeTableRecord
  2
PHANTOM
 70
64
  3
_____ _ _ _____ _ _ _____ _ _ _____
 72
65
 73
6
 40
0.8
 49
0.45
 74
0
 49
-0.05
 74
0
 49
0.1
 74
0
 49
-0.05
 74
0
 49
0.1
 74
0
 49
-0.05
 74
0
  0
LTYPE
  5
1F8
100
AcDbSymbolTableRecord
100
AcDbLinetypeTableRecord
  2
DOT
 70
64
  3
. . . . . . . . . . . . . . . . . . . .
 72
65
 73
2
 40
0.2
 49
0.1
 74
0
 49
-0.1
 74
0
  0
LTYPE
  5
1F9
100
AcDbSymbolTableRecord
100
AcDbLinetypeTableRecord
  2
DASHED
 70
64
  3
- - - - - - - - - - - - - - - - - - - -
 72
65
 73
2
 40
0.2
 49
0.1
 74
0
 49
-0.1
 74
0
  0
ENDTAB
  0
TABLE
  2
LAYER
  5
2
100
AcDbSymbolTable
 70
36
  0
LAYER
  5
10
100
AcDbSymbolTableRecord
100
AcDbLayerTableRecord
  2
0
 70
0
 62
7
  6
CONTINUOUS
370
-3
390
F
  0
LAYER
  5
1FA
100
AcDbSymbolTableRecord
100
AcDbLayerTableRecord
  2
DEFAULT_1
 70
0
 62
7
  6
CENTER
370
-3
390
F
  0
LAYER
  5
1FB
100
AcDbSymbolTableRecord
100
AcDbLayerTableRecord
  2
DEFAULT_2
 70
0
 62
8
  6
HIDDEN
370
-3
390
F
  0
LAYER
  5
1FC
100
AcDbSymbolTableRecord
100
AcDbLayerTableRecord
  2
DEFAULT_3
 70
0
 62
7
  6
PHANTOM
370
-3
390
F
  0
LAYER
  5
1FD
100
AcDbSymbolTableRecord
100
AcDbLayerTableRecord
  2
ALL_FEATURES
 70
0
 62
7
  6
CONTINUOUS
370
-3
390
F
  0
LAYER
  5
1FE
100
AcDbSymbolTableRecord
100
AcDbLayerTableRecord
  2
AXES_FEATURES
 70
0
 62
7
  6
CONTINUOUS
370
-3
390
F
  0
LAYER
  5
1FF
100
AcDbSymbolTableRecord
100
AcDbLayerTableRecord
  2
DIMENSIONS
 70
0
 62
7
  6
CONTINUOUS
370
-3
390
F
  0
ENDTAB
  0
TABLE
  2
STYLE
  5
3
100
AcDbSymbolTable
 70
1
  0
STYLE
  5
11
100
AcDbSymbolTableRecord
100
AcDbTextStyleTableRecord
  2
STANDARD
 70
0
 40
0.0
 41
0.8
 50
0.0
 71
0
 42
0.2
  3
txt
  4

  0
STYLE
  5
200
100
AcDbSymbolTableRecord
100
AcDbTextStyleTableRecord
  2
TEXTSTYLE_1
 70
0
 40
0.0
 41
0.8
 50
0.0
 71
0
 42
0.2
  3
gdt
  4

  0
ENDTAB
  0
TABLE
  2
VIEW
  5
6
100
AcDbSymbolTable
 70
0
  0
ENDTAB
  0
TABLE
  2
UCS
  5
7
100
AcDbSymbolTable
 70
0
  0
ENDTAB
  0
TABLE
  2
APPID
  5
9
100
AcDbSymbolTable
 70
1
  0
APPID
  5
201
100
AcDbSymbolTableRecord
100
AcDbRegAppTableRecord
  2
ACAD
 70
0
  0
ENDTAB
  0
TABLE
  2
BLOCK_RECORD
  5
1
100
AcDbSymbolTable
 70
0
  0
BLOCK_RECORD
  5
202
100
AcDbSymbolTableRecord
100
AcDbBlockTableRecord
  2
*Model_Space
  0
BLOCK_RECORD
  5
203
100
AcDbSymbolTableRecord
100
AcDbBlockTableRecord
  2
*Paper_Space
  0
BLOCK_RECORD
  5
204
100
AcDbSymbolTableRecord
100
AcDbBlockTableRecord
  2
_FILLED
  0
ENDTAB
  0
TABLE
  2
DIMSTYLE
  5
A
100
AcDbSymbolTable
 70
1
100
AcDbDimStyleTable
 71
0
  0
DIMSTYLE
105
205
100
AcDbSymbolTableRecord
100
AcDbDimStyleTableRecord
  2
STANDARD
 70
0
  3

  4

 40
1.0
 41
0.1
 42
0.0625
 43
0.38
 44
0.125
 45
0.0
 46
0.0
 47
0.001
 48
0.001
140
0.08
141
0.09
142
0.0
143
25.4
144
1.0
145
0.0
146
1.0
147
0.09
 71
1.0
 72
0.0
 73
1
 74
1
 75
0
 76
0
 77
0
 78
4
 79
1
170
1
171
2
172
0
173
0
174
0
175
0
176
0
177
0
178
0
270
2
179
3
271
3
272
3
273
2
274
2
275
0
280
0
281
0
282
0
283
1
284
4
285
0
286
0
287
3
288
0
340
11
278
46
341
204
342
204
343
204
344
204
  0
ENDTAB
  0
ENDSEC
  0
SECTION
  2
BLOCKS
  0
BLOCK
  5
20
100
AcDbEntity
  8
0
100
AcDbBlockBegin
  2
*Model_Space
 70
0
 10
0.0
 20
0.0
 30
0.0
  3
*Model_Space
  1

  0
ENDBLK
  5
21
100
AcDbEntity
  8
0
100
AcDbBlockEnd
  0
BLOCK
  5
1C
100
AcDbEntity
  8
0
100
AcDbBlockBegin
  2
*Paper_Space
 70
0
 10
0.0
 20
0.0
 30
0.0
  3
*Paper_Space
  1

  0
ENDBLK
  5
1D
100
AcDbEntity
  8
0
100
AcDbBlockEnd
  0
BLOCK
  5
206
100
AcDbEntity
  8
0
100
AcDbBlockBegin
  2
_FILLED
 70
64
 10
0.0
 20
0.0
  3
_FILLED
  1

  0
SOLID
  5
207
100
AcDbEntity
  8
0
  6
BYBLOCK
 62
0
100
AcDbTrace
 10
0.0
 20
0.0
 11
-1.0
 21
0.2
 12
-1.0
 22
-0.2
 13
-1.0
 23
-0.2
  0
ENDBLK
  5
208
100
AcDbEntity
  8
0
  6
BYBLOCK
 62
0
100
AcDbBlockEnd
  0
ENDSEC
  0
SECTION
  2
ENTITIES
  0
LINE
  5
209
100
AcDbEntity
  8
0
100
AcDbLine
 62
7
  6
CONTINUOUS
 10
9.6751923427
 20
8.0251695021
 11
12.2001923427
 21
8.0251695021
  0
LINE
  5
20A
100
AcDbEntity
  8
0
100
AcDbLine
 62
7
  6
CONTINUOUS
 10
9.6751923427
 20
8.1251695021
 11
12.2001923427
 21
8.1251695021
  0
LINE
  5
20B
100
AcDbEntity
  8
0
100
AcDbLine
 62
7
  6
CONTINUOUS
 10
9.8876923427
 20
8.5001695021
 11
9.8876923427
 21
8.6001695021
  0
LINE
  5
20C
100
AcDbEntity
  8
0
100
AcDbLine
 62
9
  6
CONTINUOUS
 10
9.8022032343
 20
8.3557112195
 11
12.0731814512
 21
8.3557112195
  0
LINE
  5
20D
100
AcDbEntity
  8
0
100
AcDbLine
 62
7
  6
CONTINUOUS
 10
12.0626923427
 20
8.5001695021
 11
9.8126923427
 21
8.5001695021
  0
LINE
  5
20E
100
AcDbEntity
  8
0
100
AcDbLine
 62
7
  6
CONTINUOUS
 10
11.9876923427
 20
8.6001695021
 11
9.8876923427
 21
8.6001695021
  0
LINE
  5
20F
100
AcDbEntity
  8
0
100
AcDbLine
 62
7
  6
CONTINUOUS
 10
10.4001923427
 20
9.2501695021
 11
10.4001923427
 21
9.3001695021
  0
LINE
  5
210
100
AcDbEntity
  8
0
100
AcDbLine
 62
7
  6
CONTINUOUS
 10
10.4376923427
 20
10.4201695021
 11
10.4376923427
 21
10.3201695021
  0
LINE
  5
211
100
AcDbEntity
  8
0
100
AcDbLine
 62
7
  6
CONTINUOUS
 10
10.4376923427
 20
10.0201695021
 11
10.4376923427
 21
9.9201695021
  0
LINE
  5
212
100
AcDbEntity
  8
0
100
AcDbLine
 62
7
  6
CONTINUOUS
 10
10.5001923427
 20
9.3001695021
 11
10.5001923427
 21
9.4001695021
  0
LINE
  5
213
100
AcDbEntity
  8
0
100
AcDbLine
 62
7
  6
CONTINUOUS
 10
10.6251923427
 20
9.8119163267
 11
10.6251923427
 21
9.4201695021
  0
LINE
  5
214
100
AcDbEntity
  8
0
100
AcDbLine
 62
7
  6
CONTINUOUS
 10
11.2501923427
 20
9.8119163267
 11
11.4376923427
 21
9.9201695021
  0
LINE
  5
215
100
AcDbEntity
  8
0
100
AcDbLine
 62
7
  6
CONTINUOUS
 10
10.7376923427
 20
9.4001695021
 11
10.7376923427
 21
9.4201695021
  0
LINE
  5
216
100
AcDbEntity
  8
0
100
AcDbLine
 62
9
  6
CONTINUOUS
 10
10.804461973
 20
10.5020715434
 11
10.804461973
 21
10.5010662894
  0
LINE
  5
217
100
AcDbEntity
  8
0
100
AcDbLine
 62
7
  6
CONTINUOUS
 10
10.8289584572
 20
10.504188391
 11
10.8289584572
 21
10.5031845165
  0
LINE
  5
218
100
AcDbEntity
  8
0
100
AcDbLine
 62
7
  6
CONTINUOUS
 10
10.920827106
 20
10.4831913225
 11
10.920827106
 21
10.482173605
  0
LINE
  5
219
100
AcDbEntity
  8
0
100
AcDbLine
 62
7
  6
CONTINUOUS
 10
11.5751923427
 20
9.2501695021
 11
10.3001923427
 21
9.2501695021
  0
LINE
  5
21A
100
AcDbEntity
  8
0
100
AcDbLine
 62
7
  6
CONTINUOUS
 10
10.9545575795
 20
10.4831913225
 11
10.9545575795
 21
10.482173605
  0
LINE
  5
21B
100
AcDbEntity
  8
0
100
AcDbLine
 62
7
  6
CONTINUOUS
 10
11.0464262283
 20
10.5031845165
 11
11.0464262283
 21
10.504188391
  0
LINE
  5
21C
100
AcDbEntity
  8
0
100
AcDbLine
 62
9
  6
CONTINUOUS
 10
11.0709227124
 20
10.5020717454
 11
11.0709227124
 21
10.5010658981
  0
LINE
  5
21D
100
AcDbEntity
  8
0
100
AcDbLine
 62
7
  6
CONTINUOUS
 10
11.4751923427
 20
9.3001695021
 11
10.4001923427
 21
9.3001695021
  0
LINE
  5
21E
100
AcDbEntity
  8
0
100
AcDbLine
 62
7
  6
CONTINUOUS
 10
11.3751923427
 20
9.4001695021
 11
10.5001923427
 21
9.4001695021
  0
LINE
  5
21F
100
AcDbEntity
  8
0
100
AcDbLine
 62
7
  6
CONTINUOUS
 10
11.1376923427
 20
9.4001695021
 11
11.1376923427
 21
9.4201695021
  0
LINE
  5
220
100
AcDbEntity
  8
0
100
AcDbLine
 62
7
  6
CONTINUOUS
 10
10.6251927929
 20
9.4201695021
 11
11.2501918925
 21
9.4201695021
  0
LINE
  5
221
100
AcDbEntity
  8
0
100
AcDbLine
 62
7
  6
CONTINUOUS
 10
11.2501923427
 20
9.8119163267
 11
11.2501923427
 21
9.4201695021
  0
LINE
  5
222
100
AcDbEntity
  8
0
100
AcDbLine
 62
7
  6
CONTINUOUS
 10
10.6251923427
 20
9.8119163267
 11
10.4376923427
 21
9.9201695021
  0
LINE
  5
223
100
AcDbEntity
  8
0
100
AcDbLine
 62
7
  6
CONTINUOUS
 10
11.3751923427
 20
9.3001695021
 11
11.3751923427
 21
9.4001695021
  0
LINE
  5
224
100
AcDbEntity
  8
0
100
AcDbLine
 62
7
  6
CONTINUOUS
 10
11.4376923427
 20
10.4201695021
 11
11.4376923427
 21
10.3201695021
  0
LINE
  5
225
100
AcDbEntity
  8
0
100
AcDbLine
 62
7
  6
CONTINUOUS
 10
11.4376923427
 20
10.0201695021
 11
11.4376923427
 21
9.9201695021
  0
LINE
  5
226
100
AcDbEntity
  8
0
100
AcDbLine
 62
7
  6
CONTINUOUS
 10
11.4751923427
 20
9.2501695021
 11
11.4751923427
 21
9.3001695021
  0
LINE
  5
227
100
AcDbEntity
  8
0
100
AcDbLine
 62
7
  6
CONTINUOUS
 10
11.2501923427
 20
9.8119163267
 11
10.6251923427
 21
9.8119163267
  0
LINE
  5
228
100
AcDbEntity
  8
0
100
AcDbLine
 62
7
  6
CONTINUOUS
 10
10.4376923427
 20
9.9201695021
 11
11.4376923427
 21
9.9201695021
  0
LINE
  5
229
100
AcDbEntity
  8
0
100
AcDbLine
 62
7
  6
CONTINUOUS
 10
10.5841389521
 20
10.0201695021
 11
10.4420125879
 21
10.0201695021
  0
LINE
  5
22A
100
AcDbEntity
  8
0
100
AcDbLine
 62
7
  6
CONTINUOUS
 10
11.2912457333
 20
10.0201695021
 11
11.4333720976
 21
10.0201695021
  0
LINE
  5
22B
100
AcDbEntity
  8
0
100
AcDbLine
 62
7
  6
CONTINUOUS
 10
11.9876923427
 20
8.5001695021
 11
11.9876923427
 21
8.6001695021
  0
LINE
  5
22C
100
AcDbEntity
  8
0
100
AcDbLine
 62
7
  6
CONTINUOUS
 10
10.5841389521
 20
10.3201695021
 11
10.4420125879
 21
10.3201695021
  0
LINE
  5
22D
100
AcDbEntity
  8
0
100
AcDbLine
 62
7
  6
CONTINUOUS
 10
11.2912457333
 20
10.3201695021
 11
11.4333720976
 21
10.3201695021
  0
LINE
  5
22E
100
AcDbEntity
  8
0
100
AcDbLine
 62
7
  6
CONTINUOUS
 10
11.4376734006
 20
10.4201695021
 11
10.4377112849
 21
10.4201695021
  0
LINE
  5
22F
100
AcDbEntity
  8
0
100
AcDbLine
 62
9
  6
CONTINUOUS
 10
11.3328369993
 20
10.4589787954
 11
10.5425476862
 21
10.4589787954
  0
ARC
  5
230
100
AcDbEntity
  8
0
100
AcDbCircle
 62
7
  6
CONTINUOUS
 10
10.9169207297
 20
9.2268144302
 40
1.2826049232
100
AcDbArc
 50
83.9811604004
 51
84.2063315125
  0
ARC
  5
231
100
AcDbEntity
  8
0
100
AcDbCircle
 62
7
  6
CONTINUOUS
 10
10.9254271602
 20
9.2276177687
 40
1.2812928247
100
AcDbArc
 50
84.5811904068
 51
86.1181596208
  0
ARC
  5
232
100
AcDbEntity
  8
0
100
AcDbCircle
 62
7
  6
CONTINUOUS
 10
10.9171441803
 20
9.2290490784
 40
1.2803591334
100
AcDbArc
 50
84.2061851654
 51
84.9345112755
  0
ARC
  5
233
100
AcDbEntity
  8
0
100
AcDbCircle
 62
7
  6
CONTINUOUS
 10
10.9255642963
 20
9.2297633958
 40
1.2801432245
100
AcDbArc
 50
84.5824750163
 51
88.1128457272
  0
ARC
  5
234
100
AcDbEntity
  8
0
100
AcDbCircle
 62
7
  6
CONTINUOUS
 10
10.9171810251
 20
9.2293795446
 40
1.2800267046
100
AcDbArc
 50
84.9348479948
 51
85.8628514138
  0
ARC
  5
235
100
AcDbEntity
  8
0
100
AcDbCircle
 62
7
  6
CONTINUOUS
 10
10.9256855033
 20
9.2300478593
 40
1.2798549287
100
AcDbArc
 50
88.1178495388
 51
89.0595728759
  0
ARC
  5
236
100
AcDbEntity
  8
0
100
AcDbCircle
 62
7
  6
CONTINUOUS
 10
10.9256022741
 20
9.2300499852
 40
1.2788543383
100
AcDbArc
 50
86.2806695188
 51
86.9321742866
  0
ARC
  5
237
100
AcDbEntity
  8
0
100
AcDbCircle
 62
7
  6
CONTINUOUS
 10
10.9172538524
 20
9.2306554295
 40
1.2787488789
100
AcDbArc
 50
85.9059252338
 51
87.7394603851
  0
ARC
  5
238
100
AcDbEntity
  8
0
100
AcDbCircle
 62
7
  6
CONTINUOUS
 10
10.9256426503
 20
9.2312360667
 40
1.277667448
100
AcDbArc
 50
88.1143024891
 51
89.012903362
  0
ARC
  5
239
100
AcDbEntity
  8
0
100
AcDbCircle
 62
7
  6
CONTINUOUS
 10
8.8126923427
 20
8.5001695021
 40
1.0
100
AcDbArc
 50
351.6940891949
 51
360.0
  0
ARC
  5
23A
100
AcDbEntity
  8
0
100
AcDbCircle
 62
7
  6
CONTINUOUS
 10
9.5818211306
 20
9.2501695021
 40
0.7183712121
100
AcDbArc
 50
295.2003196521
 51
360.0
  0
ARC
  5
23B
100
AcDbEntity
  8
0
100
AcDbCircle
 62
7
  6
CONTINUOUS
 10
9.43113665
 20
8.4098830755
 40
0.375
100
AcDbArc
 50
310.6030912348
 51
351.6940891949
  0
ARC
  5
23C
100
AcDbEntity
  8
0
100
AcDbCircle
 62
7
  6
CONTINUOUS
 10
9.6751923427
 20
8.0751695021
 40
0.05
100
AcDbArc
 50
90.0
 51
270.0
  0
ARC
  5
23D
100
AcDbEntity
  8
0
100
AcDbCircle
 62
7
  6
CONTINUOUS
 10
10.1159923886
 20
9.9225625069
 40
0.4976165665
100
AcDbArc
 50
74.8023487318
 51
105.1977471252
  0
ARC
  5
23E
100
AcDbEntity
  8
0
100
AcDbCircle
 62
7
  6
CONTINUOUS
 10
10.1159915259
 20
10.4177765003
 40
0.4976165665
100
AcDbArc
 50
254.8023488184
 51
285.1977470341
  0
ARC
  5
23F
100
AcDbEntity
  8
0
100
AcDbCircle
 62
7
  6
CONTINUOUS
 10
10.8791316843
 20
10.1094013119
 40
0.398719041
100
AcDbArc
 50
98.6295222818
 51
100.6448857671
  0
ARC
  5
240
100
AcDbEntity
  8
0
100
AcDbCircle
 62
7
  6
CONTINUOUS
 10
10.8774955782
 20
10.1197559169
 40
0.3892285273
100
AcDbArc
 50
98.6120563525
 51
100.8149040439
  0
ARC
  5
241
100
AcDbEntity
  8
0
100
AcDbCircle
 62
7
  6
CONTINUOUS
 10
10.8942207891
 20
10.1274980052
 40
0.3823021398
100
AcDbArc
 50
98.1072540646
 51
99.8290315848
  0
ARC
  5
242
100
AcDbEntity
  8
0
100
AcDbCircle
 62
7
  6
CONTINUOUS
 10
10.8682027225
 20
10.1803462024
 40
0.3269375089
100
AcDbArc
 50
96.2148551386
 51
98.6014251788
  0
ARC
  5
243
100
AcDbEntity
  8
0
100
AcDbCircle
 62
7
  6
CONTINUOUS
 10
10.8861908796
 20
10.182994393
 40
0.3262279861
100
AcDbArc
 50
96.3158418378
 51
98.0856177842
  0
ARC
  5
244
100
AcDbEntity
  8
0
100
AcDbCircle
 62
7
  6
CONTINUOUS
 10
10.8667217114
 20
10.1925196915
 40
0.3156719504
100
AcDbArc
 50
96.1833415638
 51
98.6562534368
  0
ARC
  5
245
100
AcDbEntity
  8
0
100
AcDbCircle
 62
9
  6
CONTINUOUS
 10
10.1364602166
 20
10.1701694888
 40
0.2894977503
100
AcDbArc
 50
359.5475541996
 51
0.0000026445
  0
ARC
  5
246
100
AcDbEntity
  8
0
100
AcDbCircle
 62
7
  6
CONTINUOUS
 10
10.8809500423
 20
10.2291225253
 40
0.2798033173
100
AcDbArc
 50
94.4871147937
 51
96.2882974463
  0
ARC
  5
247
100
AcDbEntity
  8
0
100
AcDbCircle
 62
7
  6
CONTINUOUS
 10
10.8619820538
 20
10.235030471
 40
0.2719013204
100
AcDbArc
 50
94.4628630266
 51
96.1591930047
  0
ARC
  5
248
100
AcDbEntity
  8
0
100
AcDbCircle
 62
7
  6
CONTINUOUS
 10
10.8603678673
 20
10.2532674112
 40
0.2545933675
100
AcDbArc
 50
93.4515640612
 51
96.2342645972
  0
ARC
  5
249
100
AcDbEntity
  8
0
100
AcDbCircle
 62
7
  6
CONTINUOUS
 10
10.798881953
 20
10.7433957214
 40
0.2423494265
100
AcDbArc
 50
273.1559576062
 51
275.9432943924
  0
ARC
  5
24A
100
AcDbEntity
  8
0
100
AcDbCircle
 62
7
  6
CONTINUOUS
 10
10.8778964613
 20
10.2669801389
 40
0.2418228566
100
AcDbArc
 50
92.661642757
 51
94.4675831981
  0
ARC
  5
24B
100
AcDbEntity
  8
0
100
AcDbCircle
 62
9
  6
CONTINUOUS
 10
10.3359523575
 20
10.1701694924
 40
0.2121262476
100
AcDbArc
 50
359.5475541994
 51
0.0000026448
  0
ARC
  5
24C
100
AcDbEntity
  8
0
100
AcDbCircle
 62
7
  6
CONTINUOUS
 10
10.8576383081
 20
10.3005016129
 40
0.2072805481
100
AcDbArc
 50
90.9088386595
 51
93.484489224
  0
ARC
  5
24D
100
AcDbEntity
  8
0
100
AcDbCircle
 62
7
  6
CONTINUOUS
 10
10.857272183
 20
10.319724905
 40
0.1880538769
100
AcDbArc
 50
90.4434770202
 51
90.8902022687
  0
ARC
  5
24E
100
AcDbEntity
  8
0
100
AcDbCircle
 62
7
  6
CONTINUOUS
 10
10.5501923427
 20
10.4299691552
 40
0.03
100
AcDbArc
 50
104.7630312683
 51
199.0658789538
  0
ARC
  5
24F
100
AcDbEntity
  8
0
100
AcDbCircle
 62
7
  6
CONTINUOUS
 10
10.9376923427
 20
8.9594994867
 40
1.5506700155
100
AcDbArc
 50
94.0281975387
 51
104.7630312681
  0
ARC
  5
250
100
AcDbEntity
  8
0
100
AcDbCircle
 62
7
  6
CONTINUOUS
 10
10.9376923427
 20
8.9594994867
 40
1.5506700155
100
AcDbArc
 50
87.3749870801
 51
92.6250254354
  0
ARC
  5
251
100
AcDbEntity
  8
0
100
AcDbCircle
 62
7
  6
CONTINUOUS
 10
10.9376923427
 20
8.9594994867
 40
1.5506700155
100
AcDbArc
 50
75.2369687319
 51
85.9683657429
  0
ARC
  5
252
100
AcDbEntity
  8
0
100
AcDbCircle
 62
7
  6
CONTINUOUS
 10
10.9376923427
 20
8.9594994867
 40
1.5237851708
100
AcDbArc
 50
89.3658380229
 51
90.6341619771
  0
ARC
  5
253
100
AcDbEntity
  8
0
100
AcDbCircle
 62
7
  6
CONTINUOUS
 10
10.9376923427
 20
8.9594994867
 40
1.5227675157
100
AcDbArc
 50
89.3654141994
 51
90.6345858006
  0
ARC
  5
254
100
AcDbEntity
  8
0
100
AcDbCircle
 62
7
  6
CONTINUOUS
 10
10.9376923427
 20
8.9594994867
 40
1.519875405
100
AcDbArc
 50
88.5861934599
 51
91.4138065401
  0
ARC
  5
255
100
AcDbEntity
  8
0
100
AcDbCircle
 62
7
  6
CONTINUOUS
 10
10.9583426158
 20
9.2279626301
 40
1.2814503296
100
AcDbArc
 50
95.7892701587
 51
96.0188272545
  0
ARC
  5
256
100
AcDbEntity
  8
0
100
AcDbCircle
 62
7
  6
CONTINUOUS
 10
10.9582975625
 20
9.2284134513
 40
1.2809972632
100
AcDbArc
 50
95.0645063221
 51
95.7892992669
  0
ARC
  5
257
100
AcDbEntity
  8
0
100
AcDbCircle
 62
7
  6
CONTINUOUS
 10
10.9498394837
 20
9.2294642631
 40
1.2804428238
100
AcDbArc
 50
91.8875674423
 51
95.4171118497
  0
ARC
  5
258
100
AcDbEntity
  8
0
100
AcDbCircle
 62
7
  6
CONTINUOUS
 10
10.9582185936
 20
9.2293069653
 40
1.2801002664
100
AcDbArc
 50
94.0934105778
 51
95.0645160087
  0
ARC
  5
259
100
AcDbEntity
  8
0
100
AcDbCircle
 62
7
  6
CONTINUOUS
 10
10.9498549985
 20
9.2290308609
 40
1.2798763658
100
AcDbArc
 50
93.9243170053
 51
95.4202142371
  0
ARC
  5
25A
100
AcDbEntity
  8
0
100
AcDbCircle
 62
7
  6
CONTINUOUS
 10
10.9496991774
 20
9.2300479946
 40
1.2798547933
100
AcDbArc
 50
90.9404270123
 51
91.8821504516
  0
ARC
  5
25B
100
AcDbEntity
  8
0
100
AcDbCircle
 62
7
  6
CONTINUOUS
 10
10.958136207
 20
9.230502989
 40
1.2789014128
100
AcDbArc
 50
92.2605108085
 51
94.0935538966
  0
ARC
  5
25C
100
AcDbEntity
  8
0
100
AcDbCircle
 62
7
  6
CONTINUOUS
 10
10.9497790702
 20
9.2300810162
 40
1.2788234754
100
AcDbArc
 50
93.4654127972
 51
93.9241196944
  0
ARC
  5
25D
100
AcDbEntity
  8
0
100
AcDbCircle
 62
7
  6
CONTINUOUS
 10
10.9497297474
 20
9.2311442087
 40
1.2777590822
100
AcDbArc
 50
90.9866804509
 51
91.8850610272
  0
ARC
  5
25E
100
AcDbEntity
  8
0
100
AcDbCircle
 62
7
  6
CONTINUOUS
 10
13.0626923427
 20
8.5001695021
 40
1.0
100
AcDbArc
 50
180.0
 51
188.3059108051
  0
ARC
  5
25F
100
AcDbEntity
  8
0
100
AcDbCircle
 62
7
  6
CONTINUOUS
 10
12.2935635549
 20
9.2501695021
 40
0.7183712121
100
AcDbArc
 50
180.0
 51
244.7996803479
  0
ARC
  5
260
100
AcDbEntity
  8
0
100
AcDbCircle
 62
7
  6
CONTINUOUS
 10
12.4442480355
 20
8.4098830755
 40
0.375
100
AcDbArc
 50
188.3059108051
 51
229.3969087652
  0
ARC
  5
261
100
AcDbEntity
  8
0
100
AcDbCircle
 62
7
  6
CONTINUOUS
 10
12.2001923427
 20
8.0751695021
 40
0.05
100
AcDbArc
 50
270.0
 51
90.0
  0
ARC
  5
262
100
AcDbEntity
  8
0
100
AcDbCircle
 62
7
  6
CONTINUOUS
 10
11.7593922969
 20
10.4177765003
 40
0.4976165665
100
AcDbArc
 50
254.8023488168
 51
285.1977470325
  0
ARC
  5
263
100
AcDbEntity
  8
0
100
AcDbCircle
 62
7
  6
CONTINUOUS
 10
11.7593931596
 20
9.9225625069
 40
0.4976165665
100
AcDbArc
 50
74.8023487316
 51
105.197747125
  0
ARC
  5
264
100
AcDbEntity
  8
0
100
AcDbCircle
 62
7
  6
CONTINUOUS
 10
10.9946142865
 20
10.1007399421
 40
0.4075335061
100
AcDbArc
 50
79.3466481999
 51
80.5177795382
  0
ARC
  5
265
100
AcDbEntity
  8
0
100
AcDbCircle
 62
7
  6
CONTINUOUS
 10
10.9955402265
 20
10.1060011388
 40
0.403180412
100
AcDbArc
 50
79.2240131192
 51
81.2981531829
  0
ARC
  5
266
100
AcDbEntity
  8
0
100
AcDbCircle
 62
7
  6
CONTINUOUS
 10
10.9826384642
 20
10.1369312241
 40
0.3727552785
100
AcDbArc
 50
80.1467619628
 51
81.9126443346
  0
ARC
  5
267
100
AcDbEntity
  8
0
100
AcDbCircle
 62
7
  6
CONTINUOUS
 10
11.0059728364
 20
10.1710453247
 40
0.3363177104
100
AcDbArc
 50
80.4532358577
 51
83.0531680962
  0
ARC
  5
268
100
AcDbEntity
  8
0
100
AcDbCircle
 62
7
  6
CONTINUOUS
 10
11.0068879077
 20
10.178928674
 40
0.3293755749
100
AcDbArc
 50
81.3301005875
 51
83.7044335306
  0
ARC
  5
269
100
AcDbEntity
  8
0
100
AcDbCircle
 62
7
  6
CONTINUOUS
 10
10.9903255664
 20
10.1919529388
 40
0.3171993537
100
AcDbArc
 50
81.8891707247
 51
83.7093228202
  0
ARC
  5
26A
100
AcDbEntity
  8
0
100
AcDbCircle
 62
7
  6
CONTINUOUS
 10
11.0106676361
 20
10.2017804604
 40
0.3052574497
100
AcDbArc
 50
84.4319781243
 51
85.6950724455
  0
ARC
  5
26B
100
AcDbEntity
  8
0
100
AcDbCircle
 62
9
  6
CONTINUOUS
 10
11.7389244685
 20
10.1701695155
 40
0.28949775
100
AcDbArc
 50
179.5475541994
 51
180.0000026448
  0
ARC
  5
26C
100
AcDbEntity
  8
0
100
AcDbCircle
 62
7
  6
CONTINUOUS
 10
11.0131946374
 20
10.2314125358
 40
0.2755202339
100
AcDbArc
 50
83.0256090679
 51
84.3571048226
  0
ARC
  5
26D
100
AcDbEntity
  8
0
100
AcDbCircle
 62
7
  6
CONTINUOUS
 10
10.99506412
 20
10.2357958372
 40
0.2731012429
100
AcDbArc
 50
83.6896108082
 51
85.5350024849
  0
ARC
  5
26E
100
AcDbEntity
  8
0
100
AcDbCircle
 62
7
  6
CONTINUOUS
 10
11.0765086252
 20
10.7434565706
 40
0.2424105588
100
AcDbArc
 50
264.0568095013
 51
266.8284114477
  0
ARC
  5
26F
100
AcDbEntity
  8
0
100
AcDbCircle
 62
7
  6
CONTINUOUS
 10
10.9978264879
 20
10.272327378
 40
0.236465539
100
AcDbArc
 50
85.5131958742
 51
87.363626786
  0
ARC
  5
270
100
AcDbEntity
  8
0
100
AcDbCircle
 62
7
  6
CONTINUOUS
 10
11.0175583003
 20
10.2950008617
 40
0.2127827856
100
AcDbArc
 50
86.55104568
 51
89.277287235
  0
ARC
  5
271
100
AcDbEntity
  8
0
100
AcDbCircle
 62
9
  6
CONTINUOUS
 10
11.5394323281
 20
10.1701695119
 40
0.2121262477
100
AcDbArc
 50
179.5475541995
 51
180.0000026445
  0
ARC
  5
272
100
AcDbEntity
  8
0
100
AcDbCircle
 62
7
  6
CONTINUOUS
 10
11.3251923427
 20
10.4299691552
 40
0.03
100
AcDbArc
 50
340.9341210462
 51
75.2369687317
  0
SPLINE
  5
273
100
AcDbEntity
  8
0
100
AcDbSpline
 62
7
  6
CONTINUOUS
 70
0
 71
3
 72
20
 73
16
 74
0
 42
0.0000001
 43
0.0000001
 44
0.0000000001
 40
0.0
 40
0.0
 40
0.0
 40
0.0
 40
0.0636024342
 40
0.0953197897
 40
0.1269135175
 40
0.189745229
 40
0.2522084234
 40
0.3144478971
 40
0.3765817486
 40
0.5007503774
 40
0.6251612878
 40
0.7498332299
 40
0.8123242236
 40
0.8749170538
 40
1.0
 40
1.0
 40
1.0
 40
1.0
 10
9.7889977677
 20
10.1701695021
 30
0.0
 10
9.7889977677
 20
10.1632506844
 30
0.0
 10
9.789544713
 20
10.1528713988
 30
0.0
 10
9.7913295142
 20
10.1391771174
 30
0.0
 10
9.7937947065
 20
10.1256728032
 30
0.0
 10
9.798102561
 20
10.1091286813
 30
0.0
 10
9.80509071
 20
10.0899329701
 30
0.0
 10
9.8137369927
 20
10.071509356
 30
0.0
 10
9.8272880591
 20
10.0480825497
 30
0.0
 10
9.8477752698
 20
10.0210006103
 30
0.0
 10
9.877071488
 20
9.9926766646
 30
0.0
 10
9.9047488527
 20
9.9728878886
 30
0.0
 10
9.9284405513
 20
9.9595473361
 30
0.0
 10
9.9530599374
 20
9.9479122095
 30
0.0
 10
9.9724157065
 20
9.9411487683
 30
0.0
 10
9.9855426079
 20
9.937566914
 30
0.0
  0
SPLINE
  5
274
100
AcDbEntity
  8
0
100
AcDbSpline
 62
7
  6
CONTINUOUS
 70
0
 71
3
 72
19
 73
15
 74
0
 42
0.0000001
 43
0.0000001
 44
0.0000000001
 40
0.0
 40
0.0
 40
0.0
 40
0.0
 40
0.1250544384
 40
0.1876914321
 40
0.2502250193
 40
0.3749096629
 40
0.4993212803
 40
0.623500107
 40
0.7477672421
 40
0.8102369324
 40
0.8730741138
 40
0.9046755479
 40
0.9364042892
 40
1.0
 40
1.0
 40
1.0
 40
1.0
 10
9.9855426079
 20
10.4027720903
 30
0.0
 10
9.972420204
 20
10.3991914631
 30
0.0
 10
9.953066432
 20
10.3924246897
 30
0.0
 10
9.9284424444
 20
10.3807921144
 30
0.0
 10
9.9047427432
 20
10.367449513
 30
0.0
 10
9.8770652742
 20
10.34765914
 30
0.0
 10
9.8477704372
 20
10.3193280683
 30
0.0
 10
9.8231979848
 20
10.28685669
 30
0.0
 10
9.8073977341
 20
10.2567491666
 30
0.0
 10
9.7981034163
 20
10.2312097559
 30
0.0
 10
9.7937929109
 20
10.2146652067
 30
0.0
 10
9.7913295587
 20
10.2011595022
 30
0.0
 10
9.7895466372
 20
10.1874652482
 30
0.0
 10
9.7889977677
 20
10.1770867947
 30
0.0
 10
9.7889977677
 20
10.1701695021
 30
0.0
  0
SPLINE
  5
275
100
AcDbEntity
  8
0
100
AcDbSpline
 62
7
  6
CONTINUOUS
 70
0
 71
3
 72
9
 73
5
 74
0
 42
0.0000001
 43
0.0000001
 44
0.0000000001
 40
0.0
 40
0.0
 40
0.0
 40
0.0
 40
0.5006478536
 40
1.0
 40
1.0
 40
1.0
 40
1.0
 10
10.2464413066
 20
9.937566914
 30
0.0
 10
10.2662863153
 20
9.9429818957
 30
0.0
 10
10.3048988704
 20
9.9580092594
 30
0.0
 10
10.3394232107
 20
9.9809716648
 30
0.0
 10
10.3551327458
 20
9.9941689933
 30
0.0
  0
SPLINE
  5
276
100
AcDbEntity
  8
0
100
AcDbSpline
 62
7
  6
CONTINUOUS
 70
0
 71
3
 72
9
 73
5
 74
0
 42
0.0000001
 43
0.0000001
 44
0.0000000001
 40
0.0
 40
0.0
 40
0.0
 40
0.0
 40
0.4993488301
 40
1.0
 40
1.0
 40
1.0
 40
1.0
 10
10.3551327458
 20
10.346170011
 30
0.0
 10
10.3394233158
 20
10.3593672512
 30
0.0
 10
10.3048989707
 20
10.3823296287
 30
0.0
 10
10.2662864457
 20
10.397357073
 30
0.0
 10
10.2464413066
 20
10.4027720903
 30
0.0
  0
SPLINE
  5
277
100
AcDbEntity
  8
0
100
AcDbSpline
 62
7
  6
CONTINUOUS
 70
0
 71
3
 72
22
 73
18
 74
0
 42
0.0000001
 43
0.0000001
 44
0.0000000001
 40
0.0
 40
0.0
 40
0.0
 40
0.0
 40
0.0238721745
 40
0.0561219866
 40
0.0959112222
 40
0.1424517924
 40
0.1950174678
 40
0.2529176511
 40
0.3154893472
 40
0.3821099438
 40
0.4522149124
 40
0.5252597
 40
0.600711936
 40
0.6780680233
 40
0.756961468
 40
0.8371071364
 40
1.0
 40
1.0
 40
1.0
 40
1.0
 10
10.3551327458
 20
10.346170011
 30
0.0
 10
10.3556947826
 20
10.3456978529
 30
0.0
 10
10.3570478827
 20
10.3446256825
 30
0.0
 10
10.3594333835
 20
10.3428903592
 30
0.0
 10
10.3624713766
 20
10.3408718522
 30
0.0
 10
10.3661339308
 20
10.3386721464
 30
0.0
 10
10.3703797957
 20
10.3363711571
 30
0.0
 10
10.3751627644
 20
10.3340365882
 30
0.0
 10
10.3804386357
 20
10.3317381451
 30
0.0
 10
10.3861636534
 20
10.3295464095
 30
0.0
 10
10.392283775
 20
10.3275032537
 30
0.0
 10
10.3987459752
 20
10.3256461301
 30
0.0
 10
10.4054980509
 20
10.324012431
 30
0.0
 10
10.4124917798
 20
10.3226415626
 30
0.0
 10
10.4196814482
 20
10.3215548256
 30
0.0
 10
10.4295254221
 20
10.3204938162
 30
0.0
 10
10.4370038147
 20
10.3201695021
 30
0.0
 10
10.4420125879
 20
10.3201695021
 30
0.0
  0
SPLINE
  5
278
100
AcDbEntity
  8
0
100
AcDbSpline
 62
7
  6
CONTINUOUS
 70
0
 71
3
 72
22
 73
18
 74
0
 42
0.0000001
 43
0.0000001
 44
0.0000000001
 40
0.0
 40
0.0
 40
0.0
 40
0.0
 40
0.1628917238
 40
0.2430368796
 40
0.3219301489
 40
0.3992865509
 40
0.4747388099
 40
0.5477834357
 40
0.6178886052
 40
0.684510415
 40
0.7470841408
 40
0.8049855284
 40
0.8575499623
 40
0.904085382
 40
0.9438676485
 40
0.9761159782
 40
1.0
 40
1.0
 40
1.0
 40
1.0
 10
10.4420125879
 20
10.0201695021
 30
0.0
 10
10.4370038495
 20
10.0201695021
 30
0.0
 10
10.4295255069
 20
10.0198452082
 30
0.0
 10
10.4196815875
 20
10.0187842133
 30
0.0
 10
10.4124919297
 20
10.0176974761
 30
0.0
 10
10.4054982045
 20
10.016326565
 30
0.0
 10
10.3987461088
 20
10.0146929292
 30
0.0
 10
10.392283884
 20
10.0128358835
 30
0.0
 10
10.3861637099
 20
10.0107927555
 30
0.0
 10
10.3804386451
 20
10.0086008415
 30
0.0
 10
10.3751626902
 20
10.0063022516
 30
0.0
 10
10.3703796573
 20
10.003967678
 30
0.0
 10
10.3661338958
 20
10.0016668307
 30
0.0
 10
10.3624716944
 20
9.9994673358
 30
0.0
 10
10.3594340096
 20
9.9974491223
 30
0.0
 10
10.3570483971
 20
9.995713773
 30
0.0
 10
10.3556950615
 20
9.9946413857
 30
0.0
 10
10.3551327458
 20
9.9941689933
 30
0.0
  0
SPLINE
  5
279
100
AcDbEntity
  8
0
100
AcDbSpline
 62
7
  6
CONTINUOUS
 70
0
 71
3
 72
20
 73
16
 74
0
 42
0.0000001
 43
0.0000001
 44
0.0000000001
 40
0.0
 40
0.0
 40
0.0
 40
0.0
 40
0.0636024342
 40
0.0953197897
 40
0.1269135175
 40
0.189745229
 40
0.2522084234
 40
0.3144478971
 40
0.3765817486
 40
0.5007503774
 40
0.6251612878
 40
0.7498332299
 40
0.8123242236
 40
0.8749170538
 40
1.0
 40
1.0
 40
1.0
 40
1.0
 10
12.0863869178
 20
10.1701695021
 30
0.0
 10
12.0863869178
 20
10.1770883198
 30
0.0
 10
12.0858399725
 20
10.1874676055
 30
0.0
 10
12.0840551713
 20
10.2011618869
 30
0.0
 10
12.0815899789
 20
10.2146662011
 30
0.0
 10
12.0772821245
 20
10.231210323
 30
0.0
 10
12.0702939755
 20
10.2504060342
 30
0.0
 10
12.0616476928
 20
10.2688296483
 30
0.0
 10
12.0480966264
 20
10.2922564546
 30
0.0
 10
12.0276094157
 20
10.319338394
 30
0.0
 10
11.9983131975
 20
10.3476623397
 30
0.0
 10
11.9706358328
 20
10.3674511157
 30
0.0
 10
11.9469441341
 20
10.3807916682
 30
0.0
 10
11.922324748
 20
10.3924267948
 30
0.0
 10
11.902968979
 20
10.3991902359
 30
0.0
 10
11.8898420776
 20
10.4027720903
 30
0.0
  0
SPLINE
  5
27A
100
AcDbEntity
  8
0
100
AcDbSpline
 62
7
  6
CONTINUOUS
 70
0
 71
3
 72
19
 73
15
 74
0
 42
0.0000001
 43
0.0000001
 44
0.0000000001
 40
0.0
 40
0.0
 40
0.0
 40
0.0
 40
0.1250544384
 40
0.1876914321
 40
0.2502250193
 40
0.3749096629
 40
0.4993212803
 40
0.623500107
 40
0.7477672421
 40
0.8102369324
 40
0.8730741138
 40
0.9046755479
 40
0.9364042892
 40
1.0
 40
1.0
 40
1.0
 40
1.0
 10
11.8898420776
 20
9.937566914
 30
0.0
 10
11.9029644814
 20
9.9411475411
 30
0.0
 10
11.9223182535
 20
9.9479143146
 30
0.0
 10
11.9469422411
 20
9.9595468899
 30
0.0
 10
11.9706419423
 20
9.9728894913
 30
0.0
 10
11.9983194112
 20
9.9926798643
 30
0.0
 10
12.0276142483
 20
10.021010936
 30
0.0
 10
12.0521867007
 20
10.0534823143
 30
0.0
 10
12.0679869514
 20
10.0835898376
 30
0.0
 10
12.0772812692
 20
10.1091292484
 30
0.0
 10
12.0815917746
 20
10.1256737975
 30
0.0
 10
12.0840551268
 20
10.139179502
 30
0.0
 10
12.0858380483
 20
10.1528737561
 30
0.0
 10
12.0863869178
 20
10.1632522096
 30
0.0
 10
12.0863869178
 20
10.1701695021
 30
0.0
  0
SPLINE
  5
27B
100
AcDbEntity
  8
0
100
AcDbSpline
 62
7
  6
CONTINUOUS
 70
0
 71
3
 72
9
 73
5
 74
0
 42
0.0000001
 43
0.0000001
 44
0.0000000001
 40
0.0
 40
0.0
 40
0.0
 40
0.0
 40
0.5006478536
 40
1.0
 40
1.0
 40
1.0
 40
1.0
 10
11.6289433789
 20
10.4027720903
 30
0.0
 10
11.6090983702
 20
10.3973571086
 30
0.0
 10
11.5704858151
 20
10.3823297449
 30
0.0
 10
11.5359614747
 20
10.3593673395
 30
0.0
 10
11.5202519397
 20
10.346170011
 30
0.0
  0
SPLINE
  5
27C
100
AcDbEntity
  8
0
100
AcDbSpline
 62
7
  6
CONTINUOUS
 70
0
 71
3
 72
9
 73
5
 74
0
 42
0.0000001
 43
0.0000001
 44
0.0000000001
 40
0.0
 40
0.0
 40
0.0
 40
0.0
 40
0.4993488301
 40
1.0
 40
1.0
 40
1.0
 40
1.0
 10
11.5202519397
 20
9.9941689933
 30
0.0
 10
11.5359613696
 20
9.9809717531
 30
0.0
 10
11.5704857148
 20
9.9580093756
 30
0.0
 10
11.6090982397
 20
9.9429819313
 30
0.0
 10
11.6289433789
 20
9.937566914
 30
0.0
  0
SPLINE
  5
27D
100
AcDbEntity
  8
0
100
AcDbSpline
 62
7
  6
CONTINUOUS
 70
0
 71
3
 72
22
 73
18
 74
0
 42
0.0000001
 43
0.0000001
 44
0.0000000001
 40
0.0
 40
0.0
 40
0.0
 40
0.0
 40
0.0238721745
 40
0.0561219866
 40
0.0959112222
 40
0.1424517924
 40
0.1950174678
 40
0.2529176511
 40
0.3154893472
 40
0.3821099438
 40
0.4522149124
 40
0.5252597
 40
0.600711936
 40
0.6780680233
 40
0.756961468
 40
0.8371071364
 40
1.0
 40
1.0
 40
1.0
 40
1.0
 10
11.5202519397
 20
9.9941689933
 30
0.0
 10
11.5196899029
 20
9.9946411514
 30
0.0
 10
11.5183368027
 20
9.9957133218
 30
0.0
 10
11.515951302
 20
9.9974486451
 30
0.0
 10
11.5129133088
 20
9.9994671521
 30
0.0
 10
11.5092507547
 20
10.0016668579
 30
0.0
 10
11.5050048897
 20
10.0039678472
 30
0.0
 10
11.5002219211
 20
10.0063024161
 30
0.0
 10
11.4949460498
 20
10.0086008592
 30
0.0
 10
11.4892210321
 20
10.0107925948
 30
0.0
 10
11.4831009105
 20
10.0128357506
 30
0.0
 10
11.4766387102
 20
10.0146928742
 30
0.0
 10
11.4698866345
 20
10.0163265732
 30
0.0
 10
11.4628929057
 20
10.0176974417
 30
0.0
 10
11.4557032373
 20
10.0187841787
 30
0.0
 10
11.4458592634
 20
10.019845188
 30
0.0
 10
11.4383808708
 20
10.0201695021
 30
0.0
 10
11.4333720976
 20
10.0201695021
 30
0.0
  0
SPLINE
  5
27E
100
AcDbEntity
  8
0
100
AcDbSpline
 62
7
  6
CONTINUOUS
 70
0
 71
3
 72
22
 73
18
 74
0
 42
0.0000001
 43
0.0000001
 44
0.0000000001
 40
0.0
 40
0.0
 40
0.0
 40
0.0
 40
0.1628917238
 40
0.2430368796
 40
0.3219301489
 40
0.3992865509
 40
0.4747388099
 40
0.5477834357
 40
0.6178886052
 40
0.684510415
 40
0.7470841408
 40
0.8049855284
 40
0.8575499623
 40
0.904085382
 40
0.9438676485
 40
0.9761159782
 40
1.0
 40
1.0
 40
1.0
 40
1.0
 10
11.4333720976
 20
10.3201695021
 30
0.0
 10
11.438380836
 20
10.3201695021
 30
0.0
 10
11.4458591786
 20
10.3204937961
 30
0.0
 10
11.455703098
 20
10.321554791
 30
0.0
 10
11.4628927558
 20
10.3226415282
 30
0.0
 10
11.469886481
 20
10.3240124393
 30
0.0
 10
11.4766385766
 20
10.3256460751
 30
0.0
 10
11.4831008015
 20
10.3275031208
 30
0.0
 10
11.4892209756
 20
10.3295462488
 30
0.0
 10
11.4949460404
 20
10.3317381628
 30
0.0
 10
11.5002219953
 20
10.3340367527
 30
0.0
 10
11.5050050282
 20
10.3363713263
 30
0.0
 10
11.5092507897
 20
10.3386721736
 30
0.0
 10
11.5129129911
 20
10.3408716685
 30
0.0
 10
11.5159506759
 20
10.342889882
 30
0.0
 10
11.5183362884
 20
10.3446252313
 30
0.0
 10
11.5196896239
 20
10.3456976186
 30
0.0
 10
11.5202519397
 20
10.346170011
 30
0.0
  0
SPLINE
  5
27F
100
AcDbEntity
  8
0
100
AcDbSpline
 62
7
  6
CONTINUOUS
 70
0
 71
3
 72
14
 73
10
 74
0
 42
0.0000001
 43
0.0000001
 44
0.0000000001
 40
0.0
 40
0.0
 40
0.0
 40
0.0
 40
0.0703920919
 40
0.1543772892
 40
0.2535231568
 40
0.368774378
 40
0.5007237159
 40
0.6497579883
 40
1.0
 40
1.0
 40
1.0
 40
1.0
 10
10.9466915226
 20
10.5097303924
 30
0.0
 10
10.9468876674
 20
10.5095843613
 30
0.0
 10
10.9472785427
 20
10.5092113042
 30
0.0
 10
10.947813874
 20
10.5085094427
 30
0.0
 10
10.9483484509
 20
10.5076194417
 30
0.0
 10
10.9488826226
 20
10.5065403186
 30
0.0
 10
10.9494169708
 20
10.5052710443
 30
0.0
 10
10.9501705529
 20
10.50321116
 30
0.0
 10
10.9506702228
 20
10.5015485735
 30
0.0
 10
10.9509948922
 20
10.5003759804
 30
0.0
  0
SPLINE
  5
280
100
AcDbEntity
  8
0
100
AcDbSpline
 62
7
  6
CONTINUOUS
 70
0
 71
3
 72
10
 73
6
 74
0
 42
0.0000001
 43
0.0000001
 44
0.0000000001
 40
0.0
 40
0.0
 40
0.0
 40
0.0
 40
0.2057424486
 40
0.4409320961
 40
1.0
 40
1.0
 40
1.0
 40
1.0
 10
10.9509948922
 20
10.5003759804
 30
0.0
 10
10.9513161838
 20
10.4992155865
 30
0.0
 10
10.9519487424
 20
10.4967131324
 30
0.0
 10
10.9532026512
 20
10.4909962234
 30
0.0
 10
10.9540239434
 20
10.4864193057
 30
0.0
 10
10.9545575795
 20
10.4831913225
 30
0.0
  0
SPLINE
  5
281
100
AcDbEntity
  8
0
100
AcDbSpline
 62
7
  6
CONTINUOUS
 70
0
 71
3
 72
17
 73
13
 74
0
 42
0.0000001
 43
0.0000001
 44
0.0000000001
 40
0.0
 40
0.0
 40
0.0
 40
0.0
 40
0.1989179091
 40
0.3763385106
 40
0.5323002998
 40
0.6669016733
 40
0.7803402214
 40
0.8729938558
 40
0.9117558263
 40
0.9456615083
 40
0.9749510426
 40
1.0
 40
1.0
 40
1.0
 40
1.0
 10
10.920827106
 20
10.4831913225
 30
0.0
 10
10.9211269036
 20
10.4850048088
 30
0.0
 10
10.921722311
 20
10.4884312594
 30
0.0
 10
10.922668339
 20
10.4932586286
 30
0.0
 10
10.9236154623
 20
10.4974786807
 30
0.0
 10
10.9245624328
 20
10.5010909923
 30
0.0
 10
10.9255084878
 20
10.5040949594
 30
0.0
 10
10.9263361243
 20
10.5062045804
 30
0.0
 10
10.9270150775
 20
10.5075741265
 30
0.0
 10
10.9274939075
 20
10.5083868188
 30
0.0
 10
10.9279730942
 20
10.5090482401
 30
0.0
 10
10.9283189926
 20
10.5094155236
 30
0.0
 10
10.928493021
 20
10.5095681344
 30
0.0
  0
LINE
  5
282
100
AcDbEntity
  8
0
100
AcDbLine
 62
7
  6
CONTINUOUS
 10
10.928493021
 20
10.5095681344
 11
10.9286931629
 21
10.5097303924
  0
LINE
  5
283
100
AcDbEntity
  8
0
100
AcDbLine
 62
7
  6
CONTINUOUS
 10
11.0085492256
 20
10.5061411606
 11
11.0095274446
 21
10.5060707772
  0
LINE
  5
284
100
AcDbEntity
  8
0
100
AcDbLine
 62
7
  6
CONTINUOUS
 10
11.0630969221
 20
10.5014173067
 11
11.0714833686
 21
10.5012500995
  0
LINE
  5
285
100
AcDbEntity
  8
0
100
AcDbLine
 62
7
  6
CONTINUOUS
 10
11.0714833686
 20
10.5012500995
 11
11.0726570345
 21
10.5014516069
  0
SPLINE
  5
286
100
AcDbEntity
  8
0
100
AcDbSpline
 62
7
  6
CONTINUOUS
 70
0
 71
3
 72
16
 73
12
 74
0
 42
0.0000001
 43
0.0000001
 44
0.0000000001
 40
0.0
 40
0.0
 40
0.0
 40
0.0
 40
0.0244310317
 40
0.046324704
 40
0.0756222152
 40
0.1125048534
 40
0.1570206634
 40
0.2688858879
 40
0.4107242136
 40
0.5810450929
 40
1.0
 40
1.0
 40
1.0
 40
1.0
 10
10.8026923427
 20
10.501509955
 30
0.0
 10
10.802692333
 20
10.5014724893
 30
0.0
 10
10.8027666066
 20
10.5014212704
 30
0.0
 10
10.802869953
 20
10.5013847837
 30
0.0
 10
10.8030031966
 20
10.5013505664
 30
0.0
 10
10.8031695867
 20
10.5013210844
 30
0.0
 10
10.8034638322
 20
10.5012819444
 30
0.0
 10
10.8039196906
 20
10.5012454058
 30
0.0
 10
10.804569489
 20
10.501217075
 30
0.0
 10
10.8056905337
 20
10.5011967215
 30
0.0
 10
10.8065943562
 20
10.5012058237
 30
0.0
 10
10.8072367127
 20
10.5012183909
 30
0.0
  0
LINE
  5
287
100
AcDbEntity
  8
0
100
AcDbLine
 62
7
  6
CONTINUOUS
 10
10.8072367127
 20
10.5012183909
 11
10.8122242589
 21
10.5014138472
  0
SPLINE
  5
288
100
AcDbEntity
  8
0
100
AcDbSpline
 62
9
  6
CONTINUOUS
 70
0
 71
3
 72
14
 73
10
 74
0
 42
0.0000001
 43
0.0000001
 44
0.0000000001
 40
0.0
 40
0.0
 40
0.0
 40
0.0
 40
0.2692631845
 40
0.4011963108
 40
0.5299330755
 40
0.6546671214
 40
0.7747848099
 40
0.8899190384
 40
1.0
 40
1.0
 40
1.0
 40
1.0
 10
11.4494357447
 20
10.1724555596
 30
0.0
 10
11.4495725978
 20
10.1897855185
 30
0.0
 10
11.4520921665
 20
10.2156768769
 30
0.0
 10
11.4601234615
 20
10.2488632897
 30
0.0
 10
11.4682877104
 20
10.2723337535
 30
0.0
 10
11.478499769
 20
10.2941516989
 30
0.0
 10
11.4906020281
 20
10.3139705534
 30
0.0
 10
11.5044013178
 20
10.331463663
 30
0.0
 10
11.5148270187
 20
10.3416127047
 30
0.0
 10
11.520251948
 20
10.3461699911
 30
0.0
  0
SPLINE
  5
289
100
AcDbEntity
  8
0
100
AcDbSpline
 62
9
  6
CONTINUOUS
 70
0
 71
3
 72
18
 73
14
 74
0
 42
0.0000001
 43
0.0000001
 44
0.0000000001
 40
0.0
 40
0.0
 40
0.0
 40
0.0
 40
0.1416458501
 40
0.2812095564
 40
0.4167750498
 40
0.5467427122
 40
0.6700082775
 40
0.7290190479
 40
0.7862598097
 40
0.8418095991
 40
0.8958072895
 40
0.9484519649
 40
1.0
 40
1.0
 40
1.0
 40
1.0
 10
11.493169406
 20
10.1701695021
 30
0.0
 10
11.493169406
 20
10.1837507378
 30
0.0
 10
11.4948069824
 20
10.2107432331
 30
0.0
 10
11.502123865
 20
10.2501299798
 30
0.0
 10
11.5140907732
 20
10.2872048593
 30
0.0
 10
11.5303686271
 20
10.3208795783
 30
0.0
 10
11.5474146994
 20
10.3456680807
 30
0.0
 10
11.5627883048
 20
10.3627642214
 30
0.0
 10
11.5748884979
 20
10.3739780316
 30
0.0
 10
11.5876339626
 20
10.383680293
 30
0.0
 10
11.6009331704
 20
10.3917973763
 30
0.0
 10
11.6146854378
 20
10.398264778
 30
0.0
 10
11.6241752134
 20
10.4014709114
 30
0.0
 10
11.6289433856
 20
10.402772041
 30
0.0
  0
SPLINE
  5
28A
100
AcDbEntity
  8
0
100
AcDbSpline
 62
9
  6
CONTINUOUS
 70
0
 71
3
 72
22
 73
18
 74
0
 42
0.0000001
 43
0.0000001
 44
0.0000000001
 40
0.0
 40
0.0
 40
0.0
 40
0.0
 40
0.1474953108
 40
0.220198198
 40
0.291617488
 40
0.3613901037
 40
0.4292090245
 40
0.4948388259
 40
0.5581311088
 40
0.619039924
 40
0.6776357848
 40
0.7341161499
 40
0.7888090055
 40
0.8421653576
 40
0.8947370135
 40
0.9471388984
 40
1.0
 40
1.0
 40
1.0
 40
1.0
 10
11.6905993108
 20
10.1701695021
 30
0.0
 10
11.6905993108
 20
10.1528711208
 30
0.0
 10
11.6925969545
 20
10.1269825372
 30
0.0
 10
11.6992792716
 20
10.0934142366
 30
0.0
 10
11.7061823078
 20
10.0692643047
 30
0.0
 10
11.7149162405
 20
10.0463271532
 30
0.0
 10
11.7253787674
 20
10.0248742461
 30
0.0
 10
11.7374471322
 20
10.0051638654
 30
0.0
 10
11.750980629
 20
9.9874330342
 30
0.0
 10
11.7658220231
 20
9.9718968428
 30
0.0
 10
11.781799001
 20
9.9587465063
 30
0.0
 10
11.7987248641
 20
9.9481480707
 30
0.0
 10
11.8163987255
 20
9.9402406151
 30
0.0
 10
11.8346046543
 20
9.9351329501
 30
0.0
 10
11.853115026
 20
9.9328992928
 30
0.0
 10
11.8716860658
 20
9.9335718569
 30
0.0
 10
11.8838611529
 20
9.9359349022
 30
0.0
 10
11.8898420708
 20
9.9375669634
 30
0.0
  0
SPLINE
  5
28B
100
AcDbEntity
  8
0
100
AcDbSpline
 62
9
  6
CONTINUOUS
 70
0
 71
3
 72
31
 73
27
 74
0
 42
0.0000001
 43
0.0000001
 44
0.0000000001
 40
0.0
 40
0.0
 40
0.0
 40
0.0
 40
0.0724563265
 40
0.1435379795
 40
0.2120137917
 40
0.2769258357
 40
0.3078945794
 40
0.3378198282
 40
0.3667277791
 40
0.3946885234
 40
0.4218176166
 40
0.4482750064
 40
0.4742596697
 40
0.5000000028
 40
0.5257403334
 40
0.5517249921
 40
0.5781823792
 40
0.6053114749
 40
0.633272227
 40
0.6621801856
 40
0.6921054348
 40
0.72307417
 40
0.7879862088
 40
0.8564620348
 40
0.9275436828
 40
1.0
 40
1.0
 40
1.0
 40
1.0
 10
11.9322338459
 20
10.1701695021
 30
0.0
 10
11.9322338459
 20
10.1631949006
 30
0.0
 10
11.9331875042
 20
10.1493584662
 30
0.0
 10
11.9374418824
 20
10.1293287988
 30
0.0
 10
11.9443600946
 20
10.1108214083
 30
0.0
 10
11.9522737363
 20
10.0970197693
 30
0.0
 10
11.9597174772
 20
10.0874467104
 30
0.0
 10
11.9656819626
 20
10.0811685157
 30
0.0
 10
11.9720576157
 20
10.0757434325
 30
0.0
 10
11.9787852299
 20
10.0712249197
 30
0.0
 10
11.9858012407
 20
10.0676592737
 30
0.0
 10
11.9930381759
 20
10.0650838838
 30
0.0
 10
12.0004249827
 20
10.0635268291
 30
0.0
 10
12.0078876315
 20
10.0630057471
 30
0.0
 10
12.0153502798
 20
10.0635268293
 30
0.0
 10
12.0227370857
 20
10.0650838837
 30
0.0
 10
12.0299740205
 20
10.0676592735
 30
0.0
 10
12.036990032
 20
10.0712249196
 30
0.0
 10
12.0437176475
 20
10.0757434336
 30
0.0
 10
12.0500933015
 20
10.081168518
 30
0.0
 10
12.0560577868
 20
10.0874467127
 30
0.0
 10
12.0635015265
 20
10.0970197711
 30
0.0
 10
12.071415168
 20
10.1108214101
 30
0.0
 10
12.0783333802
 20
10.129328801
 30
0.0
 10
12.0825877579
 20
10.1493584684
 30
0.0
 10
12.0835414159
 20
10.1631949015
 30
0.0
 10
12.0835414159
 20
10.1701695021
 30
0.0
  0
SPLINE
  5
28C
100
AcDbEntity
  8
0
100
AcDbSpline
 62
9
  6
CONTINUOUS
 70
0
 71
3
 72
31
 73
27
 74
0
 42
0.0000001
 43
0.0000001
 44
0.0000000001
 40
0.0
 40
0.0
 40
0.0
 40
0.0
 40
0.0724563265
 40
0.1435379795
 40
0.2120137917
 40
0.2769258357
 40
0.3078945794
 40
0.3378198282
 40
0.3667277791
 40
0.3946885234
 40
0.4218176166
 40
0.4482750064
 40
0.4742596697
 40
0.5000000028
 40
0.5257403334
 40
0.5517249921
 40
0.5781823792
 40
0.6053114749
 40
0.633272227
 40
0.6621801856
 40
0.6921054348
 40
0.72307417
 40
0.7879862088
 40
0.8564620348
 40
0.9275436828
 40
1.0
 40
1.0
 40
1.0
 40
1.0
 10
12.0835414159
 20
10.1701695021
 30
0.0
 10
12.0835414159
 20
10.1771441036
 30
0.0
 10
12.0825877577
 20
10.1909805381
 30
0.0
 10
12.0783333794
 20
10.2110102055
 30
0.0
 10
12.0714151672
 20
10.229517596
 30
0.0
 10
12.0635015256
 20
10.243319235
 30
0.0
 10
12.0560577846
 20
10.2528922939
 30
0.0
 10
12.0500932992
 20
10.2591704886
 30
0.0
 10
12.0437176461
 20
10.2645955718
 30
0.0
 10
12.036990032
 20
10.2691140846
 30
0.0
 10
12.0299740212
 20
10.2726797305
 30
0.0
 10
12.0227370859
 20
10.2752551205
 30
0.0
 10
12.0153502791
 20
10.2768121752
 30
0.0
 10
12.0078876303
 20
10.2773332572
 30
0.0
 10
12.0004249821
 20
10.276812175
 30
0.0
 10
11.9930381761
 20
10.2752551206
 30
0.0
 10
11.9858012414
 20
10.2726797308
 30
0.0
 10
11.9787852298
 20
10.2691140847
 30
0.0
 10
11.9720576143
 20
10.2645955707
 30
0.0
 10
11.9656819603
 20
10.2591704862
 30
0.0
 10
11.959717475
 20
10.2528922916
 30
0.0
 10
11.9522737354
 20
10.2433192332
 30
0.0
 10
11.9443600938
 20
10.2295175942
 30
0.0
 10
11.9374418817
 20
10.2110102033
 30
0.0
 10
11.9331875039
 20
10.1909805358
 30
0.0
 10
11.9322338459
 20
10.1771441027
 30
0.0
 10
11.9322338459
 20
10.1701695021
 30
0.0
  0
SPLINE
  5
28D
100
AcDbEntity
  8
0
100
AcDbSpline
 62
9
  6
CONTINUOUS
 70
0
 71
3
 72
22
 73
18
 74
0
 42
0.0000001
 43
0.0000001
 44
0.0000000001
 40
0.0
 40
0.0
 40
0.0
 40
0.0
 40
0.1474953108
 40
0.220198198
 40
0.291617488
 40
0.3613901037
 40
0.4292090245
 40
0.4948388259
 40
0.5581311088
 40
0.619039924
 40
0.6776357848
 40
0.7341161499
 40
0.7888090055
 40
0.8421653576
 40
0.8947370135
 40
0.9471388984
 40
1.0
 40
1.0
 40
1.0
 40
1.0
 10
11.6905993108
 20
10.1701695021
 30
0.0
 10
11.6905993108
 20
10.1874678834
 30
0.0
 10
11.6925969545
 20
10.2133564671
 30
0.0
 10
11.6992792716
 20
10.2469247677
 30
0.0
 10
11.7061823078
 20
10.2710746995
 30
0.0
 10
11.7149162405
 20
10.2940118511
 30
0.0
 10
11.7253787674
 20
10.3154647582
 30
0.0
 10
11.7374471322
 20
10.3351751389
 30
0.0
 10
11.750980629
 20
10.35290597
 30
0.0
 10
11.7658220231
 20
10.3684421615
 30
0.0
 10
11.781799001
 20
10.381592498
 30
0.0
 10
11.7987248641
 20
10.3921909336
 30
0.0
 10
11.8163987255
 20
10.4000983892
 30
0.0
 10
11.8346046543
 20
10.4052060542
 30
0.0
 10
11.853115026
 20
10.4074397115
 30
0.0
 10
11.8716860658
 20
10.4067671474
 30
0.0
 10
11.8838611529
 20
10.4044041021
 30
0.0
 10
11.8898420708
 20
10.4027720409
 30
0.0
  0
SPLINE
  5
28E
100
AcDbEntity
  8
0
100
AcDbSpline
 62
9
  6
CONTINUOUS
 70
0
 71
3
 72
14
 73
10
 74
0
 42
0.0000001
 43
0.0000001
 44
0.0000000001
 40
0.0
 40
0.0
 40
0.0
 40
0.0
 40
0.110007842
 40
0.2251201196
 40
0.3452603028
 40
0.4700461194
 40
0.5988426349
 40
0.7308181447
 40
1.0
 40
1.0
 40
1.0
 40
1.0
 10
11.5202519571
 20
9.9941690348
 30
0.0
 10
11.5147665712
 20
9.9987771054
 30
0.0
 10
11.5042296555
 20
10.009051111
 30
0.0
 10
11.4903069038
 20
10.0267773527
 30
0.0
 10
11.4781231782
 20
10.0468728999
 30
0.0
 10
11.4678770285
 20
10.0689994041
 30
0.0
 10
11.4597299559
 20
10.0927978244
 30
0.0
 10
11.4517955445
 20
10.1264241348
 30
0.0
 10
11.4494267185
 20
10.1526395218
 30
0.0
 10
11.4494267185
 20
10.1701695021
 30
0.0
  0
SPLINE
  5
28F
100
AcDbEntity
  8
0
100
AcDbSpline
 62
9
  6
CONTINUOUS
 70
0
 71
3
 72
22
 73
18
 74
0
 42
0.0000001
 43
0.0000001
 44
0.0000000001
 40
0.0
 40
0.0
 40
0.0
 40
0.0
 40
0.0528611002
 40
0.105262983
 40
0.157834637
 40
0.2111909846
 40
0.2658838361
 40
0.3223641999
 40
0.380960061
 40
0.4418688795
 40
0.5051611641
 40
0.5707909554
 40
0.6386098591
 40
0.7083824702
 40
0.7798017725
 40
0.852504677
 40
1.0
 40
1.0
 40
1.0
 40
1.0
 10
9.9855426146
 20
10.402772041
 30
0.0
 10
9.9915235324
 20
10.4044041023
 30
0.0
 10
10.0036986191
 20
10.4067671474
 30
0.0
 10
10.0222696582
 20
10.4074397117
 30
0.0
 10
10.040780029
 20
10.4052060547
 30
0.0
 10
10.0589859567
 20
10.4000983905
 30
0.0
 10
10.0766598173
 20
10.3921909359
 30
0.0
 10
10.0935856803
 20
10.3815925012
 30
0.0
 10
10.1095626589
 20
10.368442165
 30
0.0
 10
10.1244040537
 20
10.3529059735
 30
0.0
 10
10.1379375505
 20
10.335175143
 30
0.0
 10
10.1500059142
 20
10.3154647652
 30
0.0
 10
10.1604684403
 20
10.2940118618
 30
0.0
 10
10.1692023738
 20
10.2710747118
 30
0.0
 10
10.1761054116
 20
10.2469247773
 30
0.0
 10
10.1827877306
 20
10.2133564721
 30
0.0
 10
10.1847853747
 20
10.1874678849
 30
0.0
 10
10.1847853747
 20
10.1701695021
 30
0.0
  0
SPLINE
  5
290
100
AcDbEntity
  8
0
100
AcDbSpline
 62
9
  6
CONTINUOUS
 70
0
 71
3
 72
14
 73
10
 74
0
 42
0.0000001
 43
0.0000001
 44
0.0000000001
 40
0.0
 40
0.0
 40
0.0
 40
0.0
 40
0.110007842
 40
0.2251201196
 40
0.3452603028
 40
0.4700461194
 40
0.5988426349
 40
0.7308181447
 40
1.0
 40
1.0
 40
1.0
 40
1.0
 10
10.3551327284
 20
10.3461699695
 30
0.0
 10
10.3606181143
 20
10.3415618989
 30
0.0
 10
10.3711550299
 20
10.3312878933
 30
0.0
 10
10.3850777817
 20
10.3135616516
 30
0.0
 10
10.3972615073
 20
10.2934661044
 30
0.0
 10
10.4075076569
 20
10.2713396002
 30
0.0
 10
10.4156547296
 20
10.2475411799
 30
0.0
 10
10.423589141
 20
10.2139148694
 30
0.0
 10
10.4259579669
 20
10.1876994825
 30
0.0
 10
10.4259579669
 20
10.1701695021
 30
0.0
  0
SPLINE
  5
291
100
AcDbEntity
  8
0
100
AcDbSpline
 62
9
  6
CONTINUOUS
 70
0
 71
3
 72
20
 73
16
 74
0
 42
0.0000001
 43
0.0000001
 44
0.0000000001
 40
0.0
 40
0.0
 40
0.0
 40
0.0
 40
0.051476215
 40
0.1034408147
 40
0.1563516729
 40
0.2106039506
 40
0.2665222821
 40
0.3243314509
 40
0.3841768955
 40
0.4461090954
 40
0.5759273443
 40
0.712847911
 40
0.8550402496
 40
0.9274057341
 40
1.0
 40
1.0
 40
1.0
 40
1.0
 10
11.4333720976
 20
10.0201708391
 30
0.0
 10
11.4298983261
 20
10.0201709066
 30
0.0
 10
11.4229081391
 20
10.0206566892
 30
0.0
 10
11.4125537444
 20
10.0228413393
 30
0.0
 10
11.4024074347
 20
10.0264519732
 30
0.0
 10
11.3925703178
 20
10.0314496695
 30
0.0
 10
11.3831398405
 20
10.037786684
 30
0.0
 10
11.374199401
 20
10.0453903305
 30
0.0
 10
11.3658387609
 20
10.0541936858
 30
0.0
 10
11.3554015179
 20
10.0676143396
 30
0.0
 10
11.3443092309
 20
10.0869653655
 30
0.0
 10
11.3346069083
 20
10.1129094385
 30
0.0
 10
11.3296620861
 20
10.1362000455
 30
0.0
 10
11.3276478535
 20
10.1554843832
 30
0.0
 10
11.3273060804
 20
10.1652706203
 30
0.0
 10
11.3273060804
 20
10.1701695021
 30
0.0
  0
SPLINE
  5
292
100
AcDbEntity
  8
0
100
AcDbSpline
 62
7
  6
CONTINUOUS
 70
0
 71
3
 72
18
 73
14
 74
0
 42
0.0000001
 43
0.0000001
 44
0.0000000001
 40
0.0
 40
0.0
 40
0.0
 40
0.0
 40
0.0501117653
 40
0.1021068857
 40
0.156126436
 40
0.2122394989
 40
0.3304762445
 40
0.4559789158
 40
0.5872043202
 40
0.7225465257
 40
0.8605729946
 40
0.9302601256
 40
1.0
 40
1.0
 40
1.0
 40
1.0
 10
11.2912457333
 20
10.0201695021
 30
0.0
 10
11.2877031606
 20
10.0201695021
 30
0.0
 10
11.2804771314
 20
10.0206868433
 30
0.0
 10
11.2696365467
 20
10.0228997183
 30
0.0
 10
11.258740679
 20
10.0265415315
 30
0.0
 10
11.244069852
 20
10.0333456905
 30
0.0
 10
11.2263528635
 20
10.0452542923
 30
0.0
 10
11.2073289697
 20
10.0639034814
 30
0.0
 10
11.1911041074
 20
10.0865472222
 30
0.0
 10
11.1786138113
 20
10.1124337318
 30
0.0
 10
11.1720338804
 20
10.1359250903
 30
0.0
 10
11.1693529177
 20
10.1553763803
 30
0.0
 10
11.1688947646
 20
10.165239351
 30
0.0
 10
11.1688947646
 20
10.1701695021
 30
0.0
  0
SPLINE
  5
293
100
AcDbEntity
  8
0
100
AcDbSpline
 62
9
  6
CONTINUOUS
 70
0
 71
3
 72
18
 73
14
 74
0
 42
0.0000001
 43
0.0000001
 44
0.0000000001
 40
0.0
 40
0.0
 40
0.0
 40
0.0
 40
0.0515480299
 40
0.104192701
 40
0.1581903898
 40
0.2137401789
 40
0.2709809419
 40
0.3299917153
 40
0.4532572733
 40
0.5832249052
 40
0.7187904075
 40
0.858354145
 40
1.0
 40
1.0
 40
1.0
 40
1.0
 10
10.2464412999
 20
9.9375669634
 30
0.0
 10
10.2512094715
 20
9.9388680928
 30
0.0
 10
10.2606992463
 20
9.942074226
 30
0.0
 10
10.274451513
 20
9.9485416266
 30
0.0
 10
10.2877507204
 20
9.9566587095
 30
0.0
 10
10.3004961851
 20
9.9663609706
 30
0.0
 10
10.3125963786
 20
9.9775747811
 30
0.0
 10
10.3279699842
 20
9.9946709212
 30
0.0
 10
10.3450160551
 20
10.0194594205
 30
0.0
 10
10.3612939084
 20
10.0531341366
 30
0.0
 10
10.3732608189
 20
10.0902090163
 30
0.0
 10
10.3805777027
 20
10.1295957673
 30
0.0
 10
10.3822152795
 20
10.156588266
 30
0.0
 10
10.3822152795
 20
10.1701695021
 30
0.0
  0
LINE
  5
294
100
AcDbEntity
  8
0
100
AcDbLine
 62
7
  6
CONTINUOUS
 10
11.008560253
 20
10.5062107871
 11
11.0121695006
 21
10.5059710332
  0
SPLINE
  5
295
100
AcDbEntity
  8
0
100
AcDbSpline
 62
9
  6
CONTINUOUS
 70
0
 71
3
 72
22
 73
18
 74
0
 42
0.0000001
 43
0.0000001
 44
0.0000000001
 40
0.0
 40
0.0
 40
0.0
 40
0.0
 40
0.0528611002
 40
0.105262983
 40
0.157834637
 40
0.2111909846
 40
0.2658838361
 40
0.3223641999
 40
0.380960061
 40
0.4418688795
 40
0.5051611641
 40
0.5707909554
 40
0.6386098591
 40
0.7083824702
 40
0.7798017725
 40
0.852504677
 40
1.0
 40
1.0
 40
1.0
 40
1.0
 10
9.9855426146
 20
9.9375669633
 30
0.0
 10
9.9915235324
 20
9.935934902
 30
0.0
 10
10.0036986191
 20
9.9335718569
 30
0.0
 10
10.0222696582
 20
9.9328992926
 30
0.0
 10
10.040780029
 20
9.9351329495
 30
0.0
 10
10.0589859567
 20
9.9402406138
 30
0.0
 10
10.0766598173
 20
9.9481480684
 30
0.0
 10
10.0935856803
 20
9.9587465031
 30
0.0
 10
10.1095626589
 20
9.9718968392
 30
0.0
 10
10.1244040537
 20
9.9874330308
 30
0.0
 10
10.1379375505
 20
10.0051638613
 30
0.0
 10
10.1500059142
 20
10.0248742391
 30
0.0
 10
10.1604684403
 20
10.0463271425
 30
0.0
 10
10.1692023738
 20
10.0692642925
 30
0.0
 10
10.1761054116
 20
10.0934142269
 30
0.0
 10
10.1827877306
 20
10.1269825322
 30
0.0
 10
10.1847853747
 20
10.1528711194
 30
0.0
 10
10.1847853747
 20
10.1701695021
 30
0.0
  0
SPLINE
  5
296
100
AcDbEntity
  8
0
100
AcDbSpline
 62
9
  6
CONTINUOUS
 70
0
 71
3
 72
18
 73
14
 74
0
 42
0.0000001
 43
0.0000001
 44
0.0000000001
 40
0.0
 40
0.0
 40
0.0
 40
0.0
 40
0.0515480299
 40
0.104192701
 40
0.1581903898
 40
0.2137401789
 40
0.2709809419
 40
0.3299917153
 40
0.4532572733
 40
0.5832249052
 40
0.7187904075
 40
0.858354145
 40
1.0
 40
1.0
 40
1.0
 40
1.0
 10
10.2464412999
 20
10.4027720409
 30
0.0
 10
10.2512094715
 20
10.4014709114
 30
0.0
 10
10.2606992463
 20
10.3982647783
 30
0.0
 10
10.274451513
 20
10.3917973777
 30
0.0
 10
10.2877507204
 20
10.3836802948
 30
0.0
 10
10.3004961851
 20
10.3739780336
 30
0.0
 10
10.3125963786
 20
10.3627642232
 30
0.0
 10
10.3279699842
 20
10.3456680831
 30
0.0
 10
10.3450160551
 20
10.3208795838
 30
0.0
 10
10.3612939084
 20
10.2872048677
 30
0.0
 10
10.3732608189
 20
10.250129988
 30
0.0
 10
10.3805777027
 20
10.210743237
 30
0.0
 10
10.3822152795
 20
10.1837507383
 30
0.0
 10
10.3822152795
 20
10.1701695021
 30
0.0
  0
SPLINE
  5
297
100
AcDbEntity
  8
0
100
AcDbSpline
 62
9
  6
CONTINUOUS
 70
0
 71
3
 72
20
 73
16
 74
0
 42
0.0000001
 43
0.0000001
 44
0.0000000001
 40
0.0
 40
0.0
 40
0.0
 40
0.0
 40
0.051476215
 40
0.1034408147
 40
0.1563516729
 40
0.2106039506
 40
0.2665222821
 40
0.3243314509
 40
0.3841768955
 40
0.4461090954
 40
0.5759273443
 40
0.712847911
 40
0.8550402496
 40
0.9274057341
 40
1.0
 40
1.0
 40
1.0
 40
1.0
 10
10.4420125879
 20
10.3201681652
 30
0.0
 10
10.4454863594
 20
10.3201680977
 30
0.0
 10
10.4524765464
 20
10.319682315
 30
0.0
 10
10.462830941
 20
10.317497665
 30
0.0
 10
10.4729772508
 20
10.313887031
 30
0.0
 10
10.4828143677
 20
10.3088893348
 30
0.0
 10
10.492244845
 20
10.3025523203
 30
0.0
 10
10.5011852845
 20
10.2949486737
 30
0.0
 10
10.5095459246
 20
10.2861453185
 30
0.0
 10
10.5199831675
 20
10.2727246646
 30
0.0
 10
10.5310754545
 20
10.2533736388
 30
0.0
 10
10.5407777772
 20
10.2274295658
 30
0.0
 10
10.5457225993
 20
10.2041389588
 30
0.0
 10
10.547736832
 20
10.1848546211
 30
0.0
 10
10.5480786051
 20
10.175068384
 30
0.0
 10
10.5480786051
 20
10.1701695021
 30
0.0
  0
SPLINE
  5
298
100
AcDbEntity
  8
0
100
AcDbSpline
 62
7
  6
CONTINUOUS
 70
0
 71
3
 72
14
 73
10
 74
0
 42
0.0000001
 43
0.0000001
 44
0.0000000001
 40
0.0
 40
0.0
 40
0.0
 40
0.0
 40
0.3610865408
 40
0.5135845832
 40
0.6473955413
 40
0.7626101295
 40
0.8594706162
 40
0.938367187
 40
1.0
 40
1.0
 40
1.0
 40
1.0
 10
10.9751923427
 20
10.4789122011
 30
0.0
 10
10.9746326586
 20
10.4825506332
 30
0.0
 10
10.9737707734
 20
10.4877168494
 30
0.0
 10
10.9724586701
 20
10.4941858284
 30
0.0
 10
10.9715300457
 20
10.4981733936
 30
0.0
 10
10.9706014681
 20
10.5015761311
 30
0.0
 10
10.9696742696
 20
10.5043963474
 30
0.0
 10
10.9687503611
 20
10.5066350302
 30
0.0
 10
10.9680551679
 20
10.5078961852
 30
0.0
 10
10.9676923427
 20
10.5084091828
 30
0.0
  0
SPLINE
  5
299
100
AcDbEntity
  8
0
100
AcDbSpline
 62
7
  6
CONTINUOUS
 70
0
 71
3
 72
22
 73
18
 74
0
 42
0.0000001
 43
0.0000001
 44
0.0000000001
 40
0.0
 40
0.0
 40
0.0
 40
0.0
 40
0.0501184914
 40
0.1020570509
 40
0.1560269968
 40
0.2121076157
 40
0.2702787884
 40
0.3304246182
 40
0.3923863278
 40
0.4559788273
 40
0.5871476623
 40
0.6544321433
 40
0.7225551946
 40
0.7913472478
 40
0.8606649193
 40
0.9303145355
 40
1.0
 40
1.0
 40
1.0
 40
1.0
 10
10.5841406892
 20
10.3201674309
 30
0.0
 10
10.5876856028
 20
10.3201674758
 30
0.0
 10
10.5949124561
 20
10.3196563849
 30
0.0
 10
10.605750897
 20
10.3174367255
 30
0.0
 10
10.6166424801
 20
10.3137970638
 30
0.0
 10
10.6274578148
 20
10.3087825048
 30
0.0
 10
10.6380681377
 20
10.3024507261
 30
0.0
 10
10.648348333
 20
10.2948750293
 30
0.0
 10
10.6581689437
 20
10.2861242458
 30
0.0
 10
10.6706097102
 20
10.2728723922
 30
0.0
 10
10.6814677292
 20
10.2577138438
 30
0.0
 10
10.6904090224
 20
10.2410940474
 30
0.0
 10
10.6961207532
 20
10.2278065519
 30
0.0
 10
10.7006870379
 20
10.2139329344
 30
0.0
 10
10.704012666
 20
10.1995980865
 30
0.0
 10
10.7060314064
 20
10.1849593188
 30
0.0
 10
10.7064899208
 20
10.1750984005
 30
0.0
 10
10.7064899208
 20
10.1701695021
 30
0.0
  0
SPLINE
  5
29A
100
AcDbEntity
  8
0
100
AcDbSpline
 62
7
  6
CONTINUOUS
 70
0
 71
3
 72
12
 73
8
 74
0
 42
0.0000001
 43
0.0000001
 44
0.0000000001
 40
0.0
 40
0.0
 40
0.0
 40
0.0
 40
0.0338954307
 40
0.0893489818
 40
0.2814770155
 40
0.5860280351
 40
1.0
 40
1.0
 40
1.0
 40
1.0
 10
11.0726923427
 20
10.5015099323
 30
0.0
 10
11.0726923497
 20
10.5015312554
 30
0.0
 10
11.0726575039
 20
10.5015830821
 30
0.0
 10
11.0725074028
 20
10.50167492
 30
0.0
 10
11.0721758263
 20
10.5017914466
 30
0.0
 10
11.0716221901
 20
10.5019326311
 30
0.0
 10
11.0711785573
 20
10.5020229334
 30
0.0
 10
11.0709227124
 20
10.5020715508
 30
0.0
  0
LINE
  5
29B
100
AcDbEntity
  8
0
100
AcDbLine
 62
7
  6
CONTINUOUS
 10
11.0430063763
 20
10.506317931
 11
11.0303591557
 21
10.5073982532
  0
SPLINE
  5
29C
100
AcDbEntity
  8
0
100
AcDbSpline
 62
7
  6
CONTINUOUS
 70
0
 71
3
 72
12
 73
8
 74
0
 42
0.0000001
 43
0.0000001
 44
0.0000000001
 40
0.0
 40
0.0
 40
0.0
 40
0.0
 40
0.4139480455
 40
0.7184885799
 40
0.9106314978
 40
0.966096835
 40
1.0
 40
1.0
 40
1.0
 40
1.0
 10
10.804461973
 20
10.5020715434
 30
0.0
 10
10.8042061471
 20
10.5020229268
 30
0.0
 10
10.8037625398
 20
10.501932639
 30
0.0
 10
10.8032089224
 20
10.5017914688
 30
0.0
 10
10.8028773372
 20
10.5016749427
 30
0.0
 10
10.8027272204
 20
10.5015831009
 30
0.0
 10
10.8026923483
 20
10.5015312826
 30
0.0
 10
10.8026923427
 20
10.501509955
 30
0.0
  0
SPLINE
  5
29D
100
AcDbEntity
  8
0
100
AcDbSpline
 62
7
  6
CONTINUOUS
 70
0
 71
3
 72
14
 73
10
 74
0
 42
0.0000001
 43
0.0000001
 44
0.0000000001
 40
0.0
 40
0.0
 40
0.0
 40
0.0
 40
0.0615949709
 40
0.1404585832
 40
0.2373446913
 40
0.3526141632
 40
0.4864256221
 40
0.6388936082
 40
1.0
 40
1.0
 40
1.0
 40
1.0
 10
10.9076923427
 20
10.5084091828
 30
0.0
 10
10.9073297384
 20
10.5078964974
 30
0.0
 10
10.9066340955
 20
10.5066364517
 30
0.0
 10
10.9057100921
 20
10.5043982202
 30
0.0
 10
10.9047831205
 20
10.501577409
 30
0.0
 10
10.9038549095
 20
10.4981736962
 30
0.0
 10
10.9029260881
 20
10.4941858982
 30
0.0
 10
10.9016136458
 20
10.4877170465
 30
0.0
 10
10.9007520607
 20
10.4825508531
 30
0.0
 10
10.9001923427
 20
10.4789122011
 30
0.0
  0
SPLINE
  5
29E
100
AcDbEntity
  8
0
100
AcDbSpline
 62
7
  6
CONTINUOUS
 70
0
 71
3
 72
18
 73
14
 74
0
 42
0.0000001
 43
0.0000001
 44
0.0000000001
 40
0.0
 40
0.0
 40
0.0
 40
0.0
 40
0.0697370107
 40
0.1394160014
 40
0.2774285003
 40
0.4127671187
 40
0.5439909177
 40
0.6694970704
 40
0.787739071
 40
0.8438576749
 40
0.8978842364
 40
0.9498856836
 40
1.0
 40
1.0
 40
1.0
 40
1.0
 10
11.1688947646
 20
10.1701695021
 30
0.0
 10
11.1688947646
 20
10.1750994523
 30
0.0
 10
11.1693525199
 20
10.1849616619
 30
0.0
 10
11.1720332367
 20
10.2044112246
 30
0.0
 10
11.1786123189
 20
10.2279008677
 30
0.0
 10
11.1911008848
 20
10.2537867
 30
0.0
 10
11.2073248567
 20
10.2764309492
 30
0.0
 10
11.2263484865
 20
10.295081165
 30
0.0
 10
11.244065886
 20
10.3069909148
 30
0.0
 10
11.2587374946
 20
10.3137964477
 30
0.0
 10
11.2696347058
 20
10.3174385201
 30
0.0
 10
11.2804763297
 20
10.3196518155
 30
0.0
 10
11.2877029792
 20
10.3201695021
 30
0.0
 10
11.2912457333
 20
10.3201695021
 30
0.0
  0
SPLINE
  5
29F
100
AcDbEntity
  8
0
100
AcDbSpline
 62
9
  6
CONTINUOUS
 70
0
 71
3
 72
20
 73
16
 74
0
 42
0.0000001
 43
0.0000001
 44
0.0000000001
 40
0.0
 40
0.0
 40
0.0
 40
0.0
 40
0.0726569798
 40
0.1450508955
 40
0.2872232842
 40
0.4240578813
 40
0.5537790005
 40
0.6156719756
 40
0.6754916483
 40
0.7332906949
 40
0.7892169081
 40
0.8434950373
 40
0.8964469308
 40
0.9484647354
 40
1.0
 40
1.0
 40
1.0
 40
1.0
 10
11.3273126942
 20
10.1718445853
 30
0.0
 10
11.3273510926
 20
10.1767070401
 30
0.0
 10
11.3277644665
 20
10.186415531
 30
0.0
 10
11.3299007945
 20
10.2055302004
 30
0.0
 10
11.3349573025
 20
10.2285893165
 30
0.0
 10
11.3447314321
 20
10.2542463636
 30
0.0
 10
11.3558310893
 20
10.2733622269
 30
0.0
 10
11.3662436506
 20
10.2866098841
 30
0.0
 10
11.3745728969
 20
10.2952973501
 30
0.0
 10
11.38347047
 20
10.3027983941
 30
0.0
 10
11.3928480372
 20
10.3090480131
 30
0.0
 10
11.402623303
 20
10.3139764969
 30
0.0
 10
11.4127016745
 20
10.3175354312
 30
0.0
 10
11.4229831986
 20
10.3196895642
 30
0.0
 10
11.429923073
 20
10.3201682322
 30
0.0
 10
11.4333720976
 20
10.3201681652
 30
0.0
  0
SPLINE
  5
2A0
100
AcDbEntity
  8
0
100
AcDbSpline
 62
9
  6
CONTINUOUS
 70
0
 71
3
 72
18
 73
14
 74
0
 42
0.0000001
 43
0.0000001
 44
0.0000000001
 40
0.0
 40
0.0
 40
0.0
 40
0.0
 40
0.1416458501
 40
0.2812095564
 40
0.4167750498
 40
0.5467427122
 40
0.6700082775
 40
0.7290190479
 40
0.7862598097
 40
0.8418095991
 40
0.8958072895
 40
0.9484519649
 40
1.0
 40
1.0
 40
1.0
 40
1.0
 10
11.493169406
 20
10.1701695021
 30
0.0
 10
11.493169406
 20
10.1565882665
 30
0.0
 10
11.4948069824
 20
10.1295957712
 30
0.0
 10
11.502123865
 20
10.0902090245
 30
0.0
 10
11.5140907732
 20
10.053134145
 30
0.0
 10
11.5303686271
 20
10.019459426
 30
0.0
 10
11.5474146994
 20
9.9946709236
 30
0.0
 10
11.5627883048
 20
9.9775747829
 30
0.0
 10
11.5748884979
 20
9.9663609726
 30
0.0
 10
11.5876339626
 20
9.9566587113
 30
0.0
 10
11.6009331704
 20
9.948541628
 30
0.0
 10
11.6146854378
 20
9.9420742263
 30
0.0
 10
11.6241752134
 20
9.9388680929
 30
0.0
 10
11.6289433856
 20
9.9375669633
 30
0.0
  0
SPLINE
  5
2A1
100
AcDbEntity
  8
0
100
AcDbSpline
 62
7
  6
CONTINUOUS
 70
0
 71
3
 72
22
 73
18
 74
0
 42
0.0000001
 43
0.0000001
 44
0.0000000001
 40
0.0
 40
0.0
 40
0.0
 40
0.0
 40
0.0696857067
 40
0.1393319525
 40
0.2086416963
 40
0.2774251121
 40
0.3455401189
 40
0.4128193284
 40
0.5439789919
 40
0.6075706619
 40
0.669535627
 40
0.729688962
 40
0.7878686043
 40
0.8439571534
 40
0.8979353988
 40
0.9498787222
 40
1.0
 40
1.0
 40
1.0
 40
1.0
 10
10.7064899208
 20
10.1701695021
 30
0.0
 10
10.7064899208
 20
10.1652405873
 30
0.0
 10
10.7060315172
 20
10.1553798944
 30
0.0
 10
10.704013051
 20
10.1407418629
 30
0.0
 10
10.7006874441
 20
10.1264084819
 30
0.0
 10
10.6961224619
 20
10.1125362712
 30
0.0
 10
10.6904111418
 20
10.0992502889
 30
0.0
 10
10.6814714431
 20
10.0826314676
 30
0.0
 10
10.6706147627
 20
10.0674733363
 30
0.0
 10
10.6581754444
 20
10.0542207783
 30
0.0
 10
10.6483546426
 20
10.0454691343
 30
0.0
 10
10.6380738194
 20
10.0378920399
 30
0.0
 10
10.6274625417
 20
10.0315584888
 30
0.0
 10
10.6166454809
 20
10.0265435076
 30
0.0
 10
10.6057527582
 20
10.0229025937
 30
0.0
 10
10.5949131646
 20
10.0206828281
 30
0.0
 10
10.5876858016
 20
10.0201716185
 30
0.0
 10
10.5841406914
 20
10.0201715735
 30
0.0
  0
SPLINE
  5
2A2
100
AcDbEntity
  8
0
100
AcDbSpline
 62
9
  6
CONTINUOUS
 70
0
 71
3
 72
20
 73
16
 74
0
 42
0.0000001
 43
0.0000001
 44
0.0000000001
 40
0.0
 40
0.0
 40
0.0
 40
0.0
 40
0.0726569798
 40
0.1450508955
 40
0.2872232842
 40
0.4240578813
 40
0.5537790005
 40
0.6156719756
 40
0.6754916483
 40
0.7332906949
 40
0.7892169081
 40
0.8434950373
 40
0.8964469308
 40
0.9484647354
 40
1.0
 40
1.0
 40
1.0
 40
1.0
 10
10.5480719913
 20
10.168494419
 30
0.0
 10
10.5480335929
 20
10.1636319642
 30
0.0
 10
10.547620219
 20
10.1539234733
 30
0.0
 10
10.545483891
 20
10.1348088039
 30
0.0
 10
10.5404273829
 20
10.1117496878
 30
0.0
 10
10.5306532533
 20
10.0860926407
 30
0.0
 10
10.5195535961
 20
10.0669767774
 30
0.0
 10
10.5091410349
 20
10.0537291202
 30
0.0
 10
10.5008117886
 20
10.0450416542
 30
0.0
 10
10.4919142155
 20
10.0375406101
 30
0.0
 10
10.4825366482
 20
10.0312909912
 30
0.0
 10
10.4727613825
 20
10.0263625073
 30
0.0
 10
10.462683011
 20
10.0228035731
 30
0.0
 10
10.4524014868
 20
10.0206494401
 30
0.0
 10
10.4454616125
 20
10.020170772
 30
0.0
 10
10.4420125879
 20
10.0201708391
 30
0.0
  0
SPLINE
  5
2A3
100
AcDbEntity
  8
0
100
AcDbSpline
 62
9
  6
CONTINUOUS
 70
0
 71
3
 72
31
 73
27
 74
0
 42
0.0000001
 43
0.0000001
 44
0.0000000001
 40
0.0
 40
0.0
 40
0.0
 40
0.0
 40
0.0724563265
 40
0.1435379795
 40
0.2120137917
 40
0.2769258357
 40
0.3078945794
 40
0.3378198282
 40
0.3667277791
 40
0.3946885234
 40
0.4218176166
 40
0.4482750064
 40
0.4742596697
 40
0.5000000028
 40
0.5257403334
 40
0.5517249921
 40
0.5781823792
 40
0.6053114749
 40
0.633272227
 40
0.6621801856
 40
0.6921054348
 40
0.72307417
 40
0.7879862088
 40
0.8564620348
 40
0.9275436828
 40
1.0
 40
1.0
 40
1.0
 40
1.0
 10
9.7918432695
 20
10.1701695021
 30
0.0
 10
9.7918432695
 20
10.1631949006
 30
0.0
 10
9.7927969278
 20
10.1493584662
 30
0.0
 10
9.7970513061
 20
10.1293287988
 30
0.0
 10
9.8039695183
 20
10.1108214083
 30
0.0
 10
9.8118831599
 20
10.0970197693
 30
0.0
 10
9.8193269009
 20
10.0874467104
 30
0.0
 10
9.8252913863
 20
10.0811685157
 30
0.0
 10
9.8316670394
 20
10.0757434325
 30
0.0
 10
9.8383946535
 20
10.0712249197
 30
0.0
 10
9.8454106643
 20
10.0676592737
 30
0.0
 10
9.8526475996
 20
10.0650838838
 30
0.0
 10
9.8600344064
 20
10.0635268291
 30
0.0
 10
9.8674970551
 20
10.0630057471
 30
0.0
 10
9.8749597034
 20
10.0635268293
 30
0.0
 10
9.8823465093
 20
10.0650838837
 30
0.0
 10
9.8895834441
 20
10.0676592735
 30
0.0
 10
9.8965994557
 20
10.0712249196
 30
0.0
 10
9.9033270712
 20
10.0757434336
 30
0.0
 10
9.9097027252
 20
10.081168518
 30
0.0
 10
9.9156672105
 20
10.0874467127
 30
0.0
 10
9.9231109501
 20
10.0970197711
 30
0.0
 10
9.9310245916
 20
10.1108214101
 30
0.0
 10
9.9379428038
 20
10.129328801
 30
0.0
 10
9.9421971815
 20
10.1493584684
 30
0.0
 10
9.9431508396
 20
10.1631949015
 30
0.0
 10
9.9431508396
 20
10.1701695021
 30
0.0
  0
SPLINE
  5
2A4
100
AcDbEntity
  8
0
100
AcDbSpline
 62
9
  6
CONTINUOUS
 70
0
 71
3
 72
14
 73
10
 74
0
 42
0.0000001
 43
0.0000001
 44
0.0000000001
 40
0.0
 40
0.0
 40
0.0
 40
0.0
 40
0.2692631845
 40
0.4011963108
 40
0.5299330755
 40
0.6546671214
 40
0.7747848099
 40
0.8899190384
 40
1.0
 40
1.0
 40
1.0
 40
1.0
 10
10.4259489408
 20
10.1678834447
 30
0.0
 10
10.4258120877
 20
10.1505534858
 30
0.0
 10
10.423292519
 20
10.1246621274
 30
0.0
 10
10.415261224
 20
10.0914757146
 30
0.0
 10
10.4070969751
 20
10.0680052507
 30
0.0
 10
10.3968849165
 20
10.0461873053
 30
0.0
 10
10.3847826574
 20
10.0263684508
 30
0.0
 10
10.3709833676
 20
10.0088753413
 30
0.0
 10
10.3605576668
 20
9.9987262995
 30
0.0
 10
10.3551327375
 20
9.9941690132
 30
0.0
  0
SPLINE
  5
2A5
100
AcDbEntity
  8
0
100
AcDbSpline
 62
9
  6
CONTINUOUS
 70
0
 71
3
 72
31
 73
27
 74
0
 42
0.0000001
 43
0.0000001
 44
0.0000000001
 40
0.0
 40
0.0
 40
0.0
 40
0.0
 40
0.0724563265
 40
0.1435379795
 40
0.2120137917
 40
0.2769258357
 40
0.3078945794
 40
0.3378198282
 40
0.3667277791
 40
0.3946885234
 40
0.4218176166
 40
0.4482750064
 40
0.4742596697
 40
0.5000000028
 40
0.5257403334
 40
0.5517249921
 40
0.5781823792
 40
0.6053114749
 40
0.633272227
 40
0.6621801856
 40
0.6921054348
 40
0.72307417
 40
0.7879862088
 40
0.8564620348
 40
0.9275436828
 40
1.0
 40
1.0
 40
1.0
 40
1.0
 10
9.9431508396
 20
10.1701695021
 30
0.0
 10
9.9431508396
 20
10.1771441036
 30
0.0
 10
9.9421971813
 20
10.1909805381
 30
0.0
 10
9.937942803
 20
10.2110102055
 30
0.0
 10
9.9310245909
 20
10.229517596
 30
0.0
 10
9.9231109492
 20
10.243319235
 30
0.0
 10
9.9156672082
 20
10.2528922939
 30
0.0
 10
9.9097027229
 20
10.2591704886
 30
0.0
 10
9.9033270698
 20
10.2645955718
 30
0.0
 10
9.8965994556
 20
10.2691140846
 30
0.0
 10
9.8895834448
 20
10.2726797305
 30
0.0
 10
9.8823465096
 20
10.2752551205
 30
0.0
 10
9.8749597028
 20
10.2768121752
 30
0.0
 10
9.867497054
 20
10.2773332572
 30
0.0
 10
9.8600344057
 20
10.276812175
 30
0.0
 10
9.8526475998
 20
10.2752551206
 30
0.0
 10
9.845410665
 20
10.2726797308
 30
0.0
 10
9.8383946535
 20
10.2691140847
 30
0.0
 10
9.831667038
 20
10.2645955707
 30
0.0
 10
9.825291384
 20
10.2591704862
 30
0.0
 10
9.8193268986
 20
10.2528922916
 30
0.0
 10
9.811883159
 20
10.2433192332
 30
0.0
 10
9.8039695175
 20
10.2295175942
 30
0.0
 10
9.7970513053
 20
10.2110102033
 30
0.0
 10
9.7927969276
 20
10.1909805358
 30
0.0
 10
9.7918432695
 20
10.1771441027
 30
0.0
 10
9.7918432695
 20
10.1701695021
 30
0.0
  0
ENDSEC
  0
SECTION
  2
OBJECTS
  0
DICTIONARY
  5
C
100
AcDbDictionary
280
0
281
1
  3
ACAD_GROUP
350
D
  3
ACAD_MLINESTYLE
350
17
  3
ACAD_LAYOUT
350
1A
  3
ACAD_PLOTSETTINGS
350
19
  3
ACAD_PLOTSTYLENAME
350
E
  0
DICTIONARY
  5
D
102
{ACAD_REACTORS
330
C
102
}
100
AcDbDictionary
280
0
281
1
  0
ACDBDICTIONARYWDFLT
  5
E
102
{ACAD_REACTORS
330
C
102
}
100
AcDbDictionary
281
1
  3
Normal
350
F
100
AcDbDictionaryWithDefault
340
F
  0
DICTIONARY
  5
17
102
{ACAD_REACTORS
330
C
102
}
100
AcDbDictionary
280
0
281
1
  3
Standard
350
18
  0
DICTIONARY
  5
19
102
{ACAD_REACTORS
330
C
102
}
100
AcDbDictionary
281
1
  0
DICTIONARY
  5
1A
102
{ACAD_REACTORS
330
C
102
}
100
AcDbDictionary
281
1
  3
Model
350
2A6
  3
Layout1
350
2A7
  0
ACDBPLACEHOLDER
  5
F
102
{ACAD_REACTORS
330
E
102
}
  0
MLINESTYLE
  5
18
102
{ACAD_REACTORS
330
17
102
}
100
AcDbMlineStyle
  2
STANDARD
 70
0
  3

 62
256
 51
90.0
 52
90.0
 71
2
 49
0.5
 62
256
  6
BYLAYER
 49
-0.5
 62
256
  6
BYLAYER
  0
LAYOUT
  5
2A6
102
{ACAD_REACTORS
330
1A
102
}
100
AcDbPlotSettings
  1

  2
none_device
  4
ANSI_C_(22.00_x_17.00_Inches)
  6

 40
0.0
 41
0.0
 42
0.0
 43
0.0
 44
558.8
 45
431.8
 46
0.0
 47
0.0
 48
0.0
 49
0.0
140
0.0
141
0.0
142
1.0
143
1.0
 70
1024
 72
0
 73
0
 74
0
  7

 75
0
147
1.0
148
0.0
149
0.0
100
AcDbLayout
  1
Model
 70
0
 71
0
 10
0.0
 20
0.0
 11
22.0
 21
17.0
 12
0.0
 22
0.0
 32
0.0
 14
0.0
 24
0.0
 34
0.0
 15
0.0
 25
0.0
 35
0.0
146
0.0
 13
0.0
 23
0.0
 33
0.0
 16
1.0
 26
0.0
 36
0.0
 17
0.0
 27
1.0
 37
0.0
 76
0
330
202
345
0
346
0
  0
LAYOUT
  5
2A7
102
{ACAD_REACTORS
330
1A
102
}
100
AcDbPlotSettings
  1

  2
none_device
  4
ANSI_C_(22.00_x_17.00_Inches)
  6

 40
0.0
 41
0.0
 42
0.0
 43
0.0
 44
558.8
 45
431.8
 46
0.0
 47
0.0
 48
0.0
 49
0.0
140
0.0
141
0.0
142
1.0
143
1.0
 70
0
 72
0
 73
0
 74
0
  7

 75
0
147
1.0
148
0.0
149
0.0
100
AcDbLayout
  1
Layout1
 70
0
 71
1
 10
0.0
 20
0.0
 11
22.0
 21
17.0
 12
0.0
 22
0.0
 32
0.0
 14
0.0
 24
0.0
 34
0.0
 15
0.0
 25
0.0
 35
0.0
146
0.0
 13
0.0
 23
0.0
 33
0.0
 16
1.0
 26
0.0
 36
0.0
 17
0.0
 27
1.0
 37
0.0
 76
0
330
203
345
0
346
0
  0
ENDSEC
  0
EOF
