999
DXF file: E:\BT Custom\CADOUTPUT\_RIGHT.dxf
999
Pro/ENGINEER 2018400 by Parametric Technology Corporation
  0
SECTION
  2
HEADER
  9
$ACADVER
  1
AC1018
  9
$DWGCODEPAGE
  3
ANSI_1252
  9
$EXTMAX
 10
22.0
 20
17.0
 30
0.0
  9
$EXTMIN
 10
0.0
 20
0.0
 30
0.0
  9
$LIMMIN
 10
0.0
 20
0.0
  9
$LIMMAX
 10
22.0
 20
17.0
  9
$VIEWCTR
 10
11.0
 20
8.5
  9
$VIEWSIZE
 40
17.0
  9
$CLAYER
  8
0
  9
$LTSCALE
 40
1.21
  9
$CELTYPE
  6
BYLAYER
  9
$DIMSCALE
 40
1.0
  9
$DIMASZ
 40
0.1
  9
$DIMEXO
 40
0.0625
  9
$DIMDLI
 40
0.836
  9
$DIMEXE
 40
0.125
  9
$DIMCEN
 40
0.198
  9
$DIMLFAC
 40
1.0
  9
$DIMBLK
  1
_FILLED
  9
$DIMALT
 70
1
  9
$DIMALTD
 70
2
  9
$DIMALTTD
 70
2
  9
$DIMALTF
 40
25.4
  9
$DIMTXT
 40
0.08
  9
$DIMTOL
 70
1
  9
$DIMLIM
 70
0
  9
$DIMTFAC
 40
1.0
  9
$DIMTP
 40
0.001
  9
$DIMTM
 40
0.001
  9
$DIMGAP
 40
0.09
  9
$DIMDSEP
 70
46
  9
$AUNITS
 70
0
  9
$PDMODE
 70
3
  9
$PDSIZE
 40
0.06
  9
$HANDSEED
  5
263
  9
$TILEMODE
 70
1
  9
$MEASUREMENT
 70
0
  9
$INSUNITS
 70
1
  0
ENDSEC
  0
SECTION
  2
CLASSES
  0
CLASS
  1
ACDBDICTIONARYWDFLT
  2
AcDbDictionaryWithDefault
  3
AutoCAD 2000
 90
0
 91
1
280
0
281
0
  0
CLASS
  1
ACDBPLACEHOLDER
  2
AcDbPlaceHolder
  3
AutoCAD 2000
 90
0
 91
1
280
0
281
0
  0
CLASS
  1
LAYOUT
  2
AcDbLayout
  3
AutoCAD 2000
 90
0
 91
0
280
0
281
0
  0
ENDSEC
  0
SECTION
  2
TABLES
  0
TABLE
  2
VPORT
  5
8
100
AcDbSymbolTable
 70
2
  0
VPORT
  5
1F4
100
AcDbSymbolTableRecord
100
AcDbViewportTableRecord
  2
*ACTIVE
 70
0
 10
0.0
 20
0.0
 11
1.0
 21
1.0
 12
11.0
 22
8.5
 13
0.0
 23
0.0
 14
1.0
 24
1.0
 15
0.0
 25
0.0
 16
0.0
 26
0.0
 36
1.0
 17
0.0
 27
0.0
 37
0.0
 40
17.0
 41
1.2941176471
 42
50.0
 43
0.0
 44
0.0
 50
0.0
 51
0.0
 71
0
 72
100
 73
1
 74
1
 75
0
 76
0
 77
0
 78
0
  0
ENDTAB
  0
TABLE
  2
LTYPE
  5
5
100
AcDbSymbolTable
 70
6
  0
LTYPE
  5
14
100
AcDbSymbolTableRecord
100
AcDbLinetypeTableRecord
  2
BYBLOCK
 70
0
  3

 72
65
 73
0
 40
0.0
  0
LTYPE
  5
15
100
AcDbSymbolTableRecord
100
AcDbLinetypeTableRecord
  2
BYLAYER
 70
0
  3

 72
65
 73
0
 40
0.0
  0
LTYPE
  5
16
100
AcDbSymbolTableRecord
100
AcDbLinetypeTableRecord
  2
CONTINUOUS
 70
64
  3
Solid line
 72
65
 73
0
 40
0.0
  0
LTYPE
  5
1F5
100
AcDbSymbolTableRecord
100
AcDbLinetypeTableRecord
  2
CENTER
 70
64
  3
____ _ ____ _ ____ _ ____ _ ____ _ ____ _ ____
 72
65
 73
4
 40
0.6
 49
0.375
 74
0
 49
-0.075
 74
0
 49
0.075
 74
0
 49
-0.075
 74
0
  0
LTYPE
  5
1F6
100
AcDbSymbolTableRecord
100
AcDbLinetypeTableRecord
  2
HIDDEN
 70
64
  3
- - - - - - - - - - - - - - - - - - - -
 72
65
 73
2
 40
0.2
 49
0.1
 74
0
 49
-0.1
 74
0
  0
LTYPE
  5
1F7
100
AcDbSymbolTableRecord
100
AcDbLinetypeTableRecord
  2
PHANTOM
 70
64
  3
_____ _ _ _____ _ _ _____ _ _ _____
 72
65
 73
6
 40
0.8
 49
0.45
 74
0
 49
-0.05
 74
0
 49
0.1
 74
0
 49
-0.05
 74
0
 49
0.1
 74
0
 49
-0.05
 74
0
  0
LTYPE
  5
1F8
100
AcDbSymbolTableRecord
100
AcDbLinetypeTableRecord
  2
DOT
 70
64
  3
. . . . . . . . . . . . . . . . . . . .
 72
65
 73
2
 40
0.2
 49
0.1
 74
0
 49
-0.1
 74
0
  0
LTYPE
  5
1F9
100
AcDbSymbolTableRecord
100
AcDbLinetypeTableRecord
  2
DASHED
 70
64
  3
- - - - - - - - - - - - - - - - - - - -
 72
65
 73
2
 40
0.2
 49
0.1
 74
0
 49
-0.1
 74
0
  0
ENDTAB
  0
TABLE
  2
LAYER
  5
2
100
AcDbSymbolTable
 70
36
  0
LAYER
  5
10
100
AcDbSymbolTableRecord
100
AcDbLayerTableRecord
  2
0
 70
0
 62
7
  6
CONTINUOUS
370
-3
390
F
  0
LAYER
  5
1FA
100
AcDbSymbolTableRecord
100
AcDbLayerTableRecord
  2
DEFAULT_1
 70
0
 62
7
  6
CENTER
370
-3
390
F
  0
LAYER
  5
1FB
100
AcDbSymbolTableRecord
100
AcDbLayerTableRecord
  2
DEFAULT_2
 70
0
 62
8
  6
HIDDEN
370
-3
390
F
  0
LAYER
  5
1FC
100
AcDbSymbolTableRecord
100
AcDbLayerTableRecord
  2
DEFAULT_3
 70
0
 62
7
  6
PHANTOM
370
-3
390
F
  0
LAYER
  5
1FD
100
AcDbSymbolTableRecord
100
AcDbLayerTableRecord
  2
ALL_FEATURES
 70
0
 62
7
  6
CONTINUOUS
370
-3
390
F
  0
LAYER
  5
1FE
100
AcDbSymbolTableRecord
100
AcDbLayerTableRecord
  2
AXES_FEATURES
 70
0
 62
7
  6
CONTINUOUS
370
-3
390
F
  0
LAYER
  5
1FF
100
AcDbSymbolTableRecord
100
AcDbLayerTableRecord
  2
DIMENSIONS
 70
0
 62
7
  6
CONTINUOUS
370
-3
390
F
  0
ENDTAB
  0
TABLE
  2
STYLE
  5
3
100
AcDbSymbolTable
 70
1
  0
STYLE
  5
11
100
AcDbSymbolTableRecord
100
AcDbTextStyleTableRecord
  2
STANDARD
 70
0
 40
0.0
 41
0.8
 50
0.0
 71
0
 42
0.2
  3
txt
  4

  0
STYLE
  5
200
100
AcDbSymbolTableRecord
100
AcDbTextStyleTableRecord
  2
TEXTSTYLE_1
 70
0
 40
0.0
 41
0.8
 50
0.0
 71
0
 42
0.2
  3
gdt
  4

  0
ENDTAB
  0
TABLE
  2
VIEW
  5
6
100
AcDbSymbolTable
 70
0
  0
ENDTAB
  0
TABLE
  2
UCS
  5
7
100
AcDbSymbolTable
 70
0
  0
ENDTAB
  0
TABLE
  2
APPID
  5
9
100
AcDbSymbolTable
 70
1
  0
APPID
  5
201
100
AcDbSymbolTableRecord
100
AcDbRegAppTableRecord
  2
ACAD
 70
0
  0
ENDTAB
  0
TABLE
  2
BLOCK_RECORD
  5
1
100
AcDbSymbolTable
 70
0
  0
BLOCK_RECORD
  5
202
100
AcDbSymbolTableRecord
100
AcDbBlockTableRecord
  2
*Model_Space
  0
BLOCK_RECORD
  5
203
100
AcDbSymbolTableRecord
100
AcDbBlockTableRecord
  2
*Paper_Space
  0
BLOCK_RECORD
  5
204
100
AcDbSymbolTableRecord
100
AcDbBlockTableRecord
  2
_FILLED
  0
ENDTAB
  0
TABLE
  2
DIMSTYLE
  5
A
100
AcDbSymbolTable
 70
1
100
AcDbDimStyleTable
 71
0
  0
DIMSTYLE
105
205
100
AcDbSymbolTableRecord
100
AcDbDimStyleTableRecord
  2
STANDARD
 70
0
  3

  4

 40
1.0
 41
0.1
 42
0.0625
 43
0.38
 44
0.125
 45
0.0
 46
0.0
 47
0.001
 48
0.001
140
0.08
141
0.09
142
0.0
143
25.4
144
1.0
145
0.0
146
1.0
147
0.09
 71
1.0
 72
0.0
 73
1
 74
1
 75
0
 76
0
 77
0
 78
4
 79
1
170
1
171
2
172
0
173
0
174
0
175
0
176
0
177
0
178
0
270
2
179
3
271
3
272
3
273
2
274
2
275
0
280
0
281
0
282
0
283
1
284
4
285
0
286
0
287
3
288
0
340
11
278
46
341
204
342
204
343
204
344
204
  0
ENDTAB
  0
ENDSEC
  0
SECTION
  2
BLOCKS
  0
BLOCK
  5
20
100
AcDbEntity
  8
0
100
AcDbBlockBegin
  2
*Model_Space
 70
0
 10
0.0
 20
0.0
 30
0.0
  3
*Model_Space
  1

  0
ENDBLK
  5
21
100
AcDbEntity
  8
0
100
AcDbBlockEnd
  0
BLOCK
  5
1C
100
AcDbEntity
  8
0
100
AcDbBlockBegin
  2
*Paper_Space
 70
0
 10
0.0
 20
0.0
 30
0.0
  3
*Paper_Space
  1

  0
ENDBLK
  5
1D
100
AcDbEntity
  8
0
100
AcDbBlockEnd
  0
BLOCK
  5
206
100
AcDbEntity
  8
0
100
AcDbBlockBegin
  2
_FILLED
 70
64
 10
0.0
 20
0.0
  3
_FILLED
  1

  0
SOLID
  5
207
100
AcDbEntity
  8
0
  6
BYBLOCK
 62
0
100
AcDbTrace
 10
0.0
 20
0.0
 11
-1.0
 21
0.2
 12
-1.0
 22
-0.2
 13
-1.0
 23
-0.2
  0
ENDBLK
  5
208
100
AcDbEntity
  8
0
  6
BYBLOCK
 62
0
100
AcDbBlockEnd
  0
ENDSEC
  0
SECTION
  2
ENTITIES
  0
LINE
  5
209
100
AcDbEntity
  8
0
100
AcDbLine
 62
7
  6
CONTINUOUS
 10
9.4474834891
 20
7.767391804
 11
11.9724827918
 21
7.767391804
  0
LINE
  5
20A
100
AcDbEntity
  8
0
100
AcDbLine
 62
7
  6
CONTINUOUS
 10
9.4474834891
 20
7.867391804
 11
11.9724834891
 21
7.867391804
  0
LINE
  5
20B
100
AcDbEntity
  8
0
100
AcDbLine
 62
7
  6
CONTINUOUS
 10
9.6599834891
 20
8.242391804
 11
9.6599834891
 21
8.342391804
  0
LINE
  5
20C
100
AcDbEntity
  8
0
100
AcDbLine
 62
7
  6
CONTINUOUS
 10
9.5849834891
 20
8.242391804
 11
9.5744943807
 21
8.0979335214
  0
LINE
  5
20D
100
AcDbEntity
  8
0
100
AcDbLine
 62
9
  6
CONTINUOUS
 10
9.5744943807
 20
8.0979335214
 11
11.8454725976
 21
8.0979335214
  0
LINE
  5
20E
100
AcDbEntity
  8
0
100
AcDbLine
 62
7
  6
CONTINUOUS
 10
11.8349692382
 20
8.242391804
 11
9.5849977401
 21
8.242391804
  0
LINE
  5
20F
100
AcDbEntity
  8
0
100
AcDbLine
 62
7
  6
CONTINUOUS
 10
11.7599834891
 20
8.342391804
 11
9.6599834891
 21
8.342391804
  0
LINE
  5
210
100
AcDbEntity
  8
0
100
AcDbLine
 62
7
  6
CONTINUOUS
 10
10.1724834891
 20
8.992391804
 11
10.1724834891
 21
9.042391804
  0
LINE
  5
211
100
AcDbEntity
  8
0
100
AcDbLine
 62
7
  6
CONTINUOUS
 10
10.2099834891
 20
10.162391804
 11
10.2099834891
 21
10.062391804
  0
LINE
  5
212
100
AcDbEntity
  8
0
100
AcDbLine
 62
7
  6
CONTINUOUS
 10
10.2099834891
 20
9.762391804
 11
10.2099834891
 21
9.662391804
  0
LINE
  5
213
100
AcDbEntity
  8
0
100
AcDbLine
 62
7
  6
CONTINUOUS
 10
10.2724834891
 20
9.042391804
 11
10.2724834891
 21
9.142391804
  0
LINE
  5
214
100
AcDbEntity
  8
0
100
AcDbLine
 62
7
  6
CONTINUOUS
 10
10.3974834891
 20
9.5541386286
 11
10.3974834891
 21
9.162391804
  0
LINE
  5
215
100
AcDbEntity
  8
0
100
AcDbLine
 62
7
  6
CONTINUOUS
 10
11.0224834891
 20
9.5541386286
 11
11.2099834891
 21
9.662391804
  0
LINE
  5
216
100
AcDbEntity
  8
0
100
AcDbLine
 62
7
  6
CONTINUOUS
 10
10.5099834891
 20
9.162391804
 11
10.5099834891
 21
9.142391804
  0
LINE
  5
217
100
AcDbEntity
  8
0
100
AcDbLine
 62
7
  6
CONTINUOUS
 10
11.3474732266
 20
8.992391804
 11
10.0724937517
 21
8.992391804
  0
LINE
  5
218
100
AcDbEntity
  8
0
100
AcDbLine
 62
7
  6
CONTINUOUS
 10
11.247482759
 20
9.042391804
 11
10.1724842192
 21
9.042391804
  0
LINE
  5
219
100
AcDbEntity
  8
0
100
AcDbLine
 62
7
  6
CONTINUOUS
 10
11.1474721083
 20
9.142391804
 11
10.2724948699
 21
9.142391804
  0
LINE
  5
21A
100
AcDbEntity
  8
0
100
AcDbLine
 62
7
  6
CONTINUOUS
 10
10.9099834891
 20
9.162391804
 11
10.9099834891
 21
9.142391804
  0
LINE
  5
21B
100
AcDbEntity
  8
0
100
AcDbLine
 62
7
  6
CONTINUOUS
 10
10.3974836493
 20
9.162391804
 11
11.022483329
 21
9.162391804
  0
LINE
  5
21C
100
AcDbEntity
  8
0
100
AcDbLine
 62
7
  6
CONTINUOUS
 10
11.0224834891
 20
9.5541386286
 11
11.0224834891
 21
9.162391804
  0
LINE
  5
21D
100
AcDbEntity
  8
0
100
AcDbLine
 62
7
  6
CONTINUOUS
 10
10.3974834891
 20
9.5541386286
 11
10.2099834891
 21
9.662391804
  0
LINE
  5
21E
100
AcDbEntity
  8
0
100
AcDbLine
 62
7
  6
CONTINUOUS
 10
11.1474834891
 20
9.042391804
 11
11.1474834891
 21
9.142391804
  0
LINE
  5
21F
100
AcDbEntity
  8
0
100
AcDbLine
 62
7
  6
CONTINUOUS
 10
11.2099834891
 20
10.162391804
 11
11.2099834891
 21
10.062391804
  0
LINE
  5
220
100
AcDbEntity
  8
0
100
AcDbLine
 62
7
  6
CONTINUOUS
 10
11.2099834891
 20
9.762391804
 11
11.2099834891
 21
9.662391804
  0
LINE
  5
221
100
AcDbEntity
  8
0
100
AcDbLine
 62
7
  6
CONTINUOUS
 10
11.2474834891
 20
8.992391804
 11
11.2474834891
 21
9.042391804
  0
LINE
  5
222
100
AcDbEntity
  8
0
100
AcDbLine
 62
7
  6
CONTINUOUS
 10
11.0224834891
 20
9.5541386286
 11
10.3974834891
 21
9.5541386286
  0
LINE
  5
223
100
AcDbEntity
  8
0
100
AcDbLine
 62
7
  6
CONTINUOUS
 10
10.2099834891
 20
9.662391804
 11
11.2099834891
 21
9.662391804
  0
LINE
  5
224
100
AcDbEntity
  8
0
100
AcDbLine
 62
7
  6
CONTINUOUS
 10
10.3564300985
 20
9.762391804
 11
10.2143037343
 21
9.762391804
  0
LINE
  5
225
100
AcDbEntity
  8
0
100
AcDbLine
 62
7
  6
CONTINUOUS
 10
11.0635368797
 20
9.762391804
 11
11.205663244
 21
9.762391804
  0
LINE
  5
226
100
AcDbEntity
  8
0
100
AcDbLine
 62
7
  6
CONTINUOUS
 10
11.8349834891
 20
8.242391804
 11
11.8454725976
 21
8.0979335214
  0
LINE
  5
227
100
AcDbEntity
  8
0
100
AcDbLine
 62
7
  6
CONTINUOUS
 10
11.7599834891
 20
8.242391804
 11
11.7599834891
 21
8.342391804
  0
LINE
  5
228
100
AcDbEntity
  8
0
100
AcDbLine
 62
7
  6
CONTINUOUS
 10
10.3564300985
 20
10.062391804
 11
10.2143037343
 21
10.062391804
  0
LINE
  5
229
100
AcDbEntity
  8
0
100
AcDbLine
 62
7
  6
CONTINUOUS
 10
11.0635368797
 20
10.062391804
 11
11.205663244
 21
10.062391804
  0
LINE
  5
22A
100
AcDbEntity
  8
0
100
AcDbLine
 62
7
  6
CONTINUOUS
 10
11.2099631377
 20
10.162391804
 11
10.2100038406
 21
10.162391804
  0
LINE
  5
22B
100
AcDbEntity
  8
0
100
AcDbLine
 62
9
  6
CONTINUOUS
 10
10.3148388326
 20
10.2012010973
 11
11.1051281457
 21
10.2012010973
  0
ARC
  5
22C
100
AcDbEntity
  8
0
100
AcDbCircle
 62
7
  6
CONTINUOUS
 10
10.7099834891
 20
8.7017217886
 40
1.5506700155
100
AcDbArc
 50
75.2369687319
 51
104.7630312681
  0
ARC
  5
22D
100
AcDbEntity
  8
0
100
AcDbCircle
 62
7
  6
CONTINUOUS
 10
12.0658547013
 20
8.992391804
 40
0.7183712121
100
AcDbArc
 50
180.0
 51
244.7996803479
  0
ARC
  5
22E
100
AcDbEntity
  8
0
100
AcDbCircle
 62
7
  6
CONTINUOUS
 10
9.354112277
 20
8.992391804
 40
0.7183712121
100
AcDbArc
 50
295.2003196521
 51
360.0
  0
ARC
  5
22F
100
AcDbEntity
  8
0
100
AcDbCircle
 62
7
  6
CONTINUOUS
 10
11.531684306
 20
9.6647848088
 40
0.4976165665
100
AcDbArc
 50
74.8023487316
 51
105.197747125
  0
ARC
  5
230
100
AcDbEntity
  8
0
100
AcDbCircle
 62
7
  6
CONTINUOUS
 10
11.5316834433
 20
10.1599988022
 40
0.4976165665
100
AcDbArc
 50
254.8023488185
 51
285.1977470342
  0
ARC
  5
231
100
AcDbEntity
  8
0
100
AcDbCircle
 62
7
  6
CONTINUOUS
 10
9.8882826723
 20
10.1599988022
 40
0.4976165665
100
AcDbArc
 50
254.8023488157
 51
285.1977470314
  0
ARC
  5
232
100
AcDbEntity
  8
0
100
AcDbCircle
 62
7
  6
CONTINUOUS
 10
9.888283535
 20
9.6647848088
 40
0.4976165665
100
AcDbArc
 50
74.8023487318
 51
105.1977471252
  0
ARC
  5
233
100
AcDbEntity
  8
0
100
AcDbCircle
 62
7
  6
CONTINUOUS
 10
9.2034277964
 20
8.1521053774
 40
0.375
100
AcDbArc
 50
310.6030912348
 51
351.6940891949
  0
ARC
  5
234
100
AcDbEntity
  8
0
100
AcDbCircle
 62
7
  6
CONTINUOUS
 10
12.2165391819
 20
8.1521053774
 40
0.375
100
AcDbArc
 50
188.3059108051
 51
229.3969087652
  0
ARC
  5
235
100
AcDbEntity
  8
0
100
AcDbCircle
 62
9
  6
CONTINUOUS
 10
9.908751363
 20
9.9123917907
 40
0.2894977503
100
AcDbArc
 50
359.5475541996
 51
0.0000026445
  0
ARC
  5
236
100
AcDbEntity
  8
0
100
AcDbCircle
 62
9
  6
CONTINUOUS
 10
11.5112156152
 20
9.9123918174
 40
0.2894977503
100
AcDbArc
 50
179.5475541996
 51
180.0000026445
  0
ARC
  5
237
100
AcDbEntity
  8
0
100
AcDbCircle
 62
9
  6
CONTINUOUS
 10
10.1082435037
 20
9.9123917943
 40
0.2121262477
100
AcDbArc
 50
359.5475541996
 51
0.0000026447
  0
ARC
  5
238
100
AcDbEntity
  8
0
100
AcDbCircle
 62
9
  6
CONTINUOUS
 10
11.3117234745
 20
9.9123918138
 40
0.2121262477
100
AcDbArc
 50
179.5475541996
 51
180.0000026445
  0
ARC
  5
239
100
AcDbEntity
  8
0
100
AcDbCircle
 62
7
  6
CONTINUOUS
 10
11.9724834891
 20
7.817391804
 40
0.05
100
AcDbArc
 50
270.0
 51
89.9999999995
  0
ARC
  5
23A
100
AcDbEntity
  8
0
100
AcDbCircle
 62
7
  6
CONTINUOUS
 10
9.4474834891
 20
7.817391804
 40
0.05
100
AcDbArc
 50
90.0000000005
 51
270.0
  0
ARC
  5
23B
100
AcDbEntity
  8
0
100
AcDbCircle
 62
7
  6
CONTINUOUS
 10
11.0974834891
 20
10.1721914571
 40
0.03
100
AcDbArc
 50
340.9341210462
 51
75.2369687317
  0
ARC
  5
23C
100
AcDbEntity
  8
0
100
AcDbCircle
 62
7
  6
CONTINUOUS
 10
10.3224834891
 20
10.1721914571
 40
0.03
100
AcDbArc
 50
104.7630312683
 51
199.0658789538
  0
SPLINE
  5
23D
100
AcDbEntity
  8
0
100
AcDbSpline
 62
7
  6
CONTINUOUS
 70
0
 71
3
 72
19
 73
15
 74
0
 42
0.0000001
 43
0.0000001
 44
0.0000000001
 40
0.0
 40
0.0
 40
0.0
 40
0.0
 40
0.1250544384
 40
0.1876914321
 40
0.2502250193
 40
0.3749096629
 40
0.4993212803
 40
0.623500107
 40
0.7477672421
 40
0.8102369324
 40
0.8730741138
 40
0.9046755479
 40
0.9364042892
 40
1.0
 40
1.0
 40
1.0
 40
1.0
 10
11.662133224
 20
9.6797892159
 30
0.0
 10
11.6752556278
 20
9.683369843
 30
0.0
 10
11.6946093999
 20
9.6901366165
 30
0.0
 10
11.7192333875
 20
9.7017691918
 30
0.0
 10
11.7429330887
 20
9.7151117932
 30
0.0
 10
11.7706105576
 20
9.7349021662
 30
0.0
 10
11.7999053946
 20
9.7632332379
 30
0.0
 10
11.8244778471
 20
9.7957046162
 30
0.0
 10
11.8402780978
 20
9.8258121395
 30
0.0
 10
11.8495724156
 20
9.8513515503
 30
0.0
 10
11.853882921
 20
9.8678960995
 30
0.0
 10
11.8563462732
 20
9.8814018039
 30
0.0
 10
11.8581291947
 20
9.895096058
 30
0.0
 10
11.8586780642
 20
9.9054745115
 30
0.0
 10
11.8586780642
 20
9.912391804
 30
0.0
  0
SPLINE
  5
23E
100
AcDbEntity
  8
0
100
AcDbSpline
 62
7
  6
CONTINUOUS
 70
0
 71
3
 72
20
 73
16
 74
0
 42
0.0000001
 43
0.0000001
 44
0.0000000001
 40
0.0
 40
0.0
 40
0.0
 40
0.0
 40
0.0636024342
 40
0.0953197897
 40
0.1269135175
 40
0.189745229
 40
0.2522084234
 40
0.3144478971
 40
0.3765817486
 40
0.5007503774
 40
0.6251612878
 40
0.7498332299
 40
0.8123242236
 40
0.8749170538
 40
1.0
 40
1.0
 40
1.0
 40
1.0
 10
11.8586780642
 20
9.912391804
 30
0.0
 10
11.8586780642
 20
9.9193106217
 30
0.0
 10
11.8581311189
 20
9.9296899074
 30
0.0
 10
11.8563463177
 20
9.9433841888
 30
0.0
 10
11.8538811253
 20
9.956888503
 30
0.0
 10
11.8495732709
 20
9.9734326249
 30
0.0
 10
11.8425851219
 20
9.9926283361
 30
0.0
 10
11.8339388392
 20
10.0110519502
 30
0.0
 10
11.8203877728
 20
10.0344787565
 30
0.0
 10
11.7999005621
 20
10.0615606959
 30
0.0
 10
11.7706043439
 20
10.0898846416
 30
0.0
 10
11.7429269792
 20
10.1096734176
 30
0.0
 10
11.7192352805
 20
10.1230139701
 30
0.0
 10
11.6946158944
 20
10.1346490967
 30
0.0
 10
11.6752601253
 20
10.1414125378
 30
0.0
 10
11.662133224
 20
10.1449943922
 30
0.0
  0
SPLINE
  5
23F
100
AcDbEntity
  8
0
100
AcDbSpline
 62
7
  6
CONTINUOUS
 70
0
 71
3
 72
9
 73
5
 74
0
 42
0.0000001
 43
0.0000001
 44
0.0000000001
 40
0.0
 40
0.0
 40
0.0
 40
0.0
 40
0.4993488301
 40
1.0
 40
1.0
 40
1.0
 40
1.0
 10
11.2925430861
 20
9.7363912952
 30
0.0
 10
11.308252516
 20
9.723194055
 30
0.0
 10
11.3427768612
 20
9.7002316775
 30
0.0
 10
11.3813893861
 20
9.6852042332
 30
0.0
 10
11.4012345253
 20
9.6797892159
 30
0.0
  0
SPLINE
  5
240
100
AcDbEntity
  8
0
100
AcDbSpline
 62
7
  6
CONTINUOUS
 70
0
 71
3
 72
9
 73
5
 74
0
 42
0.0000001
 43
0.0000001
 44
0.0000000001
 40
0.0
 40
0.0
 40
0.0
 40
0.0
 40
0.5006478536
 40
1.0
 40
1.0
 40
1.0
 40
1.0
 10
11.4012345253
 20
10.1449943922
 30
0.0
 10
11.3813895166
 20
10.1395794105
 30
0.0
 10
11.3427769615
 20
10.1245520468
 30
0.0
 10
11.3082526211
 20
10.1015896414
 30
0.0
 10
11.2925430861
 20
10.0883923129
 30
0.0
  0
SPLINE
  5
241
100
AcDbEntity
  8
0
100
AcDbSpline
 62
7
  6
CONTINUOUS
 70
0
 71
3
 72
22
 73
18
 74
0
 42
0.0000001
 43
0.0000001
 44
0.0000000001
 40
0.0
 40
0.0
 40
0.0
 40
0.0
 40
0.1628917238
 40
0.2430368796
 40
0.3219301489
 40
0.3992865509
 40
0.4747388099
 40
0.5477834357
 40
0.6178886052
 40
0.684510415
 40
0.7470841408
 40
0.8049855284
 40
0.8575499623
 40
0.904085382
 40
0.9438676485
 40
0.9761159782
 40
1.0
 40
1.0
 40
1.0
 40
1.0
 10
11.205663244
 20
10.062391804
 30
0.0
 10
11.2106719824
 20
10.062391804
 30
0.0
 10
11.218150325
 20
10.062716098
 30
0.0
 10
11.2279942444
 20
10.0637770929
 30
0.0
 10
11.2351839022
 20
10.0648638301
 30
0.0
 10
11.2421776274
 20
10.0662347412
 30
0.0
 10
11.248929723
 20
10.067868377
 30
0.0
 10
11.2553919479
 20
10.0697254227
 30
0.0
 10
11.261512122
 20
10.0717685507
 30
0.0
 10
11.2672371868
 20
10.0739604647
 30
0.0
 10
11.2725131417
 20
10.0762590546
 30
0.0
 10
11.2772961746
 20
10.0785936282
 30
0.0
 10
11.2815419361
 20
10.0808944755
 30
0.0
 10
11.2852041375
 20
10.0830939704
 30
0.0
 10
11.2882418222
 20
10.0851121839
 30
0.0
 10
11.2906274348
 20
10.0868475332
 30
0.0
 10
11.2919807703
 20
10.0879199205
 30
0.0
 10
11.2925430861
 20
10.0883923129
 30
0.0
  0
SPLINE
  5
242
100
AcDbEntity
  8
0
100
AcDbSpline
 62
7
  6
CONTINUOUS
 70
0
 71
3
 72
22
 73
18
 74
0
 42
0.0000001
 43
0.0000001
 44
0.0000000001
 40
0.0
 40
0.0
 40
0.0
 40
0.0
 40
0.0238721745
 40
0.0561219866
 40
0.0959112222
 40
0.1424517924
 40
0.1950174678
 40
0.2529176511
 40
0.3154893472
 40
0.3821099438
 40
0.4522149124
 40
0.5252597
 40
0.600711936
 40
0.6780680233
 40
0.756961468
 40
0.8371071364
 40
1.0
 40
1.0
 40
1.0
 40
1.0
 10
11.2925430861
 20
9.7363912952
 30
0.0
 10
11.2919810493
 20
9.7368634533
 30
0.0
 10
11.2906279491
 20
9.7379356237
 30
0.0
 10
11.2882424484
 20
9.739670947
 30
0.0
 10
11.2852044552
 20
9.741689454
 30
0.0
 10
11.2815419011
 20
9.7438891598
 30
0.0
 10
11.2772960361
 20
9.7461901491
 30
0.0
 10
11.2725130675
 20
9.748524718
 30
0.0
 10
11.2672371962
 20
9.7508231611
 30
0.0
 10
11.2615121785
 20
9.7530148967
 30
0.0
 10
11.2553920569
 20
9.7550580525
 30
0.0
 10
11.2489298566
 20
9.7569151761
 30
0.0
 10
11.2421777809
 20
9.7585488751
 30
0.0
 10
11.2351840521
 20
9.7599197436
 30
0.0
 10
11.2279943836
 20
9.7610064806
 30
0.0
 10
11.2181504098
 20
9.7620674899
 30
0.0
 10
11.2106720172
 20
9.762391804
 30
0.0
 10
11.205663244
 20
9.762391804
 30
0.0
  0
SPLINE
  5
243
100
AcDbEntity
  8
0
100
AcDbSpline
 62
7
  6
CONTINUOUS
 70
0
 71
3
 72
19
 73
15
 74
0
 42
0.0000001
 43
0.0000001
 44
0.0000000001
 40
0.0
 40
0.0
 40
0.0
 40
0.0
 40
0.1250544384
 40
0.1876914321
 40
0.2502250193
 40
0.3749096629
 40
0.4993212803
 40
0.623500107
 40
0.7477672421
 40
0.8102369324
 40
0.8730741138
 40
0.9046755479
 40
0.9364042892
 40
1.0
 40
1.0
 40
1.0
 40
1.0
 10
9.7578337543
 20
10.1449943922
 30
0.0
 10
9.7447113504
 20
10.1414137651
 30
0.0
 10
9.7253575784
 20
10.1346469916
 30
0.0
 10
9.7007335908
 20
10.1230144163
 30
0.0
 10
9.6770338896
 20
10.1096718149
 30
0.0
 10
9.6493564206
 20
10.0898814419
 30
0.0
 10
9.6200615836
 20
10.0615503702
 30
0.0
 10
9.5954891312
 20
10.0290789919
 30
0.0
 10
9.5796888805
 20
9.9989714685
 30
0.0
 10
9.5703945627
 20
9.9734320578
 30
0.0
 10
9.5660840573
 20
9.9568875086
 30
0.0
 10
9.5636207051
 20
9.9433818042
 30
0.0
 10
9.5618377836
 20
9.9296875501
 30
0.0
 10
9.5612889141
 20
9.9193090966
 30
0.0
 10
9.5612889141
 20
9.912391804
 30
0.0
  0
SPLINE
  5
244
100
AcDbEntity
  8
0
100
AcDbSpline
 62
7
  6
CONTINUOUS
 70
0
 71
3
 72
20
 73
16
 74
0
 42
0.0000001
 43
0.0000001
 44
0.0000000001
 40
0.0
 40
0.0
 40
0.0
 40
0.0
 40
0.0636024342
 40
0.0953197897
 40
0.1269135175
 40
0.189745229
 40
0.2522084234
 40
0.3144478971
 40
0.3765817486
 40
0.5007503774
 40
0.6251612878
 40
0.7498332299
 40
0.8123242236
 40
0.8749170538
 40
1.0
 40
1.0
 40
1.0
 40
1.0
 10
9.5612889141
 20
9.912391804
 30
0.0
 10
9.5612889141
 20
9.9054729863
 30
0.0
 10
9.5618358594
 20
9.8950937007
 30
0.0
 10
9.5636206606
 20
9.8813994193
 30
0.0
 10
9.5660858529
 20
9.8678951051
 30
0.0
 10
9.5703937074
 20
9.8513509832
 30
0.0
 10
9.5773818564
 20
9.832155272
 30
0.0
 10
9.5860281391
 20
9.8137316579
 30
0.0
 10
9.5995792055
 20
9.7903048516
 30
0.0
 10
9.6200664162
 20
9.7632229122
 30
0.0
 10
9.6493626344
 20
9.7348989665
 30
0.0
 10
9.6770399991
 20
9.7151101905
 30
0.0
 10
9.7007316977
 20
9.701769638
 30
0.0
 10
9.7253510838
 20
9.6901345114
 30
0.0
 10
9.7447068529
 20
9.6833710703
 30
0.0
 10
9.7578337543
 20
9.6797892159
 30
0.0
  0
SPLINE
  5
245
100
AcDbEntity
  8
0
100
AcDbSpline
 62
7
  6
CONTINUOUS
 70
0
 71
3
 72
9
 73
5
 74
0
 42
0.0000001
 43
0.0000001
 44
0.0000000001
 40
0.0
 40
0.0
 40
0.0
 40
0.0
 40
0.4993488301
 40
1.0
 40
1.0
 40
1.0
 40
1.0
 10
10.1274238922
 20
10.0883923129
 30
0.0
 10
10.1117144622
 20
10.1015895531
 30
0.0
 10
10.0771901171
 20
10.1245519306
 30
0.0
 10
10.0385775921
 20
10.1395793749
 30
0.0
 10
10.018732453
 20
10.1449943922
 30
0.0
  0
SPLINE
  5
246
100
AcDbEntity
  8
0
100
AcDbSpline
 62
7
  6
CONTINUOUS
 70
0
 71
3
 72
9
 73
5
 74
0
 42
0.0000001
 43
0.0000001
 44
0.0000000001
 40
0.0
 40
0.0
 40
0.0
 40
0.0
 40
0.5006478536
 40
1.0
 40
1.0
 40
1.0
 40
1.0
 10
10.018732453
 20
9.6797892159
 30
0.0
 10
10.0385774617
 20
9.6852041976
 30
0.0
 10
10.0771900168
 20
9.7002315613
 30
0.0
 10
10.1117143571
 20
9.7231939667
 30
0.0
 10
10.1274238922
 20
9.7363912952
 30
0.0
  0
SPLINE
  5
247
100
AcDbEntity
  8
0
100
AcDbSpline
 62
7
  6
CONTINUOUS
 70
0
 71
3
 72
22
 73
18
 74
0
 42
0.0000001
 43
0.0000001
 44
0.0000000001
 40
0.0
 40
0.0
 40
0.0
 40
0.0
 40
0.1628917238
 40
0.2430368796
 40
0.3219301489
 40
0.3992865509
 40
0.4747388099
 40
0.5477834357
 40
0.6178886052
 40
0.684510415
 40
0.7470841408
 40
0.8049855284
 40
0.8575499623
 40
0.904085382
 40
0.9438676485
 40
0.9761159782
 40
1.0
 40
1.0
 40
1.0
 40
1.0
 10
10.2143037343
 20
9.762391804
 30
0.0
 10
10.2092949959
 20
9.762391804
 30
0.0
 10
10.2018166533
 20
9.7620675101
 30
0.0
 10
10.1919727339
 20
9.7610065152
 30
0.0
 10
10.1847830761
 20
9.759919778
 30
0.0
 10
10.1777893509
 20
9.7585488669
 30
0.0
 10
10.1710372552
 20
9.7569152311
 30
0.0
 10
10.1645750304
 20
9.7550581854
 30
0.0
 10
10.1584548563
 20
9.7530150574
 30
0.0
 10
10.1527297915
 20
9.7508231434
 30
0.0
 10
10.1474538366
 20
9.7485245535
 30
0.0
 10
10.1426708037
 20
9.7461899799
 30
0.0
 10
10.1384250422
 20
9.7438891326
 30
0.0
 10
10.1347628408
 20
9.7416896377
 30
0.0
 10
10.131725156
 20
9.7396714242
 30
0.0
 10
10.1293395435
 20
9.7379360749
 30
0.0
 10
10.1279862079
 20
9.7368636876
 30
0.0
 10
10.1274238922
 20
9.7363912952
 30
0.0
  0
SPLINE
  5
248
100
AcDbEntity
  8
0
100
AcDbSpline
 62
7
  6
CONTINUOUS
 70
0
 71
3
 72
22
 73
18
 74
0
 42
0.0000001
 43
0.0000001
 44
0.0000000001
 40
0.0
 40
0.0
 40
0.0
 40
0.0
 40
0.0238721745
 40
0.0561219866
 40
0.0959112222
 40
0.1424517924
 40
0.1950174678
 40
0.2529176511
 40
0.3154893472
 40
0.3821099438
 40
0.4522149124
 40
0.5252597
 40
0.600711936
 40
0.6780680233
 40
0.756961468
 40
0.8371071364
 40
1.0
 40
1.0
 40
1.0
 40
1.0
 10
10.1274238922
 20
10.0883923129
 30
0.0
 10
10.127985929
 20
10.0879201548
 30
0.0
 10
10.1293390291
 20
10.0868479844
 30
0.0
 10
10.1317245299
 20
10.0851126611
 30
0.0
 10
10.134762523
 20
10.0830941541
 30
0.0
 10
10.1384250772
 20
10.0808944483
 30
0.0
 10
10.1426709421
 20
10.078593459
 30
0.0
 10
10.1474539107
 20
10.0762588901
 30
0.0
 10
10.152729782
 20
10.073960447
 30
0.0
 10
10.1584547998
 20
10.0717687114
 30
0.0
 10
10.1645749214
 20
10.0697255556
 30
0.0
 10
10.1710371216
 20
10.067868432
 30
0.0
 10
10.1777891973
 20
10.0662347329
 30
0.0
 10
10.1847829262
 20
10.0648638645
 30
0.0
 10
10.1919725946
 20
10.0637771275
 30
0.0
 10
10.2018165685
 20
10.0627161181
 30
0.0
 10
10.2092949611
 20
10.062391804
 30
0.0
 10
10.2143037343
 20
10.062391804
 30
0.0
  0
SPLINE
  5
249
100
AcDbEntity
  8
0
100
AcDbSpline
 62
9
  6
CONTINUOUS
 70
0
 71
3
 72
20
 73
16
 74
0
 42
0.0000001
 43
0.0000001
 44
0.0000000001
 40
0.0
 40
0.0
 40
0.0
 40
0.0
 40
0.0726569798
 40
0.1450508955
 40
0.2872232842
 40
0.4240578813
 40
0.5537790005
 40
0.6156719756
 40
0.6754916483
 40
0.7332906949
 40
0.7892169081
 40
0.8434950373
 40
0.8964469308
 40
0.9484647354
 40
1.0
 40
1.0
 40
1.0
 40
1.0
 10
10.3203631377
 20
9.9107167209
 30
0.0
 10
10.3203247393
 20
9.9058542661
 30
0.0
 10
10.3199113654
 20
9.8961457752
 30
0.0
 10
10.3177750374
 20
9.8770311058
 30
0.0
 10
10.3127185293
 20
9.8539719897
 30
0.0
 10
10.3029443997
 20
9.8283149426
 30
0.0
 10
10.2918447425
 20
9.8091990793
 30
0.0
 10
10.2814321813
 20
9.7959514221
 30
0.0
 10
10.273102935
 20
9.7872639561
 30
0.0
 10
10.2642053619
 20
9.779762912
 30
0.0
 10
10.2548277946
 20
9.7735132931
 30
0.0
 10
10.2450525289
 20
9.7685848092
 30
0.0
 10
10.2349741574
 20
9.765025875
 30
0.0
 10
10.2246926332
 20
9.762871742
 30
0.0
 10
10.2177527589
 20
9.7623930739
 30
0.0
 10
10.2143037343
 20
9.762393141
 30
0.0
  0
SPLINE
  5
24A
100
AcDbEntity
  8
0
100
AcDbSpline
 62
9
  6
CONTINUOUS
 70
0
 71
3
 72
14
 73
10
 74
0
 42
0.0000001
 43
0.0000001
 44
0.0000000001
 40
0.0
 40
0.0
 40
0.0
 40
0.0
 40
0.2692631845
 40
0.4011963108
 40
0.5299330755
 40
0.6546671214
 40
0.7747848099
 40
0.8899190384
 40
1.0
 40
1.0
 40
1.0
 40
1.0
 10
10.1982400872
 20
9.9101057466
 30
0.0
 10
10.1981032341
 20
9.8927757877
 30
0.0
 10
10.1955836654
 20
9.8668844293
 30
0.0
 10
10.1875523704
 20
9.8336980165
 30
0.0
 10
10.1793881215
 20
9.8102275526
 30
0.0
 10
10.1691760629
 20
9.7884096073
 30
0.0
 10
10.1570738038
 20
9.7685907527
 30
0.0
 10
10.143274514
 20
9.7510976432
 30
0.0
 10
10.1328488132
 20
9.7409486014
 30
0.0
 10
10.1274238839
 20
9.7363913151
 30
0.0
  0
SPLINE
  5
24B
100
AcDbEntity
  8
0
100
AcDbSpline
 62
9
  6
CONTINUOUS
 70
0
 71
3
 72
22
 73
18
 74
0
 42
0.0000001
 43
0.0000001
 44
0.0000000001
 40
0.0
 40
0.0
 40
0.0
 40
0.0
 40
0.0528611002
 40
0.105262983
 40
0.157834637
 40
0.2111909846
 40
0.2658838361
 40
0.3223641999
 40
0.380960061
 40
0.4418688795
 40
0.5051611641
 40
0.5707909554
 40
0.6386098591
 40
0.7083824702
 40
0.7798017725
 40
0.852504677
 40
1.0
 40
1.0
 40
1.0
 40
1.0
 10
9.757833761
 20
9.6797892652
 30
0.0
 10
9.7638146788
 20
9.6781572039
 30
0.0
 10
9.7759897655
 20
9.6757941588
 30
0.0
 10
9.7945608046
 20
9.6751215945
 30
0.0
 10
9.8130711754
 20
9.6773552514
 30
0.0
 10
9.8312771031
 20
9.6824629157
 30
0.0
 10
9.8489509637
 20
9.6903703703
 30
0.0
 10
9.8658768267
 20
9.700968805
 30
0.0
 10
9.8818538053
 20
9.7141191411
 30
0.0
 10
9.8966952001
 20
9.7296553327
 30
0.0
 10
9.9102286969
 20
9.7473861632
 30
0.0
 10
9.9222970606
 20
9.767096541
 30
0.0
 10
9.9327595867
 20
9.7885494444
 30
0.0
 10
9.9414935202
 20
9.8114865944
 30
0.0
 10
9.948396558
 20
9.8356365289
 30
0.0
 10
9.955078877
 20
9.8692048341
 30
0.0
 10
9.9570765211
 20
9.8950934213
 30
0.0
 10
9.9570765211
 20
9.912391804
 30
0.0
  0
SPLINE
  5
24C
100
AcDbEntity
  8
0
100
AcDbSpline
 62
9
  6
CONTINUOUS
 70
0
 71
3
 72
31
 73
27
 74
0
 42
0.0000001
 43
0.0000001
 44
0.0000000001
 40
0.0
 40
0.0
 40
0.0
 40
0.0
 40
0.0724563265
 40
0.1435379795
 40
0.2120137917
 40
0.2769258357
 40
0.3078945794
 40
0.3378198282
 40
0.3667277791
 40
0.3946885234
 40
0.4218176166
 40
0.4482750064
 40
0.4742596697
 40
0.5000000028
 40
0.5257403334
 40
0.5517249921
 40
0.5781823792
 40
0.6053114749
 40
0.633272227
 40
0.6621801856
 40
0.6921054348
 40
0.72307417
 40
0.7879862088
 40
0.8564620348
 40
0.9275436828
 40
1.0
 40
1.0
 40
1.0
 40
1.0
 10
9.5641344159
 20
9.912391804
 30
0.0
 10
9.5641344159
 20
9.9054172025
 30
0.0
 10
9.5650880742
 20
9.8915807681
 30
0.0
 10
9.5693424525
 20
9.8715511007
 30
0.0
 10
9.5762606647
 20
9.8530437102
 30
0.0
 10
9.5841743063
 20
9.8392420712
 30
0.0
 10
9.5916180473
 20
9.8296690123
 30
0.0
 10
9.5975825327
 20
9.8233908176
 30
0.0
 10
9.6039581858
 20
9.8179657344
 30
0.0
 10
9.6106857999
 20
9.8134472216
 30
0.0
 10
9.6177018107
 20
9.8098815756
 30
0.0
 10
9.624938746
 20
9.8073061857
 30
0.0
 10
9.6323255528
 20
9.805749131
 30
0.0
 10
9.6397882015
 20
9.805228049
 30
0.0
 10
9.6472508498
 20
9.8057491312
 30
0.0
 10
9.6546376557
 20
9.8073061856
 30
0.0
 10
9.6618745905
 20
9.8098815754
 30
0.0
 10
9.6688906021
 20
9.8134472215
 30
0.0
 10
9.6756182176
 20
9.8179657355
 30
0.0
 10
9.6819938716
 20
9.8233908199
 30
0.0
 10
9.6879583569
 20
9.8296690146
 30
0.0
 10
9.6954020965
 20
9.839242073
 30
0.0
 10
9.703315738
 20
9.853043712
 30
0.0
 10
9.7102339502
 20
9.8715511029
 30
0.0
 10
9.7144883279
 20
9.8915807704
 30
0.0
 10
9.715441986
 20
9.9054172034
 30
0.0
 10
9.715441986
 20
9.912391804
 30
0.0
  0
SPLINE
  5
24D
100
AcDbEntity
  8
0
100
AcDbSpline
 62
9
  6
CONTINUOUS
 70
0
 71
3
 72
31
 73
27
 74
0
 42
0.0000001
 43
0.0000001
 44
0.0000000001
 40
0.0
 40
0.0
 40
0.0
 40
0.0
 40
0.0724563265
 40
0.1435379795
 40
0.2120137917
 40
0.2769258357
 40
0.3078945794
 40
0.3378198282
 40
0.3667277791
 40
0.3946885234
 40
0.4218176166
 40
0.4482750064
 40
0.4742596697
 40
0.5000000028
 40
0.5257403334
 40
0.5517249921
 40
0.5781823792
 40
0.6053114749
 40
0.633272227
 40
0.6621801856
 40
0.6921054348
 40
0.72307417
 40
0.7879862088
 40
0.8564620348
 40
0.9275436828
 40
1.0
 40
1.0
 40
1.0
 40
1.0
 10
9.715441986
 20
9.912391804
 30
0.0
 10
9.715441986
 20
9.9193664055
 30
0.0
 10
9.7144883277
 20
9.93320284
 30
0.0
 10
9.7102339494
 20
9.9532325074
 30
0.0
 10
9.7033157373
 20
9.9717398979
 30
0.0
 10
9.6954020956
 20
9.9855415369
 30
0.0
 10
9.6879583546
 20
9.9951145958
 30
0.0
 10
9.6819938692
 20
10.0013927905
 30
0.0
 10
9.6756182162
 20
10.0068178737
 30
0.0
 10
9.668890602
 20
10.0113363865
 30
0.0
 10
9.6618745912
 20
10.0149020324
 30
0.0
 10
9.654637656
 20
10.0174774224
 30
0.0
 10
9.6472508491
 20
10.0190344771
 30
0.0
 10
9.6397882004
 20
10.0195555591
 30
0.0
 10
9.6323255521
 20
10.0190344769
 30
0.0
 10
9.6249387462
 20
10.0174774225
 30
0.0
 10
9.6177018114
 20
10.0149020327
 30
0.0
 10
9.6106857999
 20
10.0113363866
 30
0.0
 10
9.6039581844
 20
10.0068178726
 30
0.0
 10
9.5975825303
 20
10.0013927881
 30
0.0
 10
9.591618045
 20
9.9951145935
 30
0.0
 10
9.5841743054
 20
9.9855415351
 30
0.0
 10
9.5762606639
 20
9.9717398961
 30
0.0
 10
9.5693424517
 20
9.9532325052
 30
0.0
 10
9.565088074
 20
9.9332028377
 30
0.0
 10
9.5641344159
 20
9.9193664046
 30
0.0
 10
9.5641344159
 20
9.912391804
 30
0.0
  0
SPLINE
  5
24E
100
AcDbEntity
  8
0
100
AcDbSpline
 62
9
  6
CONTINUOUS
 70
0
 71
3
 72
22
 73
18
 74
0
 42
0.0000001
 43
0.0000001
 44
0.0000000001
 40
0.0
 40
0.0
 40
0.0
 40
0.0
 40
0.0528611002
 40
0.105262983
 40
0.157834637
 40
0.2111909846
 40
0.2658838361
 40
0.3223641999
 40
0.380960061
 40
0.4418688795
 40
0.5051611641
 40
0.5707909554
 40
0.6386098591
 40
0.7083824702
 40
0.7798017725
 40
0.852504677
 40
1.0
 40
1.0
 40
1.0
 40
1.0
 10
9.757833761
 20
10.1449943429
 30
0.0
 10
9.7638146788
 20
10.1466264042
 30
0.0
 10
9.7759897655
 20
10.1489894493
 30
0.0
 10
9.7945608046
 20
10.1496620136
 30
0.0
 10
9.8130711754
 20
10.1474283567
 30
0.0
 10
9.8312771031
 20
10.1423206924
 30
0.0
 10
9.8489509637
 20
10.1344132378
 30
0.0
 10
9.8658768267
 20
10.1238148031
 30
0.0
 10
9.8818538053
 20
10.110664467
 30
0.0
 10
9.8966952001
 20
10.0951282754
 30
0.0
 10
9.9102286969
 20
10.0773974449
 30
0.0
 10
9.9222970606
 20
10.0576870671
 30
0.0
 10
9.9327595867
 20
10.0362341637
 30
0.0
 10
9.9414935202
 20
10.0132970137
 30
0.0
 10
9.948396558
 20
9.9891470792
 30
0.0
 10
9.955078877
 20
9.955578774
 30
0.0
 10
9.9570765211
 20
9.9296901868
 30
0.0
 10
9.9570765211
 20
9.912391804
 30
0.0
  0
SPLINE
  5
24F
100
AcDbEntity
  8
0
100
AcDbSpline
 62
9
  6
CONTINUOUS
 70
0
 71
3
 72
18
 73
14
 74
0
 42
0.0000001
 43
0.0000001
 44
0.0000000001
 40
0.0
 40
0.0
 40
0.0
 40
0.0
 40
0.0515480299
 40
0.104192701
 40
0.1581903898
 40
0.2137401789
 40
0.2709809419
 40
0.3299917153
 40
0.4532572733
 40
0.5832249052
 40
0.7187904075
 40
0.858354145
 40
1.0
 40
1.0
 40
1.0
 40
1.0
 10
10.0187324463
 20
10.1449943428
 30
0.0
 10
10.0235006179
 20
10.1436932133
 30
0.0
 10
10.0329903927
 20
10.1404870802
 30
0.0
 10
10.0467426594
 20
10.1340196796
 30
0.0
 10
10.0600418668
 20
10.1259025967
 30
0.0
 10
10.0727873315
 20
10.1162003355
 30
0.0
 10
10.084887525
 20
10.1049865251
 30
0.0
 10
10.1002611306
 20
10.087890385
 30
0.0
 10
10.1173072015
 20
10.0631018857
 30
0.0
 10
10.1335850547
 20
10.0294271696
 30
0.0
 10
10.1455519653
 20
9.9923522899
 30
0.0
 10
10.1528688491
 20
9.9529655389
 30
0.0
 10
10.1545064259
 20
9.9259730402
 30
0.0
 10
10.1545064259
 20
9.912391804
 30
0.0
  0
SPLINE
  5
250
100
AcDbEntity
  8
0
100
AcDbSpline
 62
9
  6
CONTINUOUS
 70
0
 71
3
 72
18
 73
14
 74
0
 42
0.0000001
 43
0.0000001
 44
0.0000000001
 40
0.0
 40
0.0
 40
0.0
 40
0.0
 40
0.0515480299
 40
0.104192701
 40
0.1581903898
 40
0.2137401789
 40
0.2709809419
 40
0.3299917153
 40
0.4532572733
 40
0.5832249052
 40
0.7187904075
 40
0.858354145
 40
1.0
 40
1.0
 40
1.0
 40
1.0
 10
10.0187324463
 20
9.6797892653
 30
0.0
 10
10.0235006179
 20
9.6810903948
 30
0.0
 10
10.0329903927
 20
9.6842965279
 30
0.0
 10
10.0467426594
 20
9.6907639285
 30
0.0
 10
10.0600418668
 20
9.6988810114
 30
0.0
 10
10.0727873315
 20
9.7085832725
 30
0.0
 10
10.084887525
 20
9.719797083
 30
0.0
 10
10.1002611306
 20
9.7368932231
 30
0.0
 10
10.1173072015
 20
9.7616817224
 30
0.0
 10
10.1335850547
 20
9.7953564385
 30
0.0
 10
10.1455519653
 20
9.8324313182
 30
0.0
 10
10.1528688491
 20
9.8718180692
 30
0.0
 10
10.1545064259
 20
9.8988105679
 30
0.0
 10
10.1545064259
 20
9.912391804
 30
0.0
  0
SPLINE
  5
251
100
AcDbEntity
  8
0
100
AcDbSpline
 62
9
  6
CONTINUOUS
 70
0
 71
3
 72
14
 73
10
 74
0
 42
0.0000001
 43
0.0000001
 44
0.0000000001
 40
0.0
 40
0.0
 40
0.0
 40
0.0
 40
0.110007842
 40
0.2251201196
 40
0.3452603028
 40
0.4700461194
 40
0.5988426349
 40
0.7308181447
 40
1.0
 40
1.0
 40
1.0
 40
1.0
 10
10.1274238748
 20
10.0883922714
 30
0.0
 10
10.1329092607
 20
10.0837842008
 30
0.0
 10
10.1434461763
 20
10.0735101952
 30
0.0
 10
10.1573689281
 20
10.0557839535
 30
0.0
 10
10.1695526537
 20
10.0356884063
 30
0.0
 10
10.1797988033
 20
10.0135619021
 30
0.0
 10
10.187945876
 20
9.9897634818
 30
0.0
 10
10.1958802874
 20
9.9561371713
 30
0.0
 10
10.1982491133
 20
9.9299217844
 30
0.0
 10
10.1982491133
 20
9.912391804
 30
0.0
  0
SPLINE
  5
252
100
AcDbEntity
  8
0
100
AcDbSpline
 62
7
  6
CONTINUOUS
 70
0
 71
3
 72
22
 73
18
 74
0
 42
0.0000001
 43
0.0000001
 44
0.0000000001
 40
0.0
 40
0.0
 40
0.0
 40
0.0
 40
0.0696857055
 40
0.1393319495
 40
0.2086416917
 40
0.2774251066
 40
0.3455401129
 40
0.4128193219
 40
0.5439789855
 40
0.6075706567
 40
0.6695356233
 40
0.7296889593
 40
0.7878686025
 40
0.8439571519
 40
0.8979353972
 40
0.9498787216
 40
1.0
 40
1.0
 40
1.0
 40
1.0
 10
10.941185911
 20
9.912391804
 30
0.0
 10
10.941185911
 20
9.9173207188
 30
0.0
 10
10.9416443146
 20
9.9271814115
 30
0.0
 10
10.9436627807
 20
9.9418194427
 30
0.0
 10
10.9469883875
 20
9.9561528234
 30
0.0
 10
10.9515533696
 20
9.9700250339
 30
0.0
 10
10.9572646896
 20
9.9833110161
 30
0.0
 10
10.966204388
 20
9.9999298374
 30
0.0
 10
10.9770610684
 20
10.0150879688
 30
0.0
 10
10.9895003867
 20
10.0283405271
 30
0.0
 10
10.9993211885
 20
10.0370921714
 30
0.0
 10
11.0096020119
 20
10.044669266
 30
0.0
 10
11.0202132897
 20
10.0510028172
 30
0.0
 10
11.0310303505
 20
10.0560177986
 30
0.0
 10
11.0419230734
 20
10.0596587123
 30
0.0
 10
11.052762667
 20
10.0618784783
 30
0.0
 10
11.0599900301
 20
10.0623896878
 30
0.0
 10
11.0635351403
 20
10.0623897328
 30
0.0
  0
SPLINE
  5
253
100
AcDbEntity
  8
0
100
AcDbSpline
 62
9
  6
CONTINUOUS
 70
0
 71
3
 72
20
 73
16
 74
0
 42
0.0000001
 43
0.0000001
 44
0.0000000001
 40
0.0
 40
0.0
 40
0.0
 40
0.0
 40
0.051476215
 40
0.1034408147
 40
0.1563516729
 40
0.2106039506
 40
0.2665222821
 40
0.3243314509
 40
0.3841768955
 40
0.4461090954
 40
0.5759273443
 40
0.712847911
 40
0.8550402496
 40
0.9274057341
 40
1.0
 40
1.0
 40
1.0
 40
1.0
 10
10.2143037343
 20
10.0623904671
 30
0.0
 10
10.2177775058
 20
10.0623903996
 30
0.0
 10
10.2247676928
 20
10.0619046169
 30
0.0
 10
10.2351220874
 20
10.0597199669
 30
0.0
 10
10.2452683972
 20
10.0561093329
 30
0.0
 10
10.2551055141
 20
10.0511116367
 30
0.0
 10
10.2645359914
 20
10.0447746222
 30
0.0
 10
10.2734764309
 20
10.0371709756
 30
0.0
 10
10.281837071
 20
10.0283676204
 30
0.0
 10
10.2922743139
 20
10.0149469666
 30
0.0
 10
10.3033666009
 20
9.9955959407
 30
0.0
 10
10.3130689236
 20
9.9696518677
 30
0.0
 10
10.3180137457
 20
9.9463612607
 30
0.0
 10
10.3200279784
 20
9.927076923
 30
0.0
 10
10.3203697515
 20
9.9172906859
 30
0.0
 10
10.3203697515
 20
9.912391804
 30
0.0
  0
SPLINE
  5
254
100
AcDbEntity
  8
0
100
AcDbSpline
 62
7
  6
CONTINUOUS
 70
0
 71
3
 72
18
 73
14
 74
0
 42
0.0000001
 43
0.0000001
 44
0.0000000001
 40
0.0
 40
0.0
 40
0.0
 40
0.0
 40
0.0501117609
 40
0.1021068713
 40
0.1561264117
 40
0.2122394685
 40
0.3304762164
 40
0.4559788952
 40
0.5872043078
 40
0.7225465195
 40
0.8605729939
 40
0.9302601256
 40
1.0
 40
1.0
 40
1.0
 40
1.0
 10
10.3564300985
 20
10.062391804
 30
0.0
 10
10.359972671
 20
10.062391804
 30
0.0
 10
10.3671986991
 20
10.0618744633
 30
0.0
 10
10.3780392822
 20
10.0596615887
 30
0.0
 10
10.388935148
 20
10.0560197758
 30
0.0
 10
10.4036059745
 20
10.0492156183
 30
0.0
 10
10.4213229639
 20
10.0373070172
 30
0.0
 10
10.4403468593
 20
10.018657828
 30
0.0
 10
10.4565717229
 20
9.9960140863
 30
0.0
 10
10.4690620199
 20
9.9701275755
 30
0.0
 10
10.4756419513
 20
9.9466362163
 30
0.0
 10
10.4783229141
 20
9.927184926
 30
0.0
 10
10.4787810672
 20
9.9173219552
 30
0.0
 10
10.4787810672
 20
9.912391804
 30
0.0
  0
SPLINE
  5
255
100
AcDbEntity
  8
0
100
AcDbSpline
 62
9
  6
CONTINUOUS
 70
0
 71
3
 72
20
 73
16
 74
0
 42
0.0000001
 43
0.0000001
 44
0.0000000001
 40
0.0
 40
0.0
 40
0.0
 40
0.0
 40
0.0726569798
 40
0.1450508955
 40
0.2872232842
 40
0.4240578813
 40
0.5537790005
 40
0.6156719756
 40
0.6754916483
 40
0.7332906949
 40
0.7892169081
 40
0.8434950373
 40
0.8964469308
 40
0.9484647354
 40
1.0
 40
1.0
 40
1.0
 40
1.0
 10
11.0996038406
 20
9.9140668872
 30
0.0
 10
11.099642239
 20
9.918929342
 30
0.0
 10
11.1000556129
 20
9.9286378329
 30
0.0
 10
11.1021919409
 20
9.9477525023
 30
0.0
 10
11.1072484489
 20
9.9708116184
 30
0.0
 10
11.1170225785
 20
9.9964686655
 30
0.0
 10
11.1281222357
 20
10.0155845288
 30
0.0
 10
11.138534797
 20
10.028832186
 30
0.0
 10
11.1468640433
 20
10.037519652
 30
0.0
 10
11.1557616164
 20
10.045020696
 30
0.0
 10
11.1651391836
 20
10.051270315
 30
0.0
 10
11.1749144494
 20
10.0561987989
 30
0.0
 10
11.1849928209
 20
10.0597577331
 30
0.0
 10
11.195274345
 20
10.0619118661
 30
0.0
 10
11.2022142194
 20
10.0623905341
 30
0.0
 10
11.205663244
 20
10.0623904671
 30
0.0
  0
SPLINE
  5
256
100
AcDbEntity
  8
0
100
AcDbSpline
 62
9
  6
CONTINUOUS
 70
0
 71
3
 72
14
 73
10
 74
0
 42
0.0000001
 43
0.0000001
 44
0.0000000001
 40
0.0
 40
0.0
 40
0.0
 40
0.0
 40
0.2692631845
 40
0.4011963108
 40
0.5299330755
 40
0.6546671214
 40
0.7747848099
 40
0.8899190384
 40
1.0
 40
1.0
 40
1.0
 40
1.0
 10
11.2217268911
 20
9.9146778615
 30
0.0
 10
11.2218637442
 20
9.9320078204
 30
0.0
 10
11.2243833129
 20
9.9578991788
 30
0.0
 10
11.2324146079
 20
9.9910855916
 30
0.0
 10
11.2405788568
 20
10.0145560554
 30
0.0
 10
11.2507909154
 20
10.0363740008
 30
0.0
 10
11.2628931745
 20
10.0561928553
 30
0.0
 10
11.2766924642
 20
10.0736859649
 30
0.0
 10
11.2871181651
 20
10.0838350066
 30
0.0
 10
11.2925430944
 20
10.088392293
 30
0.0
  0
SPLINE
  5
257
100
AcDbEntity
  8
0
100
AcDbSpline
 62
9
  6
CONTINUOUS
 70
0
 71
3
 72
18
 73
14
 74
0
 42
0.0000001
 43
0.0000001
 44
0.0000000001
 40
0.0
 40
0.0
 40
0.0
 40
0.0
 40
0.1416458501
 40
0.2812095564
 40
0.4167750498
 40
0.5467427122
 40
0.6700082775
 40
0.7290190479
 40
0.7862598097
 40
0.8418095991
 40
0.8958072895
 40
0.9484519649
 40
1.0
 40
1.0
 40
1.0
 40
1.0
 10
11.2654605524
 20
9.912391804
 30
0.0
 10
11.2654605524
 20
9.8988105684
 30
0.0
 10
11.2670981288
 20
9.8718180731
 30
0.0
 10
11.2744150114
 20
9.8324313264
 30
0.0
 10
11.2863819196
 20
9.7953564469
 30
0.0
 10
11.3026597735
 20
9.7616817279
 30
0.0
 10
11.3197058458
 20
9.7368932255
 30
0.0
 10
11.3350794512
 20
9.7197970848
 30
0.0
 10
11.3471796443
 20
9.7085832745
 30
0.0
 10
11.359925109
 20
9.6988810132
 30
0.0
 10
11.3732243168
 20
9.6907639299
 30
0.0
 10
11.3869765842
 20
9.6842965282
 30
0.0
 10
11.3964663598
 20
9.6810903948
 30
0.0
 10
11.401234532
 20
9.6797892652
 30
0.0
  0
SPLINE
  5
258
100
AcDbEntity
  8
0
100
AcDbSpline
 62
9
  6
CONTINUOUS
 70
0
 71
3
 72
22
 73
18
 74
0
 42
0.0000001
 43
0.0000001
 44
0.0000000001
 40
0.0
 40
0.0
 40
0.0
 40
0.0
 40
0.1474953108
 40
0.220198198
 40
0.291617488
 40
0.3613901037
 40
0.4292090245
 40
0.4948388259
 40
0.5581311088
 40
0.619039924
 40
0.6776357848
 40
0.7341161499
 40
0.7888090055
 40
0.8421653576
 40
0.8947370135
 40
0.9471388984
 40
1.0
 40
1.0
 40
1.0
 40
1.0
 10
11.4628904572
 20
9.912391804
 30
0.0
 10
11.4628904572
 20
9.8950934228
 30
0.0
 10
11.4648881009
 20
9.8692048391
 30
0.0
 10
11.471570418
 20
9.8356365385
 30
0.0
 10
11.4784734542
 20
9.8114866066
 30
0.0
 10
11.4872073869
 20
9.7885494551
 30
0.0
 10
11.4976699138
 20
9.767096548
 30
0.0
 10
11.5097382786
 20
9.7473861673
 30
0.0
 10
11.5232717754
 20
9.7296553361
 30
0.0
 10
11.5381131694
 20
9.7141191447
 30
0.0
 10
11.5540901474
 20
9.7009688082
 30
0.0
 10
11.5710160105
 20
9.6903703726
 30
0.0
 10
11.5886898719
 20
9.682462917
 30
0.0
 10
11.6068958007
 20
9.677355252
 30
0.0
 10
11.6254061724
 20
9.6751215947
 30
0.0
 10
11.6439772122
 20
9.6757941588
 30
0.0
 10
11.6561522993
 20
9.6781572041
 30
0.0
 10
11.6621332172
 20
9.6797892653
 30
0.0
  0
SPLINE
  5
259
100
AcDbEntity
  8
0
100
AcDbSpline
 62
9
  6
CONTINUOUS
 70
0
 71
3
 72
18
 73
14
 74
0
 42
0.0000001
 43
0.0000001
 44
0.0000000001
 40
0.0
 40
0.0
 40
0.0
 40
0.0
 40
0.1416458501
 40
0.2812095564
 40
0.4167750498
 40
0.5467427122
 40
0.6700082775
 40
0.7290190479
 40
0.7862598097
 40
0.8418095991
 40
0.8958072895
 40
0.9484519649
 40
1.0
 40
1.0
 40
1.0
 40
1.0
 10
11.2654605524
 20
9.912391804
 30
0.0
 10
11.2654605524
 20
9.9259730397
 30
0.0
 10
11.2670981288
 20
9.952965535
 30
0.0
 10
11.2744150114
 20
9.9923522817
 30
0.0
 10
11.2863819196
 20
10.0294271612
 30
0.0
 10
11.3026597735
 20
10.0631018802
 30
0.0
 10
11.3197058458
 20
10.0878903826
 30
0.0
 10
11.3350794512
 20
10.1049865233
 30
0.0
 10
11.3471796443
 20
10.1162003335
 30
0.0
 10
11.359925109
 20
10.1259025949
 30
0.0
 10
11.3732243168
 20
10.1340196782
 30
0.0
 10
11.3869765842
 20
10.1404870799
 30
0.0
 10
11.3964663598
 20
10.1436932133
 30
0.0
 10
11.401234532
 20
10.1449943429
 30
0.0
  0
SPLINE
  5
25A
100
AcDbEntity
  8
0
100
AcDbSpline
 62
9
  6
CONTINUOUS
 70
0
 71
3
 72
31
 73
27
 74
0
 42
0.0000001
 43
0.0000001
 44
0.0000000001
 40
0.0
 40
0.0
 40
0.0
 40
0.0
 40
0.0724563265
 40
0.1435379795
 40
0.2120137917
 40
0.2769258357
 40
0.3078945794
 40
0.3378198282
 40
0.3667277791
 40
0.3946885234
 40
0.4218176166
 40
0.4482750064
 40
0.4742596697
 40
0.5000000028
 40
0.5257403334
 40
0.5517249921
 40
0.5781823792
 40
0.6053114749
 40
0.633272227
 40
0.6621801856
 40
0.6921054348
 40
0.72307417
 40
0.7879862088
 40
0.8564620348
 40
0.9275436828
 40
1.0
 40
1.0
 40
1.0
 40
1.0
 10
11.8558325623
 20
9.912391804
 30
0.0
 10
11.8558325623
 20
9.9193664055
 30
0.0
 10
11.8548789041
 20
9.93320284
 30
0.0
 10
11.8506245258
 20
9.9532325074
 30
0.0
 10
11.8437063136
 20
9.9717398979
 30
0.0
 10
11.8357926719
 20
9.9855415369
 30
0.0
 10
11.828348931
 20
9.9951145958
 30
0.0
 10
11.8223844456
 20
10.0013927905
 30
0.0
 10
11.8160087925
 20
10.0068178737
 30
0.0
 10
11.8092811784
 20
10.0113363865
 30
0.0
 10
11.8022651676
 20
10.0149020324
 30
0.0
 10
11.7950282323
 20
10.0174774224
 30
0.0
 10
11.7876414255
 20
10.0190344771
 30
0.0
 10
11.7801787767
 20
10.0195555591
 30
0.0
 10
11.7727161284
 20
10.0190344769
 30
0.0
 10
11.7653293225
 20
10.0174774225
 30
0.0
 10
11.7580923878
 20
10.0149020327
 30
0.0
 10
11.7510763762
 20
10.0113363866
 30
0.0
 10
11.7443487607
 20
10.0068178726
 30
0.0
 10
11.7379731067
 20
10.0013927881
 30
0.0
 10
11.7320086214
 20
9.9951145935
 30
0.0
 10
11.7245648817
 20
9.9855415351
 30
0.0
 10
11.7166512402
 20
9.9717398961
 30
0.0
 10
11.7097330281
 20
9.9532325052
 30
0.0
 10
11.7054786503
 20
9.9332028377
 30
0.0
 10
11.7045249923
 20
9.9193664046
 30
0.0
 10
11.7045249923
 20
9.912391804
 30
0.0
  0
SPLINE
  5
25B
100
AcDbEntity
  8
0
100
AcDbSpline
 62
9
  6
CONTINUOUS
 70
0
 71
3
 72
22
 73
18
 74
0
 42
0.0000001
 43
0.0000001
 44
0.0000000001
 40
0.0
 40
0.0
 40
0.0
 40
0.0
 40
0.1474953108
 40
0.220198198
 40
0.291617488
 40
0.3613901037
 40
0.4292090245
 40
0.4948388259
 40
0.5581311088
 40
0.619039924
 40
0.6776357848
 40
0.7341161499
 40
0.7888090055
 40
0.8421653576
 40
0.8947370135
 40
0.9471388984
 40
1.0
 40
1.0
 40
1.0
 40
1.0
 10
11.4628904572
 20
9.912391804
 30
0.0
 10
11.4628904572
 20
9.9296901853
 30
0.0
 10
11.4648881009
 20
9.955578769
 30
0.0
 10
11.471570418
 20
9.9891470696
 30
0.0
 10
11.4784734542
 20
10.0132970015
 30
0.0
 10
11.4872073869
 20
10.036234153
 30
0.0
 10
11.4976699138
 20
10.0576870601
 30
0.0
 10
11.5097382786
 20
10.0773974408
 30
0.0
 10
11.5232717754
 20
10.0951282719
 30
0.0
 10
11.5381131694
 20
10.1106644634
 30
0.0
 10
11.5540901474
 20
10.1238147999
 30
0.0
 10
11.5710160105
 20
10.1344132355
 30
0.0
 10
11.5886898719
 20
10.1423206911
 30
0.0
 10
11.6068958007
 20
10.1474283561
 30
0.0
 10
11.6254061724
 20
10.1496620134
 30
0.0
 10
11.6439772122
 20
10.1489894493
 30
0.0
 10
11.6561522993
 20
10.146626404
 30
0.0
 10
11.6621332172
 20
10.1449943428
 30
0.0
  0
SPLINE
  5
25C
100
AcDbEntity
  8
0
100
AcDbSpline
 62
9
  6
CONTINUOUS
 70
0
 71
3
 72
31
 73
27
 74
0
 42
0.0000001
 43
0.0000001
 44
0.0000000001
 40
0.0
 40
0.0
 40
0.0
 40
0.0
 40
0.0724563265
 40
0.1435379795
 40
0.2120137917
 40
0.2769258357
 40
0.3078945794
 40
0.3378198282
 40
0.3667277791
 40
0.3946885234
 40
0.4218176166
 40
0.4482750064
 40
0.4742596697
 40
0.5000000028
 40
0.5257403334
 40
0.5517249921
 40
0.5781823792
 40
0.6053114749
 40
0.633272227
 40
0.6621801856
 40
0.6921054348
 40
0.72307417
 40
0.7879862088
 40
0.8564620348
 40
0.9275436828
 40
1.0
 40
1.0
 40
1.0
 40
1.0
 10
11.7045249923
 20
9.912391804
 30
0.0
 10
11.7045249923
 20
9.9054172025
 30
0.0
 10
11.7054786506
 20
9.8915807681
 30
0.0
 10
11.7097330288
 20
9.8715511007
 30
0.0
 10
11.716651241
 20
9.8530437102
 30
0.0
 10
11.7245648827
 20
9.8392420712
 30
0.0
 10
11.7320086236
 20
9.8296690123
 30
0.0
 10
11.737973109
 20
9.8233908176
 30
0.0
 10
11.7443487621
 20
9.8179657344
 30
0.0
 10
11.7510763762
 20
9.8134472216
 30
0.0
 10
11.758092387
 20
9.8098815756
 30
0.0
 10
11.7653293223
 20
9.8073061857
 30
0.0
 10
11.7727161291
 20
9.805749131
 30
0.0
 10
11.7801787779
 20
9.805228049
 30
0.0
 10
11.7876414262
 20
9.8057491312
 30
0.0
 10
11.7950282321
 20
9.8073061856
 30
0.0
 10
11.8022651669
 20
9.8098815754
 30
0.0
 10
11.8092811784
 20
9.8134472215
 30
0.0
 10
11.8160087939
 20
9.8179657355
 30
0.0
 10
11.8223844479
 20
9.8233908199
 30
0.0
 10
11.8283489332
 20
9.8296690146
 30
0.0
 10
11.8357926729
 20
9.839242073
 30
0.0
 10
11.8437063144
 20
9.853043712
 30
0.0
 10
11.8506245266
 20
9.8715511029
 30
0.0
 10
11.8548789043
 20
9.8915807704
 30
0.0
 10
11.8558325623
 20
9.9054172034
 30
0.0
 10
11.8558325623
 20
9.912391804
 30
0.0
  0
SPLINE
  5
25D
100
AcDbEntity
  8
0
100
AcDbSpline
 62
9
  6
CONTINUOUS
 70
0
 71
3
 72
14
 73
10
 74
0
 42
0.0000001
 43
0.0000001
 44
0.0000000001
 40
0.0
 40
0.0
 40
0.0
 40
0.0
 40
0.110007842
 40
0.2251201196
 40
0.3452603028
 40
0.4700461194
 40
0.5988426349
 40
0.7308181447
 40
1.0
 40
1.0
 40
1.0
 40
1.0
 10
11.2925431035
 20
9.7363913367
 30
0.0
 10
11.2870577176
 20
9.7409994073
 30
0.0
 10
11.2765208019
 20
9.7512734129
 30
0.0
 10
11.2625980502
 20
9.7689996546
 30
0.0
 10
11.2504143246
 20
9.7890952018
 30
0.0
 10
11.2401681749
 20
9.811221706
 30
0.0
 10
11.2320211023
 20
9.8350201263
 30
0.0
 10
11.2240866909
 20
9.8686464367
 30
0.0
 10
11.2217178649
 20
9.8948618237
 30
0.0
 10
11.2217178649
 20
9.912391804
 30
0.0
  0
SPLINE
  5
25E
100
AcDbEntity
  8
0
100
AcDbSpline
 62
9
  6
CONTINUOUS
 70
0
 71
3
 72
20
 73
16
 74
0
 42
0.0000001
 43
0.0000001
 44
0.0000000001
 40
0.0
 40
0.0
 40
0.0
 40
0.0
 40
0.051476215
 40
0.1034408147
 40
0.1563516729
 40
0.2106039506
 40
0.2665222821
 40
0.3243314509
 40
0.3841768955
 40
0.4461090954
 40
0.5759273443
 40
0.712847911
 40
0.8550402496
 40
0.9274057341
 40
1.0
 40
1.0
 40
1.0
 40
1.0
 10
11.205663244
 20
9.762393141
 30
0.0
 10
11.2021894725
 20
9.7623932085
 30
0.0
 10
11.1951992854
 20
9.7628789912
 30
0.0
 10
11.1848448908
 20
9.7650636412
 30
0.0
 10
11.1746985811
 20
9.7686742751
 30
0.0
 10
11.1648614642
 20
9.7736719714
 30
0.0
 10
11.1554309869
 20
9.7800089859
 30
0.0
 10
11.1464905474
 20
9.7876126324
 30
0.0
 10
11.1381299073
 20
9.7964159877
 30
0.0
 10
11.1276926643
 20
9.8098366415
 30
0.0
 10
11.1166003773
 20
9.8291876674
 30
0.0
 10
11.1068980546
 20
9.8551317404
 30
0.0
 10
11.1019532325
 20
9.8784223474
 30
0.0
 10
11.0999389999
 20
9.8977066851
 30
0.0
 10
11.0995972268
 20
9.9074929222
 30
0.0
 10
11.0995972268
 20
9.912391804
 30
0.0
  0
SPLINE
  5
25F
100
AcDbEntity
  8
0
100
AcDbSpline
 62
7
  6
CONTINUOUS
 70
0
 71
3
 72
22
 73
18
 74
0
 42
0.0000001
 43
0.0000001
 44
0.0000000001
 40
0.0
 40
0.0
 40
0.0
 40
0.0
 40
0.0501184938
 40
0.1020570551
 40
0.1560270009
 40
0.2121076189
 40
0.27027879
 40
0.330424618
 40
0.3923863264
 40
0.4559788252
 40
0.5871476604
 40
0.6544321414
 40
0.722555193
 40
0.7913472467
 40
0.8606649192
 40
0.930314536
 40
1.0
 40
1.0
 40
1.0
 40
1.0
 10
11.0635351428
 20
9.7623938754
 30
0.0
 10
11.059990229
 20
9.7623938304
 30
0.0
 10
11.0527633754
 20
9.7629049212
 30
0.0
 10
11.0419249342
 20
9.7651245808
 30
0.0
 10
11.031033351
 20
9.7687642423
 30
0.0
 10
11.0202180166
 20
9.7737788015
 30
0.0
 10
11.0096076939
 20
9.78011058
 30
0.0
 10
10.9993274989
 20
9.7876862768
 30
0.0
 10
10.9895068884
 20
9.7964370601
 30
0.0
 10
10.9770661219
 20
9.8096889135
 30
0.0
 10
10.9662081028
 20
9.8248474619
 30
0.0
 10
10.9572668095
 20
9.8414672583
 30
0.0
 10
10.9515550788
 20
9.8547547539
 30
0.0
 10
10.9469887939
 20
9.8686283716
 30
0.0
 10
10.943663166
 20
9.8829632196
 30
0.0
 10
10.9416444256
 20
9.8976019874
 30
0.0
 10
10.941185911
 20
9.9074629057
 30
0.0
 10
10.941185911
 20
9.912391804
 30
0.0
  0
SPLINE
  5
260
100
AcDbEntity
  8
0
100
AcDbSpline
 62
7
  6
CONTINUOUS
 70
0
 71
3
 72
18
 73
14
 74
0
 42
0.0000001
 43
0.0000001
 44
0.0000000001
 40
0.0
 40
0.0
 40
0.0
 40
0.0
 40
0.0697370121
 40
0.1394160074
 40
0.2774285198
 40
0.4127671459
 40
0.54399095
 40
0.6694971041
 40
0.7877391021
 40
0.8438576976
 40
0.8978842487
 40
0.949885687
 40
1.0
 40
1.0
 40
1.0
 40
1.0
 10
10.4787810672
 20
9.912391804
 30
0.0
 10
10.4787810672
 20
9.9074618538
 30
0.0
 10
10.4783233118
 20
9.8975996438
 30
0.0
 10
10.4756425946
 20
9.8781500798
 30
0.0
 10
10.4690635114
 20
9.8546604351
 30
0.0
 10
10.4565749439
 20
9.8287746016
 30
0.0
 10
10.4403509707
 20
9.806130352
 30
0.0
 10
10.4213273398
 20
9.787480137
 30
0.0
 10
10.4036099403
 20
9.7755703883
 30
0.0
 10
10.3889383327
 20
9.7687648572
 30
0.0
 10
10.3780411234
 20
9.7651227853
 30
0.0
 10
10.367199501
 20
9.7629094904
 30
0.0
 10
10.3599728524
 20
9.762391804
 30
0.0
 10
10.3564300985
 20
9.762391804
 30
0.0
  0
ENDSEC
  0
SECTION
  2
OBJECTS
  0
DICTIONARY
  5
C
100
AcDbDictionary
280
0
281
1
  3
ACAD_GROUP
350
D
  3
ACAD_MLINESTYLE
350
17
  3
ACAD_LAYOUT
350
1A
  3
ACAD_PLOTSETTINGS
350
19
  3
ACAD_PLOTSTYLENAME
350
E
  0
DICTIONARY
  5
D
102
{ACAD_REACTORS
330
C
102
}
100
AcDbDictionary
280
0
281
1
  0
ACDBDICTIONARYWDFLT
  5
E
102
{ACAD_REACTORS
330
C
102
}
100
AcDbDictionary
281
1
  3
Normal
350
F
100
AcDbDictionaryWithDefault
340
F
  0
DICTIONARY
  5
17
102
{ACAD_REACTORS
330
C
102
}
100
AcDbDictionary
280
0
281
1
  3
Standard
350
18
  0
DICTIONARY
  5
19
102
{ACAD_REACTORS
330
C
102
}
100
AcDbDictionary
281
1
  0
DICTIONARY
  5
1A
102
{ACAD_REACTORS
330
C
102
}
100
AcDbDictionary
281
1
  3
Model
350
261
  3
Layout1
350
262
  0
ACDBPLACEHOLDER
  5
F
102
{ACAD_REACTORS
330
E
102
}
  0
MLINESTYLE
  5
18
102
{ACAD_REACTORS
330
17
102
}
100
AcDbMlineStyle
  2
STANDARD
 70
0
  3

 62
256
 51
90.0
 52
90.0
 71
2
 49
0.5
 62
256
  6
BYLAYER
 49
-0.5
 62
256
  6
BYLAYER
  0
LAYOUT
  5
261
102
{ACAD_REACTORS
330
1A
102
}
100
AcDbPlotSettings
  1

  2
none_device
  4
ANSI_C_(22.00_x_17.00_Inches)
  6

 40
0.0
 41
0.0
 42
0.0
 43
0.0
 44
558.8
 45
431.8
 46
0.0
 47
0.0
 48
0.0
 49
0.0
140
0.0
141
0.0
142
1.0
143
1.0
 70
1024
 72
0
 73
0
 74
0
  7

 75
0
147
1.0
148
0.0
149
0.0
100
AcDbLayout
  1
Model
 70
0
 71
0
 10
0.0
 20
0.0
 11
22.0
 21
17.0
 12
0.0
 22
0.0
 32
0.0
 14
0.0
 24
0.0
 34
0.0
 15
0.0
 25
0.0
 35
0.0
146
0.0
 13
0.0
 23
0.0
 33
0.0
 16
1.0
 26
0.0
 36
0.0
 17
0.0
 27
1.0
 37
0.0
 76
0
330
202
345
0
346
0
  0
LAYOUT
  5
262
102
{ACAD_REACTORS
330
1A
102
}
100
AcDbPlotSettings
  1

  2
none_device
  4
ANSI_C_(22.00_x_17.00_Inches)
  6

 40
0.0
 41
0.0
 42
0.0
 43
0.0
 44
558.8
 45
431.8
 46
0.0
 47
0.0
 48
0.0
 49
0.0
140
0.0
141
0.0
142
1.0
143
1.0
 70
0
 72
0
 73
0
 74
0
  7

 75
0
147
1.0
148
0.0
149
0.0
100
AcDbLayout
  1
Layout1
 70
0
 71
1
 10
0.0
 20
0.0
 11
22.0
 21
17.0
 12
0.0
 22
0.0
 32
0.0
 14
0.0
 24
0.0
 34
0.0
 15
0.0
 25
0.0
 35
0.0
146
0.0
 13
0.0
 23
0.0
 33
0.0
 16
1.0
 26
0.0
 36
0.0
 17
0.0
 27
1.0
 37
0.0
 76
0
330
203
345
0
346
0
  0
ENDSEC
  0
EOF
