999
DXF file: E:\BT Custom\CADOUTPUT\_RIGHT.dxf
999
Pro/ENGINEER 2018400 by Parametric Technology Corporation
  0
SECTION
  2
HEADER
  9
$ACADVER
  1
AC1018
  9
$DWGCODEPAGE
  3
ANSI_1252
  9
$EXTMAX
 10
22.0
 20
17.0
 30
0.0
  9
$EXTMIN
 10
0.0
 20
0.0
 30
0.0
  9
$LIMMIN
 10
0.0
 20
0.0
  9
$LIMMAX
 10
22.0
 20
17.0
  9
$VIEWCTR
 10
11.0
 20
8.5
  9
$VIEWSIZE
 40
17.0
  9
$CLAYER
  8
0
  9
$LTSCALE
 40
1.21
  9
$CELTYPE
  6
BYLAYER
  9
$DIMSCALE
 40
1.0
  9
$DIMASZ
 40
0.1
  9
$DIMEXO
 40
0.0625
  9
$DIMDLI
 40
0.836
  9
$DIMEXE
 40
0.125
  9
$DIMCEN
 40
0.198
  9
$DIMLFAC
 40
1.0
  9
$DIMBLK
  1
_FILLED
  9
$DIMALT
 70
1
  9
$DIMALTD
 70
2
  9
$DIMALTTD
 70
2
  9
$DIMALTF
 40
25.4
  9
$DIMTXT
 40
0.08
  9
$DIMTOL
 70
1
  9
$DIMLIM
 70
0
  9
$DIMTFAC
 40
1.0
  9
$DIMTP
 40
0.001
  9
$DIMTM
 40
0.001
  9
$DIMGAP
 40
0.09
  9
$DIMDSEP
 70
46
  9
$AUNITS
 70
0
  9
$PDMODE
 70
3
  9
$PDSIZE
 40
0.06
  9
$HANDSEED
  5
2D9
  9
$TILEMODE
 70
1
  9
$MEASUREMENT
 70
0
  9
$INSUNITS
 70
1
  0
ENDSEC
  0
SECTION
  2
CLASSES
  0
CLASS
  1
ACDBDICTIONARYWDFLT
  2
AcDbDictionaryWithDefault
  3
AutoCAD 2000
 90
0
 91
1
280
0
281
0
  0
CLASS
  1
ACDBPLACEHOLDER
  2
AcDbPlaceHolder
  3
AutoCAD 2000
 90
0
 91
1
280
0
281
0
  0
CLASS
  1
LAYOUT
  2
AcDbLayout
  3
AutoCAD 2000
 90
0
 91
0
280
0
281
0
  0
ENDSEC
  0
SECTION
  2
TABLES
  0
TABLE
  2
VPORT
  5
8
100
AcDbSymbolTable
 70
2
  0
VPORT
  5
1F4
100
AcDbSymbolTableRecord
100
AcDbViewportTableRecord
  2
*ACTIVE
 70
0
 10
0.0
 20
0.0
 11
1.0
 21
1.0
 12
11.0
 22
8.5
 13
0.0
 23
0.0
 14
1.0
 24
1.0
 15
0.0
 25
0.0
 16
0.0
 26
0.0
 36
1.0
 17
0.0
 27
0.0
 37
0.0
 40
17.0
 41
1.2941176471
 42
50.0
 43
0.0
 44
0.0
 50
0.0
 51
0.0
 71
0
 72
100
 73
1
 74
1
 75
0
 76
0
 77
0
 78
0
  0
ENDTAB
  0
TABLE
  2
LTYPE
  5
5
100
AcDbSymbolTable
 70
6
  0
LTYPE
  5
14
100
AcDbSymbolTableRecord
100
AcDbLinetypeTableRecord
  2
BYBLOCK
 70
0
  3

 72
65
 73
0
 40
0.0
  0
LTYPE
  5
15
100
AcDbSymbolTableRecord
100
AcDbLinetypeTableRecord
  2
BYLAYER
 70
0
  3

 72
65
 73
0
 40
0.0
  0
LTYPE
  5
16
100
AcDbSymbolTableRecord
100
AcDbLinetypeTableRecord
  2
CONTINUOUS
 70
64
  3
Solid line
 72
65
 73
0
 40
0.0
  0
LTYPE
  5
1F5
100
AcDbSymbolTableRecord
100
AcDbLinetypeTableRecord
  2
CENTER
 70
64
  3
____ _ ____ _ ____ _ ____ _ ____ _ ____ _ ____
 72
65
 73
4
 40
0.6
 49
0.375
 74
0
 49
-0.075
 74
0
 49
0.075
 74
0
 49
-0.075
 74
0
  0
LTYPE
  5
1F6
100
AcDbSymbolTableRecord
100
AcDbLinetypeTableRecord
  2
HIDDEN
 70
64
  3
- - - - - - - - - - - - - - - - - - - -
 72
65
 73
2
 40
0.2
 49
0.1
 74
0
 49
-0.1
 74
0
  0
LTYPE
  5
1F7
100
AcDbSymbolTableRecord
100
AcDbLinetypeTableRecord
  2
PHANTOM
 70
64
  3
_____ _ _ _____ _ _ _____ _ _ _____
 72
65
 73
6
 40
0.8
 49
0.45
 74
0
 49
-0.05
 74
0
 49
0.1
 74
0
 49
-0.05
 74
0
 49
0.1
 74
0
 49
-0.05
 74
0
  0
LTYPE
  5
1F8
100
AcDbSymbolTableRecord
100
AcDbLinetypeTableRecord
  2
DOT
 70
64
  3
. . . . . . . . . . . . . . . . . . . .
 72
65
 73
2
 40
0.2
 49
0.1
 74
0
 49
-0.1
 74
0
  0
LTYPE
  5
1F9
100
AcDbSymbolTableRecord
100
AcDbLinetypeTableRecord
  2
DASHED
 70
64
  3
- - - - - - - - - - - - - - - - - - - -
 72
65
 73
2
 40
0.2
 49
0.1
 74
0
 49
-0.1
 74
0
  0
ENDTAB
  0
TABLE
  2
LAYER
  5
2
100
AcDbSymbolTable
 70
36
  0
LAYER
  5
10
100
AcDbSymbolTableRecord
100
AcDbLayerTableRecord
  2
0
 70
0
 62
7
  6
CONTINUOUS
370
-3
390
F
  0
LAYER
  5
1FA
100
AcDbSymbolTableRecord
100
AcDbLayerTableRecord
  2
DEFAULT_1
 70
0
 62
7
  6
CENTER
370
-3
390
F
  0
LAYER
  5
1FB
100
AcDbSymbolTableRecord
100
AcDbLayerTableRecord
  2
DEFAULT_2
 70
0
 62
8
  6
HIDDEN
370
-3
390
F
  0
LAYER
  5
1FC
100
AcDbSymbolTableRecord
100
AcDbLayerTableRecord
  2
DEFAULT_3
 70
0
 62
7
  6
PHANTOM
370
-3
390
F
  0
LAYER
  5
1FD
100
AcDbSymbolTableRecord
100
AcDbLayerTableRecord
  2
ALL_FEATURES
 70
0
 62
7
  6
CONTINUOUS
370
-3
390
F
  0
LAYER
  5
1FE
100
AcDbSymbolTableRecord
100
AcDbLayerTableRecord
  2
AXES_FEATURES
 70
0
 62
7
  6
CONTINUOUS
370
-3
390
F
  0
LAYER
  5
1FF
100
AcDbSymbolTableRecord
100
AcDbLayerTableRecord
  2
DIMENSIONS
 70
0
 62
7
  6
CONTINUOUS
370
-3
390
F
  0
ENDTAB
  0
TABLE
  2
STYLE
  5
3
100
AcDbSymbolTable
 70
1
  0
STYLE
  5
11
100
AcDbSymbolTableRecord
100
AcDbTextStyleTableRecord
  2
STANDARD
 70
0
 40
0.0
 41
0.8
 50
0.0
 71
0
 42
0.2
  3
txt
  4

  0
STYLE
  5
200
100
AcDbSymbolTableRecord
100
AcDbTextStyleTableRecord
  2
TEXTSTYLE_1
 70
0
 40
0.0
 41
0.8
 50
0.0
 71
0
 42
0.2
  3
gdt
  4

  0
ENDTAB
  0
TABLE
  2
VIEW
  5
6
100
AcDbSymbolTable
 70
0
  0
ENDTAB
  0
TABLE
  2
UCS
  5
7
100
AcDbSymbolTable
 70
0
  0
ENDTAB
  0
TABLE
  2
APPID
  5
9
100
AcDbSymbolTable
 70
1
  0
APPID
  5
201
100
AcDbSymbolTableRecord
100
AcDbRegAppTableRecord
  2
ACAD
 70
0
  0
ENDTAB
  0
TABLE
  2
BLOCK_RECORD
  5
1
100
AcDbSymbolTable
 70
0
  0
BLOCK_RECORD
  5
202
100
AcDbSymbolTableRecord
100
AcDbBlockTableRecord
  2
*Model_Space
  0
BLOCK_RECORD
  5
203
100
AcDbSymbolTableRecord
100
AcDbBlockTableRecord
  2
*Paper_Space
  0
BLOCK_RECORD
  5
204
100
AcDbSymbolTableRecord
100
AcDbBlockTableRecord
  2
_FILLED
  0
ENDTAB
  0
TABLE
  2
DIMSTYLE
  5
A
100
AcDbSymbolTable
 70
1
100
AcDbDimStyleTable
 71
0
  0
DIMSTYLE
105
205
100
AcDbSymbolTableRecord
100
AcDbDimStyleTableRecord
  2
STANDARD
 70
0
  3

  4

 40
1.0
 41
0.1
 42
0.0625
 43
0.38
 44
0.125
 45
0.0
 46
0.0
 47
0.001
 48
0.001
140
0.08
141
0.09
142
0.0
143
25.4
144
1.0
145
0.0
146
1.0
147
0.09
 71
1.0
 72
0.0
 73
1
 74
1
 75
0
 76
0
 77
0
 78
4
 79
1
170
1
171
2
172
0
173
0
174
0
175
0
176
0
177
0
178
0
270
2
179
3
271
3
272
3
273
2
274
2
275
0
280
0
281
0
282
0
283
1
284
4
285
0
286
0
287
3
288
0
340
11
278
46
341
204
342
204
343
204
344
204
  0
ENDTAB
  0
ENDSEC
  0
SECTION
  2
BLOCKS
  0
BLOCK
  5
20
100
AcDbEntity
  8
0
100
AcDbBlockBegin
  2
*Model_Space
 70
0
 10
0.0
 20
0.0
 30
0.0
  3
*Model_Space
  1

  0
ENDBLK
  5
21
100
AcDbEntity
  8
0
100
AcDbBlockEnd
  0
BLOCK
  5
1C
100
AcDbEntity
  8
0
100
AcDbBlockBegin
  2
*Paper_Space
 70
0
 10
0.0
 20
0.0
 30
0.0
  3
*Paper_Space
  1

  0
ENDBLK
  5
1D
100
AcDbEntity
  8
0
100
AcDbBlockEnd
  0
BLOCK
  5
206
100
AcDbEntity
  8
0
100
AcDbBlockBegin
  2
_FILLED
 70
64
 10
0.0
 20
0.0
  3
_FILLED
  1

  0
SOLID
  5
207
100
AcDbEntity
  8
0
  6
BYBLOCK
 62
0
100
AcDbTrace
 10
0.0
 20
0.0
 11
-1.0
 21
0.2
 12
-1.0
 22
-0.2
 13
-1.0
 23
-0.2
  0
ENDBLK
  5
208
100
AcDbEntity
  8
0
  6
BYBLOCK
 62
0
100
AcDbBlockEnd
  0
ENDSEC
  0
SECTION
  2
ENTITIES
  0
LINE
  5
209
100
AcDbEntity
  8
0
100
AcDbLine
 62
7
  6
CONTINUOUS
 10
9.4474841865
 20
7.7673958346
 11
11.9724827918
 21
7.7673958346
  0
LINE
  5
20A
100
AcDbEntity
  8
0
100
AcDbLine
 62
7
  6
CONTINUOUS
 10
9.4474834891
 20
7.8673958346
 11
11.9724834891
 21
7.8673958346
  0
LINE
  5
20B
100
AcDbEntity
  8
0
100
AcDbLine
 62
7
  6
CONTINUOUS
 10
9.6599834891
 20
8.2423958346
 11
9.6599834891
 21
8.3423958346
  0
LINE
  5
20C
100
AcDbEntity
  8
0
100
AcDbLine
 62
7
  6
CONTINUOUS
 10
9.5849834891
 20
8.2423958346
 11
9.5744943807
 21
8.0979375519
  0
LINE
  5
20D
100
AcDbEntity
  8
0
100
AcDbLine
 62
9
  6
CONTINUOUS
 10
9.5744943807
 20
8.0979375519
 11
11.8454725976
 21
8.0979375519
  0
LINE
  5
20E
100
AcDbEntity
  8
0
100
AcDbLine
 62
7
  6
CONTINUOUS
 10
11.8349692382
 20
8.2423958346
 11
9.5849977401
 21
8.2423958346
  0
LINE
  5
20F
100
AcDbEntity
  8
0
100
AcDbLine
 62
7
  6
CONTINUOUS
 10
11.7599834891
 20
8.3423958346
 11
9.6599834891
 21
8.3423958346
  0
LINE
  5
210
100
AcDbEntity
  8
0
100
AcDbLine
 62
7
  6
CONTINUOUS
 10
10.1724834891
 20
8.9923958346
 11
10.1724834891
 21
9.0423958346
  0
LINE
  5
211
100
AcDbEntity
  8
0
100
AcDbLine
 62
7
  6
CONTINUOUS
 10
10.2099834891
 20
10.1623958346
 11
10.2099834891
 21
10.0623958346
  0
LINE
  5
212
100
AcDbEntity
  8
0
100
AcDbLine
 62
7
  6
CONTINUOUS
 10
10.2099834891
 20
9.7623958346
 11
10.2099834891
 21
9.6623958346
  0
LINE
  5
213
100
AcDbEntity
  8
0
100
AcDbLine
 62
7
  6
CONTINUOUS
 10
10.2724834891
 20
9.0423958346
 11
10.2724834891
 21
9.1423958346
  0
LINE
  5
214
100
AcDbEntity
  8
0
100
AcDbLine
 62
7
  6
CONTINUOUS
 10
10.3974834891
 20
9.5541426591
 11
10.3974834891
 21
9.1623958346
  0
LINE
  5
215
100
AcDbEntity
  8
0
100
AcDbLine
 62
7
  6
CONTINUOUS
 10
11.0224834891
 20
9.5541426591
 11
11.2099834891
 21
9.6623958346
  0
LINE
  5
216
100
AcDbEntity
  8
0
100
AcDbLine
 62
7
  6
CONTINUOUS
 10
10.5099834891
 20
9.1623958346
 11
10.5099834891
 21
9.1423958346
  0
LINE
  5
217
100
AcDbEntity
  8
0
100
AcDbLine
 62
7
  6
CONTINUOUS
 10
10.6399834891
 20
10.2465405319
 11
10.6399834891
 21
10.2403217689
  0
LINE
  5
218
100
AcDbEntity
  8
0
100
AcDbLine
 62
7
  6
CONTINUOUS
 10
10.6399834891
 20
10.2391189038
 11
10.6399834891
 21
10.2288399265
  0
LINE
  5
219
100
AcDbEntity
  8
0
100
AcDbLine
 62
7
  6
CONTINUOUS
 10
10.6599834891
 20
10.2510732614
 11
10.6599834891
 21
10.2500724072
  0
LINE
  5
21A
100
AcDbEntity
  8
0
100
AcDbLine
 62
7
  6
CONTINUOUS
 10
10.6599834891
 20
10.2296255203
 11
10.6599834891
 21
10.2328944894
  0
LINE
  5
21B
100
AcDbEntity
  8
0
100
AcDbLine
 62
7
  6
CONTINUOUS
 10
10.6599834891
 20
10.2388911182
 11
10.6599834891
 21
10.2398992478
  0
LINE
  5
21C
100
AcDbEntity
  8
0
100
AcDbLine
 62
7
  6
CONTINUOUS
 10
10.6599834891
 20
10.2463138408
 11
10.6599834891
 21
10.2473171289
  0
LINE
  5
21D
100
AcDbEntity
  8
0
100
AcDbLine
 62
9
  6
CONTINUOUS
 10
10.6732499883
 20
10.239264159
 11
10.6732499883
 21
10.2382556127
  0
LINE
  5
21E
100
AcDbEntity
  8
0
100
AcDbLine
 62
9
  6
CONTINUOUS
 10
10.6838319692
 20
10.246503261
 11
10.6838319692
 21
10.245499444
  0
LINE
  5
21F
100
AcDbEntity
  8
0
100
AcDbLine
 62
9
  6
CONTINUOUS
 10
10.6874834891
 20
10.2233266891
 11
10.6874834891
 21
10.2223075721
  0
LINE
  5
220
100
AcDbEntity
  8
0
100
AcDbLine
 62
9
  6
CONTINUOUS
 10
10.7099834891
 20
10.2505810405
 11
10.7099834891
 21
10.2495798681
  0
LINE
  5
221
100
AcDbEntity
  8
0
100
AcDbLine
 62
7
  6
CONTINUOUS
 10
11.3474732266
 20
8.9923958346
 11
10.0724937517
 21
8.9923958346
  0
LINE
  5
222
100
AcDbEntity
  8
0
100
AcDbLine
 62
9
  6
CONTINUOUS
 10
10.7374834891
 20
10.2232445436
 11
10.7374834891
 21
10.2222253752
  0
LINE
  5
223
100
AcDbEntity
  8
0
100
AcDbLine
 62
9
  6
CONTINUOUS
 10
10.7411350091
 20
10.2454066442
 11
10.7411350091
 21
10.2464105215
  0
LINE
  5
224
100
AcDbEntity
  8
0
100
AcDbLine
 62
9
  6
CONTINUOUS
 10
10.75171699
 20
10.2381279383
 11
10.75171699
 21
10.2391365683
  0
LINE
  5
225
100
AcDbEntity
  8
0
100
AcDbLine
 62
7
  6
CONTINUOUS
 10
10.7599834891
 20
10.2500724072
 11
10.7599834891
 21
10.2510732614
  0
LINE
  5
226
100
AcDbEntity
  8
0
100
AcDbLine
 62
7
  6
CONTINUOUS
 10
10.7649834891
 20
10.2471472816
 11
10.7649834891
 21
10.2461438832
  0
LINE
  5
227
100
AcDbEntity
  8
0
100
AcDbLine
 62
7
  6
CONTINUOUS
 10
10.7649834891
 20
10.2327230421
 11
10.7649834891
 21
10.2294537062
  0
LINE
  5
228
100
AcDbEntity
  8
0
100
AcDbLine
 62
7
  6
CONTINUOUS
 10
10.7649834891
 20
10.2397285814
 11
10.7649834891
 21
10.2387203399
  0
LINE
  5
229
100
AcDbEntity
  8
0
100
AcDbLine
 62
7
  6
CONTINUOUS
 10
10.7799834891
 20
10.2288399265
 11
10.7799834891
 21
10.2391189038
  0
LINE
  5
22A
100
AcDbEntity
  8
0
100
AcDbLine
 62
7
  6
CONTINUOUS
 10
10.7799834891
 20
10.2403217689
 11
10.7799834891
 21
10.2465405319
  0
LINE
  5
22B
100
AcDbEntity
  8
0
100
AcDbLine
 62
7
  6
CONTINUOUS
 10
11.247482759
 20
9.0423958346
 11
10.1724842192
 21
9.0423958346
  0
LINE
  5
22C
100
AcDbEntity
  8
0
100
AcDbLine
 62
7
  6
CONTINUOUS
 10
11.1474721083
 20
9.1423958346
 11
10.27249487
 21
9.1423958346
  0
LINE
  5
22D
100
AcDbEntity
  8
0
100
AcDbLine
 62
7
  6
CONTINUOUS
 10
10.9099834891
 20
9.1623958346
 11
10.9099834891
 21
9.1423958346
  0
LINE
  5
22E
100
AcDbEntity
  8
0
100
AcDbLine
 62
7
  6
CONTINUOUS
 10
10.3974836493
 20
9.1623958346
 11
11.022483329
 21
9.1623958346
  0
LINE
  5
22F
100
AcDbEntity
  8
0
100
AcDbLine
 62
7
  6
CONTINUOUS
 10
11.0224834891
 20
9.5541426591
 11
11.0224834891
 21
9.1623958346
  0
LINE
  5
230
100
AcDbEntity
  8
0
100
AcDbLine
 62
7
  6
CONTINUOUS
 10
10.3974834891
 20
9.5541426591
 11
10.2099834891
 21
9.6623958346
  0
LINE
  5
231
100
AcDbEntity
  8
0
100
AcDbLine
 62
7
  6
CONTINUOUS
 10
11.1474834891
 20
9.0423958346
 11
11.1474834891
 21
9.1423958346
  0
LINE
  5
232
100
AcDbEntity
  8
0
100
AcDbLine
 62
7
  6
CONTINUOUS
 10
11.2099834891
 20
10.1623958346
 11
11.2099834891
 21
10.0623958346
  0
LINE
  5
233
100
AcDbEntity
  8
0
100
AcDbLine
 62
7
  6
CONTINUOUS
 10
11.2099834891
 20
9.7623958346
 11
11.2099834891
 21
9.6623958346
  0
LINE
  5
234
100
AcDbEntity
  8
0
100
AcDbLine
 62
7
  6
CONTINUOUS
 10
11.2474834891
 20
8.9923958346
 11
11.2474834891
 21
9.0423958346
  0
LINE
  5
235
100
AcDbEntity
  8
0
100
AcDbLine
 62
7
  6
CONTINUOUS
 10
11.0224834891
 20
9.5541426591
 11
10.3974834891
 21
9.5541426591
  0
LINE
  5
236
100
AcDbEntity
  8
0
100
AcDbLine
 62
7
  6
CONTINUOUS
 10
10.2099834891
 20
9.6623958346
 11
11.2099834891
 21
9.6623958346
  0
LINE
  5
237
100
AcDbEntity
  8
0
100
AcDbLine
 62
7
  6
CONTINUOUS
 10
10.3564300985
 20
9.7623958346
 11
10.2143037343
 21
9.7623958346
  0
LINE
  5
238
100
AcDbEntity
  8
0
100
AcDbLine
 62
7
  6
CONTINUOUS
 10
11.0635368797
 20
9.7623958346
 11
11.205663244
 21
9.7623958346
  0
LINE
  5
239
100
AcDbEntity
  8
0
100
AcDbLine
 62
7
  6
CONTINUOUS
 10
11.8349834891
 20
8.2423958346
 11
11.8454725976
 21
8.0979375519
  0
LINE
  5
23A
100
AcDbEntity
  8
0
100
AcDbLine
 62
7
  6
CONTINUOUS
 10
11.7599834891
 20
8.2423958346
 11
11.7599834891
 21
8.3423958346
  0
LINE
  5
23B
100
AcDbEntity
  8
0
100
AcDbLine
 62
7
  6
CONTINUOUS
 10
10.3564300985
 20
10.0623958346
 11
10.2143037343
 21
10.0623958346
  0
LINE
  5
23C
100
AcDbEntity
  8
0
100
AcDbLine
 62
7
  6
CONTINUOUS
 10
11.0635368797
 20
10.0623958346
 11
11.205663244
 21
10.0623958346
  0
LINE
  5
23D
100
AcDbEntity
  8
0
100
AcDbLine
 62
7
  6
CONTINUOUS
 10
11.2099631376
 20
10.1623958346
 11
10.2100038406
 21
10.1623958346
  0
LINE
  5
23E
100
AcDbEntity
  8
0
100
AcDbLine
 62
9
  6
CONTINUOUS
 10
11.1051281457
 20
10.2012051278
 11
10.3148405509
 21
10.2012055805
  0
ARC
  5
23F
100
AcDbEntity
  8
0
100
AcDbCircle
 62
7
  6
CONTINUOUS
 10
10.7087889897
 20
5.9927939917
 40
4.2577872163
100
AcDbArc
 50
89.8513998325
 51
89.9839259749
  0
ARC
  5
240
100
AcDbEntity
  8
0
100
AcDbCircle
 62
7
  6
CONTINUOUS
 10
10.7088677787
 20
6.0566948125
 40
4.192885204
100
AcDbArc
 50
89.8535179165
 51
89.9847538153
  0
ARC
  5
241
100
AcDbEntity
  8
0
100
AcDbCircle
 62
7
  6
CONTINUOUS
 10
9.2034277964
 20
8.1521094079
 40
0.375
100
AcDbArc
 50
310.6030912348
 51
351.6940891949
  0
ARC
  5
242
100
AcDbEntity
  8
0
100
AcDbCircle
 62
7
  6
CONTINUOUS
 10
9.4474834891
 20
7.8173958346
 40
0.05
100
AcDbArc
 50
90.0000000005
 51
270.0
  0
ARC
  5
243
100
AcDbEntity
  8
0
100
AcDbCircle
 62
7
  6
CONTINUOUS
 10
10.7099386657
 20
8.7722790979
 40
1.4801086763
100
AcDbArc
 50
89.9982648607
 51
90.4096895637
  0
ARC
  5
244
100
AcDbEntity
  8
0
100
AcDbCircle
 62
7
  6
CONTINUOUS
 10
10.6814385781
 20
11.3939409454
 40
1.1450239702
100
AcDbArc
 50
269.1163870197
 51
269.3533830841
  0
ARC
  5
245
100
AcDbEntity
  8
0
100
AcDbCircle
 62
7
  6
CONTINUOUS
 10
10.6823900491
 20
9.4402325693
 40
0.8116483392
100
AcDbArc
 50
91.5839828902
 51
92.0581893121
  0
ARC
  5
246
100
AcDbEntity
  8
0
100
AcDbCircle
 62
7
  6
CONTINUOUS
 10
9.354112277
 20
8.9923958346
 40
0.7183712121
100
AcDbArc
 50
295.2003196521
 51
360.0
  0
ARC
  5
247
100
AcDbEntity
  8
0
100
AcDbCircle
 62
7
  6
CONTINUOUS
 10
9.8882826724
 20
10.1600028328
 40
0.4976165665
100
AcDbArc
 50
254.8023488154
 51
285.1977470311
  0
ARC
  5
248
100
AcDbEntity
  8
0
100
AcDbCircle
 62
7
  6
CONTINUOUS
 10
9.888283535
 20
9.6647888393
 40
0.4976165665
100
AcDbArc
 50
74.8023487318
 51
105.1977471252
  0
ARC
  5
249
100
AcDbEntity
  8
0
100
AcDbCircle
 62
7
  6
CONTINUOUS
 10
10.7098224218
 20
10.6110528986
 40
0.3941777808
100
AcDbArc
 50
267.4230728769
 51
270.0234119638
  0
ARC
  5
24A
100
AcDbEntity
  8
0
100
AcDbCircle
 62
7
  6
CONTINUOUS
 10
10.7081474532
 20
10.5723521933
 40
0.3554409099
100
AcDbArc
 50
266.5872780309
 51
267.4123152816
  0
ARC
  5
24B
100
AcDbEntity
  8
0
100
AcDbCircle
 62
7
  6
CONTINUOUS
 10
10.6779301488
 20
10.5930924588
 40
0.3466395522
100
AcDbArc
 50
269.6575552678
 51
270.9755543918
  0
ARC
  5
24C
100
AcDbEntity
  8
0
100
AcDbCircle
 62
7
  6
CONTINUOUS
 10
10.6779688679
 20
10.5854416786
 40
0.3399928752
100
AcDbArc
 50
269.675094306
 51
270.9881019118
  0
ARC
  5
24D
100
AcDbEntity
  8
0
100
AcDbCircle
 62
9
  6
CONTINUOUS
 10
9.908751363
 20
9.9123958212
 40
0.2894977503
100
AcDbArc
 50
359.5475541996
 51
0.0000026445
  0
ARC
  5
24E
100
AcDbEntity
  8
0
100
AcDbCircle
 62
9
  6
CONTINUOUS
 10
10.1082435037
 20
9.9123958248
 40
0.2121262477
100
AcDbArc
 50
359.5475541996
 51
0.0000026447
  0
ARC
  5
24F
100
AcDbEntity
  8
0
100
AcDbCircle
 62
7
  6
CONTINUOUS
 10
10.6703456952
 20
10.3557709285
 40
0.1175511989
100
AcDbArc
 50
268.8343678675
 51
271.4157292679
  0
ARC
  5
250
100
AcDbEntity
  8
0
100
AcDbCircle
 62
7
  6
CONTINUOUS
 10
10.3224834891
 20
10.1721954876
 40
0.03
100
AcDbArc
 50
104.7630312683
 51
199.0658789538
  0
ARC
  5
251
100
AcDbEntity
  8
0
100
AcDbCircle
 62
7
  6
CONTINUOUS
 10
10.7111773291
 20
5.9950681732
 40
4.2545118624
100
AcDbArc
 50
90.016077518
 51
90.1486750776
  0
ARC
  5
252
100
AcDbEntity
  8
0
100
AcDbCircle
 62
7
  6
CONTINUOUS
 10
10.7103371537
 20
6.570001805
 40
3.6805792525
100
AcDbArc
 50
90.0055055161
 51
90.1605038251
  0
ARC
  5
253
100
AcDbEntity
  8
0
100
AcDbCircle
 62
7
  6
CONTINUOUS
 10
12.2165391819
 20
8.1521094079
 40
0.375
100
AcDbArc
 50
188.3059108051
 51
229.3969087652
  0
ARC
  5
254
100
AcDbEntity
  8
0
100
AcDbCircle
 62
7
  6
CONTINUOUS
 10
11.9724834891
 20
7.8173958346
 40
0.05
100
AcDbArc
 50
270.0
 51
89.9999999995
  0
ARC
  5
255
100
AcDbEntity
  8
0
100
AcDbCircle
 62
7
  6
CONTINUOUS
 10
10.7099835081
 20
8.7017256111
 40
1.5506702232
100
AcDbArc
 50
92.6079542223
 51
104.7630297385
  0
ARC
  5
256
100
AcDbEntity
  8
0
100
AcDbCircle
 62
7
  6
CONTINUOUS
 10
10.7099834891
 20
8.7017258191
 40
1.5506700155
100
AcDbArc
 50
75.2369687319
 51
87.3993096068
  0
ARC
  5
257
100
AcDbEntity
  8
0
100
AcDbCircle
 62
7
  6
CONTINUOUS
 10
10.7099834891
 20
8.7017258191
 40
1.5496700155
100
AcDbArc
 50
87.9014296933
 51
88.1506660612
  0
ARC
  5
258
100
AcDbEntity
  8
0
100
AcDbCircle
 62
7
  6
CONTINUOUS
 10
10.7099834891
 20
8.7017258191
 40
1.5496700155
100
AcDbArc
 50
91.8486579193
 51
92.098596913
  0
ARC
  5
259
100
AcDbEntity
  8
0
100
AcDbCircle
 62
7
  6
CONTINUOUS
 10
10.7099834891
 20
8.7017258191
 40
1.5463998502
100
AcDbArc
 50
91.8528767756
 51
92.5944619165
  0
ARC
  5
25A
100
AcDbEntity
  8
0
100
AcDbCircle
 62
7
  6
CONTINUOUS
 10
10.7099834891
 20
8.7017258191
 40
1.5463998502
100
AcDbArc
 50
87.4055380835
 51
87.9617609054
  0
ARC
  5
25B
100
AcDbEntity
  8
0
100
AcDbCircle
 62
7
  6
CONTINUOUS
 10
10.7099834891
 20
8.7017258191
 40
1.5453970871
100
AcDbArc
 50
87.40385346
 51
87.9604377927
  0
ARC
  5
25C
100
AcDbEntity
  8
0
100
AcDbCircle
 62
7
  6
CONTINUOUS
 10
10.7099834891
 20
8.7017258191
 40
1.5453970871
100
AcDbArc
 50
91.8540794731
 51
92.59614654
  0
ARC
  5
25D
100
AcDbEntity
  8
0
100
AcDbCircle
 62
7
  6
CONTINUOUS
 10
10.7099834891
 20
8.7017258191
 40
1.5449987854
100
AcDbArc
 50
88.8446776828
 51
90.9698669634
  0
ARC
  5
25E
100
AcDbEntity
  8
0
100
AcDbCircle
 62
7
  6
CONTINUOUS
 10
10.7099834891
 20
8.7017258191
 40
1.5439951123
100
AcDbArc
 50
88.8439265644
 51
90.9704974851
  0
ARC
  5
25F
100
AcDbEntity
  8
0
100
AcDbCircle
 62
7
  6
CONTINUOUS
 10
10.7099834891
 20
8.7017258191
 40
1.5421320459
100
AcDbArc
 50
88.8425297096
 51
90.971670066
  0
ARC
  5
260
100
AcDbEntity
  8
0
100
AcDbCircle
 62
7
  6
CONTINUOUS
 10
10.7099834891
 20
8.7017258191
 40
1.5401874876
100
AcDbArc
 50
87.3950660918
 51
87.9535361554
  0
ARC
  5
261
100
AcDbEntity
  8
0
100
AcDbCircle
 62
7
  6
CONTINUOUS
 10
10.7099834891
 20
8.7017258191
 40
1.5401874876
100
AcDbArc
 50
91.8603529961
 51
92.6049339082
  0
ARC
  5
262
100
AcDbEntity
  8
0
100
AcDbCircle
 62
7
  6
CONTINUOUS
 10
10.7099834891
 20
8.7017258191
 40
1.5389858664
100
AcDbArc
 50
91.861806048
 51
92.6069692127
  0
ARC
  5
263
100
AcDbEntity
  8
0
100
AcDbCircle
 62
7
  6
CONTINUOUS
 10
10.7099834891
 20
8.7017258191
 40
1.5389858664
100
AcDbArc
 50
87.3930307873
 51
87.9519376211
  0
ARC
  5
264
100
AcDbEntity
  8
0
100
AcDbCircle
 62
7
  6
CONTINUOUS
 10
10.7099834891
 20
8.7017258191
 40
1.5379782693
100
AcDbArc
 50
87.3913216666
 51
87.9505952732
  0
ARC
  5
265
100
AcDbEntity
  8
0
100
AcDbCircle
 62
7
  6
CONTINUOUS
 10
10.7099834891
 20
8.7017258191
 40
1.5379782693
100
AcDbArc
 50
91.8630262288
 51
92.6086783334
  0
ARC
  5
266
100
AcDbEntity
  8
0
100
AcDbCircle
 62
7
  6
CONTINUOUS
 10
10.7099834891
 20
8.7017258191
 40
1.5379770794
100
AcDbArc
 50
88.4450698023
 51
91.3685995387
  0
ARC
  5
267
100
AcDbEntity
  8
0
100
AcDbCircle
 62
7
  6
CONTINUOUS
 10
10.7099834891
 20
8.7017258191
 40
1.536968821
100
AcDbArc
 50
88.4440495104
 51
91.3694975171
  0
ARC
  5
268
100
AcDbEntity
  8
0
100
AcDbCircle
 62
7
  6
CONTINUOUS
 10
10.7099834891
 20
8.7017258191
 40
1.5327597649
100
AcDbArc
 50
88.1306285786
 51
91.6823775468
  0
ARC
  5
269
100
AcDbEntity
  8
0
100
AcDbCircle
 62
7
  6
CONTINUOUS
 10
10.7099852812
 20
8.7507150098
 40
1.5016727638
100
AcDbArc
 50
89.8844372228
 51
90.0000683756
  0
ARC
  5
26A
100
AcDbEntity
  8
0
100
AcDbCircle
 62
7
  6
CONTINUOUS
 10
10.7100314355
 20
8.7708308731
 40
1.4815568482
100
AcDbArc
 50
89.6031708954
 51
89.8846530749
  0
ARC
  5
26B
100
AcDbEntity
  8
0
100
AcDbCircle
 62
7
  6
CONTINUOUS
 10
10.7312740886
 20
9.2238549127
 40
1.0281176792
100
AcDbArc
 50
88.2619291545
 51
88.6288686998
  0
ARC
  5
26C
100
AcDbEntity
  8
0
100
AcDbCircle
 62
7
  6
CONTINUOUS
 10
10.742119795
 20
9.5771702263
 40
0.6746359731
100
AcDbArc
 50
87.9093809935
 51
88.2725043997
  0
ARC
  5
26D
100
AcDbEntity
  8
0
100
AcDbCircle
 62
7
  6
CONTINUOUS
 10
10.7504256312
 20
9.8026426541
 40
0.4480106262
100
AcDbArc
 50
87.3506800951
 51
87.9142538623
  0
ARC
  5
26E
100
AcDbEntity
  8
0
100
AcDbCircle
 62
9
  6
CONTINUOUS
 10
11.3117234745
 20
9.9123958444
 40
0.2121262477
100
AcDbArc
 50
179.5475541996
 51
180.0000026445
  0
ARC
  5
26F
100
AcDbEntity
  8
0
100
AcDbCircle
 62
7
  6
CONTINUOUS
 10
10.739483129
 20
11.3135000357
 40
1.0645773566
100
AcDbArc
 50
270.6376529105
 51
271.1089948908
  0
ARC
  5
270
100
AcDbEntity
  8
0
100
AcDbCircle
 62
7
  6
CONTINUOUS
 10
10.7133693354
 20
10.7576676561
 40
0.5359855839
100
AcDbArc
 50
267.2317779011
 51
272.5786276506
  0
ARC
  5
271
100
AcDbEntity
  8
0
100
AcDbCircle
 62
7
  6
CONTINUOUS
 10
10.7134529717
 20
10.7532855689
 40
0.5305854825
100
AcDbArc
 50
269.8953094412
 51
272.5958463147
  0
ARC
  5
272
100
AcDbEntity
  8
0
100
AcDbCircle
 62
7
  6
CONTINUOUS
 10
10.712798449
 20
10.7368018047
 40
0.5140987363
100
AcDbArc
 50
267.1775321567
 51
269.6862736259
  0
ARC
  5
273
100
AcDbEntity
  8
0
100
AcDbCircle
 62
7
  6
CONTINUOUS
 10
10.7100078669
 20
10.6171430265
 40
0.4002678766
100
AcDbArc
 50
269.9965104822
 51
272.5666743427
  0
ARC
  5
274
100
AcDbEntity
  8
0
100
AcDbCircle
 62
7
  6
CONTINUOUS
 10
10.7121471964
 20
10.5655813078
 40
0.3486621243
100
AcDbArc
 50
272.5949145674
 51
274.2667624699
  0
ARC
  5
275
100
AcDbEntity
  8
0
100
AcDbCircle
 62
7
  6
CONTINUOUS
 10
10.7481714196
 20
10.5933156039
 40
0.3479802072
100
AcDbArc
 50
268.8413590961
 51
270.1216044322
  0
ARC
  5
276
100
AcDbEntity
  8
0
100
AcDbCircle
 62
7
  6
CONTINUOUS
 10
10.7480999083
 20
10.5865396836
 40
0.3402005408
100
AcDbArc
 50
268.8269060119
 51
270.1390781328
  0
ARC
  5
277
100
AcDbEntity
  8
0
100
AcDbCircle
 62
7
  6
CONTINUOUS
 10
10.7157688607
 20
10.5153266259
 40
0.2982772998
100
AcDbArc
 50
274.2912218876
 51
275.5647289552
  0
ARC
  5
278
100
AcDbEntity
  8
0
100
AcDbCircle
 62
7
  6
CONTINUOUS
 10
10.7566408457
 20
10.3033742704
 40
0.0652608263
100
AcDbArc
 50
272.8711441179
 51
274.385986438
  0
ARC
  5
279
100
AcDbEntity
  8
0
100
AcDbCircle
 62
7
  6
CONTINUOUS
 10
11.0974834891
 20
10.1721954876
 40
0.03
100
AcDbArc
 50
340.9341210462
 51
75.2369687317
  0
ARC
  5
27A
100
AcDbEntity
  8
0
100
AcDbCircle
 62
7
  6
CONTINUOUS
 10
12.0658547013
 20
8.9923958346
 40
0.7183712121
100
AcDbArc
 50
180.0
 51
244.7996803479
  0
ARC
  5
27B
100
AcDbEntity
  8
0
100
AcDbCircle
 62
7
  6
CONTINUOUS
 10
11.531684306
 20
9.6647888393
 40
0.4976165665
100
AcDbArc
 50
74.8023487316
 51
105.197747125
  0
ARC
  5
27C
100
AcDbEntity
  8
0
100
AcDbCircle
 62
9
  6
CONTINUOUS
 10
11.5112156152
 20
9.9123958479
 40
0.2894977503
100
AcDbArc
 50
179.5475541996
 51
180.0000026445
  0
ARC
  5
27D
100
AcDbEntity
  8
0
100
AcDbCircle
 62
7
  6
CONTINUOUS
 10
11.5316834433
 20
10.1600028328
 40
0.4976165665
100
AcDbArc
 50
254.8023488159
 51
285.1977470316
  0
SPLINE
  5
27E
100
AcDbEntity
  8
0
100
AcDbSpline
 62
7
  6
CONTINUOUS
 70
0
 71
3
 72
19
 73
15
 74
0
 42
0.0000001
 43
0.0000001
 44
0.0000000001
 40
0.0
 40
0.0
 40
0.0
 40
0.0
 40
0.1250544384
 40
0.1876914321
 40
0.2502250193
 40
0.3749096629
 40
0.4993212803
 40
0.623500107
 40
0.7477672421
 40
0.8102369324
 40
0.8730741138
 40
0.9046755479
 40
0.9364042892
 40
1.0
 40
1.0
 40
1.0
 40
1.0
 10
11.662133224
 20
9.6797932464
 30
0.0
 10
11.6752556278
 20
9.6833738736
 30
0.0
 10
11.6946093999
 20
9.690140647
 30
0.0
 10
11.7192333875
 20
9.7017732223
 30
0.0
 10
11.7429330887
 20
9.7151158237
 30
0.0
 10
11.7706105576
 20
9.7349061967
 30
0.0
 10
11.7999053946
 20
9.7632372685
 30
0.0
 10
11.8244778471
 20
9.7957086467
 30
0.0
 10
11.8402780978
 20
9.8258161701
 30
0.0
 10
11.8495724156
 20
9.8513555809
 30
0.0
 10
11.853882921
 20
9.86790013
 30
0.0
 10
11.8563462732
 20
9.8814058345
 30
0.0
 10
11.8581291947
 20
9.8951000885
 30
0.0
 10
11.8586780642
 20
9.905478542
 30
0.0
 10
11.8586780642
 20
9.9123958346
 30
0.0
  0
SPLINE
  5
27F
100
AcDbEntity
  8
0
100
AcDbSpline
 62
7
  6
CONTINUOUS
 70
0
 71
3
 72
20
 73
16
 74
0
 42
0.0000001
 43
0.0000001
 44
0.0000000001
 40
0.0
 40
0.0
 40
0.0
 40
0.0
 40
0.0636024342
 40
0.0953197897
 40
0.1269135175
 40
0.189745229
 40
0.2522084234
 40
0.3144478971
 40
0.3765817486
 40
0.5007503774
 40
0.6251612878
 40
0.7498332299
 40
0.8123242236
 40
0.8749170538
 40
1.0
 40
1.0
 40
1.0
 40
1.0
 10
11.8586780642
 20
9.9123958346
 30
0.0
 10
11.8586780642
 20
9.9193146523
 30
0.0
 10
11.8581311189
 20
9.9296939379
 30
0.0
 10
11.8563463177
 20
9.9433882193
 30
0.0
 10
11.8538811253
 20
9.9568925335
 30
0.0
 10
11.8495732709
 20
9.9734366554
 30
0.0
 10
11.8425851219
 20
9.9926323666
 30
0.0
 10
11.8339388392
 20
10.0110559807
 30
0.0
 10
11.8203877728
 20
10.0344827871
 30
0.0
 10
11.7999005621
 20
10.0615647264
 30
0.0
 10
11.7706043439
 20
10.0898886721
 30
0.0
 10
11.7429269792
 20
10.1096774481
 30
0.0
 10
11.7192352805
 20
10.1230180007
 30
0.0
 10
11.6946158944
 20
10.1346531272
 30
0.0
 10
11.6752601253
 20
10.1414165684
 30
0.0
 10
11.662133224
 20
10.1449984227
 30
0.0
  0
SPLINE
  5
280
100
AcDbEntity
  8
0
100
AcDbSpline
 62
7
  6
CONTINUOUS
 70
0
 71
3
 72
9
 73
5
 74
0
 42
0.0000001
 43
0.0000001
 44
0.0000000001
 40
0.0
 40
0.0
 40
0.0
 40
0.0
 40
0.4993488301
 40
1.0
 40
1.0
 40
1.0
 40
1.0
 10
11.2925430861
 20
9.7363953257
 30
0.0
 10
11.308252516
 20
9.7231980855
 30
0.0
 10
11.3427768612
 20
9.700235708
 30
0.0
 10
11.3813893861
 20
9.6852082637
 30
0.0
 10
11.4012345253
 20
9.6797932464
 30
0.0
  0
SPLINE
  5
281
100
AcDbEntity
  8
0
100
AcDbSpline
 62
7
  6
CONTINUOUS
 70
0
 71
3
 72
9
 73
5
 74
0
 42
0.0000001
 43
0.0000001
 44
0.0000000001
 40
0.0
 40
0.0
 40
0.0
 40
0.0
 40
0.5006478536
 40
1.0
 40
1.0
 40
1.0
 40
1.0
 10
11.4012345253
 20
10.1449984227
 30
0.0
 10
11.3813895166
 20
10.139583441
 30
0.0
 10
11.3427769615
 20
10.1245560774
 30
0.0
 10
11.3082526211
 20
10.1015936719
 30
0.0
 10
11.2925430861
 20
10.0883963434
 30
0.0
  0
SPLINE
  5
282
100
AcDbEntity
  8
0
100
AcDbSpline
 62
7
  6
CONTINUOUS
 70
0
 71
3
 72
22
 73
18
 74
0
 42
0.0000001
 43
0.0000001
 44
0.0000000001
 40
0.0
 40
0.0
 40
0.0
 40
0.0
 40
0.1628917238
 40
0.2430368796
 40
0.3219301489
 40
0.3992865509
 40
0.4747388099
 40
0.5477834357
 40
0.6178886052
 40
0.684510415
 40
0.7470841408
 40
0.8049855284
 40
0.8575499623
 40
0.904085382
 40
0.9438676485
 40
0.9761159782
 40
1.0
 40
1.0
 40
1.0
 40
1.0
 10
11.205663244
 20
10.0623958346
 30
0.0
 10
11.2106719824
 20
10.0623958346
 30
0.0
 10
11.218150325
 20
10.0627201286
 30
0.0
 10
11.2279942444
 20
10.0637811234
 30
0.0
 10
11.2351839022
 20
10.0648678606
 30
0.0
 10
11.2421776274
 20
10.0662387717
 30
0.0
 10
11.248929723
 20
10.0678724075
 30
0.0
 10
11.2553919479
 20
10.0697294532
 30
0.0
 10
11.261512122
 20
10.0717725812
 30
0.0
 10
11.2672371868
 20
10.0739644952
 30
0.0
 10
11.2725131417
 20
10.0762630851
 30
0.0
 10
11.2772961746
 20
10.0785976587
 30
0.0
 10
11.2815419361
 20
10.080898506
 30
0.0
 10
11.2852041375
 20
10.083098001
 30
0.0
 10
11.2882418222
 20
10.0851162145
 30
0.0
 10
11.2906274348
 20
10.0868515638
 30
0.0
 10
11.2919807703
 20
10.087923951
 30
0.0
 10
11.2925430861
 20
10.0883963434
 30
0.0
  0
SPLINE
  5
283
100
AcDbEntity
  8
0
100
AcDbSpline
 62
7
  6
CONTINUOUS
 70
0
 71
3
 72
22
 73
18
 74
0
 42
0.0000001
 43
0.0000001
 44
0.0000000001
 40
0.0
 40
0.0
 40
0.0
 40
0.0
 40
0.0238721745
 40
0.0561219866
 40
0.0959112222
 40
0.1424517924
 40
0.1950174678
 40
0.2529176511
 40
0.3154893472
 40
0.3821099438
 40
0.4522149124
 40
0.5252597
 40
0.600711936
 40
0.6780680233
 40
0.756961468
 40
0.8371071364
 40
1.0
 40
1.0
 40
1.0
 40
1.0
 10
11.2925430861
 20
9.7363953257
 30
0.0
 10
11.2919810493
 20
9.7368674838
 30
0.0
 10
11.2906279491
 20
9.7379396543
 30
0.0
 10
11.2882424484
 20
9.7396749775
 30
0.0
 10
11.2852044552
 20
9.7416934845
 30
0.0
 10
11.2815419011
 20
9.7438931904
 30
0.0
 10
11.2772960361
 20
9.7461941796
 30
0.0
 10
11.2725130675
 20
9.7485287485
 30
0.0
 10
11.2672371962
 20
9.7508271916
 30
0.0
 10
11.2615121785
 20
9.7530189272
 30
0.0
 10
11.2553920569
 20
9.755062083
 30
0.0
 10
11.2489298566
 20
9.7569192066
 30
0.0
 10
11.2421777809
 20
9.7585529057
 30
0.0
 10
11.2351840521
 20
9.7599237741
 30
0.0
 10
11.2279943836
 20
9.7610105111
 30
0.0
 10
11.2181504098
 20
9.7620715205
 30
0.0
 10
11.2106720172
 20
9.7623958346
 30
0.0
 10
11.205663244
 20
9.7623958346
 30
0.0
  0
SPLINE
  5
284
100
AcDbEntity
  8
0
100
AcDbSpline
 62
7
  6
CONTINUOUS
 70
0
 71
3
 72
20
 73
16
 74
0
 42
0.0000001
 43
0.0000001
 44
0.0000000001
 40
0.0
 40
0.0
 40
0.0
 40
0.0
 40
0.0024920404
 40
0.0066956854
 40
0.021497227
 40
0.0449900374
 40
0.0769119516
 40
0.1169227145
 40
0.1646760745
 40
0.2198172112
 40
0.2819885075
 40
0.4262092756
 40
0.5951422737
 40
0.7868618195
 40
1.0
 40
1.0
 40
1.0
 40
1.0
 10
10.6599835718
 20
10.251073264
 30
0.0
 10
10.6599834763
 20
10.2510804497
 30
0.0
 10
10.6599965245
 20
10.2510979864
 30
0.0
 10
10.6600513494
 20
10.2511257217
 30
0.0
 10
10.6601706962
 20
10.2511593604
 30
0.0
 10
10.6603690827
 20
10.2511971266
 30
0.0
 10
10.6606416942
 20
10.2512369259
 30
0.0
 10
10.6609843574
 20
10.2512775993
 30
0.0
 10
10.6613944292
 20
10.2513189613
 30
0.0
 10
10.661868602
 20
10.2513606968
 30
0.0
 10
10.6626205101
 20
10.251419567
 30
0.0
 10
10.6637004962
 20
10.2514914077
 30
0.0
 10
10.6651541204
 20
10.2515735379
 30
0.0
 10
10.6668068262
 20
10.251654347
 30
0.0
 10
10.6679732694
 20
10.251704338
 30
0.0
 10
10.6685874033
 20
10.251729194
 30
0.0
  0
SPLINE
  5
285
100
AcDbEntity
  8
0
100
AcDbSpline
 62
7
  6
CONTINUOUS
 70
0
 71
3
 72
10
 73
6
 74
0
 42
0.0000001
 43
0.0000001
 44
0.0000000001
 40
0.0
 40
0.0
 40
0.0
 40
0.0
 40
0.2086326226
 40
0.4555171634
 40
1.0
 40
1.0
 40
1.0
 40
1.0
 10
10.6685874033
 20
10.251729194
 30
0.0
 10
10.6707258923
 20
10.2518157457
 30
0.0
 10
10.67539644
 20
10.2519678082
 30
0.0
 10
10.6856521223
 20
10.2522070808
 30
0.0
 10
10.6937699527
 20
10.2523099236
 30
0.0
 10
10.6993553397
 20
10.2523499364
 30
0.0
  0
SPLINE
  5
286
100
AcDbEntity
  8
0
100
AcDbSpline
 62
7
  6
CONTINUOUS
 70
0
 71
3
 72
14
 73
10
 74
0
 42
0.0000001
 43
0.0000001
 44
0.0000000001
 40
0.0
 40
0.0
 40
0.0
 40
0.0
 40
0.0299178269
 40
0.0529285572
 40
0.0825509146
 40
0.1629121681
 40
0.2723349511
 40
0.5786174749
 40
1.0
 40
1.0
 40
1.0
 40
1.0
 10
10.639985717
 20
10.250298671
 30
0.0
 10
10.6399858526
 20
10.250278412
 30
0.0
 10
10.6400125703
 20
10.2502464214
 30
0.0
 10
10.6400590917
 20
10.2502177386
 30
0.0
 10
10.6401414267
 20
10.2501793751
 30
0.0
 10
10.6402834988
 20
10.2501357182
 30
0.0
 10
10.6406111774
 20
10.2500605328
 30
0.0
 10
10.6411720316
 20
10.2499752009
 30
0.0
 10
10.641661577
 20
10.249919138
 30
0.0
 10
10.6419454246
 20
10.2498899173
 30
0.0
  0
LINE
  5
287
100
AcDbEntity
  8
0
100
AcDbLine
 62
7
  6
CONTINUOUS
 10
10.6419454246
 20
10.2498899173
 11
10.6450334767
 21
10.2496496969
  0
LINE
  5
288
100
AcDbEntity
  8
0
100
AcDbLine
 62
7
  6
CONTINUOUS
 10
10.6450334767
 20
10.2496496969
 11
10.649163201
 21
10.2494399379
  0
LINE
  5
289
100
AcDbEntity
  8
0
100
AcDbLine
 62
7
  6
CONTINUOUS
 10
10.649163201
 20
10.2494399379
 11
10.663780769
 21
10.2490531369
  0
LINE
  5
28A
100
AcDbEntity
  8
0
100
AcDbLine
 62
7
  6
CONTINUOUS
 10
10.6685165766
 20
10.2489898922
 11
10.702825431
 21
10.2488389635
  0
LINE
  5
28B
100
AcDbEntity
  8
0
100
AcDbLine
 62
7
  6
CONTINUOUS
 10
10.702825431
 20
10.2488389635
 11
10.7099834891
 21
10.2488368354
  0
LINE
  5
28C
100
AcDbEntity
  8
0
100
AcDbLine
 62
7
  6
CONTINUOUS
 10
10.6399599335
 20
10.2508140012
 11
10.63942542
 21
10.2507897471
  0
SPLINE
  5
28D
100
AcDbEntity
  8
0
100
AcDbSpline
 62
7
  6
CONTINUOUS
 70
0
 71
3
 72
19
 73
15
 74
0
 42
0.0000001
 43
0.0000001
 44
0.0000000001
 40
0.0
 40
0.0
 40
0.0
 40
0.0
 40
0.1250544384
 40
0.1876914321
 40
0.2502250193
 40
0.3749096629
 40
0.4993212803
 40
0.623500107
 40
0.7477672421
 40
0.8102369324
 40
0.8730741138
 40
0.9046755479
 40
0.9364042892
 40
1.0
 40
1.0
 40
1.0
 40
1.0
 10
9.7578337543
 20
10.1449984227
 30
0.0
 10
9.7447113504
 20
10.1414177956
 30
0.0
 10
9.7253575784
 20
10.1346510221
 30
0.0
 10
9.7007335908
 20
10.1230184469
 30
0.0
 10
9.6770338896
 20
10.1096758455
 30
0.0
 10
9.6493564206
 20
10.0898854724
 30
0.0
 10
9.6200615836
 20
10.0615544007
 30
0.0
 10
9.5954891312
 20
10.0290830225
 30
0.0
 10
9.5796888805
 20
9.9989754991
 30
0.0
 10
9.5703945627
 20
9.9734360883
 30
0.0
 10
9.5660840573
 20
9.9568915392
 30
0.0
 10
9.5636207051
 20
9.9433858347
 30
0.0
 10
9.5618377836
 20
9.9296915807
 30
0.0
 10
9.5612889141
 20
9.9193131272
 30
0.0
 10
9.5612889141
 20
9.9123958346
 30
0.0
  0
SPLINE
  5
28E
100
AcDbEntity
  8
0
100
AcDbSpline
 62
7
  6
CONTINUOUS
 70
0
 71
3
 72
20
 73
16
 74
0
 42
0.0000001
 43
0.0000001
 44
0.0000000001
 40
0.0
 40
0.0
 40
0.0
 40
0.0
 40
0.0636024342
 40
0.0953197897
 40
0.1269135175
 40
0.189745229
 40
0.2522084234
 40
0.3144478971
 40
0.3765817486
 40
0.5007503774
 40
0.6251612878
 40
0.7498332299
 40
0.8123242236
 40
0.8749170538
 40
1.0
 40
1.0
 40
1.0
 40
1.0
 10
9.5612889141
 20
9.9123958346
 30
0.0
 10
9.5612889141
 20
9.9054770169
 30
0.0
 10
9.5618358594
 20
9.8950977312
 30
0.0
 10
9.5636206606
 20
9.8814034498
 30
0.0
 10
9.5660858529
 20
9.8678991356
 30
0.0
 10
9.5703937074
 20
9.8513550137
 30
0.0
 10
9.5773818564
 20
9.8321593025
 30
0.0
 10
9.5860281391
 20
9.8137356884
 30
0.0
 10
9.5995792055
 20
9.7903088821
 30
0.0
 10
9.6200664162
 20
9.7632269427
 30
0.0
 10
9.6493626344
 20
9.7349029971
 30
0.0
 10
9.6770399991
 20
9.7151142211
 30
0.0
 10
9.7007316977
 20
9.7017736685
 30
0.0
 10
9.7253510838
 20
9.6901385419
 30
0.0
 10
9.7447068529
 20
9.6833751008
 30
0.0
 10
9.7578337543
 20
9.6797932464
 30
0.0
  0
SPLINE
  5
28F
100
AcDbEntity
  8
0
100
AcDbSpline
 62
7
  6
CONTINUOUS
 70
0
 71
3
 72
9
 73
5
 74
0
 42
0.0000001
 43
0.0000001
 44
0.0000000001
 40
0.0
 40
0.0
 40
0.0
 40
0.0
 40
0.523701783
 40
1.0
 40
1.0
 40
1.0
 40
1.0
 10
10.7446928772
 20
10.2184550226
 30
0.0
 10
10.7472096239
 20
10.2187013989
 30
0.0
 10
10.7520091037
 20
10.2192385556
 30
0.0
 10
10.7567885457
 20
10.2199355481
 30
0.0
 10
10.7590565268
 20
10.2203172783
 30
0.0
  0
SPLINE
  5
290
100
AcDbEntity
  8
0
100
AcDbSpline
 62
7
  6
CONTINUOUS
 70
0
 71
3
 72
18
 73
14
 74
0
 42
0.0000001
 43
0.0000001
 44
0.0000000001
 40
0.0
 40
0.0
 40
0.0
 40
0.0
 40
0.2045707037
 40
0.3873248906
 40
0.5468913846
 40
0.6823356289
 40
0.7934229888
 40
0.8399967054
 40
0.8808415159
 40
0.9163839668
 40
0.9473031548
 40
0.97465888
 40
1.0
 40
1.0
 40
1.0
 40
1.0
 10
10.7590565268
 20
10.2203172783
 30
0.0
 10
10.7606349398
 20
10.2205829454
 30
0.0
 10
10.7636160963
 20
10.2211319515
 30
0.0
 10
10.7677921122
 20
10.2220706441
 30
0.0
 10
10.7713966072
 20
10.2230697921
 30
0.0
 10
10.7743979087
 20
10.2241199268
 30
0.0
 10
10.7764900097
 20
10.2250748312
 30
0.0
 10
10.7778212678
 20
10.2258783276
 30
0.0
 10
10.7785950661
 20
10.2264531669
 30
0.0
 10
10.7792039839
 20
10.2270352128
 30
0.0
 10
10.7796470092
 20
10.2276260093
 30
0.0
 10
10.7799201913
 20
10.2282273511
 30
0.0
 10
10.7799834891
 20
10.2286416509
 30
0.0
 10
10.7799834891
 20
10.2288399265
 30
0.0
  0
SPLINE
  5
291
100
AcDbEntity
  8
0
100
AcDbSpline
 62
7
  6
CONTINUOUS
 70
0
 71
3
 72
15
 73
11
 74
0
 42
0.0000001
 43
0.0000001
 44
0.0000000001
 40
0.0
 40
0.0
 40
0.0
 40
0.0
 40
0.3245936761
 40
0.4767449716
 40
0.6169676593
 40
0.7420100798
 40
0.8490559374
 40
0.93562765
 40
0.970677077
 40
1.0
 40
1.0
 40
1.0
 40
1.0
 10
10.7411350091
 20
10.2435431979
 30
0.0
 10
10.7437379377
 20
10.2434906073
 30
0.0
 10
10.7475602566
 20
10.2433430483
 30
0.0
 10
10.752496847
 20
10.2429954313
 30
0.0
 10
10.7558303398
 20
10.2426806671
 30
0.0
 10
10.7587946475
 20
10.2423149768
 30
0.0
 10
10.7613185019
 20
10.2419085284
 30
0.0
 10
10.7631136362
 20
10.2415240522
 30
0.0
 10
10.7642780496
 20
10.2411911849
 30
0.0
 10
10.7647656957
 20
10.2410197404
 30
0.0
 10
10.7649834891
 20
10.2409309701
 30
0.0
  0
LINE
  5
292
100
AcDbEntity
  8
0
100
AcDbLine
 62
7
  6
CONTINUOUS
 10
10.7099834891
 20
10.2488368354
 11
10.7513307178
 21
10.2489886066
  0
LINE
  5
293
100
AcDbEntity
  8
0
100
AcDbLine
 62
7
  6
CONTINUOUS
 10
10.7600873889
 20
10.2491220894
 11
10.7701126963
 21
10.2494113322
  0
LINE
  5
294
100
AcDbEntity
  8
0
100
AcDbLine
 62
7
  6
CONTINUOUS
 10
10.7701126963
 20
10.2494113322
 11
10.7744319078
 21
10.2496194287
  0
LINE
  5
295
100
AcDbEntity
  8
0
100
AcDbLine
 62
7
  6
CONTINUOUS
 10
10.7744319078
 20
10.2496194287
 11
10.779516892
 21
10.2500983689
  0
LINE
  5
296
100
AcDbEntity
  8
0
100
AcDbLine
 62
7
  6
CONTINUOUS
 10
10.779516892
 20
10.2500983689
 11
10.779982637
 21
10.2502984516
  0
SPLINE
  5
297
100
AcDbEntity
  8
0
100
AcDbSpline
 62
7
  6
CONTINUOUS
 70
0
 71
3
 72
9
 73
5
 74
0
 42
0.0000001
 43
0.0000001
 44
0.0000000001
 40
0.0
 40
0.0
 40
0.0
 40
0.0
 40
0.4993488301
 40
1.0
 40
1.0
 40
1.0
 40
1.0
 10
10.1274238922
 20
10.0883963434
 30
0.0
 10
10.1117144622
 20
10.1015935836
 30
0.0
 10
10.0771901171
 20
10.1245559611
 30
0.0
 10
10.0385775921
 20
10.1395834054
 30
0.0
 10
10.018732453
 20
10.1449984227
 30
0.0
  0
SPLINE
  5
298
100
AcDbEntity
  8
0
100
AcDbSpline
 62
7
  6
CONTINUOUS
 70
0
 71
3
 72
9
 73
5
 74
0
 42
0.0000001
 43
0.0000001
 44
0.0000000001
 40
0.0
 40
0.0
 40
0.0
 40
0.0
 40
0.5006478536
 40
1.0
 40
1.0
 40
1.0
 40
1.0
 10
10.018732453
 20
9.6797932464
 30
0.0
 10
10.0385774617
 20
9.6852082281
 30
0.0
 10
10.0771900168
 20
9.7002355918
 30
0.0
 10
10.1117143571
 20
9.7231979972
 30
0.0
 10
10.1274238922
 20
9.7363953257
 30
0.0
  0
SPLINE
  5
299
100
AcDbEntity
  8
0
100
AcDbSpline
 62
7
  6
CONTINUOUS
 70
0
 71
3
 72
22
 73
18
 74
0
 42
0.0000001
 43
0.0000001
 44
0.0000000001
 40
0.0
 40
0.0
 40
0.0
 40
0.0
 40
0.1628917238
 40
0.2430368796
 40
0.3219301489
 40
0.3992865509
 40
0.4747388099
 40
0.5477834357
 40
0.6178886052
 40
0.684510415
 40
0.7470841408
 40
0.8049855284
 40
0.8575499623
 40
0.904085382
 40
0.9438676485
 40
0.9761159782
 40
1.0
 40
1.0
 40
1.0
 40
1.0
 10
10.2143037343
 20
9.7623958346
 30
0.0
 10
10.2092949959
 20
9.7623958346
 30
0.0
 10
10.2018166533
 20
9.7620715406
 30
0.0
 10
10.1919727339
 20
9.7610105457
 30
0.0
 10
10.1847830761
 20
9.7599238086
 30
0.0
 10
10.1777893509
 20
9.7585528974
 30
0.0
 10
10.1710372552
 20
9.7569192616
 30
0.0
 10
10.1645750304
 20
9.7550622159
 30
0.0
 10
10.1584548563
 20
9.7530190879
 30
0.0
 10
10.1527297915
 20
9.7508271739
 30
0.0
 10
10.1474538366
 20
9.748528584
 30
0.0
 10
10.1426708037
 20
9.7461940104
 30
0.0
 10
10.1384250422
 20
9.7438931632
 30
0.0
 10
10.1347628408
 20
9.7416936682
 30
0.0
 10
10.131725156
 20
9.7396754547
 30
0.0
 10
10.1293395435
 20
9.7379401054
 30
0.0
 10
10.1279862079
 20
9.7368677182
 30
0.0
 10
10.1274238922
 20
9.7363953257
 30
0.0
  0
SPLINE
  5
29A
100
AcDbEntity
  8
0
100
AcDbSpline
 62
7
  6
CONTINUOUS
 70
0
 71
3
 72
22
 73
18
 74
0
 42
0.0000001
 43
0.0000001
 44
0.0000000001
 40
0.0
 40
0.0
 40
0.0
 40
0.0
 40
0.0238721745
 40
0.0561219866
 40
0.0959112222
 40
0.1424517924
 40
0.1950174678
 40
0.2529176511
 40
0.3154893472
 40
0.3821099438
 40
0.4522149124
 40
0.5252597
 40
0.600711936
 40
0.6780680233
 40
0.756961468
 40
0.8371071364
 40
1.0
 40
1.0
 40
1.0
 40
1.0
 10
10.1274238922
 20
10.0883963434
 30
0.0
 10
10.127985929
 20
10.0879241853
 30
0.0
 10
10.1293390291
 20
10.0868520149
 30
0.0
 10
10.1317245299
 20
10.0851166916
 30
0.0
 10
10.134762523
 20
10.0830981847
 30
0.0
 10
10.1384250772
 20
10.0808984788
 30
0.0
 10
10.1426709421
 20
10.0785974895
 30
0.0
 10
10.1474539107
 20
10.0762629206
 30
0.0
 10
10.152729782
 20
10.0739644776
 30
0.0
 10
10.1584547998
 20
10.071772742
 30
0.0
 10
10.1645749214
 20
10.0697295861
 30
0.0
 10
10.1710371216
 20
10.0678724625
 30
0.0
 10
10.1777891973
 20
10.0662387635
 30
0.0
 10
10.1847829262
 20
10.064867895
 30
0.0
 10
10.1919725946
 20
10.063781158
 30
0.0
 10
10.2018165685
 20
10.0627201487
 30
0.0
 10
10.2092949611
 20
10.0623958346
 30
0.0
 10
10.2143037343
 20
10.0623958346
 30
0.0
  0
SPLINE
  5
29B
100
AcDbEntity
  8
0
100
AcDbSpline
 62
7
  6
CONTINUOUS
 70
0
 71
3
 72
15
 73
11
 74
0
 42
0.0000001
 43
0.0000001
 44
0.0000000001
 40
0.0
 40
0.0
 40
0.0
 40
0.0
 40
0.0293059218
 40
0.0643542512
 40
0.1509579117
 40
0.2580863627
 40
0.3832441496
 40
0.5235514012
 40
0.6756832922
 40
1.0
 40
1.0
 40
1.0
 40
1.0
 10
10.6599834891
 20
10.2411015032
 30
0.0
 10
10.6602013314
 20
10.241189576
 30
0.0
 10
10.6606891932
 20
10.2413594385
 30
0.0
 10
10.661854351
 20
10.2416885693
 30
0.0
 10
10.6636509561
 20
10.2420674791
 30
0.0
 10
10.6661770561
 20
10.2424660024
 30
0.0
 10
10.6691437889
 20
10.2428220451
 30
0.0
 10
10.672478594
 20
10.2431258772
 30
0.0
 10
10.6774129058
 20
10.2434571193
 30
0.0
 10
10.6812319978
 20
10.2435920132
 30
0.0
 10
10.6838319692
 20
10.2436361099
 30
0.0
  0
SPLINE
  5
29C
100
AcDbEntity
  8
0
100
AcDbSpline
 62
7
  6
CONTINUOUS
 70
0
 71
3
 72
18
 73
14
 74
0
 42
0.0000001
 43
0.0000001
 44
0.0000000001
 40
0.0
 40
0.0
 40
0.0
 40
0.0
 40
0.0253757261
 40
0.0527602396
 40
0.0837002258
 40
0.1192557074
 40
0.1601070564
 40
0.2066818944
 40
0.3177550386
 40
0.4531734787
 40
0.6127131945
 40
0.7954425948
 40
1.0
 40
1.0
 40
1.0
 40
1.0
 10
10.6399834891
 20
10.2288399265
 30
0.0
 10
10.6399834891
 20
10.2286420495
 30
0.0
 10
10.6400464943
 20
10.2282286546
 30
0.0
 10
10.640318507
 20
10.227628517
 30
0.0
 10
10.6407597223
 20
10.227038865
 30
0.0
 10
10.6413662138
 20
10.2264579316
 30
0.0
 10
10.6421369772
 20
10.2258841812
 30
0.0
 10
10.6434629854
 20
10.2250822275
 30
0.0
 10
10.6455469642
 20
10.224128912
 30
0.0
 10
10.6485369107
 20
10.2230803346
 30
0.0
 10
10.6521280523
 20
10.2220824638
 30
0.0
 10
10.6562889634
 20
10.2211446662
 30
0.0
 10
10.6592594912
 20
10.2205960025
 30
0.0
 10
10.6608323451
 20
10.2203304437
 30
0.0
  0
SPLINE
  5
29D
100
AcDbEntity
  8
0
100
AcDbSpline
 62
7
  6
CONTINUOUS
 70
0
 71
3
 72
10
 73
6
 74
0
 42
0.0000001
 43
0.0000001
 44
0.0000000001
 40
0.0
 40
0.0
 40
0.0
 40
0.0
 40
0.2231978796
 40
0.466119482
 40
1.0
 40
1.0
 40
1.0
 40
1.0
 10
10.6608323451
 20
10.2203304437
 30
0.0
 10
10.6627628458
 20
10.2200045002
 30
0.0
 10
10.6668074555
 20
10.219399736
 30
0.0
 10
10.6755181686
 20
10.218360423
 30
0.0
 10
10.6823140385
 20
10.2178205631
 30
0.0
 10
10.686988759
 20
10.2175416099
 30
0.0
  0
SPLINE
  5
29E
100
AcDbEntity
  8
0
100
AcDbSpline
 62
7
  6
CONTINUOUS
 70
0
 71
3
 72
10
 73
6
 74
0
 42
0.0000001
 43
0.0000001
 44
0.0000000001
 40
0.0
 40
0.0
 40
0.0
 40
0.0
 40
0.5431186682
 40
0.7902549344
 40
1.0
 40
1.0
 40
1.0
 40
1.0
 10
10.7202925783
 20
10.252352187
 30
0.0
 10
10.7258770595
 20
10.2523134072
 30
0.0
 10
10.7340025274
 20
10.252212252
 30
0.0
 10
10.7442823601
 20
10.2519756676
 30
0.0
 10
10.7489779566
 20
10.2518249399
 30
0.0
 10
10.7511329504
 20
10.2517390971
 30
0.0
  0
SPLINE
  5
29F
100
AcDbEntity
  8
0
100
AcDbSpline
 62
7
  6
CONTINUOUS
 70
0
 71
3
 72
20
 73
16
 74
0
 42
0.0000001
 43
0.0000001
 44
0.0000000001
 40
0.0
 40
0.0
 40
0.0
 40
0.0
 40
0.2129435751
 40
0.4045325116
 40
0.5734216412
 40
0.7176735712
 40
0.7798881219
 40
0.8350812628
 40
0.8828953584
 40
0.9229767351
 40
0.9549756652
 40
0.9785297604
 40
0.9933511563
 40
0.9975395527
 40
1.0
 40
1.0
 40
1.0
 40
1.0
 10
10.7511329504
 20
10.2517390971
 30
0.0
 10
10.7517640401
 20
10.2517139581
 30
0.0
 10
10.752962822
 20
10.2516633616
 30
0.0
 10
10.7546616298
 20
10.2515814752
 30
0.0
 10
10.7561563536
 20
10.2514981652
 30
0.0
 10
10.7572672963
 20
10.2514252316
 30
0.0
 10
10.758041085
 20
10.2513654378
 30
0.0
 10
10.7585292917
 20
10.2513230283
 30
0.0
 10
10.758951655
 20
10.2512809827
 30
0.0
 10
10.7593047716
 20
10.2512396349
 30
0.0
 10
10.7595858456
 20
10.2511991458
 30
0.0
 10
10.7597904641
 20
10.2511608149
 30
0.0
 10
10.7599135066
 20
10.2511265542
 30
0.0
 10
10.7599700095
 20
10.2510985064
 30
0.0
 10
10.7599834146
 20
10.2510805646
 30
0.0
 10
10.7599832543
 20
10.2510732687
 30
0.0
  0
SPLINE
  5
2A0
100
AcDbEntity
  8
0
100
AcDbSpline
 62
7
  6
CONTINUOUS
 70
0
 71
3
 72
15
 73
11
 74
0
 42
0.0000001
 43
0.0000001
 44
0.0000000001
 40
0.0
 40
0.0
 40
0.0
 40
0.0
 40
0.0414694515
 40
0.0692626257
 40
0.103066583
 40
0.1900997245
 40
0.3038168742
 40
0.4437699711
 40
0.6080679157
 40
1.0
 40
1.0
 40
1.0
 40
1.0
 10
10.6599834891
 20
10.2328944894
 30
0.0
 10
10.6599834891
 20
10.2329317501
 30
0.0
 10
10.6600158646
 20
10.232992228
 30
0.0
 10
10.6600836043
 20
10.2330544044
 30
0.0
 10
10.6601944108
 20
10.2331302671
 30
0.0
 10
10.6603864516
 20
10.2332190625
 30
0.0
 10
10.6606766462
 20
10.2333173942
 30
0.0
 10
10.6610405974
 20
10.2334111186
 30
0.0
 10
10.661653619
 20
10.2335363127
 30
0.0
 10
10.6621489122
 20
10.2336068152
 30
0.0
 10
10.662498615
 20
10.233648299
 30
0.0
  0
LINE
  5
2A1
100
AcDbEntity
  8
0
100
AcDbLine
 62
7
  6
CONTINUOUS
 10
10.662498615
 20
10.233648299
 11
10.6649834891
 21
10.2338248684
  0
SPLINE
  5
2A2
100
AcDbEntity
  8
0
100
AcDbSpline
 62
7
  6
CONTINUOUS
 70
0
 71
3
 72
16
 73
12
 74
0
 42
0.0000001
 43
0.0000001
 44
0.0000000001
 40
0.0
 40
0.0
 40
0.0
 40
0.0
 40
0.3713332379
 40
0.5399496786
 40
0.6875665446
 40
0.8097200152
 40
0.8600028446
 40
0.9026244815
 40
0.9375380466
 40
0.9648977359
 40
1.0
 40
1.0
 40
1.0
 40
1.0
 10
10.7599834891
 20
10.2336698445
 30
0.0
 10
10.7606251074
 20
10.2336489032
 30
0.0
 10
10.7615576213
 20
10.2335909382
 30
0.0
 10
10.7627388861
 20
10.2334563831
 30
0.0
 10
10.7634876828
 20
10.2333375827
 30
0.0
 10
10.7640289873
 20
10.2332208552
 30
0.0
 10
10.764386233
 20
10.233116404
 30
0.0
 10
10.7645938207
 20
10.2330417392
 30
0.0
 10
10.764759902
 20
10.2329642387
 30
0.0
 10
10.7648994149
 20
10.2328783575
 30
0.0
 10
10.7649834891
 20
10.2327837268
 30
0.0
 10
10.7649834891
 20
10.2327230421
 30
0.0
  0
SPLINE
  5
2A3
100
AcDbEntity
  8
0
100
AcDbSpline
 62
9
  6
CONTINUOUS
 70
0
 71
3
 72
18
 73
14
 74
0
 42
0.0000001
 43
0.0000001
 44
0.0000000001
 40
0.0
 40
0.0
 40
0.0
 40
0.0
 40
0.0515480299
 40
0.104192701
 40
0.1581903898
 40
0.2137401789
 40
0.2709809419
 40
0.3299917153
 40
0.4532572733
 40
0.5832249052
 40
0.7187904075
 40
0.858354145
 40
1.0
 40
1.0
 40
1.0
 40
1.0
 10
10.0187324463
 20
10.1449983733
 30
0.0
 10
10.0235006179
 20
10.1436972439
 30
0.0
 10
10.0329903927
 20
10.1404911107
 30
0.0
 10
10.0467426594
 20
10.1340237101
 30
0.0
 10
10.0600418668
 20
10.1259066273
 30
0.0
 10
10.0727873315
 20
10.1162043661
 30
0.0
 10
10.084887525
 20
10.1049905556
 30
0.0
 10
10.1002611306
 20
10.0878944155
 30
0.0
 10
10.1173072015
 20
10.0631059162
 30
0.0
 10
10.1335850547
 20
10.0294312001
 30
0.0
 10
10.1455519653
 20
9.9923563204
 30
0.0
 10
10.1528688491
 20
9.9529695695
 30
0.0
 10
10.1545064259
 20
9.9259770707
 30
0.0
 10
10.1545064259
 20
9.9123958346
 30
0.0
  0
SPLINE
  5
2A4
100
AcDbEntity
  8
0
100
AcDbSpline
 62
9
  6
CONTINUOUS
 70
0
 71
3
 72
18
 73
14
 74
0
 42
0.0000001
 43
0.0000001
 44
0.0000000001
 40
0.0
 40
0.0
 40
0.0
 40
0.0
 40
0.0515480299
 40
0.104192701
 40
0.1581903898
 40
0.2137401789
 40
0.2709809419
 40
0.3299917153
 40
0.4532572733
 40
0.5832249052
 40
0.7187904075
 40
0.858354145
 40
1.0
 40
1.0
 40
1.0
 40
1.0
 10
10.0187324463
 20
9.6797932959
 30
0.0
 10
10.0235006179
 20
9.6810944253
 30
0.0
 10
10.0329903927
 20
9.6843005584
 30
0.0
 10
10.0467426594
 20
9.690767959
 30
0.0
 10
10.0600418668
 20
9.6988850419
 30
0.0
 10
10.0727873315
 20
9.7085873031
 30
0.0
 10
10.084887525
 20
9.7198011135
 30
0.0
 10
10.1002611306
 20
9.7368972536
 30
0.0
 10
10.1173072015
 20
9.7616857529
 30
0.0
 10
10.1335850547
 20
9.795360469
 30
0.0
 10
10.1455519653
 20
9.8324353488
 30
0.0
 10
10.1528688491
 20
9.8718220997
 30
0.0
 10
10.1545064259
 20
9.8988145984
 30
0.0
 10
10.1545064259
 20
9.9123958346
 30
0.0
  0
SPLINE
  5
2A5
100
AcDbEntity
  8
0
100
AcDbSpline
 62
9
  6
CONTINUOUS
 70
0
 71
3
 72
14
 73
10
 74
0
 42
0.0000001
 43
0.0000001
 44
0.0000000001
 40
0.0
 40
0.0
 40
0.0
 40
0.0
 40
0.110007842
 40
0.2251201196
 40
0.3452603028
 40
0.4700461194
 40
0.5988426349
 40
0.7308181447
 40
1.0
 40
1.0
 40
1.0
 40
1.0
 10
10.1274238748
 20
10.0883963019
 30
0.0
 10
10.1329092607
 20
10.0837882313
 30
0.0
 10
10.1434461763
 20
10.0735142257
 30
0.0
 10
10.1573689281
 20
10.055787984
 30
0.0
 10
10.1695526537
 20
10.0356924368
 30
0.0
 10
10.1797988033
 20
10.0135659327
 30
0.0
 10
10.187945876
 20
9.9897675123
 30
0.0
 10
10.1958802874
 20
9.9561412019
 30
0.0
 10
10.1982491133
 20
9.9299258149
 30
0.0
 10
10.1982491133
 20
9.9123958346
 30
0.0
  0
SPLINE
  5
2A6
100
AcDbEntity
  8
0
100
AcDbSpline
 62
9
  6
CONTINUOUS
 70
0
 71
3
 72
20
 73
16
 74
0
 42
0.0000001
 43
0.0000001
 44
0.0000000001
 40
0.0
 40
0.0
 40
0.0
 40
0.0
 40
0.051476215
 40
0.1034408147
 40
0.1563516729
 40
0.2106039506
 40
0.2665222821
 40
0.3243314509
 40
0.3841768955
 40
0.4461090954
 40
0.5759273443
 40
0.712847911
 40
0.8550402496
 40
0.9274057341
 40
1.0
 40
1.0
 40
1.0
 40
1.0
 10
10.2143037343
 20
10.0623944976
 30
0.0
 10
10.2177775058
 20
10.0623944301
 30
0.0
 10
10.2247676928
 20
10.0619086475
 30
0.0
 10
10.2351220874
 20
10.0597239974
 30
0.0
 10
10.2452683972
 20
10.0561133635
 30
0.0
 10
10.2551055141
 20
10.0511156672
 30
0.0
 10
10.2645359914
 20
10.0447786528
 30
0.0
 10
10.2734764309
 20
10.0371750062
 30
0.0
 10
10.281837071
 20
10.0283716509
 30
0.0
 10
10.2922743139
 20
10.0149509971
 30
0.0
 10
10.3033666009
 20
9.9955999712
 30
0.0
 10
10.3130689236
 20
9.9696558983
 30
0.0
 10
10.3180137457
 20
9.9463652912
 30
0.0
 10
10.3200279784
 20
9.9270809535
 30
0.0
 10
10.3203697515
 20
9.9172947164
 30
0.0
 10
10.3203697515
 20
9.9123958346
 30
0.0
  0
SPLINE
  5
2A7
100
AcDbEntity
  8
0
100
AcDbSpline
 62
7
  6
CONTINUOUS
 70
0
 71
3
 72
18
 73
14
 74
0
 42
0.0000001
 43
0.0000001
 44
0.0000000001
 40
0.0
 40
0.0
 40
0.0
 40
0.0
 40
0.0501117609
 40
0.1021068714
 40
0.1561264119
 40
0.2122394687
 40
0.3304762166
 40
0.4559788953
 40
0.5872043077
 40
0.7225465194
 40
0.8605729939
 40
0.9302601256
 40
1.0
 40
1.0
 40
1.0
 40
1.0
 10
10.3564300985
 20
10.0623958346
 30
0.0
 10
10.359972671
 20
10.0623958346
 30
0.0
 10
10.3671986991
 20
10.0618784938
 30
0.0
 10
10.3780392822
 20
10.0596656192
 30
0.0
 10
10.3889351481
 20
10.0560238064
 30
0.0
 10
10.4036059746
 20
10.0492196488
 30
0.0
 10
10.4213229639
 20
10.0373110477
 30
0.0
 10
10.4403468593
 20
10.0186618585
 30
0.0
 10
10.4565717229
 20
9.9960181168
 30
0.0
 10
10.4690620199
 20
9.9701316061
 30
0.0
 10
10.4756419513
 20
9.9466402468
 30
0.0
 10
10.4783229141
 20
9.9271889565
 30
0.0
 10
10.4787810672
 20
9.9173259857
 30
0.0
 10
10.4787810672
 20
9.9123958346
 30
0.0
  0
SPLINE
  5
2A8
100
AcDbEntity
  8
0
100
AcDbSpline
 62
9
  6
CONTINUOUS
 70
0
 71
3
 72
20
 73
16
 74
0
 42
0.0000001
 43
0.0000001
 44
0.0000000001
 40
0.0
 40
0.0
 40
0.0
 40
0.0
 40
0.051476215
 40
0.1034408147
 40
0.1563516729
 40
0.2106039506
 40
0.2665222821
 40
0.3243314509
 40
0.3841768955
 40
0.4461090954
 40
0.5759273443
 40
0.712847911
 40
0.8550402496
 40
0.9274057341
 40
1.0
 40
1.0
 40
1.0
 40
1.0
 10
11.205663244
 20
9.7623971715
 30
0.0
 10
11.2021894725
 20
9.762397239
 30
0.0
 10
11.1951992854
 20
9.7628830217
 30
0.0
 10
11.1848448908
 20
9.7650676717
 30
0.0
 10
11.1746985811
 20
9.7686783057
 30
0.0
 10
11.1648614642
 20
9.7736760019
 30
0.0
 10
11.1554309869
 20
9.7800130164
 30
0.0
 10
11.1464905474
 20
9.787616663
 30
0.0
 10
11.1381299073
 20
9.7964200182
 30
0.0
 10
11.1276926643
 20
9.8098406721
 30
0.0
 10
11.1166003773
 20
9.8291916979
 30
0.0
 10
11.1068980546
 20
9.8551357709
 30
0.0
 10
11.1019532325
 20
9.878426378
 30
0.0
 10
11.0999389999
 20
9.8977107156
 30
0.0
 10
11.0995972268
 20
9.9074969527
 30
0.0
 10
11.0995972268
 20
9.9123958346
 30
0.0
  0
SPLINE
  5
2A9
100
AcDbEntity
  8
0
100
AcDbSpline
 62
7
  6
CONTINUOUS
 70
0
 71
3
 72
22
 73
18
 74
0
 42
0.0000001
 43
0.0000001
 44
0.0000000001
 40
0.0
 40
0.0
 40
0.0
 40
0.0
 40
0.0501184938
 40
0.102057055
 40
0.1560270008
 40
0.2121076187
 40
0.2702787898
 40
0.3304246178
 40
0.392386326
 40
0.4559788249
 40
0.5871476601
 40
0.6544321411
 40
0.7225551927
 40
0.7913472465
 40
0.8606649191
 40
0.930314536
 40
1.0
 40
1.0
 40
1.0
 40
1.0
 10
11.0635351428
 20
9.7623979059
 30
0.0
 10
11.059990229
 20
9.7623978609
 30
0.0
 10
11.0527633754
 20
9.7629089517
 30
0.0
 10
11.0419249342
 20
9.7651286113
 30
0.0
 10
11.031033351
 20
9.7687682728
 30
0.0
 10
11.0202180166
 20
9.773782832
 30
0.0
 10
11.009607694
 20
9.7801146105
 30
0.0
 10
10.9993274989
 20
9.7876903073
 30
0.0
 10
10.9895068884
 20
9.7964410906
 30
0.0
 10
10.9770661219
 20
9.809692944
 30
0.0
 10
10.9662081029
 20
9.8248514923
 30
0.0
 10
10.9572668096
 20
9.8414712888
 30
0.0
 10
10.9515550788
 20
9.8547587844
 30
0.0
 10
10.9469887939
 20
9.868632402
 30
0.0
 10
10.943663166
 20
9.8829672501
 30
0.0
 10
10.9416444256
 20
9.897606018
 30
0.0
 10
10.941185911
 20
9.9074669362
 30
0.0
 10
10.941185911
 20
9.9123958346
 30
0.0
  0
SPLINE
  5
2AA
100
AcDbEntity
  8
0
100
AcDbSpline
 62
7
  6
CONTINUOUS
 70
0
 71
3
 72
19
 73
15
 74
0
 42
0.0000001
 43
0.0000001
 44
0.0000000001
 40
0.0
 40
0.0
 40
0.0
 40
0.0
 40
0.0065139901
 40
0.0211619966
 40
0.0444265378
 40
0.0761274057
 40
0.1159645189
 40
0.1635890495
 40
0.2186403497
 40
0.2807558679
 40
0.4249862813
 40
0.594123607
 40
0.786263466
 40
1.0
 40
1.0
 40
1.0
 40
1.0
 10
10.6599837249
 20
10.2500724145
 30
0.0
 10
10.659984117
 20
10.2500545973
 30
0.0
 10
10.6600499124
 20
10.2500218574
 30
0.0
 10
10.6601569434
 20
10.2499960151
 30
0.0
 10
10.6603506535
 20
10.2499622786
 30
0.0
 10
10.6606057787
 20
10.2499323642
 30
0.0
 10
10.6609313415
 20
10.2499018112
 30
0.0
 10
10.6613198391
 20
10.2498727635
 30
0.0
 10
10.6617699271
 20
10.2498445813
 30
0.0
 10
10.6624840351
 20
10.2498065938
 30
0.0
 10
10.6635104588
 20
10.2497633163
 30
0.0
 10
10.6648927186
 20
10.2497176148
 30
0.0
 10
10.6664653595
 20
10.2496760813
 30
0.0
 10
10.6675755488
 20
10.2496525723
 30
0.0
 10
10.6681602021
 20
10.2496413807
 30
0.0
  0
LINE
  5
2AB
100
AcDbEntity
  8
0
100
AcDbLine
 62
7
  6
CONTINUOUS
 10
10.6681602021
 20
10.2496413807
 11
10.7001374379
 21
10.249565712
  0
SPLINE
  5
2AC
100
AcDbEntity
  8
0
100
AcDbSpline
 62
7
  6
CONTINUOUS
 70
0
 71
3
 72
18
 73
14
 74
0
 42
0.0000001
 43
0.0000001
 44
0.0000000001
 40
0.0
 40
0.0
 40
0.0
 40
0.0
 40
0.0697370121
 40
0.1394160074
 40
0.2774285198
 40
0.4127671458
 40
0.5439909497
 40
0.6694971037
 40
0.7877391016
 40
0.8438576973
 40
0.8978842485
 40
0.949885687
 40
1.0
 40
1.0
 40
1.0
 40
1.0
 10
10.4787810672
 20
9.9123958346
 30
0.0
 10
10.4787810672
 20
9.9074658843
 30
0.0
 10
10.4783233118
 20
9.8976036743
 30
0.0
 10
10.4756425946
 20
9.8781541103
 30
0.0
 10
10.4690635114
 20
9.8546644656
 30
0.0
 10
10.4565749439
 20
9.8287786321
 30
0.0
 10
10.4403509707
 20
9.8061343825
 30
0.0
 10
10.4213273398
 20
9.7874841676
 30
0.0
 10
10.4036099404
 20
9.7755744189
 30
0.0
 10
10.3889383327
 20
9.7687688877
 30
0.0
 10
10.3780411235
 20
9.7651268158
 30
0.0
 10
10.367199501
 20
9.7629135209
 30
0.0
 10
10.3599728524
 20
9.7623958346
 30
0.0
 10
10.3564300985
 20
9.7623958346
 30
0.0
  0
SPLINE
  5
2AD
100
AcDbEntity
  8
0
100
AcDbSpline
 62
7
  6
CONTINUOUS
 70
0
 71
3
 72
27
 73
23
 74
0
 42
0.0000001
 43
0.0000001
 44
0.0000000001
 40
0.0
 40
0.0
 40
0.0
 40
0.0
 40
0.0007140984
 40
0.0020478576
 40
0.0068906393
 40
0.0146301174
 40
0.0251467839
 40
0.0382888661
 40
0.0538977749
 40
0.0718271007
 40
0.091958321
 40
0.1141758316
 40
0.1383702236
 40
0.192374151
 40
0.2533993141
 40
0.321039398
 40
0.3947916974
 40
0.4736416591
 40
0.5564922668
 40
0.6422761635
 40
0.8193285407
 40
1.0
 40
1.0
 40
1.0
 40
1.0
 10
10.7599832543
 20
10.2510732687
 30
0.0
 10
10.7599830441
 20
10.2510637058
 30
0.0
 10
10.7599597479
 20
10.2510416798
 30
0.0
 10
10.7598755676
 20
10.2510108582
 30
0.0
 10
10.7596896047
 20
10.2509730683
 30
0.0
 10
10.7593841522
 20
10.2509348915
 30
0.0
 10
10.7589645929
 20
10.250896353
 30
0.0
 10
10.758440127
 20
10.2508596947
 30
0.0
 10
10.7578157399
 20
10.2508244907
 30
0.0
 10
10.757097646
 20
10.2507910549
 30
0.0
 10
10.7562908374
 20
10.2507593939
 30
0.0
 10
10.7554000027
 20
10.2507295324
 30
0.0
 10
10.7540555065
 20
10.2506906545
 30
0.0
 10
10.752191107
 20
10.2506478545
 30
0.0
 10
10.7497446389
 20
10.2506055768
 30
0.0
 10
10.7470334838
 20
10.2505722375
 30
0.0
 10
10.7440834572
 20
10.2505490961
 30
0.0
 10
10.7409296299
 20
10.2505353674
 30
0.0
 10
10.7376146176
 20
10.2505301237
 30
0.0
 10
10.7329841974
 20
10.250531983
 30
0.0
 10
10.7270434992
 20
10.2505464528
 30
0.0
 10
10.7222518699
 20
10.2505608363
 30
0.0
 10
10.7198318132
 20
10.2505668879
 30
0.0
  0
SPLINE
  5
2AE
100
AcDbEntity
  8
0
100
AcDbSpline
 62
7
  6
CONTINUOUS
 70
0
 71
3
 72
19
 73
15
 74
0
 42
0.0000001
 43
0.0000001
 44
0.0000000001
 40
0.0
 40
0.0
 40
0.0
 40
0.0
 40
0.0064343275
 40
0.0211145308
 40
0.0444718784
 40
0.0762632516
 40
0.1161578484
 40
0.163816191
 40
0.218890664
 40
0.2810293016
 40
0.4252741465
 40
0.5943739627
 40
0.7864122673
 40
1.0
 40
1.0
 40
1.0
 40
1.0
 10
10.7599834433
 20
10.2500724086
 30
0.0
 10
10.7599836299
 20
10.2500544137
 30
0.0
 10
10.7599155486
 20
10.2500207831
 30
0.0
 10
10.7598066545
 20
10.2499952777
 30
0.0
 10
10.7596075368
 20
10.2499609357
 30
0.0
 10
10.7593461819
 20
10.2499308316
 30
0.0
 10
10.7590127581
 20
10.249899915
 30
0.0
 10
10.7586152787
 20
10.2498705988
 30
0.0
 10
10.7581549078
 20
10.2498421534
 30
0.0
 10
10.7574246936
 20
10.249803859
 30
0.0
 10
10.7563753718
 20
10.249760269
 30
0.0
 10
10.7549626388
 20
10.2497143132
 30
0.0
 10
10.7533557434
 20
10.2496726228
 30
0.0
 10
10.7522215078
 20
10.2496491007
 30
0.0
 10
10.7516242392
 20
10.249637928
 30
0.0
  0
LINE
  5
2AF
100
AcDbEntity
  8
0
100
AcDbLine
 62
7
  6
CONTINUOUS
 10
10.7516242392
 20
10.249637928
 11
10.7195872749
 21
10.2495663138
  0
SPLINE
  5
2B0
100
AcDbEntity
  8
0
100
AcDbSpline
 62
7
  6
CONTINUOUS
 70
0
 71
3
 72
15
 73
11
 74
0
 42
0.0000001
 43
0.0000001
 44
0.0000000001
 40
0.0
 40
0.0
 40
0.0
 40
0.0
 40
0.0250269513
 40
0.047000114
 40
0.0761939191
 40
0.156799452
 40
0.2671429716
 40
0.4069149308
 40
0.5758163706
 40
1.0
 40
1.0
 40
1.0
 40
1.0
 10
10.779982637
 20
10.2502984516
 30
0.0
 10
10.7799830185
 20
10.2503283809
 30
0.0
 10
10.7799286825
 20
10.2503719378
 30
0.0
 10
10.7798498133
 20
10.2504081243
 30
0.0
 10
10.7796988253
 20
10.2504608875
 30
0.0
 10
10.7794432837
 20
10.2505198582
 30
0.0
 10
10.7790530621
 20
10.2505885706
 30
0.0
 10
10.7785567427
 20
10.2506568701
 30
0.0
 10
10.7776857476
 20
10.2507561068
 30
0.0
 10
10.7769790069
 20
10.2508174512
 30
0.0
 10
10.7764732663
 20
10.2508573883
 30
0.0
  0
LINE
  5
2B1
100
AcDbEntity
  8
0
100
AcDbLine
 62
7
  6
CONTINUOUS
 10
10.7764732663
 20
10.2508573883
 11
10.7667305753
 21
10.2513571482
  0
SPLINE
  5
2B2
100
AcDbEntity
  8
0
100
AcDbSpline
 62
9
  6
CONTINUOUS
 70
0
 71
3
 72
20
 73
16
 74
0
 42
0.0000001
 43
0.0000001
 44
0.0000000001
 40
0.0
 40
0.0
 40
0.0
 40
0.0
 40
0.0726569798
 40
0.1450508955
 40
0.2872232842
 40
0.4240578813
 40
0.5537790005
 40
0.6156719756
 40
0.6754916483
 40
0.7332906949
 40
0.7892169081
 40
0.8434950373
 40
0.8964469308
 40
0.9484647354
 40
1.0
 40
1.0
 40
1.0
 40
1.0
 10
10.3203631377
 20
9.9107207514
 30
0.0
 10
10.3203247393
 20
9.9058582966
 30
0.0
 10
10.3199113654
 20
9.8961498057
 30
0.0
 10
10.3177750374
 20
9.8770351363
 30
0.0
 10
10.3127185293
 20
9.8539760202
 30
0.0
 10
10.3029443997
 20
9.8283189732
 30
0.0
 10
10.2918447425
 20
9.8092031098
 30
0.0
 10
10.2814321813
 20
9.7959554527
 30
0.0
 10
10.273102935
 20
9.7872679867
 30
0.0
 10
10.2642053619
 20
9.7797669426
 30
0.0
 10
10.2548277946
 20
9.7735173236
 30
0.0
 10
10.2450525289
 20
9.7685888398
 30
0.0
 10
10.2349741574
 20
9.7650299055
 30
0.0
 10
10.2246926332
 20
9.7628757725
 30
0.0
 10
10.2177527589
 20
9.7623971045
 30
0.0
 10
10.2143037343
 20
9.7623971715
 30
0.0
  0
SPLINE
  5
2B3
100
AcDbEntity
  8
0
100
AcDbSpline
 62
9
  6
CONTINUOUS
 70
0
 71
3
 72
14
 73
10
 74
0
 42
0.0000001
 43
0.0000001
 44
0.0000000001
 40
0.0
 40
0.0
 40
0.0
 40
0.0
 40
0.2692631845
 40
0.4011963108
 40
0.5299330755
 40
0.6546671214
 40
0.7747848099
 40
0.8899190384
 40
1.0
 40
1.0
 40
1.0
 40
1.0
 10
10.1982400872
 20
9.9101097771
 30
0.0
 10
10.1981032341
 20
9.8927798182
 30
0.0
 10
10.1955836654
 20
9.8668884599
 30
0.0
 10
10.1875523704
 20
9.833702047
 30
0.0
 10
10.1793881215
 20
9.8102315832
 30
0.0
 10
10.1691760629
 20
9.7884136378
 30
0.0
 10
10.1570738038
 20
9.7685947833
 30
0.0
 10
10.143274514
 20
9.7511016737
 30
0.0
 10
10.1328488132
 20
9.740952632
 30
0.0
 10
10.1274238839
 20
9.7363953456
 30
0.0
  0
LINE
  5
2B4
100
AcDbEntity
  8
0
100
AcDbLine
 62
7
  6
CONTINUOUS
 10
10.7711339726
 20
10.2501744248
 11
10.775333418
 21
10.2499397035
  0
LINE
  5
2B5
100
AcDbEntity
  8
0
100
AcDbLine
 62
7
  6
CONTINUOUS
 10
10.6471697264
 20
10.2500913387
 11
10.653235684
 21
10.2503564512
  0
SPLINE
  5
2B6
100
AcDbEntity
  8
0
100
AcDbSpline
 62
7
  6
CONTINUOUS
 70
0
 71
3
 72
13
 73
9
 74
0
 42
0.0000001
 43
0.0000001
 44
0.0000000001
 40
0.0
 40
0.0
 40
0.0
 40
0.0
 40
0.3337216221
 40
0.6212461568
 40
0.742874351
 40
0.8474295237
 40
0.9335263565
 40
1.0
 40
1.0
 40
1.0
 40
1.0
 10
10.67585837
 20
10.246459098
 30
0.0
 10
10.6740883123
 20
10.2464705856
 30
0.0
 10
10.6707933436
 20
10.2465202346
 30
0.0
 10
10.6668551292
 20
10.2466640561
 30
0.0
 10
10.6641353984
 20
10.2468315478
 30
0.0
 10
10.6624844876
 20
10.2469686641
 30
0.0
 10
10.6611291582
 20
10.2471215806
 30
0.0
 10
10.6603289406
 20
10.2472466266
 30
0.0
 10
10.6599834891
 20
10.2473171831
 30
0.0
  0
SPLINE
  5
2B7
100
AcDbEntity
  8
0
100
AcDbSpline
 62
9
  6
CONTINUOUS
 70
0
 71
3
 72
31
 73
27
 74
0
 42
0.0000001
 43
0.0000001
 44
0.0000000001
 40
0.0
 40
0.0
 40
0.0
 40
0.0
 40
0.0724563265
 40
0.1435379795
 40
0.2120137917
 40
0.2769258357
 40
0.3078945794
 40
0.3378198282
 40
0.3667277791
 40
0.3946885234
 40
0.4218176166
 40
0.4482750064
 40
0.4742596697
 40
0.5000000028
 40
0.5257403334
 40
0.5517249921
 40
0.5781823792
 40
0.6053114749
 40
0.633272227
 40
0.6621801856
 40
0.6921054348
 40
0.72307417
 40
0.7879862088
 40
0.8564620348
 40
0.9275436828
 40
1.0
 40
1.0
 40
1.0
 40
1.0
 10
9.5641344159
 20
9.9123958346
 30
0.0
 10
9.5641344159
 20
9.9054212331
 30
0.0
 10
9.5650880742
 20
9.8915847986
 30
0.0
 10
9.5693424525
 20
9.8715551312
 30
0.0
 10
9.5762606647
 20
9.8530477407
 30
0.0
 10
9.5841743063
 20
9.8392461017
 30
0.0
 10
9.5916180473
 20
9.8296730428
 30
0.0
 10
9.5975825327
 20
9.8233948481
 30
0.0
 10
9.6039581858
 20
9.8179697649
 30
0.0
 10
9.6106857999
 20
9.8134512521
 30
0.0
 10
9.6177018107
 20
9.8098856062
 30
0.0
 10
9.624938746
 20
9.8073102162
 30
0.0
 10
9.6323255528
 20
9.8057531615
 30
0.0
 10
9.6397882015
 20
9.8052320796
 30
0.0
 10
9.6472508498
 20
9.8057531617
 30
0.0
 10
9.6546376557
 20
9.8073102161
 30
0.0
 10
9.6618745905
 20
9.809885606
 30
0.0
 10
9.6688906021
 20
9.8134512521
 30
0.0
 10
9.6756182176
 20
9.817969766
 30
0.0
 10
9.6819938716
 20
9.8233948505
 30
0.0
 10
9.6879583569
 20
9.8296730451
 30
0.0
 10
9.6954020965
 20
9.8392461035
 30
0.0
 10
9.703315738
 20
9.8530477425
 30
0.0
 10
9.7102339502
 20
9.8715551334
 30
0.0
 10
9.7144883279
 20
9.8915848009
 30
0.0
 10
9.715441986
 20
9.905421234
 30
0.0
 10
9.715441986
 20
9.9123958346
 30
0.0
  0
SPLINE
  5
2B8
100
AcDbEntity
  8
0
100
AcDbSpline
 62
9
  6
CONTINUOUS
 70
0
 71
3
 72
31
 73
27
 74
0
 42
0.0000001
 43
0.0000001
 44
0.0000000001
 40
0.0
 40
0.0
 40
0.0
 40
0.0
 40
0.0724563265
 40
0.1435379795
 40
0.2120137917
 40
0.2769258357
 40
0.3078945794
 40
0.3378198282
 40
0.3667277791
 40
0.3946885234
 40
0.4218176166
 40
0.4482750064
 40
0.4742596697
 40
0.5000000028
 40
0.5257403334
 40
0.5517249921
 40
0.5781823792
 40
0.6053114749
 40
0.633272227
 40
0.6621801856
 40
0.6921054348
 40
0.72307417
 40
0.7879862088
 40
0.8564620348
 40
0.9275436828
 40
1.0
 40
1.0
 40
1.0
 40
1.0
 10
9.715441986
 20
9.9123958346
 30
0.0
 10
9.715441986
 20
9.9193704361
 30
0.0
 10
9.7144883277
 20
9.9332068706
 30
0.0
 10
9.7102339494
 20
9.953236538
 30
0.0
 10
9.7033157373
 20
9.9717439284
 30
0.0
 10
9.6954020956
 20
9.9855455674
 30
0.0
 10
9.6879583546
 20
9.9951186264
 30
0.0
 10
9.6819938692
 20
10.001396821
 30
0.0
 10
9.6756182162
 20
10.0068219042
 30
0.0
 10
9.668890602
 20
10.011340417
 30
0.0
 10
9.6618745912
 20
10.014906063
 30
0.0
 10
9.654637656
 20
10.0174814529
 30
0.0
 10
9.6472508491
 20
10.0190385076
 30
0.0
 10
9.6397882004
 20
10.0195595896
 30
0.0
 10
9.6323255521
 20
10.0190385075
 30
0.0
 10
9.6249387462
 20
10.0174814531
 30
0.0
 10
9.6177018114
 20
10.0149060632
 30
0.0
 10
9.6106857999
 20
10.0113404171
 30
0.0
 10
9.6039581844
 20
10.0068219031
 30
0.0
 10
9.5975825303
 20
10.0013968187
 30
0.0
 10
9.591618045
 20
9.995118624
 30
0.0
 10
9.5841743054
 20
9.9855455657
 30
0.0
 10
9.5762606639
 20
9.9717439266
 30
0.0
 10
9.5693424517
 20
9.9532365357
 30
0.0
 10
9.565088074
 20
9.9332068683
 30
0.0
 10
9.5641344159
 20
9.9193704352
 30
0.0
 10
9.5641344159
 20
9.9123958346
 30
0.0
  0
SPLINE
  5
2B9
100
AcDbEntity
  8
0
100
AcDbSpline
 62
7
  6
CONTINUOUS
 70
0
 71
3
 72
12
 73
8
 74
0
 42
0.0000001
 43
0.0000001
 44
0.0000000001
 40
0.0
 40
0.0
 40
0.0
 40
0.0
 40
0.3024662975
 40
0.5831208308
 40
0.8211075404
 40
0.918882848
 40
1.0
 40
1.0
 40
1.0
 40
1.0
 10
10.6732499883
 20
10.239264159
 30
0.0
 10
10.6719093726
 20
10.2392321302
 30
0.0
 10
10.6693235755
 20
10.2392110749
 30
0.0
 10
10.6656837885
 20
10.2393035035
 30
0.0
 10
10.6629553082
 20
10.2394848696
 30
0.0
 10
10.6611194278
 20
10.2397009748
 30
0.0
 10
10.6603360332
 20
10.2398281761
 30
0.0
 10
10.6599834891
 20
10.2398992478
 30
0.0
  0
SPLINE
  5
2BA
100
AcDbEntity
  8
0
100
AcDbSpline
 62
7
  6
CONTINUOUS
 70
0
 71
3
 72
19
 73
15
 74
0
 42
0.0000001
 43
0.0000001
 44
0.0000000001
 40
0.0
 40
0.0
 40
0.0
 40
0.0
 40
0.2281356396
 40
0.4273078689
 40
0.5974352922
 40
0.7382203105
 40
0.8492711205
 40
0.8935108752
 40
0.9301268742
 40
0.9590039207
 40
0.9800653122
 40
0.9876802764
 40
0.9934090323
 40
1.0
 40
1.0
 40
1.0
 40
1.0
 10
10.6532401414
 20
10.2513572881
 30
0.0
 10
10.6522258749
 20
10.2513201534
 30
0.0
 10
10.650326285
 20
10.2512455897
 30
0.0
 10
10.6476712116
 20
10.2511221913
 30
0.0
 10
10.6454054034
 20
10.2509954522
 30
0.0
 10
10.6435325595
 20
10.2508658035
 30
0.0
 10
10.6422203219
 20
10.2507500334
 30
0.0
 10
10.6413720468
 20
10.2506521208
 30
0.0
 10
10.6408886509
 20
10.2505847464
 30
0.0
 10
10.6405089421
 20
10.2505170055
 30
0.0
 10
10.6402605196
 20
10.2504588398
 30
0.0
 10
10.6401142411
 20
10.2504068499
 30
0.0
 10
10.6400375579
 20
10.2503709213
 30
0.0
 10
10.6399855207
 20
10.2503279927
 30
0.0
 10
10.639985717
 20
10.250298671
 30
0.0
  0
SPLINE
  5
2BB
100
AcDbEntity
  8
0
100
AcDbSpline
 62
9
  6
CONTINUOUS
 70
0
 71
3
 72
22
 73
18
 74
0
 42
0.0000001
 43
0.0000001
 44
0.0000000001
 40
0.0
 40
0.0
 40
0.0
 40
0.0
 40
0.0528611002
 40
0.105262983
 40
0.157834637
 40
0.2111909846
 40
0.2658838361
 40
0.3223641999
 40
0.380960061
 40
0.4418688795
 40
0.5051611641
 40
0.5707909554
 40
0.6386098591
 40
0.7083824702
 40
0.7798017725
 40
0.852504677
 40
1.0
 40
1.0
 40
1.0
 40
1.0
 10
9.757833761
 20
9.6797932957
 30
0.0
 10
9.7638146788
 20
9.6781612344
 30
0.0
 10
9.7759897655
 20
9.6757981893
 30
0.0
 10
9.7945608046
 20
9.675125625
 30
0.0
 10
9.8130711754
 20
9.677359282
 30
0.0
 10
9.8312771031
 20
9.6824669462
 30
0.0
 10
9.8489509637
 20
9.6903744008
 30
0.0
 10
9.8658768267
 20
9.7009728355
 30
0.0
 10
9.8818538053
 20
9.7141231717
 30
0.0
 10
9.8966952001
 20
9.7296593633
 30
0.0
 10
9.9102286969
 20
9.7473901937
 30
0.0
 10
9.9222970606
 20
9.7671005715
 30
0.0
 10
9.9327595867
 20
9.7885534749
 30
0.0
 10
9.9414935202
 20
9.811490625
 30
0.0
 10
9.948396558
 20
9.8356405594
 30
0.0
 10
9.955078877
 20
9.8692088647
 30
0.0
 10
9.9570765211
 20
9.8950974518
 30
0.0
 10
9.9570765211
 20
9.9123958346
 30
0.0
  0
SPLINE
  5
2BC
100
AcDbEntity
  8
0
100
AcDbSpline
 62
9
  6
CONTINUOUS
 70
0
 71
3
 72
31
 73
27
 74
0
 42
0.0000001
 43
0.0000001
 44
0.0000000001
 40
0.0
 40
0.0
 40
0.0
 40
0.0
 40
0.0724563265
 40
0.1435379795
 40
0.2120137917
 40
0.2769258357
 40
0.3078945794
 40
0.3378198282
 40
0.3667277791
 40
0.3946885234
 40
0.4218176166
 40
0.4482750064
 40
0.4742596697
 40
0.5000000028
 40
0.5257403334
 40
0.5517249921
 40
0.5781823792
 40
0.6053114749
 40
0.633272227
 40
0.6621801856
 40
0.6921054348
 40
0.72307417
 40
0.7879862088
 40
0.8564620348
 40
0.9275436828
 40
1.0
 40
1.0
 40
1.0
 40
1.0
 10
11.7045249923
 20
9.9123958346
 30
0.0
 10
11.7045249923
 20
9.9054212331
 30
0.0
 10
11.7054786506
 20
9.8915847986
 30
0.0
 10
11.7097330288
 20
9.8715551312
 30
0.0
 10
11.716651241
 20
9.8530477407
 30
0.0
 10
11.7245648827
 20
9.8392461017
 30
0.0
 10
11.7320086236
 20
9.8296730428
 30
0.0
 10
11.737973109
 20
9.8233948481
 30
0.0
 10
11.7443487621
 20
9.8179697649
 30
0.0
 10
11.7510763762
 20
9.8134512521
 30
0.0
 10
11.758092387
 20
9.8098856062
 30
0.0
 10
11.7653293223
 20
9.8073102162
 30
0.0
 10
11.7727161291
 20
9.8057531615
 30
0.0
 10
11.7801787779
 20
9.8052320796
 30
0.0
 10
11.7876414262
 20
9.8057531617
 30
0.0
 10
11.7950282321
 20
9.8073102161
 30
0.0
 10
11.8022651669
 20
9.809885606
 30
0.0
 10
11.8092811784
 20
9.8134512521
 30
0.0
 10
11.8160087939
 20
9.817969766
 30
0.0
 10
11.8223844479
 20
9.8233948505
 30
0.0
 10
11.8283489332
 20
9.8296730451
 30
0.0
 10
11.8357926729
 20
9.8392461035
 30
0.0
 10
11.8437063144
 20
9.8530477425
 30
0.0
 10
11.8506245266
 20
9.8715551334
 30
0.0
 10
11.8548789043
 20
9.8915848009
 30
0.0
 10
11.8558325623
 20
9.905421234
 30
0.0
 10
11.8558325623
 20
9.9123958346
 30
0.0
  0
SPLINE
  5
2BD
100
AcDbEntity
  8
0
100
AcDbSpline
 62
9
  6
CONTINUOUS
 70
0
 71
3
 72
22
 73
18
 74
0
 42
0.0000001
 43
0.0000001
 44
0.0000000001
 40
0.0
 40
0.0
 40
0.0
 40
0.0
 40
0.1474953108
 40
0.220198198
 40
0.291617488
 40
0.3613901037
 40
0.4292090245
 40
0.4948388259
 40
0.5581311088
 40
0.619039924
 40
0.6776357848
 40
0.7341161499
 40
0.7888090055
 40
0.8421653576
 40
0.8947370135
 40
0.9471388984
 40
1.0
 40
1.0
 40
1.0
 40
1.0
 10
11.4628904572
 20
9.9123958346
 30
0.0
 10
11.4628904572
 20
9.9296942159
 30
0.0
 10
11.4648881009
 20
9.9555827995
 30
0.0
 10
11.471570418
 20
9.9891511001
 30
0.0
 10
11.4784734542
 20
10.013301032
 30
0.0
 10
11.4872073869
 20
10.0362381835
 30
0.0
 10
11.4976699138
 20
10.0576910906
 30
0.0
 10
11.5097382786
 20
10.0774014713
 30
0.0
 10
11.5232717754
 20
10.0951323025
 30
0.0
 10
11.5381131694
 20
10.1106684939
 30
0.0
 10
11.5540901474
 20
10.1238188304
 30
0.0
 10
11.5710160105
 20
10.134417266
 30
0.0
 10
11.5886898719
 20
10.1423247216
 30
0.0
 10
11.6068958007
 20
10.1474323867
 30
0.0
 10
11.6254061724
 20
10.1496660439
 30
0.0
 10
11.6439772122
 20
10.1489934798
 30
0.0
 10
11.6561522993
 20
10.1466304345
 30
0.0
 10
11.6621332172
 20
10.1449983733
 30
0.0
  0
SPLINE
  5
2BE
100
AcDbEntity
  8
0
100
AcDbSpline
 62
9
  6
CONTINUOUS
 70
0
 71
3
 72
31
 73
27
 74
0
 42
0.0000001
 43
0.0000001
 44
0.0000000001
 40
0.0
 40
0.0
 40
0.0
 40
0.0
 40
0.0724563265
 40
0.1435379795
 40
0.2120137917
 40
0.2769258357
 40
0.3078945794
 40
0.3378198282
 40
0.3667277791
 40
0.3946885234
 40
0.4218176166
 40
0.4482750064
 40
0.4742596697
 40
0.5000000028
 40
0.5257403334
 40
0.5517249921
 40
0.5781823792
 40
0.6053114749
 40
0.633272227
 40
0.6621801856
 40
0.6921054348
 40
0.72307417
 40
0.7879862088
 40
0.8564620348
 40
0.9275436828
 40
1.0
 40
1.0
 40
1.0
 40
1.0
 10
11.8558325623
 20
9.9123958346
 30
0.0
 10
11.8558325623
 20
9.9193704361
 30
0.0
 10
11.8548789041
 20
9.9332068706
 30
0.0
 10
11.8506245258
 20
9.953236538
 30
0.0
 10
11.8437063136
 20
9.9717439284
 30
0.0
 10
11.8357926719
 20
9.9855455674
 30
0.0
 10
11.828348931
 20
9.9951186264
 30
0.0
 10
11.8223844456
 20
10.001396821
 30
0.0
 10
11.8160087925
 20
10.0068219042
 30
0.0
 10
11.8092811784
 20
10.011340417
 30
0.0
 10
11.8022651676
 20
10.014906063
 30
0.0
 10
11.7950282323
 20
10.0174814529
 30
0.0
 10
11.7876414255
 20
10.0190385076
 30
0.0
 10
11.7801787767
 20
10.0195595896
 30
0.0
 10
11.7727161284
 20
10.0190385075
 30
0.0
 10
11.7653293225
 20
10.0174814531
 30
0.0
 10
11.7580923878
 20
10.0149060632
 30
0.0
 10
11.7510763762
 20
10.0113404171
 30
0.0
 10
11.7443487607
 20
10.0068219031
 30
0.0
 10
11.7379731067
 20
10.0013968187
 30
0.0
 10
11.7320086214
 20
9.995118624
 30
0.0
 10
11.7245648817
 20
9.9855455657
 30
0.0
 10
11.7166512402
 20
9.9717439266
 30
0.0
 10
11.7097330281
 20
9.9532365357
 30
0.0
 10
11.7054786503
 20
9.9332068683
 30
0.0
 10
11.7045249923
 20
9.9193704352
 30
0.0
 10
11.7045249923
 20
9.9123958346
 30
0.0
  0
SPLINE
  5
2BF
100
AcDbEntity
  8
0
100
AcDbSpline
 62
7
  6
CONTINUOUS
 70
0
 71
3
 72
12
 73
8
 74
0
 42
0.0000001
 43
0.0000001
 44
0.0000000001
 40
0.0
 40
0.0
 40
0.0
 40
0.0
 40
0.0810947201
 40
0.1788607365
 40
0.4168539492
 40
0.6975198859
 40
1.0
 40
1.0
 40
1.0
 40
1.0
 10
10.7649834891
 20
10.2397285814
 30
0.0
 10
10.764630876
 20
10.2396586342
 30
0.0
 10
10.7638473366
 20
10.2395339545
 30
0.0
 10
10.7620111566
 20
10.2393237779
 30
0.0
 10
10.7592824676
 20
10.2391512828
 30
0.0
 10
10.7556427992
 20
10.2390707064
 30
0.0
 10
10.7530573566
 20
10.2391001836
 30
0.0
 10
10.75171699
 20
10.2391365683
 30
0.0
  0
SPLINE
  5
2C0
100
AcDbEntity
  8
0
100
AcDbSpline
 62
9
  6
CONTINUOUS
 70
0
 71
3
 72
18
 73
14
 74
0
 42
0.0000001
 43
0.0000001
 44
0.0000000001
 40
0.0
 40
0.0
 40
0.0
 40
0.0
 40
0.1416458501
 40
0.2812095564
 40
0.4167750498
 40
0.5467427122
 40
0.6700082775
 40
0.7290190479
 40
0.7862598097
 40
0.8418095991
 40
0.8958072895
 40
0.9484519649
 40
1.0
 40
1.0
 40
1.0
 40
1.0
 10
11.2654605524
 20
9.9123958346
 30
0.0
 10
11.2654605524
 20
9.9259770703
 30
0.0
 10
11.2670981288
 20
9.9529695656
 30
0.0
 10
11.2744150114
 20
9.9923563122
 30
0.0
 10
11.2863819196
 20
10.0294311917
 30
0.0
 10
11.3026597735
 20
10.0631059107
 30
0.0
 10
11.3197058458
 20
10.0878944131
 30
0.0
 10
11.3350794512
 20
10.1049905538
 30
0.0
 10
11.3471796443
 20
10.1162043641
 30
0.0
 10
11.359925109
 20
10.1259066255
 30
0.0
 10
11.3732243168
 20
10.1340237087
 30
0.0
 10
11.3869765842
 20
10.1404911104
 30
0.0
 10
11.3964663598
 20
10.1436972438
 30
0.0
 10
11.401234532
 20
10.1449983734
 30
0.0
  0
SPLINE
  5
2C1
100
AcDbEntity
  8
0
100
AcDbSpline
 62
9
  6
CONTINUOUS
 70
0
 71
3
 72
22
 73
18
 74
0
 42
0.0000001
 43
0.0000001
 44
0.0000000001
 40
0.0
 40
0.0
 40
0.0
 40
0.0
 40
0.1474953108
 40
0.220198198
 40
0.291617488
 40
0.3613901037
 40
0.4292090245
 40
0.4948388259
 40
0.5581311088
 40
0.619039924
 40
0.6776357848
 40
0.7341161499
 40
0.7888090055
 40
0.8421653576
 40
0.8947370135
 40
0.9471388984
 40
1.0
 40
1.0
 40
1.0
 40
1.0
 10
11.4628904572
 20
9.9123958346
 30
0.0
 10
11.4628904572
 20
9.8950974533
 30
0.0
 10
11.4648881009
 20
9.8692088696
 30
0.0
 10
11.471570418
 20
9.835640569
 30
0.0
 10
11.4784734542
 20
9.8114906372
 30
0.0
 10
11.4872073869
 20
9.7885534857
 30
0.0
 10
11.4976699138
 20
9.7671005785
 30
0.0
 10
11.5097382786
 20
9.7473901978
 30
0.0
 10
11.5232717754
 20
9.7296593667
 30
0.0
 10
11.5381131694
 20
9.7141231752
 30
0.0
 10
11.5540901474
 20
9.7009728387
 30
0.0
 10
11.5710160105
 20
9.6903744031
 30
0.0
 10
11.5886898719
 20
9.6824669475
 30
0.0
 10
11.6068958007
 20
9.6773592825
 30
0.0
 10
11.6254061724
 20
9.6751256252
 30
0.0
 10
11.6439772122
 20
9.6757981893
 30
0.0
 10
11.6561522993
 20
9.6781612346
 30
0.0
 10
11.6621332172
 20
9.6797932959
 30
0.0
  0
SPLINE
  5
2C2
100
AcDbEntity
  8
0
100
AcDbSpline
 62
9
  6
CONTINUOUS
 70
0
 71
3
 72
18
 73
14
 74
0
 42
0.0000001
 43
0.0000001
 44
0.0000000001
 40
0.0
 40
0.0
 40
0.0
 40
0.0
 40
0.1416458501
 40
0.2812095564
 40
0.4167750498
 40
0.5467427122
 40
0.6700082775
 40
0.7290190479
 40
0.7862598097
 40
0.8418095991
 40
0.8958072895
 40
0.9484519649
 40
1.0
 40
1.0
 40
1.0
 40
1.0
 10
11.2654605524
 20
9.9123958346
 30
0.0
 10
11.2654605524
 20
9.8988145989
 30
0.0
 10
11.2670981288
 20
9.8718221036
 30
0.0
 10
11.2744150114
 20
9.8324353569
 30
0.0
 10
11.2863819196
 20
9.7953604774
 30
0.0
 10
11.3026597735
 20
9.7616857584
 30
0.0
 10
11.3197058458
 20
9.7368972561
 30
0.0
 10
11.3350794512
 20
9.7198011153
 30
0.0
 10
11.3471796443
 20
9.7085873051
 30
0.0
 10
11.359925109
 20
9.6988850437
 30
0.0
 10
11.3732243168
 20
9.6907679604
 30
0.0
 10
11.3869765842
 20
9.6843005587
 30
0.0
 10
11.3964663598
 20
9.6810944254
 30
0.0
 10
11.401234532
 20
9.6797932957
 30
0.0
  0
SPLINE
  5
2C3
100
AcDbEntity
  8
0
100
AcDbSpline
 62
9
  6
CONTINUOUS
 70
0
 71
3
 72
14
 73
10
 74
0
 42
0.0000001
 43
0.0000001
 44
0.0000000001
 40
0.0
 40
0.0
 40
0.0
 40
0.0
 40
0.2692631845
 40
0.4011963108
 40
0.5299330755
 40
0.6546671214
 40
0.7747848099
 40
0.8899190384
 40
1.0
 40
1.0
 40
1.0
 40
1.0
 10
11.2217268911
 20
9.9146818921
 30
0.0
 10
11.2218637442
 20
9.9320118509
 30
0.0
 10
11.2243833129
 20
9.9579032093
 30
0.0
 10
11.2324146079
 20
9.9910896221
 30
0.0
 10
11.2405788568
 20
10.014560086
 30
0.0
 10
11.2507909154
 20
10.0363780314
 30
0.0
 10
11.2628931745
 20
10.0561968859
 30
0.0
 10
11.2766924642
 20
10.0736899954
 30
0.0
 10
11.2871181651
 20
10.0838390372
 30
0.0
 10
11.2925430944
 20
10.0883963236
 30
0.0
  0
SPLINE
  5
2C4
100
AcDbEntity
  8
0
100
AcDbSpline
 62
7
  6
CONTINUOUS
 70
0
 71
3
 72
27
 73
23
 74
0
 42
0.0000001
 43
0.0000001
 44
0.0000000001
 40
0.0
 40
0.0
 40
0.0
 40
0.0
 40
0.180800226
 40
0.3579415606
 40
0.4437439282
 40
0.5265975172
 40
0.6054296524
 40
0.6791483348
 40
0.746752373
 40
0.8077472236
 40
0.8617251662
 40
0.8859068425
 40
0.908112009
 40
0.9282309745
 40
0.9461469669
 40
0.9617413838
 40
0.9748709744
 40
0.9853789902
 40
0.9931148743
 40
0.9979558209
 40
0.9992877676
 40
1.0
 40
1.0
 40
1.0
 40
1.0
 10
10.7000266862
 20
10.250566616
 30
0.0
 10
10.6976114295
 20
10.2505605412
 30
0.0
 10
10.6928298014
 20
10.2505461709
 30
0.0
 10
10.6869019529
 20
10.2505318505
 30
0.0
 10
10.6822825329
 20
10.2505301627
 30
0.0
 10
10.6789764037
 20
10.2505355523
 30
0.0
 10
10.6758317215
 20
10.2505494052
 30
0.0
 10
10.672890813
 20
10.2505726739
 30
0.0
 10
10.6701883
 20
10.2506060912
 30
0.0
 10
10.6677496593
 20
10.2506483858
 30
0.0
 10
10.6658912074
 20
10.2506911748
 30
0.0
 10
10.664551018
 20
10.2507300323
 30
0.0
 10
10.6636630841
 20
10.2507598698
 30
0.0
 10
10.6628589585
 20
10.2507914982
 30
0.0
 10
10.6621433373
 20
10.2508248943
 30
0.0
 10
10.6615211757
 20
10.2508600632
 30
0.0
 10
10.660998602
 20
10.2508966688
 30
0.0
 10
10.6605805137
 20
10.2509351703
 30
0.0
 10
10.660276068
 20
10.250973233
 30
0.0
 10
10.6600907242
 20
10.2510110062
 30
0.0
 10
10.6600068319
 20
10.2510416826
 30
0.0
 10
10.6599836981
 20
10.2510637503
 30
0.0
 10
10.6599835718
 20
10.251073264
 30
0.0
  0
LINE
  5
2C5
100
AcDbEntity
  8
0
100
AcDbLine
 62
7
  6
CONTINUOUS
 10
10.7489099714
 20
10.2453361804
 11
10.7558882938
 21
10.2454444226
  0
SPLINE
  5
2C6
100
AcDbEntity
  8
0
100
AcDbSpline
 62
7
  6
CONTINUOUS
 70
0
 71
3
 72
11
 73
7
 74
0
 42
0.0000001
 43
0.0000001
 44
0.0000000001
 40
0.0
 40
0.0
 40
0.0
 40
0.0
 40
0.3294040003
 40
0.6103305787
 40
0.8356629287
 40
1.0
 40
1.0
 40
1.0
 40
1.0
 10
10.7558882938
 20
10.2454444226
 30
0.0
 10
10.756890183
 20
10.2454751717
 30
0.0
 10
10.7587460753
 20
10.2455467247
 30
0.0
 10
10.7612849101
 20
10.245698113
 30
0.0
 10
10.7633170233
 20
10.2458835342
 30
0.0
 10
10.76449324
 20
10.2460453196
 30
0.0
 10
10.7649834891
 20
10.246143939
 30
0.0
  0
SPLINE
  5
2C7
100
AcDbEntity
  8
0
100
AcDbSpline
 62
9
  6
CONTINUOUS
 70
0
 71
3
 72
20
 73
16
 74
0
 42
0.0000001
 43
0.0000001
 44
0.0000000001
 40
0.0
 40
0.0
 40
0.0
 40
0.0
 40
0.0726569798
 40
0.1450508955
 40
0.2872232842
 40
0.4240578813
 40
0.5537790005
 40
0.6156719756
 40
0.6754916483
 40
0.7332906949
 40
0.7892169081
 40
0.8434950373
 40
0.8964469308
 40
0.9484647354
 40
1.0
 40
1.0
 40
1.0
 40
1.0
 10
11.0996038406
 20
9.9140709177
 30
0.0
 10
11.099642239
 20
9.9189333725
 30
0.0
 10
11.1000556129
 20
9.9286418634
 30
0.0
 10
11.1021919409
 20
9.9477565328
 30
0.0
 10
11.1072484489
 20
9.9708156489
 30
0.0
 10
11.1170225785
 20
9.996472696
 30
0.0
 10
11.1281222357
 20
10.0155885594
 30
0.0
 10
11.138534797
 20
10.0288362165
 30
0.0
 10
11.1468640433
 20
10.0375236825
 30
0.0
 10
11.1557616164
 20
10.0450247266
 30
0.0
 10
11.1651391836
 20
10.0512743455
 30
0.0
 10
11.1749144494
 20
10.0562028294
 30
0.0
 10
11.1849928209
 20
10.0597617636
 30
0.0
 10
11.195274345
 20
10.0619158966
 30
0.0
 10
11.2022142194
 20
10.0623945647
 30
0.0
 10
11.205663244
 20
10.0623944976
 30
0.0
  0
SPLINE
  5
2C8
100
AcDbEntity
  8
0
100
AcDbSpline
 62
7
  6
CONTINUOUS
 70
0
 71
3
 72
11
 73
7
 74
0
 42
0.0000001
 43
0.0000001
 44
0.0000000001
 40
0.0
 40
0.0
 40
0.0
 40
0.0
 40
0.1644068333
 40
0.38975631
 40
0.6706539178
 40
1.0
 40
1.0
 40
1.0
 40
1.0
 10
10.6599834891
 20
10.2463139246
 30
0.0
 10
10.660473211
 20
10.2462138368
 30
0.0
 10
10.6616481283
 20
10.2460483643
 30
0.0
 10
10.663678028
 20
10.2458564674
 30
0.0
 10
10.6662139221
 20
10.2456969147
 30
0.0
 10
10.6680676842
 20
10.2456193519
 30
0.0
 10
10.6690684156
 20
10.2455853475
 30
0.0
  0
LINE
  5
2C9
100
AcDbEntity
  8
0
100
AcDbLine
 62
7
  6
CONTINUOUS
 10
10.6690684156
 20
10.2455853475
 11
10.6760408894
 21
10.2454542699
  0
SPLINE
  5
2CA
100
AcDbEntity
  8
0
100
AcDbSpline
 62
7
  6
CONTINUOUS
 70
0
 71
3
 72
22
 73
18
 74
0
 42
0.0000001
 43
0.0000001
 44
0.0000000001
 40
0.0
 40
0.0
 40
0.0
 40
0.0
 40
0.0696857055
 40
0.1393319496
 40
0.2086416919
 40
0.2774251069
 40
0.3455401131
 40
0.4128193221
 40
0.5439789858
 40
0.607570657
 40
0.6695356235
 40
0.7296889594
 40
0.7878686026
 40
0.843957152
 40
0.8979353973
 40
0.9498787217
 40
1.0
 40
1.0
 40
1.0
 40
1.0
 10
10.941185911
 20
9.9123958346
 30
0.0
 10
10.941185911
 20
9.9173247493
 30
0.0
 10
10.9416443146
 20
9.9271854421
 30
0.0
 10
10.9436627807
 20
9.9418234732
 30
0.0
 10
10.9469883875
 20
9.9561568539
 30
0.0
 10
10.9515533696
 20
9.9700290644
 30
0.0
 10
10.9572646896
 20
9.9833150466
 30
0.0
 10
10.9662043881
 20
9.999933868
 30
0.0
 10
10.9770610684
 20
10.0150919994
 30
0.0
 10
10.9895003867
 20
10.0283445577
 30
0.0
 10
10.9993211885
 20
10.0370962019
 30
0.0
 10
11.0096020119
 20
10.0446732965
 30
0.0
 10
11.0202132897
 20
10.0510068477
 30
0.0
 10
11.0310303505
 20
10.0560218291
 30
0.0
 10
11.0419230734
 20
10.0596627428
 30
0.0
 10
11.052762667
 20
10.0618825088
 30
0.0
 10
11.0599900301
 20
10.0623937184
 30
0.0
 10
11.0635351403
 20
10.0623937633
 30
0.0
  0
SPLINE
  5
2CB
100
AcDbEntity
  8
0
100
AcDbSpline
 62
7
  6
CONTINUOUS
 70
0
 71
3
 72
13
 73
9
 74
0
 42
0.0000001
 43
0.0000001
 44
0.0000000001
 40
0.0
 40
0.0
 40
0.0
 40
0.0
 40
0.0663013001
 40
0.1523127177
 40
0.2568710312
 40
0.378565778
 40
0.6662903016
 40
1.0
 40
1.0
 40
1.0
 40
1.0
 10
10.7649834891
 20
10.247147365
 30
0.0
 10
10.7646348127
 20
10.2470772701
 30
0.0
 10
10.7638264556
 20
10.2469538303
 30
0.0
 10
10.7624565807
 20
10.2468043196
 30
0.0
 10
10.7607865449
 20
10.2466719197
 30
0.0
 10
10.7580339488
 20
10.2465127862
 30
0.0
 10
10.754049239
 20
10.2463823838
 30
0.0
 10
10.7507157738
 20
10.2463448917
 30
0.0
 10
10.7489257005
 20
10.246340145
 30
0.0
  0
LINE
  5
2CC
100
AcDbEntity
  8
0
100
AcDbLine
 62
7
  6
CONTINUOUS
 10
10.75171699
 20
10.2381279383
 11
10.7599097571
 21
10.2381953653
  0
LINE
  5
2CD
100
AcDbEntity
  8
0
100
AcDbLine
 62
7
  6
CONTINUOUS
 10
10.7616316781
 20
10.2383045613
 11
10.7649834891
 21
10.2387203399
  0
SPLINE
  5
2CE
100
AcDbEntity
  8
0
100
AcDbSpline
 62
7
  6
CONTINUOUS
 70
0
 71
3
 72
11
 73
7
 74
0
 42
0.0000001
 43
0.0000001
 44
0.0000000001
 40
0.0
 40
0.0
 40
0.0
 40
0.0
 40
0.1864059252
 40
0.4203923794
 40
0.6943844963
 40
1.0
 40
1.0
 40
1.0
 40
1.0
 10
10.6599834891
 20
10.2388911182
 30
0.0
 10
10.6604710609
 20
10.2387927609
 30
0.0
 10
10.6615816312
 20
10.2386266714
 30
0.0
 10
10.6634258042
 20
10.2384445013
 30
0.0
 10
10.6655931415
 20
10.2383117751
 30
0.0
 10
10.6671390785
 20
10.2382611225
 30
0.0
 10
10.6679543846
 20
10.238244055
 30
0.0
  0
SPLINE
  5
2CF
100
AcDbEntity
  8
0
100
AcDbSpline
 62
7
  6
CONTINUOUS
 70
0
 71
3
 72
19
 73
15
 74
0
 42
0.0000001
 43
0.0000001
 44
0.0000000001
 40
0.0
 40
0.0
 40
0.0
 40
0.0
 40
0.2005951456
 40
0.386244893
 40
0.5518344125
 40
0.6939273722
 40
0.755292993
 40
0.809883412
 40
0.8575485373
 40
0.898214627
 40
0.9319875751
 40
0.9593469473
 40
0.9813279462
 40
1.0
 40
1.0
 40
1.0
 40
1.0
 10
10.7374834891
 20
10.2222253645
 30
0.0
 10
10.739419529
 20
10.2223151738
 30
0.0
 10
10.7431451278
 20
10.222542316
 30
0.0
 10
10.7484546833
 20
10.2230412567
 30
0.0
 10
10.7531798169
 20
10.223677851
 30
0.0
 10
10.7566877906
 20
10.2243311892
 30
0.0
 10
10.7591097644
 20
10.2249257889
 30
0.0
 10
10.7606270365
 20
10.2253721087
 30
0.0
 10
10.7619281441
 20
10.2258376167
 30
0.0
 10
10.7630065876
 20
10.2263197116
 30
0.0
 10
10.7638583488
 20
10.22681702
 30
0.0
 10
10.7644828789
 20
10.2273291512
 30
0.0
 10
10.764882819
 20
10.2278631193
 30
0.0
 10
10.7649834891
 20
10.2282582724
 30
0.0
 10
10.7649834891
 20
10.2284386791
 30
0.0
  0
SPLINE
  5
2D0
100
AcDbEntity
  8
0
100
AcDbSpline
 62
7
  6
CONTINUOUS
 70
0
 71
3
 72
19
 73
15
 74
0
 42
0.0000001
 43
0.0000001
 44
0.0000000001
 40
0.0
 40
0.0
 40
0.0
 40
0.0
 40
0.2005294835
 40
0.3861284522
 40
0.5516906353
 40
0.6937843339
 40
0.7551614502
 40
0.8097700782
 40
0.8574589561
 40
0.8981527324
 40
0.9319545798
 40
0.9593393988
 40
0.9813348522
 40
1.0
 40
1.0
 40
1.0
 40
1.0
 10
10.6874834891
 20
10.2233266891
 30
0.0
 10
10.685547351
 20
10.2234227994
 30
0.0
 10
10.6818216408
 20
10.2236620278
 30
0.0
 10
10.6765122557
 20
10.224178035
 30
0.0
 10
10.6717873555
 20
10.2248296248
 30
0.0
 10
10.66827966
 20
10.2254939171
 30
0.0
 10
10.6658578458
 20
10.2260959303
 30
0.0
 10
10.6643405217
 20
10.2265468644
 30
0.0
 10
10.6630393208
 20
10.227016272
 30
0.0
 10
10.6619607642
 20
10.2275015333
 30
0.0
 10
10.6611088991
 20
10.2280012451
 30
0.0
 10
10.66048432
 20
10.2285150011
 30
0.0
 10
10.6600843519
 20
10.2290496989
 30
0.0
 10
10.6599834891
 20
10.229445084
 30
0.0
 10
10.6599834891
 20
10.2296255203
 30
0.0
  0
LINE
  5
2D1
100
AcDbEntity
  8
0
100
AcDbLine
 62
7
  6
CONTINUOUS
 10
10.7124834891
 20
10.2227009721
 11
10.7099834855
 21
10.2227107751
  0
SPLINE
  5
2D2
100
AcDbEntity
  8
0
100
AcDbSpline
 62
7
  6
CONTINUOUS
 70
0
 71
3
 72
11
 73
7
 74
0
 42
0.0000001
 43
0.0000001
 44
0.0000000001
 40
0.0
 40
0.0
 40
0.0
 40
0.0
 40
0.1819121868
 40
0.3973119262
 40
0.6666538089
 40
1.0
 40
1.0
 40
1.0
 40
1.0
 10
10.6599834891
 20
10.2286106074
 30
0.0
 10
10.6599834891
 20
10.2284264517
 30
0.0
 10
10.6600888801
 20
10.2280219361
 30
0.0
 10
10.6605046377
 20
10.2274772921
 30
0.0
 10
10.661152701
 20
10.2269543147
 30
0.0
 10
10.661683384
 20
10.2266492823
 30
0.0
 10
10.6619836777
 20
10.2264953306
 30
0.0
  0
SPLINE
  5
2D3
100
AcDbEntity
  8
0
100
AcDbSpline
 62
7
  6
CONTINUOUS
 70
0
 71
3
 72
14
 73
10
 74
0
 42
0.0000001
 43
0.0000001
 44
0.0000000001
 40
0.0
 40
0.0
 40
0.0
 40
0.0
 40
0.0714730662
 40
0.1602137288
 40
0.2657187058
 40
0.3870727351
 40
0.5229498692
 40
0.6718843731
 40
1.0
 40
1.0
 40
1.0
 40
1.0
 10
10.6619836777
 20
10.2264953306
 30
0.0
 10
10.6625341374
 20
10.2262131263
 30
0.0
 10
10.663822068
 20
10.2256874121
 30
0.0
 10
10.6660238433
 20
10.2250185505
 30
0.0
 10
10.6686851488
 20
10.2243961492
 30
0.0
 10
10.671773944
 20
10.2238300975
 30
0.0
 10
10.6752539424
 20
10.2233280904
 30
0.0
 10
10.6805264444
 20
10.2227385961
 30
0.0
 10
10.6846472201
 20
10.2224484593
 30
0.0
 10
10.6874834891
 20
10.2223075721
 30
0.0
  0
SPLINE
  5
2D4
100
AcDbEntity
  8
0
100
AcDbSpline
 62
7
  6
CONTINUOUS
 70
0
 71
3
 72
19
 73
15
 74
0
 42
0.0000001
 43
0.0000001
 44
0.0000000001
 40
0.0
 40
0.0
 40
0.0
 40
0.0
 40
0.0186611055
 40
0.0406323737
 40
0.0679842992
 40
0.1017527395
 40
0.1424167442
 40
0.1900809533
 40
0.2446719746
 40
0.3060402284
 40
0.4481435792
 40
0.6137425526
 40
0.7993977035
 40
1.0
 40
1.0
 40
1.0
 40
1.0
 10
10.7649834891
 20
10.2294537062
 30
0.0
 10
10.7649834891
 20
10.2292734152
 30
0.0
 10
10.7648828192
 20
10.228878485
 30
0.0
 10
10.7644828997
 20
10.2283448849
 30
0.0
 10
10.7638584021
 20
10.227833119
 30
0.0
 10
10.7630066509
 20
10.2273361736
 30
0.0
 10
10.7619282096
 20
10.226854418
 30
0.0
 10
10.7606271023
 20
10.2263892091
 30
0.0
 10
10.7591098159
 20
10.2259431708
 30
0.0
 10
10.7566877587
 20
10.2253489402
 30
0.0
 10
10.7531796863
 20
10.2246960404
 30
0.0
 10
10.7484545192
 20
10.2240598615
 30
0.0
 10
10.743145016
 20
10.2235612602
 30
0.0
 10
10.7394194936
 20
10.2233342844
 30
0.0
 10
10.7374834891
 20
10.2232445365
 30
0.0
  0
SPLINE
  5
2D5
100
AcDbEntity
  8
0
100
AcDbSpline
 62
9
  6
CONTINUOUS
 70
0
 71
3
 72
22
 73
18
 74
0
 42
0.0000001
 43
0.0000001
 44
0.0000000001
 40
0.0
 40
0.0
 40
0.0
 40
0.0
 40
0.0528611002
 40
0.105262983
 40
0.157834637
 40
0.2111909846
 40
0.2658838361
 40
0.3223641999
 40
0.380960061
 40
0.4418688795
 40
0.5051611641
 40
0.5707909554
 40
0.6386098591
 40
0.7083824702
 40
0.7798017725
 40
0.852504677
 40
1.0
 40
1.0
 40
1.0
 40
1.0
 10
9.757833761
 20
10.1449983734
 30
0.0
 10
9.7638146788
 20
10.1466304348
 30
0.0
 10
9.7759897655
 20
10.1489934799
 30
0.0
 10
9.7945608046
 20
10.1496660441
 30
0.0
 10
9.8130711754
 20
10.1474323872
 30
0.0
 10
9.8312771031
 20
10.142324723
 30
0.0
 10
9.8489509637
 20
10.1344172684
 30
0.0
 10
9.8658768267
 20
10.1238188336
 30
0.0
 10
9.8818538053
 20
10.1106684975
 30
0.0
 10
9.8966952001
 20
10.0951323059
 30
0.0
 10
9.9102286969
 20
10.0774014755
 30
0.0
 10
9.9222970606
 20
10.0576910976
 30
0.0
 10
9.9327595867
 20
10.0362381942
 30
0.0
 10
9.9414935202
 20
10.0133010442
 30
0.0
 10
9.948396558
 20
9.9891511098
 30
0.0
 10
9.955078877
 20
9.9555828045
 30
0.0
 10
9.9570765211
 20
9.9296942173
 30
0.0
 10
9.9570765211
 20
9.9123958346
 30
0.0
  0
SPLINE
  5
2D6
100
AcDbEntity
  8
0
100
AcDbSpline
 62
9
  6
CONTINUOUS
 70
0
 71
3
 72
14
 73
10
 74
0
 42
0.0000001
 43
0.0000001
 44
0.0000000001
 40
0.0
 40
0.0
 40
0.0
 40
0.0
 40
0.110007842
 40
0.2251201196
 40
0.3452603028
 40
0.4700461194
 40
0.5988426349
 40
0.7308181447
 40
1.0
 40
1.0
 40
1.0
 40
1.0
 10
11.2925431035
 20
9.7363953672
 30
0.0
 10
11.2870577176
 20
9.7410034379
 30
0.0
 10
11.2765208019
 20
9.7512774434
 30
0.0
 10
11.2625980502
 20
9.7690036852
 30
0.0
 10
11.2504143246
 20
9.7890992324
 30
0.0
 10
11.2401681749
 20
9.8112257365
 30
0.0
 10
11.2320211023
 20
9.8350241568
 30
0.0
 10
11.2240866909
 20
9.8686504673
 30
0.0
 10
11.2217178649
 20
9.8948658543
 30
0.0
 10
11.2217178649
 20
9.9123958346
 30
0.0
  0
ENDSEC
  0
SECTION
  2
OBJECTS
  0
DICTIONARY
  5
C
100
AcDbDictionary
280
0
281
1
  3
ACAD_GROUP
350
D
  3
ACAD_MLINESTYLE
350
17
  3
ACAD_LAYOUT
350
1A
  3
ACAD_PLOTSETTINGS
350
19
  3
ACAD_PLOTSTYLENAME
350
E
  0
DICTIONARY
  5
D
102
{ACAD_REACTORS
330
C
102
}
100
AcDbDictionary
280
0
281
1
  0
ACDBDICTIONARYWDFLT
  5
E
102
{ACAD_REACTORS
330
C
102
}
100
AcDbDictionary
281
1
  3
Normal
350
F
100
AcDbDictionaryWithDefault
340
F
  0
DICTIONARY
  5
17
102
{ACAD_REACTORS
330
C
102
}
100
AcDbDictionary
280
0
281
1
  3
Standard
350
18
  0
DICTIONARY
  5
19
102
{ACAD_REACTORS
330
C
102
}
100
AcDbDictionary
281
1
  0
DICTIONARY
  5
1A
102
{ACAD_REACTORS
330
C
102
}
100
AcDbDictionary
281
1
  3
Model
350
2D7
  3
Layout1
350
2D8
  0
ACDBPLACEHOLDER
  5
F
102
{ACAD_REACTORS
330
E
102
}
  0
MLINESTYLE
  5
18
102
{ACAD_REACTORS
330
17
102
}
100
AcDbMlineStyle
  2
STANDARD
 70
0
  3

 62
256
 51
90.0
 52
90.0
 71
2
 49
0.5
 62
256
  6
BYLAYER
 49
-0.5
 62
256
  6
BYLAYER
  0
LAYOUT
  5
2D7
102
{ACAD_REACTORS
330
1A
102
}
100
AcDbPlotSettings
  1

  2
none_device
  4
ANSI_C_(22.00_x_17.00_Inches)
  6

 40
0.0
 41
0.0
 42
0.0
 43
0.0
 44
558.8
 45
431.8
 46
0.0
 47
0.0
 48
0.0
 49
0.0
140
0.0
141
0.0
142
1.0
143
1.0
 70
1024
 72
0
 73
0
 74
0
  7

 75
0
147
1.0
148
0.0
149
0.0
100
AcDbLayout
  1
Model
 70
0
 71
0
 10
0.0
 20
0.0
 11
22.0
 21
17.0
 12
0.0
 22
0.0
 32
0.0
 14
0.0
 24
0.0
 34
0.0
 15
0.0
 25
0.0
 35
0.0
146
0.0
 13
0.0
 23
0.0
 33
0.0
 16
1.0
 26
0.0
 36
0.0
 17
0.0
 27
1.0
 37
0.0
 76
0
330
202
345
0
346
0
  0
LAYOUT
  5
2D8
102
{ACAD_REACTORS
330
1A
102
}
100
AcDbPlotSettings
  1

  2
none_device
  4
ANSI_C_(22.00_x_17.00_Inches)
  6

 40
0.0
 41
0.0
 42
0.0
 43
0.0
 44
558.8
 45
431.8
 46
0.0
 47
0.0
 48
0.0
 49
0.0
140
0.0
141
0.0
142
1.0
143
1.0
 70
0
 72
0
 73
0
 74
0
  7

 75
0
147
1.0
148
0.0
149
0.0
100
AcDbLayout
  1
Layout1
 70
0
 71
1
 10
0.0
 20
0.0
 11
22.0
 21
17.0
 12
0.0
 22
0.0
 32
0.0
 14
0.0
 24
0.0
 34
0.0
 15
0.0
 25
0.0
 35
0.0
146
0.0
 13
0.0
 23
0.0
 33
0.0
 16
1.0
 26
0.0
 36
0.0
 17
0.0
 27
1.0
 37
0.0
 76
0
330
203
345
0
346
0
  0
ENDSEC
  0
EOF
