999
DXF file: E:\BT Custom\CADOUTPUT\_RIGHT.dxf
999
Pro/ENGINEER 2018400 by Parametric Technology Corporation
  0
SECTION
  2
HEADER
  9
$ACADVER
  1
AC1018
  9
$DWGCODEPAGE
  3
ANSI_1252
  9
$EXTMAX
 10
22.0
 20
17.0
 30
0.0
  9
$EXTMIN
 10
0.0
 20
0.0
 30
0.0
  9
$LIMMIN
 10
0.0
 20
0.0
  9
$LIMMAX
 10
22.0
 20
17.0
  9
$VIEWCTR
 10
11.0
 20
8.5
  9
$VIEWSIZE
 40
17.0
  9
$CLAYER
  8
0
  9
$LTSCALE
 40
1.21
  9
$CELTYPE
  6
BYLAYER
  9
$DIMSCALE
 40
1.0
  9
$DIMASZ
 40
0.1
  9
$DIMEXO
 40
0.0625
  9
$DIMDLI
 40
0.836
  9
$DIMEXE
 40
0.125
  9
$DIMCEN
 40
0.198
  9
$DIMLFAC
 40
1.0
  9
$DIMBLK
  1
_FILLED
  9
$DIMALT
 70
1
  9
$DIMALTD
 70
2
  9
$DIMALTTD
 70
2
  9
$DIMALTF
 40
25.4
  9
$DIMTXT
 40
0.08
  9
$DIMTOL
 70
1
  9
$DIMLIM
 70
0
  9
$DIMTFAC
 40
1.0
  9
$DIMTP
 40
0.001
  9
$DIMTM
 40
0.001
  9
$DIMGAP
 40
0.09
  9
$DIMDSEP
 70
46
  9
$AUNITS
 70
0
  9
$PDMODE
 70
3
  9
$PDSIZE
 40
0.06
  9
$HANDSEED
  5
282
  9
$TILEMODE
 70
1
  9
$MEASUREMENT
 70
0
  9
$INSUNITS
 70
1
  0
ENDSEC
  0
SECTION
  2
CLASSES
  0
CLASS
  1
ACDBDICTIONARYWDFLT
  2
AcDbDictionaryWithDefault
  3
AutoCAD 2000
 90
0
 91
1
280
0
281
0
  0
CLASS
  1
ACDBPLACEHOLDER
  2
AcDbPlaceHolder
  3
AutoCAD 2000
 90
0
 91
1
280
0
281
0
  0
CLASS
  1
LAYOUT
  2
AcDbLayout
  3
AutoCAD 2000
 90
0
 91
0
280
0
281
0
  0
ENDSEC
  0
SECTION
  2
TABLES
  0
TABLE
  2
VPORT
  5
8
100
AcDbSymbolTable
 70
2
  0
VPORT
  5
1F4
100
AcDbSymbolTableRecord
100
AcDbViewportTableRecord
  2
*ACTIVE
 70
0
 10
0.0
 20
0.0
 11
1.0
 21
1.0
 12
11.0
 22
8.5
 13
0.0
 23
0.0
 14
1.0
 24
1.0
 15
0.0
 25
0.0
 16
0.0
 26
0.0
 36
1.0
 17
0.0
 27
0.0
 37
0.0
 40
17.0
 41
1.2941176471
 42
50.0
 43
0.0
 44
0.0
 50
0.0
 51
0.0
 71
0
 72
100
 73
1
 74
1
 75
0
 76
0
 77
0
 78
0
  0
ENDTAB
  0
TABLE
  2
LTYPE
  5
5
100
AcDbSymbolTable
 70
6
  0
LTYPE
  5
14
100
AcDbSymbolTableRecord
100
AcDbLinetypeTableRecord
  2
BYBLOCK
 70
0
  3

 72
65
 73
0
 40
0.0
  0
LTYPE
  5
15
100
AcDbSymbolTableRecord
100
AcDbLinetypeTableRecord
  2
BYLAYER
 70
0
  3

 72
65
 73
0
 40
0.0
  0
LTYPE
  5
16
100
AcDbSymbolTableRecord
100
AcDbLinetypeTableRecord
  2
CONTINUOUS
 70
64
  3
Solid line
 72
65
 73
0
 40
0.0
  0
LTYPE
  5
1F5
100
AcDbSymbolTableRecord
100
AcDbLinetypeTableRecord
  2
CENTER
 70
64
  3
____ _ ____ _ ____ _ ____ _ ____ _ ____ _ ____
 72
65
 73
4
 40
0.6
 49
0.375
 74
0
 49
-0.075
 74
0
 49
0.075
 74
0
 49
-0.075
 74
0
  0
LTYPE
  5
1F6
100
AcDbSymbolTableRecord
100
AcDbLinetypeTableRecord
  2
HIDDEN
 70
64
  3
- - - - - - - - - - - - - - - - - - - -
 72
65
 73
2
 40
0.2
 49
0.1
 74
0
 49
-0.1
 74
0
  0
LTYPE
  5
1F7
100
AcDbSymbolTableRecord
100
AcDbLinetypeTableRecord
  2
PHANTOM
 70
64
  3
_____ _ _ _____ _ _ _____ _ _ _____
 72
65
 73
6
 40
0.8
 49
0.45
 74
0
 49
-0.05
 74
0
 49
0.1
 74
0
 49
-0.05
 74
0
 49
0.1
 74
0
 49
-0.05
 74
0
  0
LTYPE
  5
1F8
100
AcDbSymbolTableRecord
100
AcDbLinetypeTableRecord
  2
DOT
 70
64
  3
. . . . . . . . . . . . . . . . . . . .
 72
65
 73
2
 40
0.2
 49
0.1
 74
0
 49
-0.1
 74
0
  0
LTYPE
  5
1F9
100
AcDbSymbolTableRecord
100
AcDbLinetypeTableRecord
  2
DASHED
 70
64
  3
- - - - - - - - - - - - - - - - - - - -
 72
65
 73
2
 40
0.2
 49
0.1
 74
0
 49
-0.1
 74
0
  0
ENDTAB
  0
TABLE
  2
LAYER
  5
2
100
AcDbSymbolTable
 70
36
  0
LAYER
  5
10
100
AcDbSymbolTableRecord
100
AcDbLayerTableRecord
  2
0
 70
0
 62
7
  6
CONTINUOUS
370
-3
390
F
  0
LAYER
  5
1FA
100
AcDbSymbolTableRecord
100
AcDbLayerTableRecord
  2
DEFAULT_1
 70
0
 62
7
  6
CENTER
370
-3
390
F
  0
LAYER
  5
1FB
100
AcDbSymbolTableRecord
100
AcDbLayerTableRecord
  2
DEFAULT_2
 70
0
 62
8
  6
HIDDEN
370
-3
390
F
  0
LAYER
  5
1FC
100
AcDbSymbolTableRecord
100
AcDbLayerTableRecord
  2
DEFAULT_3
 70
0
 62
7
  6
PHANTOM
370
-3
390
F
  0
LAYER
  5
1FD
100
AcDbSymbolTableRecord
100
AcDbLayerTableRecord
  2
ALL_FEATURES
 70
0
 62
7
  6
CONTINUOUS
370
-3
390
F
  0
LAYER
  5
1FE
100
AcDbSymbolTableRecord
100
AcDbLayerTableRecord
  2
AXES_FEATURES
 70
0
 62
7
  6
CONTINUOUS
370
-3
390
F
  0
LAYER
  5
1FF
100
AcDbSymbolTableRecord
100
AcDbLayerTableRecord
  2
DIMENSIONS
 70
0
 62
7
  6
CONTINUOUS
370
-3
390
F
  0
ENDTAB
  0
TABLE
  2
STYLE
  5
3
100
AcDbSymbolTable
 70
1
  0
STYLE
  5
11
100
AcDbSymbolTableRecord
100
AcDbTextStyleTableRecord
  2
STANDARD
 70
0
 40
0.0
 41
0.8
 50
0.0
 71
0
 42
0.2
  3
txt
  4

  0
STYLE
  5
200
100
AcDbSymbolTableRecord
100
AcDbTextStyleTableRecord
  2
TEXTSTYLE_1
 70
0
 40
0.0
 41
0.8
 50
0.0
 71
0
 42
0.2
  3
gdt
  4

  0
ENDTAB
  0
TABLE
  2
VIEW
  5
6
100
AcDbSymbolTable
 70
0
  0
ENDTAB
  0
TABLE
  2
UCS
  5
7
100
AcDbSymbolTable
 70
0
  0
ENDTAB
  0
TABLE
  2
APPID
  5
9
100
AcDbSymbolTable
 70
1
  0
APPID
  5
201
100
AcDbSymbolTableRecord
100
AcDbRegAppTableRecord
  2
ACAD
 70
0
  0
ENDTAB
  0
TABLE
  2
BLOCK_RECORD
  5
1
100
AcDbSymbolTable
 70
0
  0
BLOCK_RECORD
  5
202
100
AcDbSymbolTableRecord
100
AcDbBlockTableRecord
  2
*Model_Space
  0
BLOCK_RECORD
  5
203
100
AcDbSymbolTableRecord
100
AcDbBlockTableRecord
  2
*Paper_Space
  0
BLOCK_RECORD
  5
204
100
AcDbSymbolTableRecord
100
AcDbBlockTableRecord
  2
_FILLED
  0
ENDTAB
  0
TABLE
  2
DIMSTYLE
  5
A
100
AcDbSymbolTable
 70
1
100
AcDbDimStyleTable
 71
0
  0
DIMSTYLE
105
205
100
AcDbSymbolTableRecord
100
AcDbDimStyleTableRecord
  2
STANDARD
 70
0
  3

  4

 40
1.0
 41
0.1
 42
0.0625
 43
0.38
 44
0.125
 45
0.0
 46
0.0
 47
0.001
 48
0.001
140
0.08
141
0.09
142
0.0
143
25.4
144
1.0
145
0.0
146
1.0
147
0.09
 71
1.0
 72
0.0
 73
1
 74
1
 75
0
 76
0
 77
0
 78
4
 79
1
170
1
171
2
172
0
173
0
174
0
175
0
176
0
177
0
178
0
270
2
179
3
271
3
272
3
273
2
274
2
275
0
280
0
281
0
282
0
283
1
284
4
285
0
286
0
287
3
288
0
340
11
278
46
341
204
342
204
343
204
344
204
  0
ENDTAB
  0
ENDSEC
  0
SECTION
  2
BLOCKS
  0
BLOCK
  5
20
100
AcDbEntity
  8
0
100
AcDbBlockBegin
  2
*Model_Space
 70
0
 10
0.0
 20
0.0
 30
0.0
  3
*Model_Space
  1

  0
ENDBLK
  5
21
100
AcDbEntity
  8
0
100
AcDbBlockEnd
  0
BLOCK
  5
1C
100
AcDbEntity
  8
0
100
AcDbBlockBegin
  2
*Paper_Space
 70
0
 10
0.0
 20
0.0
 30
0.0
  3
*Paper_Space
  1

  0
ENDBLK
  5
1D
100
AcDbEntity
  8
0
100
AcDbBlockEnd
  0
BLOCK
  5
206
100
AcDbEntity
  8
0
100
AcDbBlockBegin
  2
_FILLED
 70
64
 10
0.0
 20
0.0
  3
_FILLED
  1

  0
SOLID
  5
207
100
AcDbEntity
  8
0
  6
BYBLOCK
 62
0
100
AcDbTrace
 10
0.0
 20
0.0
 11
-1.0
 21
0.2
 12
-1.0
 22
-0.2
 13
-1.0
 23
-0.2
  0
ENDBLK
  5
208
100
AcDbEntity
  8
0
  6
BYBLOCK
 62
0
100
AcDbBlockEnd
  0
ENDSEC
  0
SECTION
  2
ENTITIES
  0
LINE
  5
209
100
AcDbEntity
  8
0
100
AcDbLine
 62
7
  6
CONTINUOUS
 10
9.4475000626
 20
7.767391804
 11
11.9724669157
 21
7.767391804
  0
LINE
  5
20A
100
AcDbEntity
  8
0
100
AcDbLine
 62
7
  6
CONTINUOUS
 10
10.6038629905
 20
10.2445712588
 11
10.6024834891
 21
10.2440004898
  0
LINE
  5
20B
100
AcDbEntity
  8
0
100
AcDbLine
 62
7
  6
CONTINUOUS
 10
9.4474834891
 20
7.867391804
 11
11.9724834891
 21
7.867391804
  0
LINE
  5
20C
100
AcDbEntity
  8
0
100
AcDbLine
 62
7
  6
CONTINUOUS
 10
9.6599834891
 20
8.242391804
 11
9.6599834891
 21
8.342391804
  0
LINE
  5
20D
100
AcDbEntity
  8
0
100
AcDbLine
 62
7
  6
CONTINUOUS
 10
9.5849834891
 20
8.242391804
 11
9.5744943807
 21
8.0979335214
  0
LINE
  5
20E
100
AcDbEntity
  8
0
100
AcDbLine
 62
9
  6
CONTINUOUS
 10
9.5744943807
 20
8.0979335214
 11
11.8454725976
 21
8.0979335214
  0
LINE
  5
20F
100
AcDbEntity
  8
0
100
AcDbLine
 62
7
  6
CONTINUOUS
 10
11.8349822649
 20
8.242391804
 11
9.5849847134
 21
8.242391804
  0
LINE
  5
210
100
AcDbEntity
  8
0
100
AcDbLine
 62
7
  6
CONTINUOUS
 10
11.7599834891
 20
8.342391804
 11
9.6599834891
 21
8.342391804
  0
LINE
  5
211
100
AcDbEntity
  8
0
100
AcDbLine
 62
7
  6
CONTINUOUS
 10
10.1724834891
 20
8.992391804
 11
10.1724834891
 21
9.042391804
  0
LINE
  5
212
100
AcDbEntity
  8
0
100
AcDbLine
 62
7
  6
CONTINUOUS
 10
10.2099834891
 20
10.162391804
 11
10.2099834891
 21
9.662391804
  0
LINE
  5
213
100
AcDbEntity
  8
0
100
AcDbLine
 62
7
  6
CONTINUOUS
 10
10.2724834891
 20
9.042391804
 11
10.2724834891
 21
9.142391804
  0
LINE
  5
214
100
AcDbEntity
  8
0
100
AcDbLine
 62
7
  6
CONTINUOUS
 10
10.3974834891
 20
9.5541386286
 11
10.3974834891
 21
9.162391804
  0
LINE
  5
215
100
AcDbEntity
  8
0
100
AcDbLine
 62
7
  6
CONTINUOUS
 10
10.4024834891
 20
10.2215971813
 11
10.4024834891
 21
10.221134503
  0
LINE
  5
216
100
AcDbEntity
  8
0
100
AcDbLine
 62
7
  6
CONTINUOUS
 10
11.0224834891
 20
9.5541386286
 11
11.2099834891
 21
9.662391804
  0
LINE
  5
217
100
AcDbEntity
  8
0
100
AcDbLine
 62
7
  6
CONTINUOUS
 10
10.5099834891
 20
9.162391804
 11
10.5099834891
 21
9.142391804
  0
LINE
  5
218
100
AcDbEntity
  8
0
100
AcDbLine
 62
9
  6
CONTINUOUS
 10
10.6038629905
 20
10.2445712588
 11
10.6038629905
 21
10.2435661866
  0
LINE
  5
219
100
AcDbEntity
  8
0
100
AcDbLine
 62
7
  6
CONTINUOUS
 10
10.6281872319
 20
10.2454068184
 11
10.6281872319
 21
10.246410693
  0
LINE
  5
21A
100
AcDbEntity
  8
0
100
AcDbLine
 62
7
  6
CONTINUOUS
 10
10.6424834891
 20
10.2506314847
 11
10.6424834891
 21
10.2496303475
  0
LINE
  5
21B
100
AcDbEntity
  8
0
100
AcDbLine
 62
7
  6
CONTINUOUS
 10
11.3474826407
 20
8.992391804
 11
10.0724843375
 21
8.992391804
  0
LINE
  5
21C
100
AcDbEntity
  8
0
100
AcDbLine
 62
7
  6
CONTINUOUS
 10
11.2474695353
 20
9.042391804
 11
10.1724974429
 21
9.042391804
  0
LINE
  5
21D
100
AcDbEntity
  8
0
100
AcDbLine
 62
7
  6
CONTINUOUS
 10
11.1474826552
 20
9.142391804
 11
10.272484323
 21
9.142391804
  0
LINE
  5
21E
100
AcDbEntity
  8
0
100
AcDbLine
 62
7
  6
CONTINUOUS
 10
10.9099834891
 20
9.162391804
 11
10.9099834891
 21
9.142391804
  0
LINE
  5
21F
100
AcDbEntity
  8
0
100
AcDbLine
 62
7
  6
CONTINUOUS
 10
10.3974961863
 20
9.162391804
 11
11.0224707919
 21
9.162391804
  0
LINE
  5
220
100
AcDbEntity
  8
0
100
AcDbLine
 62
7
  6
CONTINUOUS
 10
11.0224834891
 20
9.5541386286
 11
11.0224834891
 21
9.162391804
  0
LINE
  5
221
100
AcDbEntity
  8
0
100
AcDbLine
 62
7
  6
CONTINUOUS
 10
10.3974834891
 20
9.5541386286
 11
10.2099834891
 21
9.662391804
  0
LINE
  5
222
100
AcDbEntity
  8
0
100
AcDbLine
 62
7
  6
CONTINUOUS
 10
11.1474834891
 20
9.042391804
 11
11.1474834891
 21
9.142391804
  0
LINE
  5
223
100
AcDbEntity
  8
0
100
AcDbLine
 62
7
  6
CONTINUOUS
 10
11.2099834891
 20
10.162391804
 11
11.2099834891
 21
9.662391804
  0
LINE
  5
224
100
AcDbEntity
  8
0
100
AcDbLine
 62
7
  6
CONTINUOUS
 10
11.2474834891
 20
8.992391804
 11
11.2474834891
 21
9.042391804
  0
LINE
  5
225
100
AcDbEntity
  8
0
100
AcDbLine
 62
7
  6
CONTINUOUS
 10
11.0224834891
 20
9.5541386286
 11
10.3974834891
 21
9.5541386286
  0
LINE
  5
226
100
AcDbEntity
  8
0
100
AcDbLine
 62
7
  6
CONTINUOUS
 10
10.2099834891
 20
9.662391804
 11
10.5334631669
 21
9.662391804
  0
LINE
  5
227
100
AcDbEntity
  8
0
100
AcDbLine
 62
7
  6
CONTINUOUS
 10
10.8865105515
 20
9.662391804
 11
11.2099834891
 21
9.662391804
  0
LINE
  5
228
100
AcDbEntity
  8
0
100
AcDbLine
 62
7
  6
CONTINUOUS
 10
11.8349834891
 20
8.242391804
 11
11.8454725976
 21
8.0979335214
  0
LINE
  5
229
100
AcDbEntity
  8
0
100
AcDbLine
 62
7
  6
CONTINUOUS
 10
11.7599834891
 20
8.242391804
 11
11.7599834891
 21
8.342391804
  0
LINE
  5
22A
100
AcDbEntity
  8
0
100
AcDbLine
 62
7
  6
CONTINUOUS
 10
11.2099703046
 20
10.162391804
 11
10.8865038113
 21
10.162391804
  0
LINE
  5
22B
100
AcDbEntity
  8
0
100
AcDbLine
 62
7
  6
CONTINUOUS
 10
10.5334564268
 20
10.162391804
 11
10.2099966737
 21
10.162391804
  0
LINE
  5
22C
100
AcDbEntity
  8
0
100
AcDbLine
 62
9
  6
CONTINUOUS
 10
10.5909745136
 20
10.2012012216
 11
10.3148440939
 21
10.2012024838
  0
LINE
  5
22D
100
AcDbEntity
  8
0
100
AcDbLine
 62
9
  6
CONTINUOUS
 10
11.1051281457
 20
10.2012010973
 11
10.8289927648
 21
10.2012010973
  0
LINE
  5
22E
100
AcDbEntity
  8
0
100
AcDbLine
 62
7
  6
CONTINUOUS
 10
11.0174834891
 20
10.2215971936
 11
11.1051281457
 21
10.2012010973
  0
ARC
  5
22F
100
AcDbEntity
  8
0
100
AcDbCircle
 62
7
  6
CONTINUOUS
 10
9.354112277
 20
8.992391804
 40
0.7183712121
100
AcDbArc
 50
295.2003196521
 51
360.0
  0
ARC
  5
230
100
AcDbEntity
  8
0
100
AcDbCircle
 62
7
  6
CONTINUOUS
 10
9.2034277964
 20
8.1521053774
 40
0.375
100
AcDbArc
 50
310.6030912348
 51
351.6940891949
  0
ARC
  5
231
100
AcDbEntity
  8
0
100
AcDbCircle
 62
7
  6
CONTINUOUS
 10
9.4474834891
 20
7.817391804
 40
0.05
100
AcDbArc
 50
90.0000000005
 51
270.0
  0
ARC
  5
232
100
AcDbEntity
  8
0
100
AcDbCircle
 62
7
  6
CONTINUOUS
 10
10.7099036335
 20
9.9125845926
 40
0.3127086066
100
AcDbArc
 50
287.5084222375
 51
297.4915783821
  0
ARC
  5
233
100
AcDbEntity
  8
0
100
AcDbCircle
 62
7
  6
CONTINUOUS
 10
10.7099036335
 20
9.9121990155
 40
0.3127086066
100
AcDbArc
 50
62.508419448
 51
72.491577739
  0
ARC
  5
234
100
AcDbEntity
  8
0
100
AcDbCircle
 62
7
  6
CONTINUOUS
 10
10.7097907006
 20
9.9123119484
 40
0.3127086066
100
AcDbArc
 50
17.5084194479
 51
27.4915783823
  0
ARC
  5
235
100
AcDbEntity
  8
0
100
AcDbCircle
 62
7
  6
CONTINUOUS
 10
10.7097907006
 20
9.9124716597
 40
0.3127086066
100
AcDbArc
 50
332.5084194478
 51
342.4915783822
  0
ARC
  5
236
100
AcDbEntity
  8
0
100
AcDbCircle
 62
7
  6
CONTINUOUS
 10
10.6679173519
 20
9.9635309703
 40
0.2872676167
100
AcDbArc
 50
100.8673646919
 51
102.884006282
  0
ARC
  5
237
100
AcDbEntity
  8
0
100
AcDbCircle
 62
7
  6
CONTINUOUS
 10
10.6676985327
 20
9.9653802147
 40
0.286395907
100
AcDbArc
 50
100.9032078513
 51
102.8789891683
  0
ARC
  5
238
100
AcDbEntity
  8
0
100
AcDbCircle
 62
7
  6
CONTINUOUS
 10
10.6853949281
 20
9.9681447244
 40
0.2840856733
100
AcDbArc
 50
99.3510289338
 51
101.6173652333
  0
ARC
  5
239
100
AcDbEntity
  8
0
100
AcDbCircle
 62
7
  6
CONTINUOUS
 10
10.6670635068
 20
9.9678325831
 40
0.2828821687
100
AcDbArc
 50
100.1833286742
 51
100.8617900701
  0
ARC
  5
23A
100
AcDbEntity
  8
0
100
AcDbCircle
 62
7
  6
CONTINUOUS
 10
10.6668647862
 20
9.9697452302
 40
0.2819519849
100
AcDbArc
 50
98.9123333541
 51
100.9046199161
  0
ARC
  5
23B
100
AcDbEntity
  8
0
100
AcDbCircle
 62
7
  6
CONTINUOUS
 10
10.6668008916
 20
9.9692995214
 40
0.2813919089
100
AcDbArc
 50
98.8529420366
 51
100.1835066351
  0
ARC
  5
23C
100
AcDbEntity
  8
0
100
AcDbCircle
 62
7
  6
CONTINUOUS
 10
10.6663978136
 20
9.9718812032
 40
0.2787789505
100
AcDbArc
 50
96.8667682058
 51
98.8527451508
  0
ARC
  5
23D
100
AcDbEntity
  8
0
100
AcDbCircle
 62
7
  6
CONTINUOUS
 10
10.6663140427
 20
9.9733346555
 40
0.2783205737
100
AcDbArc
 50
96.9093380656
 51
98.9148017642
  0
ARC
  5
23E
100
AcDbEntity
  8
0
100
AcDbCircle
 62
7
  6
CONTINUOUS
 10
10.6843537488
 20
9.9744039337
 40
0.2777404667
100
AcDbArc
 50
93.6140722977
 51
99.3488978445
  0
ARC
  5
23F
100
AcDbEntity
  8
0
100
AcDbCircle
 62
7
  6
CONTINUOUS
 10
10.6660041517
 20
9.9750737007
 40
0.2755622868
100
AcDbArc
 50
94.8964481476
 51
96.8648678096
  0
ARC
  5
240
100
AcDbEntity
  8
0
100
AcDbCircle
 62
7
  6
CONTINUOUS
 10
10.6659575064
 20
9.9763256261
 40
0.2753084336
100
AcDbArc
 50
94.8912309268
 51
96.9105581719
  0
ARC
  5
241
100
AcDbEntity
  8
0
100
AcDbCircle
 62
7
  6
CONTINUOUS
 10
10.6839488542
 20
9.9780831176
 40
0.2740431309
100
AcDbArc
 50
92.0392419964
 51
93.5780757862
  0
ARC
  5
242
100
AcDbEntity
  8
0
100
AcDbCircle
 62
7
  6
CONTINUOUS
 10
10.6067510557
 20
10.4203082503
 40
0.1769018705
100
AcDbArc
 50
271.5641852976
 51
273.4783227308
  0
ARC
  5
243
100
AcDbEntity
  8
0
100
AcDbCircle
 62
7
  6
CONTINUOUS
 10
10.3224834891
 20
10.1721914571
 40
0.03
100
AcDbArc
 50
104.7630312683
 51
199.0658789538
  0
ARC
  5
244
100
AcDbEntity
  8
0
100
AcDbCircle
 62
7
  6
CONTINUOUS
 10
10.711078904
 20
8.7008192005
 40
1.551330348
100
AcDbArc
 50
93.470533917
 51
93.9316018993
  0
ARC
  5
245
100
AcDbEntity
  8
0
100
AcDbCircle
 62
7
  6
CONTINUOUS
 10
10.7102586799
 20
8.7015039332
 40
1.5508680741
100
AcDbArc
 50
91.3323831505
 51
92.5050849888
  0
ARC
  5
246
100
AcDbEntity
  8
0
100
AcDbCircle
 62
7
  6
CONTINUOUS
 10
10.7099840951
 20
8.7017185628
 40
1.5506732941
100
AcDbArc
 50
101.4376442644
 51
104.7630225275
  0
ARC
  5
247
100
AcDbEntity
  8
0
100
AcDbCircle
 62
7
  6
CONTINUOUS
 10
10.7099834891
 20
8.7017217886
 40
1.5506700155
100
AcDbArc
 50
79.3153285428
 51
79.4734703691
  0
ARC
  5
248
100
AcDbEntity
  8
0
100
AcDbCircle
 62
7
  6
CONTINUOUS
 10
10.7099834891
 20
8.7017217886
 40
1.5506700155
100
AcDbArc
 50
87.8547778543
 51
91.3220614647
  0
ARC
  5
249
100
AcDbEntity
  8
0
100
AcDbCircle
 62
7
  6
CONTINUOUS
 10
10.7103252211
 20
8.702322681
 40
1.5500540825
100
AcDbArc
 50
94.0006250202
 51
95.5791977244
  0
ARC
  5
24A
100
AcDbEntity
  8
0
100
AcDbCircle
 62
7
  6
CONTINUOUS
 10
10.7102318177
 20
8.7032008291
 40
1.5491710324
100
AcDbArc
 50
95.5790281479
 51
100.581116974
  0
ARC
  5
24B
100
AcDbEntity
  8
0
100
AcDbCircle
 62
7
  6
CONTINUOUS
 10
10.7107856216
 20
8.703637506
 40
1.5484984149
100
AcDbArc
 50
94.0237757687
 51
101.4841870996
  0
ARC
  5
24C
100
AcDbEntity
  8
0
100
AcDbCircle
 62
7
  6
CONTINUOUS
 10
10.710229591
 20
8.7032308376
 40
1.5481409476
100
AcDbArc
 50
92.1355073162
 51
92.508066088
  0
ARC
  5
24D
100
AcDbEntity
  8
0
100
AcDbCircle
 62
7
  6
CONTINUOUS
 10
10.7101689057
 20
8.7045332159
 40
1.5478380283
100
AcDbArc
 50
93.4470721395
 51
94.000561671
  0
ARC
  5
24E
100
AcDbEntity
  8
0
100
AcDbCircle
 62
7
  6
CONTINUOUS
 10
10.7108609437
 20
8.704379452
 40
1.5477634314
100
AcDbArc
 50
93.2080491567
 51
93.4704583976
  0
ARC
  5
24F
100
AcDbEntity
  8
0
100
AcDbCircle
 62
7
  6
CONTINUOUS
 10
10.7100863036
 20
8.7058854218
 40
1.5464833023
100
AcDbArc
 50
93.1843639036
 51
93.4470295614
  0
ARC
  5
250
100
AcDbEntity
  8
0
100
AcDbCircle
 62
7
  6
CONTINUOUS
 10
10.7100648113
 20
8.7061776756
 40
1.5461903245
100
AcDbArc
 50
92.5054776672
 51
92.8836427188
  0
ARC
  5
251
100
AcDbEntity
  8
0
100
AcDbCircle
 62
7
  6
CONTINUOUS
 10
10.7100202004
 20
8.707092377
 40
1.5452745371
100
AcDbArc
 50
92.8836969325
 51
93.047194392
  0
ARC
  5
252
100
AcDbEntity
  8
0
100
AcDbCircle
 62
7
  6
CONTINUOUS
 10
10.733272455
 20
9.0071966762
 40
1.2437859222
100
AcDbArc
 50
90.5560334044
 51
91.0720548396
  0
ARC
  5
253
100
AcDbEntity
  8
0
100
AcDbCircle
 62
7
  6
CONTINUOUS
 10
10.7331673799
 20
9.0125396388
 40
1.2374412185
100
AcDbArc
 50
90.7889302298
 51
91.0736973176
  0
ARC
  5
254
100
AcDbEntity
  8
0
100
AcDbCircle
 62
7
  6
CONTINUOUS
 10
10.740174144
 20
9.0425906452
 40
1.2074077945
100
AcDbArc
 50
90.8294925763
 51
91.4334986004
  0
ARC
  5
255
100
AcDbEntity
  8
0
100
AcDbCircle
 62
7
  6
CONTINUOUS
 10
10.7322698898
 20
9.0496308594
 40
1.2003397098
100
AcDbArc
 50
91.0640409217
 51
92.7662113356
  0
ARC
  5
256
100
AcDbEntity
  8
0
100
AcDbCircle
 62
7
  6
CONTINUOUS
 10
10.731649481
 20
9.073258212
 40
1.1777056481
100
AcDbArc
 50
91.053242133
 51
95.0399706353
  0
ARC
  5
257
100
AcDbEntity
  8
0
100
AcDbCircle
 62
7
  6
CONTINUOUS
 10
10.7388794194
 20
9.0864547741
 40
1.1635250206
100
AcDbArc
 50
91.423798395
 51
93.1770146591
  0
ARC
  5
258
100
AcDbEntity
  8
0
100
AcDbCircle
 62
7
  6
CONTINUOUS
 10
12.0658547013
 20
8.992391804
 40
0.7183712121
100
AcDbArc
 50
180.0
 51
244.7996803479
  0
ARC
  5
259
100
AcDbEntity
  8
0
100
AcDbCircle
 62
7
  6
CONTINUOUS
 10
12.2165391819
 20
8.1521053774
 40
0.375
100
AcDbArc
 50
188.3059108051
 51
229.3969087652
  0
ARC
  5
25A
100
AcDbEntity
  8
0
100
AcDbCircle
 62
7
  6
CONTINUOUS
 10
11.9724834891
 20
7.817391804
 40
0.05
100
AcDbArc
 50
270.0
 51
89.9999999995
  0
ARC
  5
25B
100
AcDbEntity
  8
0
100
AcDbCircle
 62
7
  6
CONTINUOUS
 10
10.7284909379
 20
9.1208280574
 40
1.1290431486
100
AcDbArc
 50
92.7490324478
 51
95.0968518366
  0
ARC
  5
25C
100
AcDbEntity
  8
0
100
AcDbCircle
 62
7
  6
CONTINUOUS
 10
10.7356208633
 20
9.142859095
 40
1.1070268038
100
AcDbArc
 50
93.1704122696
 51
94.8120030448
  0
ARC
  5
25D
100
AcDbEntity
  8
0
100
AcDbCircle
 62
7
  6
CONTINUOUS
 10
10.7324339559
 20
9.1809518951
 40
1.0688009304
100
AcDbArc
 50
94.8130645216
 51
95.5951681506
  0
ARC
  5
25E
100
AcDbEntity
  8
0
100
AcDbCircle
 62
7
  6
CONTINUOUS
 10
10.7310392066
 20
9.1953213363
 40
1.0543639641
100
AcDbArc
 50
95.59586924
 51
95.7965889328
  0
ARC
  5
25F
100
AcDbEntity
  8
0
100
AcDbCircle
 62
7
  6
CONTINUOUS
 10
10.7100633448
 20
9.9125845926
 40
0.3127086066
100
AcDbArc
 50
242.5084194479
 51
252.4915777391
  0
ARC
  5
260
100
AcDbEntity
  8
0
100
AcDbCircle
 62
7
  6
CONTINUOUS
 10
10.7101762777
 20
9.9124716597
 40
0.3127086066
100
AcDbArc
 50
197.5084194478
 51
207.4915783822
  0
ARC
  5
261
100
AcDbEntity
  8
0
100
AcDbCircle
 62
7
  6
CONTINUOUS
 10
10.7101762777
 20
9.9123119484
 40
0.3127086066
100
AcDbArc
 50
152.508419448
 51
162.491578382
  0
ARC
  5
262
100
AcDbEntity
  8
0
100
AcDbCircle
 62
7
  6
CONTINUOUS
 10
10.7100633448
 20
9.9121990155
 40
0.3127086066
100
AcDbArc
 50
107.5084222375
 51
117.4915783821
  0
ARC
  5
263
100
AcDbEntity
  8
0
100
AcDbCircle
 62
7
  6
CONTINUOUS
 10
11.0974834891
 20
10.1721914571
 40
0.03
100
AcDbArc
 50
340.9341210462
 51
75.2369687317
  0
SPLINE
  5
264
100
AcDbEntity
  8
0
100
AcDbSpline
 62
7
  6
CONTINUOUS
 70
0
 71
3
 72
15
 73
11
 74
0
 42
0.0000001
 43
0.0000001
 44
0.0000000001
 40
0.0
 40
0.0
 40
0.0
 40
0.0
 40
0.0296604211
 40
0.0527856348
 40
0.082764006
 40
0.1644381518
 40
0.2757188035
 40
0.4163139353
 40
0.5849232599
 40
1.0
 40
1.0
 40
1.0
 40
1.0
 10
10.6024832622
 20
10.2439997181
 30
0.0
 10
10.6024831015
 20
10.2439572302
 30
0.0
 10
10.6025428054
 20
10.2438903956
 30
0.0
 10
10.6026449652
 20
10.2438362705
 30
0.0
 10
10.6028264666
 20
10.2437653371
 30
0.0
 10
10.603137606
 20
10.2436929231
 30
0.0
 10
10.603610062
 20
10.243618785
 30
0.0
 10
10.6042092706
 20
10.243556288
 30
0.0
 10
10.6052442818
 20
10.2434822368
 30
0.0
 10
10.606080238
 20
10.2434542391
 30
0.0
 10
10.6066746999
 20
10.2434417747
 30
0.0
  0
LINE
  5
265
100
AcDbEntity
  8
0
100
AcDbLine
 62
7
  6
CONTINUOUS
 10
10.6066746999
 20
10.2434417747
 11
10.6115799094
 21
10.2434722982
  0
LINE
  5
266
100
AcDbEntity
  8
0
100
AcDbLine
 62
7
  6
CONTINUOUS
 10
11.0174818063
 20
10.2215975139
 11
11.0164428183
 21
10.2217940406
  0
LINE
  5
267
100
AcDbEntity
  8
0
100
AcDbLine
 62
7
  6
CONTINUOUS
 10
11.0164428183
 20
10.2217940406
 11
11.013627733
 21
10.2223263907
  0
LINE
  5
268
100
AcDbEntity
  8
0
100
AcDbLine
 62
7
  6
CONTINUOUS
 10
11.013627733
 20
10.2223263907
 11
11.0106600069
 21
10.2228873909
  0
LINE
  5
269
100
AcDbEntity
  8
0
100
AcDbLine
 62
7
  6
CONTINUOUS
 10
11.0106600069
 20
10.2228873909
 11
11.0074374943
 21
10.2234963169
  0
SPLINE
  5
26A
100
AcDbEntity
  8
0
100
AcDbSpline
 62
7
  6
CONTINUOUS
 70
0
 71
3
 72
18
 73
14
 74
0
 42
0.0000001
 43
0.0000001
 44
0.0000000001
 40
0.0
 40
0.0
 40
0.0
 40
0.0
 40
0.019994348
 40
0.0472331521
 40
0.0815604606
 40
0.1227700967
 40
0.1705540268
 40
0.2245543144
 40
0.34965188
 40
0.4942706706
 40
0.6541143251
 40
0.8245419359
 40
1.0
 40
1.0
 40
1.0
 40
1.0
 10
10.8039834891
 20
9.6143645402
 30
0.0
 10
10.8033846031
 20
9.6141757568
 30
0.0
 10
10.8019372661
 20
9.6138373434
 30
0.0
 10
10.7994129558
 20
9.6134025755
 30
0.0
 10
10.796212465
 20
9.6129775056
 30
0.0
 10
10.7923611326
 20
9.6125669569
 30
0.0
 10
10.7878871741
 20
9.6121753864
 30
0.0
 10
10.7807804847
 20
9.6116572917
 30
0.0
 10
10.7706284232
 20
9.6111007723
 30
0.0
 10
10.7571476033
 20
9.6105769707
 30
0.0
 10
10.7422379941
 20
9.6101903497
 30
0.0
 10
10.7263567225
 20
9.609953501
 30
0.0
 10
10.7154938686
 20
9.6099001559
 30
0.0
 10
10.7099834891
 20
9.6099001559
 30
0.0
  0
SPLINE
  5
26B
100
AcDbEntity
  8
0
100
AcDbSpline
 62
7
  6
CONTINUOUS
 70
0
 71
3
 72
18
 73
14
 74
0
 42
0.0000001
 43
0.0000001
 44
0.0000000001
 40
0.0
 40
0.0
 40
0.0
 40
0.0
 40
0.1754581239
 40
0.3458858612
 40
0.5057295505
 40
0.6503483138
 40
0.7754458513
 40
0.8294461109
 40
0.8772300027
 40
0.9184396095
 40
0.9527668881
 40
0.9800056642
 40
1.0
 40
1.0
 40
1.0
 40
1.0
 10
10.7099834891
 20
10.2148834522
 30
0.0
 10
10.7154938705
 20
10.2148834522
 30
0.0
 10
10.7263567302
 20
10.2148301068
 30
0.0
 10
10.7422380087
 20
10.2145932581
 30
0.0
 10
10.7571476222
 20
10.2142066368
 30
0.0
 10
10.7706284414
 20
10.2136828349
 30
0.0
 10
10.7807805003
 20
10.2131263153
 30
0.0
 10
10.7878871868
 20
10.2126082206
 30
0.0
 10
10.7923611422
 20
10.2122166501
 30
0.0
 10
10.7962124716
 20
10.2118061019
 30
0.0
 10
10.7994129597
 20
10.2113810324
 30
0.0
 10
10.8019372678
 20
10.2109462646
 30
0.0
 10
10.8033846034
 20
10.2106078512
 30
0.0
 10
10.8039834891
 20
10.2104190679
 30
0.0
  0
SPLINE
  5
26C
100
AcDbEntity
  8
0
100
AcDbSpline
 62
7
  6
CONTINUOUS
 70
0
 71
3
 72
30
 73
26
 74
0
 42
0.0000001
 43
0.0000001
 44
0.0000000001
 40
0.0
 40
0.0
 40
0.0
 40
0.0
 40
0.0045443923
 40
0.0100005048
 40
0.0236211125
 40
0.0407864674
 40
0.0613937404
 40
0.0852888679
 40
0.1122905507
 40
0.1748358175
 40
0.2471559751
 40
0.3270922151
 40
0.4122303365
 40
0.5000127524
 40
0.5877942556
 40
0.672930738
 40
0.7528635855
 40
0.8251800926
 40
0.887721789
 40
0.9147213787
 40
0.9386141769
 40
0.9592197845
 40
0.9763836386
 40
0.990002949
 40
1.0
 40
1.0
 40
1.0
 40
1.0
 10
10.854252551
 20
10.1895969407
 30
0.0
 10
10.8545057306
 20
10.1894651219
 30
0.0
 10
10.8550518094
 20
10.1891538079
 30
0.0
 10
10.8563056709
 20
10.188360106
 30
0.0
 10
10.8581647481
 20
10.1870441984
 30
0.0
 10
10.8607288747
 20
10.1850826552
 30
0.0
 10
10.8637427712
 20
10.1826489314
 30
0.0
 10
10.8671835616
 20
10.179762047
 30
0.0
 10
10.8725751408
 20
10.1751030651
 30
0.0
 10
10.8801477236
 20
10.1683176764
 30
0.0
 10
10.8900514139
 20
10.1591546089
 30
0.0
 10
10.9008650699
 20
10.1488873209
 30
0.0
 10
10.9122622693
 20
10.1378256351
 30
0.0
 10
10.923897891
 20
10.1263032735
 30
0.0
 10
10.9354201457
 20
10.1146676908
 30
0.0
 10
10.9464815578
 20
10.1032707469
 30
0.0
 10
10.9567484274
 20
10.0924574424
 30
0.0
 10
10.965911015
 20
10.0825542262
 30
0.0
 10
10.972696014
 20
10.0749820552
 30
0.0
 10
10.977354592
 20
10.0695908305
 30
0.0
 10
10.9802413465
 20
10.0661503365
 30
0.0
 10
10.9826744405
 20
10.0631366446
 30
0.0
 10
10.9846369985
 20
10.0605729329
 30
0.0
 10
10.9861145262
 20
10.0584805392
 30
0.0
 10
10.9868986422
 20
10.057217827
 30
0.0
 10
10.9871886258
 20
10.0566608659
 30
0.0
  0
SPLINE
  5
26D
100
AcDbEntity
  8
0
100
AcDbSpline
 62
7
  6
CONTINUOUS
 70
0
 71
3
 72
30
 73
26
 74
0
 42
0.0000001
 43
0.0000001
 44
0.0000000001
 40
0.0
 40
0.0
 40
0.0
 40
0.0
 40
0.0045443923
 40
0.0100005048
 40
0.0236211125
 40
0.0407864674
 40
0.0613937404
 40
0.0852888679
 40
0.1122905507
 40
0.1748358175
 40
0.2471559751
 40
0.3270922151
 40
0.4122303365
 40
0.5000127524
 40
0.5877942556
 40
0.672930738
 40
0.7528635855
 40
0.8251800926
 40
0.887721789
 40
0.9147213787
 40
0.9386141769
 40
0.9592197845
 40
0.9763836386
 40
0.990002949
 40
1.0
 40
1.0
 40
1.0
 40
1.0
 10
11.008010753
 20
10.006391804
 30
0.0
 10
11.0080965681
 20
10.006119569
 30
0.0
 10
11.0082625718
 20
10.0055133007
 30
0.0
 10
11.0085879538
 20
10.0040654547
 30
0.0
 10
11.0089720327
 20
10.0018204015
 30
0.0
 10
11.0093981235
 20
9.9986202697
 30
0.0
 10
11.0098083676
 20
9.9947682204
 30
0.0
 10
11.0102000382
 20
9.9902938787
 30
0.0
 10
11.0107180627
 20
9.9831870588
 30
0.0
 10
11.0112746931
 20
9.9730344397
 30
0.0
 10
11.0117983925
 20
9.9595522061
 30
0.0
 10
11.0121847329
 20
9.9446457276
 30
0.0
 10
11.0124219769
 20
9.9287648975
 30
0.0
 10
11.012502064
 20
9.9123897305
 30
0.0
 10
11.0124219289
 20
9.8960146667
 30
0.0
 10
11.0121846721
 20
9.8801342108
 30
0.0
 10
11.0117982843
 20
9.8652282768
 30
0.0
 10
11.0112745808
 20
9.8517467176
 30
0.0
 10
11.0107179661
 20
9.8415946653
 30
0.0
 10
11.0101999067
 20
9.8344883817
 30
0.0
 10
11.0098083537
 20
9.8300143414
 30
0.0
 10
11.009397809
 20
9.8261628821
 30
0.0
 10
11.0089727292
 20
9.8229623262
 30
0.0
 10
11.0085379532
 20
9.8204380105
 30
0.0
 10
11.0081995346
 20
9.8189906845
 30
0.0
 10
11.008010753
 20
9.818391804
 30
0.0
  0
SPLINE
  5
26E
100
AcDbEntity
  8
0
100
AcDbSpline
 62
7
  6
CONTINUOUS
 70
0
 71
3
 72
30
 73
26
 74
0
 42
0.0000001
 43
0.0000001
 44
0.0000000001
 40
0.0
 40
0.0
 40
0.0
 40
0.0
 40
0.0045443923
 40
0.0100005048
 40
0.0236211125
 40
0.0407864674
 40
0.0613937404
 40
0.0852888679
 40
0.1122905507
 40
0.1748358175
 40
0.2471559751
 40
0.3270922151
 40
0.4122303365
 40
0.5000127524
 40
0.5877942556
 40
0.672930738
 40
0.7528635855
 40
0.8251800926
 40
0.887721789
 40
0.9147213787
 40
0.9386141769
 40
0.9592197845
 40
0.9763836386
 40
0.990002949
 40
1.0
 40
1.0
 40
1.0
 40
1.0
 10
10.9871886258
 20
9.7681227422
 30
0.0
 10
10.987056807
 20
9.7678695626
 30
0.0
 10
10.9867454929
 20
9.7673234837
 30
0.0
 10
10.9859517911
 20
9.7660696222
 30
0.0
 10
10.9846358835
 20
9.7642105451
 30
0.0
 10
10.9826743403
 20
9.7616464185
 30
0.0
 10
10.9802406165
 20
9.758632522
 30
0.0
 10
10.9773537321
 20
9.7551917316
 30
0.0
 10
10.9726947501
 20
9.7498001524
 30
0.0
 10
10.9659093615
 20
9.7422275695
 30
0.0
 10
10.956746294
 20
9.7323238793
 30
0.0
 10
10.9464790059
 20
9.7215102233
 30
0.0
 10
10.9354173201
 20
9.7101130239
 30
0.0
 10
10.9238949586
 20
9.6984774022
 30
0.0
 10
10.9122593759
 20
9.6869551475
 30
0.0
 10
10.900862432
 20
9.6758937353
 30
0.0
 10
10.8900491275
 20
9.6656268658
 30
0.0
 10
10.8801459113
 20
9.6564642782
 30
0.0
 10
10.8725737403
 20
9.6496792792
 30
0.0
 10
10.8671825156
 20
9.6450207012
 30
0.0
 10
10.8637420216
 20
9.6421339466
 30
0.0
 10
10.8607283296
 20
9.6397008526
 30
0.0
 10
10.858164618
 20
9.6377382947
 30
0.0
 10
10.8560722243
 20
9.6362607669
 30
0.0
 10
10.8548095121
 20
9.635476651
 30
0.0
 10
10.854252551
 20
9.6351866674
 30
0.0
  0
SPLINE
  5
26F
100
AcDbEntity
  8
0
100
AcDbSpline
 62
7
  6
CONTINUOUS
 70
0
 71
3
 72
30
 73
26
 74
0
 42
0.0000001
 43
0.0000001
 44
0.0000000001
 40
0.0
 40
0.0
 40
0.0
 40
0.0
 40
0.0045443923
 40
0.0100005048
 40
0.0236211125
 40
0.0407864674
 40
0.0613937404
 40
0.0852888679
 40
0.1122905507
 40
0.1748358175
 40
0.2471559751
 40
0.3270922151
 40
0.4122303365
 40
0.5000127524
 40
0.5877942556
 40
0.672930738
 40
0.7528635855
 40
0.8251800926
 40
0.887721789
 40
0.9147213787
 40
0.9386141769
 40
0.9592197845
 40
0.9763836386
 40
0.990002949
 40
1.0
 40
1.0
 40
1.0
 40
1.0
 10
10.4327783525
 20
10.0566608659
 30
0.0
 10
10.4329101713
 20
10.0569140455
 30
0.0
 10
10.4332214853
 20
10.0574601244
 30
0.0
 10
10.4340151872
 20
10.0587139859
 30
0.0
 10
10.4353310948
 20
10.060573063
 30
0.0
 10
10.437292638
 20
10.0631371896
 30
0.0
 10
10.4397263618
 20
10.0661510861
 30
0.0
 10
10.4426132462
 20
10.0695918765
 30
0.0
 10
10.4472722281
 20
10.0749834557
 30
0.0
 10
10.4540576168
 20
10.0825560385
 30
0.0
 10
10.4632206842
 20
10.0924597288
 30
0.0
 10
10.4734879723
 20
10.1032733848
 30
0.0
 10
10.4845496581
 20
10.1146705842
 30
0.0
 10
10.4960720196
 20
10.1263062059
 30
0.0
 10
10.5077076024
 20
10.1378284606
 30
0.0
 10
10.5191045463
 20
10.1488898728
 30
0.0
 10
10.5299178508
 20
10.1591567423
 30
0.0
 10
10.539821067
 20
10.1683193299
 30
0.0
 10
10.547393238
 20
10.1751043289
 30
0.0
 10
10.5527844626
 20
10.1797629069
 30
0.0
 10
10.5562249567
 20
10.1826496615
 30
0.0
 10
10.5592386486
 20
10.1850827555
 30
0.0
 10
10.5618023603
 20
10.1870453134
 30
0.0
 10
10.563894754
 20
10.1885228412
 30
0.0
 10
10.5651574661
 20
10.1893069571
 30
0.0
 10
10.5657144273
 20
10.1895969407
 30
0.0
  0
SPLINE
  5
270
100
AcDbEntity
  8
0
100
AcDbSpline
 62
7
  6
CONTINUOUS
 70
0
 71
3
 72
18
 73
14
 74
0
 42
0.0000001
 43
0.0000001
 44
0.0000000001
 40
0.0
 40
0.0
 40
0.0
 40
0.0
 40
0.019994348
 40
0.0472331521
 40
0.0815604606
 40
0.1227700967
 40
0.1705540268
 40
0.2245543144
 40
0.34965188
 40
0.4942706706
 40
0.6541143251
 40
0.8245419359
 40
1.0
 40
1.0
 40
1.0
 40
1.0
 10
10.6159834891
 20
10.2104190679
 30
0.0
 10
10.6165823752
 20
10.2106078513
 30
0.0
 10
10.6180297122
 20
10.2109462647
 30
0.0
 10
10.6205540224
 20
10.2113810326
 30
0.0
 10
10.6237545133
 20
10.2118061025
 30
0.0
 10
10.6276058456
 20
10.2122166512
 30
0.0
 10
10.6320798041
 20
10.2126082216
 30
0.0
 10
10.6391864936
 20
10.2131263163
 30
0.0
 10
10.6493385551
 20
10.2136828358
 30
0.0
 10
10.662819375
 20
10.2142066374
 30
0.0
 10
10.6777289842
 20
10.2145932584
 30
0.0
 10
10.6936102558
 20
10.2148301071
 30
0.0
 10
10.7044731097
 20
10.2148834522
 30
0.0
 10
10.7099834891
 20
10.2148834522
 30
0.0
  0
SPLINE
  5
271
100
AcDbEntity
  8
0
100
AcDbSpline
 62
7
  6
CONTINUOUS
 70
0
 71
3
 72
18
 73
14
 74
0
 42
0.0000001
 43
0.0000001
 44
0.0000000001
 40
0.0
 40
0.0
 40
0.0
 40
0.0
 40
0.1754581239
 40
0.3458858612
 40
0.5057295505
 40
0.6503483138
 40
0.7754458513
 40
0.8294461109
 40
0.8772300027
 40
0.9184396095
 40
0.9527668881
 40
0.9800056642
 40
1.0
 40
1.0
 40
1.0
 40
1.0
 10
10.7099834891
 20
9.6099001559
 30
0.0
 10
10.7044731078
 20
9.6099001559
 30
0.0
 10
10.6936102481
 20
9.6099535013
 30
0.0
 10
10.6777289695
 20
9.61019035
 30
0.0
 10
10.6628193561
 20
9.6105769713
 30
0.0
 10
10.6493385369
 20
9.6111007732
 30
0.0
 10
10.639186478
 20
9.6116572928
 30
0.0
 10
10.6320797915
 20
9.6121753875
 30
0.0
 10
10.627605836
 20
9.612566958
 30
0.0
 10
10.6237545067
 20
9.6129775062
 30
0.0
 10
10.6205540186
 20
9.6134025757
 30
0.0
 10
10.6180297105
 20
9.6138373435
 30
0.0
 10
10.6165823748
 20
9.6141757569
 30
0.0
 10
10.6159834891
 20
9.6143645402
 30
0.0
  0
SPLINE
  5
272
100
AcDbEntity
  8
0
100
AcDbSpline
 62
7
  6
CONTINUOUS
 70
0
 71
3
 72
30
 73
26
 74
0
 42
0.0000001
 43
0.0000001
 44
0.0000000001
 40
0.0
 40
0.0
 40
0.0
 40
0.0
 40
0.0045443923
 40
0.0100005048
 40
0.0236211125
 40
0.0407864674
 40
0.0613937404
 40
0.0852888679
 40
0.1122905507
 40
0.1748358175
 40
0.2471559751
 40
0.3270922151
 40
0.4122303365
 40
0.5000127524
 40
0.5877942556
 40
0.672930738
 40
0.7528635855
 40
0.8251800926
 40
0.887721789
 40
0.9147213787
 40
0.9386141769
 40
0.9592197845
 40
0.9763836386
 40
0.990002949
 40
1.0
 40
1.0
 40
1.0
 40
1.0
 10
10.5657144273
 20
9.6351866674
 30
0.0
 10
10.5654612476
 20
9.6353184862
 30
0.0
 10
10.5649151688
 20
9.6356298002
 30
0.0
 10
10.5636613073
 20
9.6364235021
 30
0.0
 10
10.5618022302
 20
9.6377394097
 30
0.0
 10
10.5592381036
 20
9.6397009529
 30
0.0
 10
10.556224207
 20
9.6421346767
 30
0.0
 10
10.5527834167
 20
9.6450215611
 30
0.0
 10
10.5473918375
 20
9.649680543
 30
0.0
 10
10.5398192546
 20
9.6564659317
 30
0.0
 10
10.5299155644
 20
9.6656289992
 30
0.0
 10
10.5191019084
 20
9.6758962872
 30
0.0
 10
10.5077047089
 20
9.686957973
 30
0.0
 10
10.4960690873
 20
9.6984803345
 30
0.0
 10
10.4845468326
 20
9.7101159173
 30
0.0
 10
10.4734854204
 20
9.7215128612
 30
0.0
 10
10.4632185508
 20
9.7323261657
 30
0.0
 10
10.4540559633
 20
9.7422293819
 30
0.0
 10
10.4472709643
 20
9.7498015529
 30
0.0
 10
10.4426123862
 20
9.7551927776
 30
0.0
 10
10.4397256317
 20
9.7586332716
 30
0.0
 10
10.4372925377
 20
9.7616469635
 30
0.0
 10
10.4353299798
 20
9.7642106752
 30
0.0
 10
10.433852452
 20
9.7663030689
 30
0.0
 10
10.4330683361
 20
9.767565781
 30
0.0
 10
10.4327783525
 20
9.7681227422
 30
0.0
  0
SPLINE
  5
273
100
AcDbEntity
  8
0
100
AcDbSpline
 62
7
  6
CONTINUOUS
 70
0
 71
3
 72
30
 73
26
 74
0
 42
0.0000001
 43
0.0000001
 44
0.0000000001
 40
0.0
 40
0.0
 40
0.0
 40
0.0
 40
0.0045443923
 40
0.0100005048
 40
0.0236211125
 40
0.0407864674
 40
0.0613937404
 40
0.0852888679
 40
0.1122905507
 40
0.1748358175
 40
0.2471559751
 40
0.3270922151
 40
0.4122303365
 40
0.5000127524
 40
0.5877942556
 40
0.672930738
 40
0.7528635855
 40
0.8251800926
 40
0.887721789
 40
0.9147213787
 40
0.9386141769
 40
0.9592197845
 40
0.9763836386
 40
0.990002949
 40
1.0
 40
1.0
 40
1.0
 40
1.0
 10
10.4119562253
 20
9.818391804
 30
0.0
 10
10.4118704102
 20
9.8186640391
 30
0.0
 10
10.4117044064
 20
9.8192703074
 30
0.0
 10
10.4113790245
 20
9.8207181534
 30
0.0
 10
10.4109949456
 20
9.8229632066
 30
0.0
 10
10.4105688548
 20
9.8261633384
 30
0.0
 10
10.4101586107
 20
9.8300153877
 30
0.0
 10
10.40976694
 20
9.8344897294
 30
0.0
 10
10.4092489155
 20
9.8415965493
 30
0.0
 10
10.4086922852
 20
9.8517491684
 30
0.0
 10
10.4081685858
 20
9.865231402
 30
0.0
 10
10.4077822453
 20
9.8801378805
 30
0.0
 10
10.4075450014
 20
9.8960187106
 30
0.0
 10
10.4074649143
 20
9.9123938776
 30
0.0
 10
10.4075450494
 20
9.9287689414
 30
0.0
 10
10.4077823061
 20
9.9446493973
 30
0.0
 10
10.408168694
 20
9.9595553313
 30
0.0
 10
10.4086923975
 20
9.9730368905
 30
0.0
 10
10.4092490122
 20
9.9831889428
 30
0.0
 10
10.4097670716
 20
9.9902952264
 30
0.0
 10
10.4101586245
 20
9.9947692667
 30
0.0
 10
10.4105691693
 20
9.998620726
 30
0.0
 10
10.4109942491
 20
10.0018212819
 30
0.0
 10
10.411429025
 20
10.0043455976
 30
0.0
 10
10.4117674436
 20
10.0057929236
 30
0.0
 10
10.4119562253
 20
10.006391804
 30
0.0
  0
LINE
  5
274
100
AcDbEntity
  8
0
100
AcDbLine
 62
7
  6
CONTINUOUS
 10
10.9994103778
 20
10.2250120715
 11
11.0075349639
 21
10.223477904
  0
LINE
  5
275
100
AcDbEntity
  8
0
100
AcDbLine
 62
7
  6
CONTINUOUS
 10
11.0075349639
 20
10.223477904
 11
11.0164603087
 21
10.2217907329
  0
LINE
  5
276
100
AcDbEntity
  8
0
100
AcDbLine
 62
7
  6
CONTINUOUS
 10
11.0164603087
 20
10.2217907329
 11
11.0174818064
 21
10.2215975139
  0
SPLINE
  5
277
100
AcDbEntity
  8
0
100
AcDbSpline
 62
7
  6
CONTINUOUS
 70
0
 71
3
 72
11
 73
7
 74
0
 42
0.0000001
 43
0.0000001
 44
0.0000000001
 40
0.0
 40
0.0
 40
0.0
 40
0.0
 40
0.2427857641
 40
0.4912394113
 40
0.7440858744
 40
1.0
 40
1.0
 40
1.0
 40
1.0
 10
10.7226946573
 20
10.249871909
 30
0.0
 10
10.7450655165
 20
10.2501962793
 30
0.0
 10
10.7903554716
 20
10.2496077299
 30
0.0
 10
10.858809592
 20
10.2451870508
 30
0.0
 10
10.9281627605
 20
10.2372525972
 30
0.0
 10
10.9744535157
 20
10.2296924102
 30
0.0
 10
10.9976326365
 20
10.2253464904
 30
0.0
  0
LINE
  5
278
100
AcDbEntity
  8
0
100
AcDbLine
 62
7
  6
CONTINUOUS
 10
10.9976326365
 20
10.2253464904
 11
10.9994103778
 21
10.2250120715
  0
LINE
  5
279
100
AcDbEntity
  8
0
100
AcDbLine
 62
7
  6
CONTINUOUS
 10
10.6174838516
 20
10.2437322642
 11
10.6245515382
 21
10.2442938453
  0
LINE
  5
27A
100
AcDbEntity
  8
0
100
AcDbLine
 62
7
  6
CONTINUOUS
 10
10.6021268338
 20
10.2483188999
 11
10.6034625031
 21
10.2484123539
  0
LINE
  5
27B
100
AcDbEntity
  8
0
100
AcDbLine
 62
7
  6
CONTINUOUS
 10
10.6034625031
 20
10.2484123539
 11
10.6047110696
 21
10.2484986674
  0
LINE
  5
27C
100
AcDbEntity
  8
0
100
AcDbLine
 62
7
  6
CONTINUOUS
 10
10.624245363
 20
10.2497174024
 11
10.6279327282
 21
10.2499196578
  0
SPLINE
  5
27D
100
AcDbEntity
  8
0
100
AcDbSpline
 62
7
  6
CONTINUOUS
 70
0
 71
3
 72
11
 73
7
 74
0
 42
0.0000001
 43
0.0000001
 44
0.0000000001
 40
0.0
 40
0.0
 40
0.0
 40
0.0
 40
0.255714917
 40
0.5084686473
 40
0.7569769619
 40
1.0
 40
1.0
 40
1.0
 40
1.0
 10
10.9974834891
 20
10.2255069594
 30
0.0
 10
10.9742096935
 20
10.2298981403
 30
0.0
 10
10.9277225016
 20
10.2375622567
 30
0.0
 10
10.8580581909
 20
10.2456951903
 30
0.0
 10
10.7892533063
 20
10.2503593251
 30
0.0
 10
10.7437100202
 20
10.251142592
 30
0.0
 10
10.7212021827
 20
10.2509240293
 30
0.0
  0
LINE
  5
27E
100
AcDbEntity
  8
0
100
AcDbLine
 62
7
  6
CONTINUOUS
 10
10.6278757129
 20
10.2501820303
 11
10.6241806608
 21
10.2499808932
  0
LINE
  5
27F
100
AcDbEntity
  8
0
100
AcDbLine
 62
7
  6
CONTINUOUS
 10
10.4257615787
 20
10.2260296345
 11
10.4224834891
 21
10.2254136244
  0
ENDSEC
  0
SECTION
  2
OBJECTS
  0
DICTIONARY
  5
C
100
AcDbDictionary
280
0
281
1
  3
ACAD_GROUP
350
D
  3
ACAD_MLINESTYLE
350
17
  3
ACAD_LAYOUT
350
1A
  3
ACAD_PLOTSETTINGS
350
19
  3
ACAD_PLOTSTYLENAME
350
E
  0
DICTIONARY
  5
D
102
{ACAD_REACTORS
330
C
102
}
100
AcDbDictionary
280
0
281
1
  0
ACDBDICTIONARYWDFLT
  5
E
102
{ACAD_REACTORS
330
C
102
}
100
AcDbDictionary
281
1
  3
Normal
350
F
100
AcDbDictionaryWithDefault
340
F
  0
DICTIONARY
  5
17
102
{ACAD_REACTORS
330
C
102
}
100
AcDbDictionary
280
0
281
1
  3
Standard
350
18
  0
DICTIONARY
  5
19
102
{ACAD_REACTORS
330
C
102
}
100
AcDbDictionary
281
1
  0
DICTIONARY
  5
1A
102
{ACAD_REACTORS
330
C
102
}
100
AcDbDictionary
281
1
  3
Model
350
280
  3
Layout1
350
281
  0
ACDBPLACEHOLDER
  5
F
102
{ACAD_REACTORS
330
E
102
}
  0
MLINESTYLE
  5
18
102
{ACAD_REACTORS
330
17
102
}
100
AcDbMlineStyle
  2
STANDARD
 70
0
  3

 62
256
 51
90.0
 52
90.0
 71
2
 49
0.5
 62
256
  6
BYLAYER
 49
-0.5
 62
256
  6
BYLAYER
  0
LAYOUT
  5
280
102
{ACAD_REACTORS
330
1A
102
}
100
AcDbPlotSettings
  1

  2
none_device
  4
ANSI_C_(22.00_x_17.00_Inches)
  6

 40
0.0
 41
0.0
 42
0.0
 43
0.0
 44
558.8
 45
431.8
 46
0.0
 47
0.0
 48
0.0
 49
0.0
140
0.0
141
0.0
142
1.0
143
1.0
 70
1024
 72
0
 73
0
 74
0
  7

 75
0
147
1.0
148
0.0
149
0.0
100
AcDbLayout
  1
Model
 70
0
 71
0
 10
0.0
 20
0.0
 11
22.0
 21
17.0
 12
0.0
 22
0.0
 32
0.0
 14
0.0
 24
0.0
 34
0.0
 15
0.0
 25
0.0
 35
0.0
146
0.0
 13
0.0
 23
0.0
 33
0.0
 16
1.0
 26
0.0
 36
0.0
 17
0.0
 27
1.0
 37
0.0
 76
0
330
202
345
0
346
0
  0
LAYOUT
  5
281
102
{ACAD_REACTORS
330
1A
102
}
100
AcDbPlotSettings
  1

  2
none_device
  4
ANSI_C_(22.00_x_17.00_Inches)
  6

 40
0.0
 41
0.0
 42
0.0
 43
0.0
 44
558.8
 45
431.8
 46
0.0
 47
0.0
 48
0.0
 49
0.0
140
0.0
141
0.0
142
1.0
143
1.0
 70
0
 72
0
 73
0
 74
0
  7

 75
0
147
1.0
148
0.0
149
0.0
100
AcDbLayout
  1
Layout1
 70
0
 71
1
 10
0.0
 20
0.0
 11
22.0
 21
17.0
 12
0.0
 22
0.0
 32
0.0
 14
0.0
 24
0.0
 34
0.0
 15
0.0
 25
0.0
 35
0.0
146
0.0
 13
0.0
 23
0.0
 33
0.0
 16
1.0
 26
0.0
 36
0.0
 17
0.0
 27
1.0
 37
0.0
 76
0
330
203
345
0
346
0
  0
ENDSEC
  0
EOF
