999
DXF file: E:\BT Custom\CADOUTPUT\_TOP.dxf
999
Pro/ENGINEER 2018400 by Parametric Technology Corporation
  0
SECTION
  2
HEADER
  9
$ACADVER
  1
AC1018
  9
$DWGCODEPAGE
  3
ANSI_1252
  9
$EXTMAX
 10
22.0
 20
17.0
 30
0.0
  9
$EXTMIN
 10
0.0
 20
0.0
 30
0.0
  9
$LIMMIN
 10
0.0
 20
0.0
  9
$LIMMAX
 10
22.0
 20
17.0
  9
$VIEWCTR
 10
11.0
 20
8.5
  9
$VIEWSIZE
 40
17.0
  9
$CLAYER
  8
0
  9
$LTSCALE
 40
1.21
  9
$CELTYPE
  6
BYLAYER
  9
$DIMSCALE
 40
1.0
  9
$DIMASZ
 40
0.1
  9
$DIMEXO
 40
0.0625
  9
$DIMDLI
 40
0.836
  9
$DIMEXE
 40
0.125
  9
$DIMCEN
 40
0.198
  9
$DIMLFAC
 40
1.0
  9
$DIMBLK
  1
_FILLED
  9
$DIMALT
 70
1
  9
$DIMALTD
 70
2
  9
$DIMALTTD
 70
2
  9
$DIMALTF
 40
25.4
  9
$DIMTXT
 40
0.08
  9
$DIMTOL
 70
1
  9
$DIMLIM
 70
0
  9
$DIMTFAC
 40
1.0
  9
$DIMTP
 40
0.001
  9
$DIMTM
 40
0.001
  9
$DIMGAP
 40
0.09
  9
$DIMDSEP
 70
46
  9
$AUNITS
 70
0
  9
$PDMODE
 70
3
  9
$PDSIZE
 40
0.06
  9
$HANDSEED
  5
23C
  9
$TILEMODE
 70
1
  9
$MEASUREMENT
 70
0
  9
$INSUNITS
 70
1
  0
ENDSEC
  0
SECTION
  2
CLASSES
  0
CLASS
  1
ACDBDICTIONARYWDFLT
  2
AcDbDictionaryWithDefault
  3
AutoCAD 2000
 90
0
 91
1
280
0
281
0
  0
CLASS
  1
ACDBPLACEHOLDER
  2
AcDbPlaceHolder
  3
AutoCAD 2000
 90
0
 91
1
280
0
281
0
  0
CLASS
  1
LAYOUT
  2
AcDbLayout
  3
AutoCAD 2000
 90
0
 91
0
280
0
281
0
  0
ENDSEC
  0
SECTION
  2
TABLES
  0
TABLE
  2
VPORT
  5
8
100
AcDbSymbolTable
 70
2
  0
VPORT
  5
1F4
100
AcDbSymbolTableRecord
100
AcDbViewportTableRecord
  2
*ACTIVE
 70
0
 10
0.0
 20
0.0
 11
1.0
 21
1.0
 12
11.0
 22
8.5
 13
0.0
 23
0.0
 14
1.0
 24
1.0
 15
0.0
 25
0.0
 16
0.0
 26
0.0
 36
1.0
 17
0.0
 27
0.0
 37
0.0
 40
17.0
 41
1.2941176471
 42
50.0
 43
0.0
 44
0.0
 50
0.0
 51
0.0
 71
0
 72
100
 73
1
 74
1
 75
0
 76
0
 77
0
 78
0
  0
ENDTAB
  0
TABLE
  2
LTYPE
  5
5
100
AcDbSymbolTable
 70
6
  0
LTYPE
  5
14
100
AcDbSymbolTableRecord
100
AcDbLinetypeTableRecord
  2
BYBLOCK
 70
0
  3

 72
65
 73
0
 40
0.0
  0
LTYPE
  5
15
100
AcDbSymbolTableRecord
100
AcDbLinetypeTableRecord
  2
BYLAYER
 70
0
  3

 72
65
 73
0
 40
0.0
  0
LTYPE
  5
16
100
AcDbSymbolTableRecord
100
AcDbLinetypeTableRecord
  2
CONTINUOUS
 70
64
  3
Solid line
 72
65
 73
0
 40
0.0
  0
LTYPE
  5
1F5
100
AcDbSymbolTableRecord
100
AcDbLinetypeTableRecord
  2
CENTER
 70
64
  3
____ _ ____ _ ____ _ ____ _ ____ _ ____ _ ____
 72
65
 73
4
 40
0.6
 49
0.375
 74
0
 49
-0.075
 74
0
 49
0.075
 74
0
 49
-0.075
 74
0
  0
LTYPE
  5
1F6
100
AcDbSymbolTableRecord
100
AcDbLinetypeTableRecord
  2
HIDDEN
 70
64
  3
- - - - - - - - - - - - - - - - - - - -
 72
65
 73
2
 40
0.2
 49
0.1
 74
0
 49
-0.1
 74
0
  0
LTYPE
  5
1F7
100
AcDbSymbolTableRecord
100
AcDbLinetypeTableRecord
  2
PHANTOM
 70
64
  3
_____ _ _ _____ _ _ _____ _ _ _____
 72
65
 73
6
 40
0.8
 49
0.45
 74
0
 49
-0.05
 74
0
 49
0.1
 74
0
 49
-0.05
 74
0
 49
0.1
 74
0
 49
-0.05
 74
0
  0
LTYPE
  5
1F8
100
AcDbSymbolTableRecord
100
AcDbLinetypeTableRecord
  2
DOT
 70
64
  3
. . . . . . . . . . . . . . . . . . . .
 72
65
 73
2
 40
0.2
 49
0.1
 74
0
 49
-0.1
 74
0
  0
LTYPE
  5
1F9
100
AcDbSymbolTableRecord
100
AcDbLinetypeTableRecord
  2
DASHED
 70
64
  3
- - - - - - - - - - - - - - - - - - - -
 72
65
 73
2
 40
0.2
 49
0.1
 74
0
 49
-0.1
 74
0
  0
ENDTAB
  0
TABLE
  2
LAYER
  5
2
100
AcDbSymbolTable
 70
36
  0
LAYER
  5
10
100
AcDbSymbolTableRecord
100
AcDbLayerTableRecord
  2
0
 70
0
 62
7
  6
CONTINUOUS
370
-3
390
F
  0
LAYER
  5
1FA
100
AcDbSymbolTableRecord
100
AcDbLayerTableRecord
  2
DEFAULT_1
 70
0
 62
7
  6
CENTER
370
-3
390
F
  0
LAYER
  5
1FB
100
AcDbSymbolTableRecord
100
AcDbLayerTableRecord
  2
DEFAULT_2
 70
0
 62
8
  6
HIDDEN
370
-3
390
F
  0
LAYER
  5
1FC
100
AcDbSymbolTableRecord
100
AcDbLayerTableRecord
  2
DEFAULT_3
 70
0
 62
7
  6
PHANTOM
370
-3
390
F
  0
LAYER
  5
1FD
100
AcDbSymbolTableRecord
100
AcDbLayerTableRecord
  2
ALL_FEATURES
 70
0
 62
7
  6
CONTINUOUS
370
-3
390
F
  0
LAYER
  5
1FE
100
AcDbSymbolTableRecord
100
AcDbLayerTableRecord
  2
AXES_FEATURES
 70
0
 62
7
  6
CONTINUOUS
370
-3
390
F
  0
LAYER
  5
1FF
100
AcDbSymbolTableRecord
100
AcDbLayerTableRecord
  2
DIMENSIONS
 70
0
 62
7
  6
CONTINUOUS
370
-3
390
F
  0
ENDTAB
  0
TABLE
  2
STYLE
  5
3
100
AcDbSymbolTable
 70
1
  0
STYLE
  5
11
100
AcDbSymbolTableRecord
100
AcDbTextStyleTableRecord
  2
STANDARD
 70
0
 40
0.0
 41
0.8
 50
0.0
 71
0
 42
0.2
  3
txt
  4

  0
STYLE
  5
200
100
AcDbSymbolTableRecord
100
AcDbTextStyleTableRecord
  2
TEXTSTYLE_1
 70
0
 40
0.0
 41
0.8
 50
0.0
 71
0
 42
0.2
  3
gdt
  4

  0
ENDTAB
  0
TABLE
  2
VIEW
  5
6
100
AcDbSymbolTable
 70
0
  0
ENDTAB
  0
TABLE
  2
UCS
  5
7
100
AcDbSymbolTable
 70
0
  0
ENDTAB
  0
TABLE
  2
APPID
  5
9
100
AcDbSymbolTable
 70
1
  0
APPID
  5
201
100
AcDbSymbolTableRecord
100
AcDbRegAppTableRecord
  2
ACAD
 70
0
  0
ENDTAB
  0
TABLE
  2
BLOCK_RECORD
  5
1
100
AcDbSymbolTable
 70
0
  0
BLOCK_RECORD
  5
202
100
AcDbSymbolTableRecord
100
AcDbBlockTableRecord
  2
*Model_Space
  0
BLOCK_RECORD
  5
203
100
AcDbSymbolTableRecord
100
AcDbBlockTableRecord
  2
*Paper_Space
  0
BLOCK_RECORD
  5
204
100
AcDbSymbolTableRecord
100
AcDbBlockTableRecord
  2
_FILLED
  0
ENDTAB
  0
TABLE
  2
DIMSTYLE
  5
A
100
AcDbSymbolTable
 70
1
100
AcDbDimStyleTable
 71
0
  0
DIMSTYLE
105
205
100
AcDbSymbolTableRecord
100
AcDbDimStyleTableRecord
  2
STANDARD
 70
0
  3

  4

 40
1.0
 41
0.1
 42
0.0625
 43
0.38
 44
0.125
 45
0.0
 46
0.0
 47
0.001
 48
0.001
140
0.08
141
0.09
142
0.0
143
25.4
144
1.0
145
0.0
146
1.0
147
0.09
 71
1.0
 72
0.0
 73
1
 74
1
 75
0
 76
0
 77
0
 78
4
 79
1
170
1
171
2
172
0
173
0
174
0
175
0
176
0
177
0
178
0
270
2
179
3
271
3
272
3
273
2
274
2
275
0
280
0
281
0
282
0
283
1
284
4
285
0
286
0
287
3
288
0
340
11
278
46
341
204
342
204
343
204
344
204
  0
ENDTAB
  0
ENDSEC
  0
SECTION
  2
BLOCKS
  0
BLOCK
  5
20
100
AcDbEntity
  8
0
100
AcDbBlockBegin
  2
*Model_Space
 70
0
 10
0.0
 20
0.0
 30
0.0
  3
*Model_Space
  1

  0
ENDBLK
  5
21
100
AcDbEntity
  8
0
100
AcDbBlockEnd
  0
BLOCK
  5
1C
100
AcDbEntity
  8
0
100
AcDbBlockBegin
  2
*Paper_Space
 70
0
 10
0.0
 20
0.0
 30
0.0
  3
*Paper_Space
  1

  0
ENDBLK
  5
1D
100
AcDbEntity
  8
0
100
AcDbBlockEnd
  0
BLOCK
  5
206
100
AcDbEntity
  8
0
100
AcDbBlockBegin
  2
_FILLED
 70
64
 10
0.0
 20
0.0
  3
_FILLED
  1

  0
SOLID
  5
207
100
AcDbEntity
  8
0
  6
BYBLOCK
 62
0
100
AcDbTrace
 10
0.0
 20
0.0
 11
-1.0
 21
0.2
 12
-1.0
 22
-0.2
 13
-1.0
 23
-0.2
  0
ENDBLK
  5
208
100
AcDbEntity
  8
0
  6
BYBLOCK
 62
0
100
AcDbBlockEnd
  0
ENDSEC
  0
SECTION
  2
ENTITIES
  0
LINE
  5
209
100
AcDbEntity
  8
0
100
AcDbLine
 62
7
  6
CONTINUOUS
 10
10.1753175181
 20
7.446545682
 11
10.183183575
 21
7.1948318604
  0
LINE
  5
20A
100
AcDbEntity
  8
0
100
AcDbLine
 62
7
  6
CONTINUOUS
 10
10.2038183383
 20
7.1748318604
 11
10.1963183383
 21
7.4148318604
  0
LINE
  5
20B
100
AcDbEntity
  8
0
100
AcDbLine
 62
7
  6
CONTINUOUS
 10
10.1363183383
 20
7.4148318604
 11
10.1288183383
 21
7.1748318604
  0
LINE
  5
20C
100
AcDbEntity
  8
0
100
AcDbLine
 62
7
  6
CONTINUOUS
 10
10.1494531015
 20
7.1948318604
 11
10.1573191584
 21
7.446545682
  0
LINE
  5
20D
100
AcDbEntity
  8
0
100
AcDbLine
 62
7
  6
CONTINUOUS
 10
10.1573191584
 20
7.446545682
 11
10.0575844527
 21
7.4005356031
  0
LINE
  5
20E
100
AcDbEntity
  8
0
100
AcDbLine
 62
7
  6
CONTINUOUS
 10
10.1363183383
 20
7.4148318604
 11
10.0526018101
 21
7.3762113618
  0
LINE
  5
20F
100
AcDbEntity
  8
0
100
AcDbLine
 62
7
  6
CONTINUOUS
 10
10.1963183383
 20
7.4148318604
 11
10.2800348665
 21
7.3762113618
  0
LINE
  5
210
100
AcDbEntity
  8
0
100
AcDbLine
 62
7
  6
CONTINUOUS
 10
10.2750522239
 20
7.4005356031
 11
10.1753175181
 21
7.446545682
  0
LINE
  5
211
100
AcDbEntity
  8
0
100
AcDbLine
 62
7
  6
CONTINUOUS
 10
10.1288183383
 20
7.1748318604
 11
10.2038183383
 21
7.1748318604
  0
LINE
  5
212
100
AcDbEntity
  8
0
100
AcDbLine
 62
7
  6
CONTINUOUS
 10
10.183183575
 20
7.1948318604
 11
10.1494531015
 21
7.1948318604
  0
LINE
  5
213
100
AcDbEntity
  8
0
100
AcDbLine
 62
7
  6
CONTINUOUS
 10
10.6341571031
 20
7.3073318604
 11
10.7663183383
 21
7.3073318604
  0
LINE
  5
214
100
AcDbEntity
  8
0
100
AcDbLine
 62
7
  6
CONTINUOUS
 10
10.7663183401
 20
7.3073318603
 11
13.0067715779
 21
7.1798402638
  0
LINE
  5
215
100
AcDbEntity
  8
0
100
AcDbLine
 62
7
  6
CONTINUOUS
 10
10.7663183401
 20
7.4823318604
 11
12.9283183383
 21
7.5763318604
  0
LINE
  5
216
100
AcDbEntity
  8
0
100
AcDbLine
 62
7
  6
CONTINUOUS
 10
10.7663183401
 20
7.3585881828
 11
12.9283183383
 21
7.3380627986
  0
LINE
  5
217
100
AcDbEntity
  8
0
100
AcDbLine
 62
7
  6
CONTINUOUS
 10
12.9283183383
 20
7.3883318604
 11
10.7663183401
 21
7.4823318604
  0
LINE
  5
218
100
AcDbEntity
  8
0
100
AcDbLine
 62
7
  6
CONTINUOUS
 10
12.9283183383
 20
7.2051267237
 11
10.7663183401
 21
7.3585881828
  0
LINE
  5
219
100
AcDbEntity
  8
0
100
AcDbLine
 62
7
  6
CONTINUOUS
 10
10.76631834
 20
7.6060755534
 11
12.9283183383
 21
7.7595369971
  0
LINE
  5
21A
100
AcDbEntity
  8
0
100
AcDbLine
 62
7
  6
CONTINUOUS
 10
10.7663183401
 20
7.6573318605
 11
13.0067715779
 21
7.784823457
  0
LINE
  5
21B
100
AcDbEntity
  8
0
100
AcDbLine
 62
7
  6
CONTINUOUS
 10
12.9283183383
 20
7.6266009222
 11
10.76631834
 21
7.6060755534
  0
LINE
  5
21C
100
AcDbEntity
  8
0
100
AcDbLine
 62
7
  6
CONTINUOUS
 10
10.6340793033
 20
7.6573318604
 11
10.7663183383
 21
7.6573318604
  0
LINE
  5
21D
100
AcDbEntity
  8
0
100
AcDbLine
 62
7
  6
CONTINUOUS
 10
12.9283276055
 20
7.7803600573
 11
12.9283276055
 21
7.7595355702
  0
LINE
  5
21E
100
AcDbEntity
  8
0
100
AcDbLine
 62
7
  6
CONTINUOUS
 10
12.9283276055
 20
7.626603674
 11
12.9283276055
 21
7.5763289164
  0
LINE
  5
21F
100
AcDbEntity
  8
0
100
AcDbLine
 62
7
  6
CONTINUOUS
 10
12.9283276055
 20
7.3883348045
 11
12.9283276055
 21
7.3380600573
  0
LINE
  5
220
100
AcDbEntity
  8
0
100
AcDbLine
 62
7
  6
CONTINUOUS
 10
12.9283276055
 20
7.205128156
 11
12.9283276055
 21
7.1843036671
  0
ARC
  5
221
100
AcDbEntity
  8
0
100
AcDbCircle
 62
7
  6
CONTINUOUS
 10
10.1663183383
 20
7.4823318604
 40
1.3125
100
AcDbArc
 50
9.4161384642
 51
350.5838615358
  0
ARC
  5
222
100
AcDbEntity
  8
0
100
AcDbCircle
 62
7
  6
CONTINUOUS
 10
10.1663183383
 20
7.4823318604
 40
1.2625
100
AcDbArc
 50
9.6629524427
 51
350.3370475573
  0
ARC
  5
223
100
AcDbEntity
  8
0
100
AcDbCircle
 62
9
  6
CONTINUOUS
 10
10.1663183383
 20
7.4823318604
 40
1.1354891084
100
AcDbArc
 50
10.3860323802
 51
349.6139676198
  0
ARC
  5
224
100
AcDbEntity
  8
0
100
AcDbCircle
 62
7
  6
CONTINUOUS
 10
10.1663183383
 20
7.4823318604
 40
1.125
100
AcDbArc
 50
10.4511198533
 51
349.5510862837
  0
ARC
  5
225
100
AcDbEntity
  8
0
100
AcDbCircle
 62
7
  6
CONTINUOUS
 10
10.1663183383
 20
7.4823318604
 40
1.05
100
AcDbArc
 50
10.9737420496
 51
349.0262579504
  0
ARC
  5
226
100
AcDbEntity
  8
0
100
AcDbCircle
 62
7
  6
CONTINUOUS
 10
10.1663183383
 20
7.4823318604
 40
0.6375
100
AcDbArc
 50
16.0510311996
 51
343.9523542236
  0
ARC
  5
227
100
AcDbEntity
  8
0
100
AcDbCircle
 62
7
  6
CONTINUOUS
 10
10.1663183383
 20
7.4823318604
 40
0.5375
100
AcDbArc
 50
19.058806675
 51
340.9450181693
  0
CIRCLE
  5
228
100
AcDbEntity
  8
0
100
AcDbCircle
 62
7
  6
CONTINUOUS
 10
10.1663183383
 20
7.4823318604
 40
0.5
  0
CIRCLE
  5
229
100
AcDbEntity
  8
0
100
AcDbCircle
 62
7
  6
CONTINUOUS
 10
10.1663183383
 20
7.4823318604
 40
0.4175
  0
CIRCLE
  5
22A
100
AcDbEntity
  8
0
100
AcDbCircle
 62
9
  6
CONTINUOUS
 10
10.1663183383
 20
7.4823318604
 40
0.3951446566
  0
ARC
  5
22B
100
AcDbEntity
  8
0
100
AcDbCircle
 62
7
  6
CONTINUOUS
 10
10.0463183383
 20
7.3898318604
 40
0.015
100
AcDbArc
 50
151.8875681082
 51
294.7650408547
  0
ARC
  5
22C
100
AcDbEntity
  8
0
100
AcDbCircle
 62
7
  6
CONTINUOUS
 10
10.2863183383
 20
7.3898318604
 40
0.015
100
AcDbArc
 50
245.2349591453
 51
28.1124318918
  0
ARC
  5
22D
100
AcDbEntity
  8
0
100
AcDbCircle
 62
7
  6
CONTINUOUS
 10
9.1510633223
 20
7.8681031812
 40
1.02
100
AcDbArc
 50
332.7161161373
 51
354.4712949163
  0
ARC
  5
22E
100
AcDbEntity
  8
0
100
AcDbCircle
 62
7
  6
CONTINUOUS
 10
9.1510633223
 20
7.8681031812
 40
1.0
100
AcDbArc
 50
331.8875681082
 51
354.4712949163
  0
ARC
  5
22F
100
AcDbEntity
  8
0
100
AcDbCircle
 62
7
  6
CONTINUOUS
 10
10.1663183383
 20
7.7698318604
 40
0.02
100
AcDbArc
 50
5.5287050836
 51
174.4712949164
  0
ARC
  5
230
100
AcDbEntity
  8
0
100
AcDbCircle
 62
7
  6
CONTINUOUS
 10
12.9283183383
 20
7.4823318604
 40
0.3125
100
AcDbArc
 50
284.539847615
 51
75.460152385
  0
ARC
  5
231
100
AcDbEntity
  8
0
100
AcDbCircle
 62
7
  6
CONTINUOUS
 10
12.9112937796
 20
7.4822657165
 40
0.0954706736
100
AcDbArc
 50
280.2727680081
 51
79.7272311682
  0
ARC
  5
232
100
AcDbEntity
  8
0
100
AcDbCircle
 62
7
  6
CONTINUOUS
 10
11.1815733543
 20
7.8681031812
 40
1.02
100
AcDbArc
 50
185.5287050837
 51
207.2838838627
  0
ARC
  5
233
100
AcDbEntity
  8
0
100
AcDbCircle
 62
7
  6
CONTINUOUS
 10
11.1815733543
 20
7.8681031812
 40
1.0
100
AcDbArc
 50
185.5287050837
 51
208.1124318918
  0
SPLINE
  5
234
100
AcDbEntity
  8
0
100
AcDbSpline
 62
7
  6
CONTINUOUS
 70
0
 71
3
 72
34
 73
30
 74
0
 42
0.0000001
 43
0.0000001
 44
0.0000000001
 40
0.0
 40
0.0
 40
0.0
 40
0.0
 40
0.0000651947
 40
0.0002606037
 40
0.0005859714
 40
0.0010410512
 40
0.001625605
 40
0.0023394038
 40
0.0041538595
 40
0.0064827671
 40
0.0093246152
 40
0.0126780369
 40
0.0165418102
 40
0.0257961458
 40
0.0370808608
 40
0.0503914754
 40
0.0657258905
 40
0.0830822442
 40
0.1024503493
 40
0.1238151627
 40
0.147160057
 40
0.1997223232
 40
0.2600083997
 40
0.3278975342
 40
0.4032281276
 40
0.4858151421
 40
0.5754755428
 40
0.7751609301
 40
1.0
 40
1.0
 40
1.0
 40
1.0
 10
10.7663183401
 20
7.3073318604
 30
0.0
 10
10.766317245
 20
7.3073320654
 30
0.0
 10
10.7663210047
 20
7.3073386474
 30
0.0
 10
10.7663195078
 20
7.3073464465
 30
0.0
 10
10.7663235947
 20
7.3073641493
 30
0.0
 10
10.7663260841
 20
7.3073867207
 30
0.0
 10
10.7663303945
 20
7.3074166188
 30
0.0
 10
10.7663371452
 20
7.3074692681
 30
0.0
 10
10.766347358
 20
7.3075517174
 30
0.0
 10
10.7663607609
 20
7.3076703017
 30
0.0
 10
10.7663758001
 20
7.307815206
 30
0.0
 10
10.7663918894
 20
7.3079863484
 30
0.0
 10
10.7664155445
 20
7.3082668388
 30
0.0
 10
10.7664442357
 20
7.3086828966
 30
0.0
 10
10.7664729014
 20
7.3092606754
 30
0.0
 10
10.7664934778
 20
7.3099427645
 30
0.0
 10
10.7665017335
 20
7.3107288885
 30
0.0
 10
10.766494046
 20
7.3116185212
 30
0.0
 10
10.7664747448
 20
7.3126110229
 30
0.0
 10
10.7664475663
 20
7.3137057082
 30
0.0
 10
10.7664042886
 20
7.3153674152
 30
0.0
 10
10.7663515511
 20
7.3176942372
 30
0.0
 10
10.7663237275
 20
7.3207828912
 30
0.0
 10
10.7663579526
 20
7.3242605366
 30
0.0
 10
10.7664208223
 20
7.3281187963
 30
0.0
 10
10.766482129
 20
7.3323492021
 30
0.0
 10
10.7665195457
 20
7.338705217
 30
0.0
 10
10.7663961476
 20
7.3474915498
 30
0.0
 10
10.7663183422
 20
7.3547459269
 30
0.0
 10
10.7663183401
 20
7.3585881829
 30
0.0
  0
SPLINE
  5
235
100
AcDbEntity
  8
0
100
AcDbSpline
 62
7
  6
CONTINUOUS
 70
0
 71
3
 72
15
 73
11
 74
0
 42
0.0000001
 43
0.0000001
 44
0.0000000001
 40
0.0
 40
0.0
 40
0.0
 40
0.0
 40
0.1027850957
 40
0.214303304
 40
0.3333638439
 40
0.4588052449
 40
0.589459114
 40
0.7241049612
 40
0.8614556452
 40
1.0
 40
1.0
 40
1.0
 40
1.0
 10
10.7663183401
 20
7.3585881829
 30
0.0
 10
10.7663183377
 20
7.3628279186
 30
0.0
 10
10.7664148295
 20
7.3716672408
 30
0.0
 10
10.7665420166
 20
7.3854177615
 30
0.0
 10
10.7664130169
 20
7.4001028615
 30
0.0
 10
10.7662924113
 20
7.4155772647
 30
0.0
 10
10.7664208108
 20
7.4316945483
 30
0.0
 10
10.7665418676
 20
7.4483031068
 30
0.0
 10
10.766406355
 20
7.4652370957
 30
0.0
 10
10.7663183401
 20
7.4766171073
 30
0.0
 10
10.7663183401
 20
7.4823318604
 30
0.0
  0
SPLINE
  5
236
100
AcDbEntity
  8
0
100
AcDbSpline
 62
7
  6
CONTINUOUS
 70
0
 71
3
 72
15
 73
11
 74
0
 42
0.0000001
 43
0.0000001
 44
0.0000000001
 40
0.0
 40
0.0
 40
0.0
 40
0.0
 40
0.1385443628
 40
0.2758950582
 40
0.4105409118
 40
0.5411947838
 40
0.6666361872
 40
0.7856967233
 40
0.8972149174
 40
1.0
 40
1.0
 40
1.0
 40
1.0
 10
10.7663183401
 20
7.4823318604
 30
0.0
 10
10.7663183401
 20
7.4880466146
 30
0.0
 10
10.7664063524
 20
7.4994266284
 30
0.0
 10
10.7665418661
 20
7.5163606204
 30
0.0
 10
10.7664208163
 20
7.5329691819
 30
0.0
 10
10.7662924127
 20
7.5490864679
 30
0.0
 10
10.7664130088
 20
7.5645608732
 30
0.0
 10
10.7665420139
 20
7.5792459742
 30
0.0
 10
10.7664148364
 20
7.5929964955
 30
0.0
 10
10.7663183416
 20
7.6018358176
 30
0.0
 10
10.76631834
 20
7.6060755533
 30
0.0
  0
SPLINE
  5
237
100
AcDbEntity
  8
0
100
AcDbSpline
 62
7
  6
CONTINUOUS
 70
0
 71
3
 72
34
 73
30
 74
0
 42
0.0000001
 43
0.0000001
 44
0.0000000001
 40
0.0
 40
0.0
 40
0.0
 40
0.0
 40
0.2248389179
 40
0.3279828821
 40
0.4245250145
 40
0.5141853557
 40
0.5967723003
 40
0.672102823
 40
0.7399918927
 40
0.8002779101
 40
0.8528401233
 40
0.8975497769
 40
0.9169178643
 40
0.9342742022
 40
0.949608601
 40
0.9629191979
 40
0.9742038954
 40
0.9834582152
 40
0.9873219816
 40
0.9906753972
 40
0.9935172403
 40
0.9958461438
 40
0.9976605967
 40
0.9983743946
 40
0.9989589478
 40
0.9994140273
 40
0.9997393951
 40
0.9999348045
 40
1.0
 40
1.0
 40
1.0
 40
1.0
 10
10.76631834
 20
7.6060755533
 30
0.0
 10
10.7663183386
 20
7.6099178087
 30
0.0
 10
10.7663797169
 20
7.6155225647
 30
0.0
 10
10.7664729676
 20
7.6227765856
 30
0.0
 10
10.7665096224
 20
7.6277211724
 30
0.0
 10
10.766482031
 20
7.6323145249
 30
0.0
 10
10.7664208562
 20
7.6365449373
 30
0.0
 10
10.7663579632
 20
7.6404031935
 30
0.0
 10
10.7663237049
 20
7.6438808381
 30
0.0
 10
10.7663516174
 20
7.6469694897
 30
0.0
 10
10.7664123233
 20
7.649661325
 30
0.0
 10
10.766466883
 20
7.6516538378
 30
0.0
 10
10.7664940545
 20
7.6530452036
 30
0.0
 10
10.7665017286
 20
7.6539348361
 30
0.0
 10
10.7664934815
 20
7.6547209596
 30
0.0
 10
10.7664729067
 20
7.6554030482
 30
0.0
 10
10.7664442437
 20
7.6559808267
 30
0.0
 10
10.7664155506
 20
7.6563968838
 30
0.0
 10
10.7663918988
 20
7.6566773742
 30
0.0
 10
10.7663758006
 20
7.6568485155
 30
0.0
 10
10.7663607855
 20
7.6569934218
 30
0.0
 10
10.7663473132
 20
7.6571119996
 30
0.0
 10
10.7663372567
 20
7.6571944632
 30
0.0
 10
10.7663302648
 20
7.6572470901
 30
0.0
 10
10.7663264586
 20
7.6572770348
 30
0.0
 10
10.7663226637
 20
7.6572994856
 30
0.0
 10
10.7663215317
 20
7.6573174612
 30
0.0
 10
10.766317839
 20
7.6573247811
 30
0.0
 10
10.7663194542
 20
7.6573318595
 30
0.0
 10
10.7663183401
 20
7.6573318604
 30
0.0
  0
SPLINE
  5
238
100
AcDbEntity
  8
0
100
AcDbSpline
 62
7
  6
CONTINUOUS
 70
0
 71
3
 72
27
 73
23
 74
0
 42
0.0000001
 43
0.0000001
 44
0.0000000001
 40
0.0
 40
0.0
 40
0.0
 40
0.0
 40
0.0722962526
 40
0.1422513348
 40
0.2089057444
 40
0.2718685825
 40
0.3310938928
 40
0.3869770461
 40
0.4139839258
 40
0.4405436041
 40
0.4668399836
 40
0.4930661542
 40
0.5194222104
 40
0.5461007109
 40
0.5732750553
 40
0.6010999588
 40
0.6590842802
 40
0.7207391056
 40
0.7861390641
 40
0.8549653646
 40
0.9266192506
 40
1.0
 40
1.0
 40
1.0
 40
1.0
 10
12.9283183383
 20
7.2051267237
 30
0.0
 10
12.933688809
 20
7.2055961548
 30
0.0
 10
12.9442115506
 20
7.207182448
 30
0.0
 10
12.9592217431
 20
7.2115213407
 30
0.0
 10
12.972826705
 20
7.2176928966
 30
0.0
 10
12.9846139483
 20
7.2255199943
 30
0.0
 10
12.994239311
 20
7.2347818444
 30
0.0
 10
13.0002616992
 20
7.2436137725
 30
0.0
 10
13.003639492
 20
7.2510613805
 30
0.0
 10
13.0054414621
 20
7.256752993
 30
0.0
 10
13.0065290522
 20
7.262563653
 30
0.0
 10
13.0068934091
 20
7.2684492651
 30
0.0
 10
13.0065253336
 20
7.2743629763
 30
0.0
 10
13.0054343901
 20
7.2802578264
 30
0.0
 10
13.0036307958
 20
7.2860896122
 30
0.0
 10
13.0002443323
 20
7.2938204569
 30
0.0
 10
12.994222624
 20
7.3031201002
 30
0.0
 10
12.9846241117
 20
7.3131288634
 30
0.0
 10
12.9728625927
 20
7.3218913151
 30
0.0
 10
12.9592785231
 20
7.3291553485
 30
0.0
 10
12.9442823186
 20
7.3347069772
 30
0.0
 10
12.9337146351
 20
7.3371568435
 30
0.0
 10
12.9283183383
 20
7.3380627986
 30
0.0
  0
SPLINE
  5
239
100
AcDbEntity
  8
0
100
AcDbSpline
 62
7
  6
CONTINUOUS
 70
0
 71
3
 72
27
 73
23
 74
0
 42
0.0000001
 43
0.0000001
 44
0.0000000001
 40
0.0
 40
0.0
 40
0.0
 40
0.0
 40
0.0733829451
 40
0.1450423299
 40
0.2138716907
 40
0.2792725679
 40
0.3409286397
 40
0.3989131597
 40
0.4267382972
 40
0.4539125347
 40
0.4805909091
 40
0.5069470129
 40
0.5331730411
 40
0.5594693735
 40
0.5860290558
 40
0.6130356616
 40
0.6689185169
 40
0.728142625
 40
0.7911046272
 40
0.8577561396
 40
0.9277058614
 40
1.0
 40
1.0
 40
1.0
 40
1.0
 10
12.9283183383
 20
7.6266009222
 30
0.0
 10
12.9337147967
 20
7.6275069046
 30
0.0
 10
12.9442829815
 20
7.6299571418
 30
0.0
 10
12.9592799804
 20
7.6355089304
 30
0.0
 10
12.9728645333
 20
7.6427736289
 30
0.0
 10
12.984626043
 20
7.6515367082
 30
0.0
 10
12.9942245541
 20
7.6615457731
 30
0.0
 10
13.0002455818
 20
7.6708460004
 30
0.0
 10
13.0036319128
 20
7.6785769183
 30
0.0
 10
13.0054352141
 20
7.6844088142
 30
0.0
 10
13.0065255264
 20
7.690303763
 30
0.0
 10
13.0068934089
 20
7.6962174534
 30
0.0
 10
13.0065288633
 20
7.7021030601
 30
0.0
 10
13.0054406383
 20
7.7079135921
 30
0.0
 10
13.0036383727
 20
7.7136050659
 30
0.0
 10
13.0002604523
 20
7.7210525826
 30
0.0
 10
12.9942373726
 20
7.7298838861
 30
0.0
 10
12.9846120128
 20
7.7391454237
 30
0.0
 10
12.9728247622
 20
7.7469718901
 30
0.0
 10
12.9592202983
 20
7.7531428163
 30
0.0
 10
12.9442108827
 20
7.7574816185
 30
0.0
 10
12.9336886521
 20
7.7590675798
 30
0.0
 10
12.9283183383
 20
7.7595369971
 30
0.0
  0
ENDSEC
  0
SECTION
  2
OBJECTS
  0
DICTIONARY
  5
C
100
AcDbDictionary
280
0
281
1
  3
ACAD_GROUP
350
D
  3
ACAD_MLINESTYLE
350
17
  3
ACAD_LAYOUT
350
1A
  3
ACAD_PLOTSETTINGS
350
19
  3
ACAD_PLOTSTYLENAME
350
E
  0
DICTIONARY
  5
D
102
{ACAD_REACTORS
330
C
102
}
100
AcDbDictionary
280
0
281
1
  0
ACDBDICTIONARYWDFLT
  5
E
102
{ACAD_REACTORS
330
C
102
}
100
AcDbDictionary
281
1
  3
Normal
350
F
100
AcDbDictionaryWithDefault
340
F
  0
DICTIONARY
  5
17
102
{ACAD_REACTORS
330
C
102
}
100
AcDbDictionary
280
0
281
1
  3
Standard
350
18
  0
DICTIONARY
  5
19
102
{ACAD_REACTORS
330
C
102
}
100
AcDbDictionary
281
1
  0
DICTIONARY
  5
1A
102
{ACAD_REACTORS
330
C
102
}
100
AcDbDictionary
281
1
  3
Model
350
23A
  3
Layout1
350
23B
  0
ACDBPLACEHOLDER
  5
F
102
{ACAD_REACTORS
330
E
102
}
  0
MLINESTYLE
  5
18
102
{ACAD_REACTORS
330
17
102
}
100
AcDbMlineStyle
  2
STANDARD
 70
0
  3

 62
256
 51
90.0
 52
90.0
 71
2
 49
0.5
 62
256
  6
BYLAYER
 49
-0.5
 62
256
  6
BYLAYER
  0
LAYOUT
  5
23A
102
{ACAD_REACTORS
330
1A
102
}
100
AcDbPlotSettings
  1

  2
none_device
  4
ANSI_C_(22.00_x_17.00_Inches)
  6

 40
0.0
 41
0.0
 42
0.0
 43
0.0
 44
558.8
 45
431.8
 46
0.0
 47
0.0
 48
0.0
 49
0.0
140
0.0
141
0.0
142
1.0
143
1.0
 70
1024
 72
0
 73
0
 74
0
  7

 75
0
147
1.0
148
0.0
149
0.0
100
AcDbLayout
  1
Model
 70
0
 71
0
 10
0.0
 20
0.0
 11
22.0
 21
17.0
 12
0.0
 22
0.0
 32
0.0
 14
0.0
 24
0.0
 34
0.0
 15
0.0
 25
0.0
 35
0.0
146
0.0
 13
0.0
 23
0.0
 33
0.0
 16
1.0
 26
0.0
 36
0.0
 17
0.0
 27
1.0
 37
0.0
 76
0
330
202
345
0
346
0
  0
LAYOUT
  5
23B
102
{ACAD_REACTORS
330
1A
102
}
100
AcDbPlotSettings
  1

  2
none_device
  4
ANSI_C_(22.00_x_17.00_Inches)
  6

 40
0.0
 41
0.0
 42
0.0
 43
0.0
 44
558.8
 45
431.8
 46
0.0
 47
0.0
 48
0.0
 49
0.0
140
0.0
141
0.0
142
1.0
143
1.0
 70
0
 72
0
 73
0
 74
0
  7

 75
0
147
1.0
148
0.0
149
0.0
100
AcDbLayout
  1
Layout1
 70
0
 71
1
 10
0.0
 20
0.0
 11
22.0
 21
17.0
 12
0.0
 22
0.0
 32
0.0
 14
0.0
 24
0.0
 34
0.0
 15
0.0
 25
0.0
 35
0.0
146
0.0
 13
0.0
 23
0.0
 33
0.0
 16
1.0
 26
0.0
 36
0.0
 17
0.0
 27
1.0
 37
0.0
 76
0
330
203
345
0
346
0
  0
ENDSEC
  0
EOF
