999
DXF file: E:\BT Custom\CADOUTPUT\_FRONT.dxf
999
Pro/ENGINEER 2018400 by Parametric Technology Corporation
  0
SECTION
  2
HEADER
  9
$ACADVER
  1
AC1018
  9
$DWGCODEPAGE
  3
ANSI_1252
  9
$EXTMAX
 10
22.0
 20
17.0
 30
0.0
  9
$EXTMIN
 10
0.0
 20
0.0
 30
0.0
  9
$LIMMIN
 10
0.0
 20
0.0
  9
$LIMMAX
 10
22.0
 20
17.0
  9
$VIEWCTR
 10
11.0
 20
8.5
  9
$VIEWSIZE
 40
17.0
  9
$CLAYER
  8
0
  9
$LTSCALE
 40
1.21
  9
$CELTYPE
  6
BYLAYER
  9
$DIMSCALE
 40
1.0
  9
$DIMASZ
 40
0.1
  9
$DIMEXO
 40
0.0625
  9
$DIMDLI
 40
0.836
  9
$DIMEXE
 40
0.125
  9
$DIMCEN
 40
0.198
  9
$DIMLFAC
 40
1.0
  9
$DIMBLK
  1
_FILLED
  9
$DIMALT
 70
1
  9
$DIMALTD
 70
2
  9
$DIMALTTD
 70
2
  9
$DIMALTF
 40
25.4
  9
$DIMTXT
 40
0.08
  9
$DIMTOL
 70
1
  9
$DIMLIM
 70
0
  9
$DIMTFAC
 40
1.0
  9
$DIMTP
 40
0.001
  9
$DIMTM
 40
0.001
  9
$DIMGAP
 40
0.09
  9
$DIMDSEP
 70
46
  9
$AUNITS
 70
0
  9
$PDMODE
 70
3
  9
$PDSIZE
 40
0.06
  9
$HANDSEED
  5
2AD
  9
$TILEMODE
 70
1
  9
$MEASUREMENT
 70
0
  9
$INSUNITS
 70
1
  0
ENDSEC
  0
SECTION
  2
CLASSES
  0
CLASS
  1
ACDBDICTIONARYWDFLT
  2
AcDbDictionaryWithDefault
  3
AutoCAD 2000
 90
0
 91
1
280
0
281
0
  0
CLASS
  1
ACDBPLACEHOLDER
  2
AcDbPlaceHolder
  3
AutoCAD 2000
 90
0
 91
1
280
0
281
0
  0
CLASS
  1
LAYOUT
  2
AcDbLayout
  3
AutoCAD 2000
 90
0
 91
0
280
0
281
0
  0
ENDSEC
  0
SECTION
  2
TABLES
  0
TABLE
  2
VPORT
  5
8
100
AcDbSymbolTable
 70
2
  0
VPORT
  5
1F4
100
AcDbSymbolTableRecord
100
AcDbViewportTableRecord
  2
*ACTIVE
 70
0
 10
0.0
 20
0.0
 11
1.0
 21
1.0
 12
11.0
 22
8.5
 13
0.0
 23
0.0
 14
1.0
 24
1.0
 15
0.0
 25
0.0
 16
0.0
 26
0.0
 36
1.0
 17
0.0
 27
0.0
 37
0.0
 40
17.0
 41
1.2941176471
 42
50.0
 43
0.0
 44
0.0
 50
0.0
 51
0.0
 71
0
 72
100
 73
1
 74
1
 75
0
 76
0
 77
0
 78
0
  0
ENDTAB
  0
TABLE
  2
LTYPE
  5
5
100
AcDbSymbolTable
 70
6
  0
LTYPE
  5
14
100
AcDbSymbolTableRecord
100
AcDbLinetypeTableRecord
  2
BYBLOCK
 70
0
  3

 72
65
 73
0
 40
0.0
  0
LTYPE
  5
15
100
AcDbSymbolTableRecord
100
AcDbLinetypeTableRecord
  2
BYLAYER
 70
0
  3

 72
65
 73
0
 40
0.0
  0
LTYPE
  5
16
100
AcDbSymbolTableRecord
100
AcDbLinetypeTableRecord
  2
CONTINUOUS
 70
64
  3
Solid line
 72
65
 73
0
 40
0.0
  0
LTYPE
  5
1F5
100
AcDbSymbolTableRecord
100
AcDbLinetypeTableRecord
  2
CENTER
 70
64
  3
____ _ ____ _ ____ _ ____ _ ____ _ ____ _ ____
 72
65
 73
4
 40
0.6
 49
0.375
 74
0
 49
-0.075
 74
0
 49
0.075
 74
0
 49
-0.075
 74
0
  0
LTYPE
  5
1F6
100
AcDbSymbolTableRecord
100
AcDbLinetypeTableRecord
  2
HIDDEN
 70
64
  3
- - - - - - - - - - - - - - - - - - - -
 72
65
 73
2
 40
0.2
 49
0.1
 74
0
 49
-0.1
 74
0
  0
LTYPE
  5
1F7
100
AcDbSymbolTableRecord
100
AcDbLinetypeTableRecord
  2
PHANTOM
 70
64
  3
_____ _ _ _____ _ _ _____ _ _ _____
 72
65
 73
6
 40
0.8
 49
0.45
 74
0
 49
-0.05
 74
0
 49
0.1
 74
0
 49
-0.05
 74
0
 49
0.1
 74
0
 49
-0.05
 74
0
  0
LTYPE
  5
1F8
100
AcDbSymbolTableRecord
100
AcDbLinetypeTableRecord
  2
DOT
 70
64
  3
. . . . . . . . . . . . . . . . . . . .
 72
65
 73
2
 40
0.2
 49
0.1
 74
0
 49
-0.1
 74
0
  0
LTYPE
  5
1F9
100
AcDbSymbolTableRecord
100
AcDbLinetypeTableRecord
  2
DASHED
 70
64
  3
- - - - - - - - - - - - - - - - - - - -
 72
65
 73
2
 40
0.2
 49
0.1
 74
0
 49
-0.1
 74
0
  0
ENDTAB
  0
TABLE
  2
LAYER
  5
2
100
AcDbSymbolTable
 70
36
  0
LAYER
  5
10
100
AcDbSymbolTableRecord
100
AcDbLayerTableRecord
  2
0
 70
0
 62
7
  6
CONTINUOUS
370
-3
390
F
  0
LAYER
  5
1FA
100
AcDbSymbolTableRecord
100
AcDbLayerTableRecord
  2
DEFAULT_1
 70
0
 62
7
  6
CENTER
370
-3
390
F
  0
LAYER
  5
1FB
100
AcDbSymbolTableRecord
100
AcDbLayerTableRecord
  2
DEFAULT_2
 70
0
 62
8
  6
HIDDEN
370
-3
390
F
  0
LAYER
  5
1FC
100
AcDbSymbolTableRecord
100
AcDbLayerTableRecord
  2
DEFAULT_3
 70
0
 62
7
  6
PHANTOM
370
-3
390
F
  0
LAYER
  5
1FD
100
AcDbSymbolTableRecord
100
AcDbLayerTableRecord
  2
ALL_FEATURES
 70
0
 62
7
  6
CONTINUOUS
370
-3
390
F
  0
LAYER
  5
1FE
100
AcDbSymbolTableRecord
100
AcDbLayerTableRecord
  2
AXES_FEATURES
 70
0
 62
7
  6
CONTINUOUS
370
-3
390
F
  0
LAYER
  5
1FF
100
AcDbSymbolTableRecord
100
AcDbLayerTableRecord
  2
DIMENSIONS
 70
0
 62
7
  6
CONTINUOUS
370
-3
390
F
  0
ENDTAB
  0
TABLE
  2
STYLE
  5
3
100
AcDbSymbolTable
 70
1
  0
STYLE
  5
11
100
AcDbSymbolTableRecord
100
AcDbTextStyleTableRecord
  2
STANDARD
 70
0
 40
0.0
 41
0.8
 50
0.0
 71
0
 42
0.2
  3
txt
  4

  0
STYLE
  5
200
100
AcDbSymbolTableRecord
100
AcDbTextStyleTableRecord
  2
TEXTSTYLE_1
 70
0
 40
0.0
 41
0.8
 50
0.0
 71
0
 42
0.2
  3
gdt
  4

  0
ENDTAB
  0
TABLE
  2
VIEW
  5
6
100
AcDbSymbolTable
 70
0
  0
ENDTAB
  0
TABLE
  2
UCS
  5
7
100
AcDbSymbolTable
 70
0
  0
ENDTAB
  0
TABLE
  2
APPID
  5
9
100
AcDbSymbolTable
 70
1
  0
APPID
  5
201
100
AcDbSymbolTableRecord
100
AcDbRegAppTableRecord
  2
ACAD
 70
0
  0
ENDTAB
  0
TABLE
  2
BLOCK_RECORD
  5
1
100
AcDbSymbolTable
 70
0
  0
BLOCK_RECORD
  5
202
100
AcDbSymbolTableRecord
100
AcDbBlockTableRecord
  2
*Model_Space
  0
BLOCK_RECORD
  5
203
100
AcDbSymbolTableRecord
100
AcDbBlockTableRecord
  2
*Paper_Space
  0
BLOCK_RECORD
  5
204
100
AcDbSymbolTableRecord
100
AcDbBlockTableRecord
  2
_FILLED
  0
ENDTAB
  0
TABLE
  2
DIMSTYLE
  5
A
100
AcDbSymbolTable
 70
1
100
AcDbDimStyleTable
 71
0
  0
DIMSTYLE
105
205
100
AcDbSymbolTableRecord
100
AcDbDimStyleTableRecord
  2
STANDARD
 70
0
  3

  4

 40
1.0
 41
0.1
 42
0.0625
 43
0.38
 44
0.125
 45
0.0
 46
0.0
 47
0.001
 48
0.001
140
0.08
141
0.09
142
0.0
143
25.4
144
1.0
145
0.0
146
1.0
147
0.09
 71
1.0
 72
0.0
 73
1
 74
1
 75
0
 76
0
 77
0
 78
4
 79
1
170
1
171
2
172
0
173
0
174
0
175
0
176
0
177
0
178
0
270
2
179
3
271
3
272
3
273
2
274
2
275
0
280
0
281
0
282
0
283
1
284
4
285
0
286
0
287
3
288
0
340
11
278
46
341
204
342
204
343
204
344
204
  0
ENDTAB
  0
ENDSEC
  0
SECTION
  2
BLOCKS
  0
BLOCK
  5
20
100
AcDbEntity
  8
0
100
AcDbBlockBegin
  2
*Model_Space
 70
0
 10
0.0
 20
0.0
 30
0.0
  3
*Model_Space
  1

  0
ENDBLK
  5
21
100
AcDbEntity
  8
0
100
AcDbBlockEnd
  0
BLOCK
  5
1C
100
AcDbEntity
  8
0
100
AcDbBlockBegin
  2
*Paper_Space
 70
0
 10
0.0
 20
0.0
 30
0.0
  3
*Paper_Space
  1

  0
ENDBLK
  5
1D
100
AcDbEntity
  8
0
100
AcDbBlockEnd
  0
BLOCK
  5
206
100
AcDbEntity
  8
0
100
AcDbBlockBegin
  2
_FILLED
 70
64
 10
0.0
 20
0.0
  3
_FILLED
  1

  0
SOLID
  5
207
100
AcDbEntity
  8
0
  6
BYBLOCK
 62
0
100
AcDbTrace
 10
0.0
 20
0.0
 11
-1.0
 21
0.2
 12
-1.0
 22
-0.2
 13
-1.0
 23
-0.2
  0
ENDBLK
  5
208
100
AcDbEntity
  8
0
  6
BYBLOCK
 62
0
100
AcDbBlockEnd
  0
ENDSEC
  0
SECTION
  2
ENTITIES
  0
LINE
  5
209
100
AcDbEntity
  8
0
100
AcDbLine
 62
7
  6
CONTINUOUS
 10
9.0066923427
 20
8.5001735327
 11
9.0066923427
 21
8.6001735327
  0
LINE
  5
20A
100
AcDbEntity
  8
0
100
AcDbLine
 62
7
  6
CONTINUOUS
 10
9.5191923427
 20
9.2501735327
 11
9.5191923427
 21
9.3001735327
  0
LINE
  5
20B
100
AcDbEntity
  8
0
100
AcDbLine
 62
7
  6
CONTINUOUS
 10
9.5566923427
 20
10.4201735327
 11
9.5566923427
 21
9.9201735327
  0
LINE
  5
20C
100
AcDbEntity
  8
0
100
AcDbLine
 62
7
  6
CONTINUOUS
 10
9.6191923427
 20
9.3001735327
 11
9.6191923427
 21
9.4001735327
  0
LINE
  5
20D
100
AcDbEntity
  8
0
100
AcDbLine
 62
7
  6
CONTINUOUS
 10
9.7396923427
 20
10.4766022275
 11
9.7396923427
 21
10.4758110378
  0
LINE
  5
20E
100
AcDbEntity
  8
0
100
AcDbLine
 62
7
  6
CONTINUOUS
 10
9.7441923427
 20
9.8119203572
 11
9.7441923427
 21
9.4201735327
  0
LINE
  5
20F
100
AcDbEntity
  8
0
100
AcDbLine
 62
7
  6
CONTINUOUS
 10
9.7581923427
 20
10.48089287
 11
9.7581923427
 21
10.4798736112
  0
LINE
  5
210
100
AcDbEntity
  8
0
100
AcDbLine
 62
7
  6
CONTINUOUS
 10
8.7941923427
 20
8.0251735327
 11
11.3191923427
 21
8.0251735327
  0
LINE
  5
211
100
AcDbEntity
  8
0
100
AcDbLine
 62
7
  6
CONTINUOUS
 10
9.7861923427
 20
10.4851041277
 11
9.7861923427
 21
10.4861198943
  0
LINE
  5
212
100
AcDbEntity
  8
0
100
AcDbLine
 62
7
  6
CONTINUOUS
 10
9.8046923427
 20
10.4879581279
 11
9.8046923427
 21
10.4887430331
  0
LINE
  5
213
100
AcDbEntity
  8
0
100
AcDbLine
 62
7
  6
CONTINUOUS
 10
9.8566923427
 20
9.4001735327
 11
9.8566923427
 21
9.4201735327
  0
LINE
  5
214
100
AcDbEntity
  8
0
100
AcDbLine
 62
7
  6
CONTINUOUS
 10
9.8826923427
 20
10.4995689369
 11
9.8826923427
 21
10.498789552
  0
LINE
  5
215
100
AcDbEntity
  8
0
100
AcDbLine
 62
7
  6
CONTINUOUS
 10
9.8951923427
 20
10.5014800282
 11
9.8951923427
 21
10.5004743866
  0
LINE
  5
216
100
AcDbEntity
  8
0
100
AcDbLine
 62
7
  6
CONTINUOUS
 10
9.9251923427
 20
10.5033238501
 11
9.9251923427
 21
10.5043276368
  0
LINE
  5
217
100
AcDbEntity
  8
0
100
AcDbLine
 62
7
  6
CONTINUOUS
 10
9.9376923427
 20
10.5040152513
 11
9.9376923427
 21
10.5047920006
  0
LINE
  5
218
100
AcDbEntity
  8
0
100
AcDbLine
 62
7
  6
CONTINUOUS
 10
8.7941923427
 20
8.1251735327
 11
11.3191923427
 21
8.1251735327
  0
LINE
  5
219
100
AcDbEntity
  8
0
100
AcDbLine
 62
9
  6
CONTINUOUS
 10
9.9556923427
 20
10.5058783608
 11
9.9556923427
 21
10.5068804903
  0
LINE
  5
21A
100
AcDbEntity
  8
0
100
AcDbLine
 62
7
  6
CONTINUOUS
 10
9.9651923427
 20
10.5074115387
 11
9.9651923427
 21
10.5064097532
  0
LINE
  5
21B
100
AcDbEntity
  8
0
100
AcDbLine
 62
9
  6
CONTINUOUS
 10
10.0078480072
 20
10.5077463766
 11
10.0078480072
 21
10.5087472978
  0
LINE
  5
21C
100
AcDbEntity
  8
0
100
AcDbLine
 62
7
  6
CONTINUOUS
 10
10.0226923427
 20
10.5082195973
 11
10.0226923427
 21
10.508994239
  0
LINE
  5
21D
100
AcDbEntity
  8
0
100
AcDbLine
 62
7
  6
CONTINUOUS
 10
10.0616923427
 20
10.5101654716
 11
10.0616923427
 21
10.5091654664
  0
LINE
  5
21E
100
AcDbEntity
  8
0
100
AcDbLine
 62
9
  6
CONTINUOUS
 10
8.9212032343
 20
8.35571525
 11
11.1921814512
 21
8.35571525
  0
LINE
  5
21F
100
AcDbEntity
  8
0
100
AcDbLine
 62
7
  6
CONTINUOUS
 10
10.1316923427
 20
10.5083587386
 11
10.1316923427
 21
10.5073575661
  0
LINE
  5
220
100
AcDbEntity
  8
0
100
AcDbLine
 62
7
  6
CONTINUOUS
 10
10.1716923427
 20
10.505094827
 11
10.1716923427
 21
10.50431823
  0
LINE
  5
221
100
AcDbEntity
  8
0
100
AcDbLine
 62
7
  6
CONTINUOUS
 10
10.1891923427
 20
10.5042809591
 11
10.1891923427
 21
10.5032771421
  0
LINE
  5
222
100
AcDbEntity
  8
0
100
AcDbLine
 62
7
  6
CONTINUOUS
 10
10.2191923427
 20
10.5004081232
 11
10.2191923427
 21
10.501413808
  0
LINE
  5
223
100
AcDbEntity
  8
0
100
AcDbLine
 62
7
  6
CONTINUOUS
 10
10.2366923427
 20
10.498099467
 11
10.2366923427
 21
10.4988792013
  0
LINE
  5
224
100
AcDbEntity
  8
0
100
AcDbLine
 62
7
  6
CONTINUOUS
 10
10.2466923427
 20
10.4976769459
 11
10.2466923427
 21
10.4968966019
  0
LINE
  5
225
100
AcDbEntity
  8
0
100
AcDbLine
 62
7
  6
CONTINUOUS
 10
10.2546923427
 20
10.4970418571
 11
10.2546923427
 21
10.4960333108
  0
LINE
  5
226
100
AcDbEntity
  8
0
100
AcDbLine
 62
7
  6
CONTINUOUS
 10
10.2566923427
 20
9.4001735327
 11
10.2566923427
 21
9.4201735327
  0
LINE
  5
227
100
AcDbEntity
  8
0
100
AcDbLine
 62
7
  6
CONTINUOUS
 10
10.5566923427
 20
9.9201735327
 11
10.3691923427
 21
9.8119203572
  0
LINE
  5
228
100
AcDbEntity
  8
0
100
AcDbLine
 62
7
  6
CONTINUOUS
 10
11.1816923427
 20
8.5001735327
 11
8.9316923427
 21
8.5001735327
  0
LINE
  5
229
100
AcDbEntity
  8
0
100
AcDbLine
 62
7
  6
CONTINUOUS
 10
11.1066923427
 20
8.6001735327
 11
9.0066923427
 21
8.6001735327
  0
LINE
  5
22A
100
AcDbEntity
  8
0
100
AcDbLine
 62
7
  6
CONTINUOUS
 10
10.2916923427
 20
10.4905904373
 11
10.2916923427
 21
10.4922632821
  0
LINE
  5
22B
100
AcDbEntity
  8
0
100
AcDbLine
 62
9
  6
CONTINUOUS
 10
10.2966923427
 20
10.4906721875
 11
10.2966923427
 21
10.4896594429
  0
LINE
  5
22C
100
AcDbEntity
  8
0
100
AcDbLine
 62
9
  6
CONTINUOUS
 10
10.3546890531
 20
10.4811043872
 11
10.3546890531
 21
10.4800852702
  0
LINE
  5
22D
100
AcDbEntity
  8
0
100
AcDbLine
 62
7
  6
CONTINUOUS
 10
10.3586956324
 20
10.4794590823
 11
10.3586956324
 21
10.4804786189
  0
LINE
  5
22E
100
AcDbEntity
  8
0
100
AcDbLine
 62
7
  6
CONTINUOUS
 10
10.3691923427
 20
9.8119203572
 11
10.3691923427
 21
9.4201735327
  0
LINE
  5
22F
100
AcDbEntity
  8
0
100
AcDbLine
 62
7
  6
CONTINUOUS
 10
10.4941923427
 20
9.3001735327
 11
10.4941923427
 21
9.4001735327
  0
LINE
  5
230
100
AcDbEntity
  8
0
100
AcDbLine
 62
7
  6
CONTINUOUS
 10
10.5566923427
 20
10.4201735327
 11
10.5566923427
 21
10.3516735327
  0
LINE
  5
231
100
AcDbEntity
  8
0
100
AcDbLine
 62
7
  6
CONTINUOUS
 10
10.5566923427
 20
9.9886735327
 11
10.5566923427
 21
9.9201735327
  0
LINE
  5
232
100
AcDbEntity
  8
0
100
AcDbLine
 62
7
  6
CONTINUOUS
 10
10.5941923427
 20
9.2501735327
 11
10.5941923427
 21
9.3001735327
  0
LINE
  5
233
100
AcDbEntity
  8
0
100
AcDbLine
 62
7
  6
CONTINUOUS
 10
10.6941923427
 20
9.2501735327
 11
9.4191923427
 21
9.2501735327
  0
LINE
  5
234
100
AcDbEntity
  8
0
100
AcDbLine
 62
7
  6
CONTINUOUS
 10
9.5566923427
 20
9.9201735327
 11
9.7441923427
 21
9.8119203572
  0
LINE
  5
235
100
AcDbEntity
  8
0
100
AcDbLine
 62
7
  6
CONTINUOUS
 10
11.1066923427
 20
8.5001735327
 11
11.1066923427
 21
8.6001735327
  0
LINE
  5
236
100
AcDbEntity
  8
0
100
AcDbLine
 62
7
  6
CONTINUOUS
 10
10.5941923427
 20
9.3001735327
 11
9.5191923427
 21
9.3001735327
  0
LINE
  5
237
100
AcDbEntity
  8
0
100
AcDbLine
 62
7
  6
CONTINUOUS
 10
10.4941923427
 20
9.4001735327
 11
9.6191923427
 21
9.4001735327
  0
LINE
  5
238
100
AcDbEntity
  8
0
100
AcDbLine
 62
7
  6
CONTINUOUS
 10
9.7441923427
 20
9.4201735327
 11
10.3691923427
 21
9.4201735327
  0
LINE
  5
239
100
AcDbEntity
  8
0
100
AcDbLine
 62
7
  6
CONTINUOUS
 10
10.3691923427
 20
9.8119203572
 11
9.7441923427
 21
9.8119203572
  0
LINE
  5
23A
100
AcDbEntity
  8
0
100
AcDbLine
 62
7
  6
CONTINUOUS
 10
9.5566923427
 20
9.9201735327
 11
10.5566923427
 21
9.9201735327
  0
LINE
  5
23B
100
AcDbEntity
  8
0
100
AcDbLine
 62
7
  6
CONTINUOUS
 10
10.5543881089
 20
9.9951735327
 11
10.6566923446
 21
9.9951735327
  0
LINE
  5
23C
100
AcDbEntity
  8
0
100
AcDbLine
 62
7
  6
CONTINUOUS
 10
10.6566923445
 20
10.0464298521
 11
12.8186923427
 21
10.0259044709
  0
LINE
  5
23D
100
AcDbEntity
  8
0
100
AcDbLine
 62
7
  6
CONTINUOUS
 10
10.6566923446
 20
9.9951735326
 11
12.8971464875
 21
9.8676818846
  0
LINE
  5
23E
100
AcDbEntity
  8
0
100
AcDbLine
 62
7
  6
CONTINUOUS
 10
12.8186923427
 20
9.892968396
 11
10.6566923445
 21
10.0464298521
  0
LINE
  5
23F
100
AcDbEntity
  8
0
100
AcDbLine
 62
7
  6
CONTINUOUS
 10
10.6566923445
 20
10.1701735446
 11
12.8186923427
 21
10.2641735327
  0
LINE
  5
240
100
AcDbEntity
  8
0
100
AcDbLine
 62
7
  6
CONTINUOUS
 10
12.8186923427
 20
10.3144425945
 11
10.6566923445
 21
10.2939172286
  0
LINE
  5
241
100
AcDbEntity
  8
0
100
AcDbLine
 62
7
  6
CONTINUOUS
 10
12.8186923427
 20
10.0761735327
 11
10.6566923445
 21
10.1701735446
  0
LINE
  5
242
100
AcDbEntity
  8
0
100
AcDbLine
 62
7
  6
CONTINUOUS
 10
10.6566923445
 20
10.2939172286
 11
12.8186923427
 21
10.4473786694
  0
LINE
  5
243
100
AcDbEntity
  8
0
100
AcDbLine
 62
7
  6
CONTINUOUS
 10
10.6566923446
 20
10.3451735328
 11
12.8971464875
 21
10.4726651808
  0
LINE
  5
244
100
AcDbEntity
  8
0
100
AcDbLine
 62
7
  6
CONTINUOUS
 10
10.5543886548
 20
10.3451735327
 11
10.6566923446
 21
10.3451735327
  0
LINE
  5
245
100
AcDbEntity
  8
0
100
AcDbLine
 62
7
  6
CONTINUOUS
 10
10.5566923427
 20
10.4201735327
 11
9.5566923427
 21
10.4201735327
  0
LINE
  5
246
100
AcDbEntity
  8
0
100
AcDbLine
 62
9
  6
CONTINUOUS
 10
10.4518369993
 20
10.4589828259
 11
9.6615476862
 21
10.4589828259
  0
LINE
  5
247
100
AcDbEntity
  8
0
100
AcDbLine
 62
7
  6
CONTINUOUS
 10
10.1891923427
 20
10.5034986295
 11
10.2191923427
 21
10.500630023
  0
LINE
  5
248
100
AcDbEntity
  8
0
100
AcDbLine
 62
7
  6
CONTINUOUS
 10
10.2546923427
 20
10.4964723382
 11
10.2916923427
 21
10.4912515895
  0
LINE
  5
249
100
AcDbEntity
  8
0
100
AcDbLine
 62
7
  6
CONTINUOUS
 10
10.0616923427
 20
10.5101654716
 11
10.1316923427
 21
10.5083587386
  0
LINE
  5
24A
100
AcDbEntity
  8
0
100
AcDbLine
 62
7
  6
CONTINUOUS
 10
12.81870161
 20
10.468201725
 11
12.81870161
 21
10.4473772425
  0
LINE
  5
24B
100
AcDbEntity
  8
0
100
AcDbLine
 62
7
  6
CONTINUOUS
 10
12.81870161
 20
10.3144453463
 11
12.81870161
 21
10.2641705853
  0
LINE
  5
24C
100
AcDbEntity
  8
0
100
AcDbLine
 62
7
  6
CONTINUOUS
 10
12.81870161
 20
10.0761764913
 11
12.81870161
 21
10.0259017296
  0
LINE
  5
24D
100
AcDbEntity
  8
0
100
AcDbLine
 62
7
  6
CONTINUOUS
 10
12.81870161
 20
9.8929698283
 11
12.81870161
 21
9.8721453404
  0
ARC
  5
24E
100
AcDbEntity
  8
0
100
AcDbCircle
 62
7
  6
CONTINUOUS
 10
7.9316923427
 20
8.5001735327
 40
1.0
100
AcDbArc
 50
351.6940891949
 51
360.0
  0
ARC
  5
24F
100
AcDbEntity
  8
0
100
AcDbCircle
 62
7
  6
CONTINUOUS
 10
8.55013665
 20
8.409887106
 40
0.375
100
AcDbArc
 50
310.6030912348
 51
351.6940891949
  0
ARC
  5
250
100
AcDbEntity
  8
0
100
AcDbCircle
 62
7
  6
CONTINUOUS
 10
8.7941923427
 20
8.0751735327
 40
0.05
100
AcDbArc
 50
90.0
 51
270.0
  0
ARC
  5
251
100
AcDbEntity
  8
0
100
AcDbCircle
 62
7
  6
CONTINUOUS
 10
8.7008211306
 20
9.2501735327
 40
0.7183712121
100
AcDbArc
 50
295.2003196521
 51
360.0
  0
ARC
  5
252
100
AcDbEntity
  8
0
100
AcDbCircle
 62
7
  6
CONTINUOUS
 10
10.0566923427
 20
8.9595035172
 40
1.5506700155
100
AcDbArc
 50
78.9127763804
 51
81.2833890338
  0
ARC
  5
253
100
AcDbEntity
  8
0
100
AcDbCircle
 62
7
  6
CONTINUOUS
 10
10.0566923427
 20
8.9595035172
 40
1.5506700155
100
AcDbArc
 50
101.0985676361
 51
104.7630312681
  0
ARC
  5
254
100
AcDbEntity
  8
0
100
AcDbCircle
 62
7
  6
CONTINUOUS
 10
10.0566923427
 20
8.9595035172
 40
1.5506700155
100
AcDbArc
 50
90.9237651546
 51
92.0213491955
  0
ARC
  5
255
100
AcDbEntity
  8
0
100
AcDbCircle
 62
7
  6
CONTINUOUS
 10
10.0566923427
 20
8.9595035172
 40
1.5506700155
100
AcDbArc
 50
95.9781118612
 51
98.492392884
  0
ARC
  5
256
100
AcDbEntity
  8
0
100
AcDbCircle
 62
7
  6
CONTINUOUS
 10
10.0566923427
 20
8.9595035172
 40
1.5506700155
100
AcDbArc
 50
75.2369687319
 51
77.7128511668
  0
ARC
  5
257
100
AcDbEntity
  8
0
100
AcDbCircle
 62
7
  6
CONTINUOUS
 10
10.0566923427
 20
8.9595035172
 40
1.5506700155
100
AcDbArc
 50
82.6640617287
 51
83.9847357909
  0
ARC
  5
258
100
AcDbEntity
  8
0
100
AcDbCircle
 62
7
  6
CONTINUOUS
 10
10.0566923427
 20
8.9595035172
 40
1.5506700155
100
AcDbArc
 50
85.0982741378
 51
86.1173792133
  0
ARC
  5
259
100
AcDbEntity
  8
0
100
AcDbCircle
 62
7
  6
CONTINUOUS
 10
10.0566923427
 20
8.9595035172
 40
1.5506493791
100
AcDbArc
 50
99.3527643775
 51
99.6712142153
  0
ARC
  5
25A
100
AcDbEntity
  8
0
100
AcDbCircle
 62
7
  6
CONTINUOUS
 10
10.0566923427
 20
8.9595035172
 40
1.5505974645
100
AcDbArc
 50
93.7344982126
 51
94.7536263756
  0
ARC
  5
25B
100
AcDbEntity
  8
0
100
AcDbCircle
 62
7
  6
CONTINUOUS
 10
10.0566923427
 20
8.9595035172
 40
1.5504684766
100
AcDbArc
 50
98.4935049317
 51
98.9795458287
  0
ARC
  5
25C
100
AcDbEntity
  8
0
100
AcDbCircle
 62
7
  6
CONTINUOUS
 10
10.0566923427
 20
8.9595035172
 40
1.5498637027
100
AcDbArc
 50
80.3425863685
 51
81.0917682267
  0
ARC
  5
25D
100
AcDbEntity
  8
0
100
AcDbCircle
 62
7
  6
CONTINUOUS
 10
10.0566923427
 20
8.9595035172
 40
1.5496700155
100
AcDbArc
 50
95.1829512639
 51
95.9819836025
  0
ARC
  5
25E
100
AcDbEntity
  8
0
100
AcDbCircle
 62
7
  6
CONTINUOUS
 10
10.0566923427
 20
8.9595035172
 40
1.5496700155
100
AcDbArc
 50
100.0469592105
 51
101.105820559
  0
ARC
  5
25F
100
AcDbEntity
  8
0
100
AcDbCircle
 62
7
  6
CONTINUOUS
 10
10.0566923427
 20
8.9595035172
 40
1.5490892475
100
AcDbArc
 50
80.3377119356
 51
82.9547769217
  0
ARC
  5
260
100
AcDbEntity
  8
0
100
AcDbCircle
 62
7
  6
CONTINUOUS
 10
10.0566923427
 20
8.9595035172
 40
1.5490892475
100
AcDbArc
 50
83.3273112645
 51
85.7426068924
  0
ARC
  5
261
100
AcDbEntity
  8
0
100
AcDbCircle
 62
7
  6
CONTINUOUS
 10
10.0566923427
 20
8.9595035172
 40
1.5490892475
100
AcDbArc
 50
91.2576505499
 51
92.7380616712
  0
ARC
  5
262
100
AcDbEntity
  8
0
100
AcDbCircle
 62
7
  6
CONTINUOUS
 10
10.0566923427
 20
8.9595035172
 40
1.5490892475
100
AcDbArc
 50
99.362268506
 51
101.8082133118
  0
ARC
  5
263
100
AcDbEntity
  8
0
100
AcDbCircle
 62
7
  6
CONTINUOUS
 10
10.0566923427
 20
8.9595035172
 40
1.5490892475
100
AcDbArc
 50
94.4057639541
 51
96.4493050949
  0
ARC
  5
264
100
AcDbEntity
  8
0
100
AcDbCircle
 62
7
  6
CONTINUOUS
 10
10.0511300558
 20
9.045166689
 40
1.464826131
100
AcDbArc
 50
93.528076262
 51
93.7356339495
  0
ARC
  5
265
100
AcDbEntity
  8
0
100
AcDbCircle
 62
7
  6
CONTINUOUS
 10
10.0406478391
 20
9.216403199
 40
1.2932691059
100
AcDbArc
 50
93.3174921811
 51
93.5314052167
  0
ARC
  5
266
100
AcDbEntity
  8
0
100
AcDbCircle
 62
7
  6
CONTINUOUS
 10
10.0179470729
 20
9.5046790258
 40
1.0041192927
100
AcDbArc
 50
92.1744428463
 51
93.0116099625
  0
ARC
  5
267
100
AcDbEntity
  8
0
100
AcDbCircle
 62
7
  6
CONTINUOUS
 10
10.0179282229
 20
9.5052159023
 40
1.0035820876
100
AcDbArc
 50
91.3623413485
 51
92.1745304113
  0
ARC
  5
268
100
AcDbEntity
  8
0
100
AcDbCircle
 62
7
  6
CONTINUOUS
 10
10.0179419509
 20
9.5044542302
 40
1.0033431026
100
AcDbArc
 50
92.201103724
 51
92.5676719695
  0
ARC
  5
269
100
AcDbEntity
  8
0
100
AcDbCircle
 62
7
  6
CONTINUOUS
 10
10.017916659
 20
9.5056122343
 40
1.0031855927
100
AcDbArc
 50
90.5750690042
 51
91.3622192509
  0
ARC
  5
26A
100
AcDbEntity
  8
0
100
AcDbCircle
 62
7
  6
CONTINUOUS
 10
10.017928165
 20
9.5048259634
 40
1.0029711141
100
AcDbArc
 50
91.3884414697
 51
92.2011323698
  0
ARC
  5
26B
100
AcDbEntity
  8
0
100
AcDbCircle
 62
7
  6
CONTINUOUS
 10
10.0179192296
 20
9.5051652112
 40
1.0026317494
100
AcDbArc
 50
90.8014074433
 51
91.388400744
  0
ARC
  5
26C
100
AcDbEntity
  8
0
100
AcDbCircle
 62
7
  6
CONTINUOUS
 10
9.9397586082
 20
9.6695651901
 40
0.8310237284
100
AcDbArc
 50
99.0820362442
 51
99.3537756108
  0
ARC
  5
26D
100
AcDbEntity
  8
0
100
AcDbCircle
 62
7
  6
CONTINUOUS
 10
9.9309308425
 20
9.6969496719
 40
0.8025566234
100
AcDbArc
 50
99.6649639633
 51
99.9444688897
  0
ARC
  5
26E
100
AcDbEntity
  8
0
100
AcDbCircle
 62
7
  6
CONTINUOUS
 10
9.979138595
 20
9.8586517543
 40
0.648182892
100
AcDbArc
 50
91.0190965577
 51
93.6731223844
  0
ARC
  5
26F
100
AcDbEntity
  8
0
100
AcDbCircle
 62
7
  6
CONTINUOUS
 10
9.9791038131
 20
9.8598489871
 40
0.64698523
100
AcDbArc
 50
89.6822050221
 51
91.0179025467
  0
ARC
  5
270
100
AcDbEntity
  8
0
100
AcDbCircle
 62
7
  6
CONTINUOUS
 10
10.1920600617
 20
12.7396199952
 40
2.2332362625
100
AcDbArc
 50
268.6896238876
 51
268.9142071437
  0
ARC
  5
271
100
AcDbEntity
  8
0
100
AcDbCircle
 62
7
  6
CONTINUOUS
 10
9.9905706007
 20
11.9696189386
 40
1.4609778632
100
AcDbArc
 50
270.8547314433
 51
271.2598332995
  0
ARC
  5
272
100
AcDbEntity
  8
0
100
AcDbCircle
 62
7
  6
CONTINUOUS
 10
9.9973455288
 20
11.5317230101
 40
1.0230296239
100
AcDbArc
 50
270.5882119565
 51
270.8411814338
  0
ARC
  5
273
100
AcDbEntity
  8
0
100
AcDbCircle
 62
7
  6
CONTINUOUS
 10
9.6691923427
 20
10.4299731857
 40
0.03
100
AcDbArc
 50
104.7630312683
 51
199.0658789538
  0
ARC
  5
274
100
AcDbEntity
  8
0
100
AcDbCircle
 62
7
  6
CONTINUOUS
 10
12.1816923427
 20
8.5001735327
 40
1.0
100
AcDbArc
 50
180.0
 51
188.3059108051
  0
ARC
  5
275
100
AcDbEntity
  8
0
100
AcDbCircle
 62
7
  6
CONTINUOUS
 10
11.4125635549
 20
9.2501735327
 40
0.7183712121
100
AcDbArc
 50
180.0
 51
244.7996803479
  0
ARC
  5
276
100
AcDbEntity
  8
0
100
AcDbCircle
 62
7
  6
CONTINUOUS
 10
11.5632480355
 20
8.409887106
 40
0.375
100
AcDbArc
 50
188.3059108051
 51
229.3969087652
  0
ARC
  5
277
100
AcDbEntity
  8
0
100
AcDbCircle
 62
7
  6
CONTINUOUS
 10
12.8186923427
 20
10.1701735327
 40
0.3125
100
AcDbArc
 50
284.539847615
 51
75.460152385
  0
ARC
  5
278
100
AcDbEntity
  8
0
100
AcDbCircle
 62
7
  6
CONTINUOUS
 10
12.8015965017
 20
10.1701735759
 40
0.095559041
100
AcDbArc
 50
280.3077517761
 51
79.6922389472
  0
ARC
  5
279
100
AcDbEntity
  8
0
100
AcDbCircle
 62
7
  6
CONTINUOUS
 10
11.3191923427
 20
8.0751735327
 40
0.05
100
AcDbArc
 50
270.0
 51
90.0
  0
ARC
  5
27A
100
AcDbEntity
  8
0
100
AcDbCircle
 62
7
  6
CONTINUOUS
 10
10.4441923427
 20
10.4299731857
 40
0.03
100
AcDbArc
 50
340.9341210462
 51
75.2369687317
  0
SPLINE
  5
27B
100
AcDbEntity
  8
0
100
AcDbSpline
 62
7
  6
CONTINUOUS
 70
0
 71
3
 72
23
 73
19
 74
0
 42
0.0000001
 43
0.0000001
 44
0.0000000001
 40
0.0
 40
0.0
 40
0.0
 40
0.0
 40
0.0398898889
 40
0.150237419
 40
0.2257568802
 40
0.3112492432
 40
0.3568358052
 40
0.4037821217
 40
0.4516504163
 40
0.4999967392
 40
0.5483409673
 40
0.5962039216
 40
0.6887051552
 40
0.7325184681
 40
0.7741999859
 40
0.8497243838
 40
0.9600999595
 40
1.0
 40
1.0
 40
1.0
 40
1.0
 10
10.5566923427
 20
10.3516735327
 30
0.0
 10
10.5550077649
 20
10.3470345904
 30
0.0
 10
10.5488496711
 20
10.3294913184
 30
0.0
 10
10.5407190015
 20
10.3027405987
 30
0.0
 10
10.5328921577
 20
10.2700746526
 30
0.0
 10
10.5283333205
 20
10.2449009579
 30
0.0
 10
10.5254783804
 20
10.2230539991
 30
0.0
 10
10.5238367268
 20
10.20575448
 30
0.0
 10
10.5228151624
 20
10.1880648083
 30
0.0
 10
10.5224775791
 20
10.1701758558
 30
0.0
 10
10.5228148618
 20
10.1522872447
 30
0.0
 10
10.5241611115
 20
10.1289707019
 30
0.0
 10
10.5267173059
 20
10.1063012477
 30
0.0
 10
10.5303055357
 20
10.0845673977
 30
0.0
 10
10.5341507185
 20
10.0650143536
 30
0.0
 10
10.5407170698
 20
10.0376170453
 30
0.0
 10
10.5488472156
 20
10.0108612276
 30
0.0
 10
10.5550070746
 20
9.993313627
 30
0.0
 10
10.5566923427
 20
9.9886735327
 30
0.0
  0
LINE
  5
27C
100
AcDbEntity
  8
0
100
AcDbLine
 62
7
  6
CONTINUOUS
 10
10.3166923427
 20
10.4866176246
 11
10.3549721866
 21
10.4800862894
  0
LINE
  5
27D
100
AcDbEntity
  8
0
100
AcDbLine
 62
7
  6
CONTINUOUS
 10
10.3549721866
 20
10.4800862894
 11
10.3582160577
 21
10.479531529
  0
LINE
  5
27E
100
AcDbEntity
  8
0
100
AcDbLine
 62
7
  6
CONTINUOUS
 10
10.3582160577
 20
10.479531529
 11
10.3587546839
 21
10.4794393944
  0
LINE
  5
27F
100
AcDbEntity
  8
0
100
AcDbLine
 62
7
  6
CONTINUOUS
 10
10.3587546839
 20
10.4794393944
 11
10.3735711153
 21
10.4769027816
  0
LINE
  5
280
100
AcDbEntity
  8
0
100
AcDbLine
 62
7
  6
CONTINUOUS
 10
10.3735711153
 20
10.4769027816
 11
10.3866923427
 21
10.4746528487
  0
LINE
  5
281
100
AcDbEntity
  8
0
100
AcDbLine
 62
7
  6
CONTINUOUS
 10
10.0316923482
 20
10.5099719939
 11
10.0442221122
 21
10.5095061851
  0
LINE
  5
282
100
AcDbEntity
  8
0
100
AcDbLine
 62
7
  6
CONTINUOUS
 10
10.0442221122
 20
10.5095061851
 11
10.0664095591
 21
10.5088717663
  0
LINE
  5
283
100
AcDbEntity
  8
0
100
AcDbLine
 62
7
  6
CONTINUOUS
 10
10.0664095591
 20
10.5088717663
 11
10.1267123456
 21
10.5073139523
  0
LINE
  5
284
100
AcDbEntity
  8
0
100
AcDbLine
 62
7
  6
CONTINUOUS
 10
10.1267123456
 20
10.5073139523
 11
10.1409895575
 21
10.506967759
  0
LINE
  5
285
100
AcDbEntity
  8
0
100
AcDbLine
 62
7
  6
CONTINUOUS
 10
10.1497412929
 20
10.506784729
 11
10.1616923427
 21
10.5066145335
  0
LINE
  5
286
100
AcDbEntity
  8
0
100
AcDbLine
 62
7
  6
CONTINUOUS
 10
9.9369707115
 20
10.5054615691
 11
9.9376132921
 21
10.5055031365
  0
LINE
  5
287
100
AcDbEntity
  8
0
100
AcDbLine
 62
7
  6
CONTINUOUS
 10
9.9346822325
 20
10.505293293
 11
9.9369707115
 21
10.5054615747
  0
LINE
  5
288
100
AcDbEntity
  8
0
100
AcDbLine
 62
7
  6
CONTINUOUS
 10
9.8085827767
 20
10.4901706607
 11
9.8146923427
 21
10.4910679125
  0
LINE
  5
289
100
AcDbEntity
  8
0
100
AcDbLine
 62
7
  6
CONTINUOUS
 10
10.1316923427
 20
10.5083587386
 11
10.1278398644
 21
10.5083086452
  0
SPLINE
  5
28A
100
AcDbEntity
  8
0
100
AcDbSpline
 62
7
  6
CONTINUOUS
 70
0
 71
3
 72
15
 73
11
 74
0
 42
0.0000001
 43
0.0000001
 44
0.0000000001
 40
0.0
 40
0.0
 40
0.0
 40
0.0
 40
0.1018122444
 40
0.2591303737
 40
0.4510431109
 40
0.6468404713
 40
0.8127576809
 40
0.9267631706
 40
0.9829197821
 40
1.0
 40
1.0
 40
1.0
 40
1.0
 10
10.1278398644
 20
10.5083086452
 30
0.0
 10
10.1255950793
 20
10.5083093552
 30
0.0
 10
10.1198818436
 20
10.5083721272
 30
0.0
 10
10.1099387014
 20
10.5085469758
 30
0.0
 10
10.0979244125
 20
10.5088034009
 30
0.0
 10
10.0857228518
 20
10.509156851
 30
0.0
 10
10.0752400816
 20
10.5095086034
 30
0.0
 10
10.067835131
 20
10.5097919656
 30
0.0
 10
10.0637128183
 20
10.5100123814
 30
0.0
 10
10.0621015276
 20
10.5101237292
 30
0.0
 10
10.0617268702
 20
10.5101618278
 30
0.0
  0
LINE
  5
28B
100
AcDbEntity
  8
0
100
AcDbLine
 62
7
  6
CONTINUOUS
 10
10.2966923427
 20
10.4906721875
 11
10.2916923427
 21
10.4916025665
  0
SPLINE
  5
28C
100
AcDbEntity
  8
0
100
AcDbSpline
 62
7
  6
CONTINUOUS
 70
0
 71
3
 72
27
 73
23
 74
0
 42
0.0000001
 43
0.0000001
 44
0.0000000001
 40
0.0
 40
0.0
 40
0.0
 40
0.0
 40
0.0733829451
 40
0.1450423299
 40
0.2138716907
 40
0.2792725679
 40
0.3409286397
 40
0.3989131597
 40
0.4267382972
 40
0.4539125347
 40
0.4805909091
 40
0.5069470129
 40
0.5331730411
 40
0.5594693735
 40
0.5860290558
 40
0.6130356616
 40
0.6689185169
 40
0.728142625
 40
0.7911046272
 40
0.8577561396
 40
0.9277058614
 40
1.0
 40
1.0
 40
1.0
 40
1.0
 10
12.8186923427
 20
10.3144425945
 30
0.0
 10
12.8240888011
 20
10.3153485768
 30
0.0
 10
12.8346569859
 20
10.3177988141
 30
0.0
 10
12.8496539848
 20
10.3233506026
 30
0.0
 10
12.8632385378
 20
10.3306153012
 30
0.0
 10
12.8750000475
 20
10.3393783805
 30
0.0
 10
12.8845985585
 20
10.3493874453
 30
0.0
 10
12.8906195863
 20
10.3586876726
 30
0.0
 10
12.8940059172
 20
10.3664185905
 30
0.0
 10
12.8958092186
 20
10.3722504864
 30
0.0
 10
12.8968995308
 20
10.3781454352
 30
0.0
 10
12.8972674134
 20
10.3840591256
 30
0.0
 10
12.8969028677
 20
10.3899447324
 30
0.0
 10
12.8958146428
 20
10.3957552644
 30
0.0
 10
12.8940123771
 20
10.4014467382
 30
0.0
 10
12.8906344567
 20
10.4088942548
 30
0.0
 10
12.884611377
 20
10.4177255584
 30
0.0
 10
12.8749860173
 20
10.426987096
 30
0.0
 10
12.8631987667
 20
10.4348135624
 30
0.0
 10
12.8495943028
 20
10.4409844885
 30
0.0
 10
12.8345848872
 20
10.4453232908
 30
0.0
 10
12.8240626566
 20
10.4469092521
 30
0.0
 10
12.8186923427
 20
10.4473786694
 30
0.0
  0
LINE
  5
28D
100
AcDbEntity
  8
0
100
AcDbLine
 62
7
  6
CONTINUOUS
 10
9.8901441665
 20
10.4995860077
 11
9.8951923427
 21
10.5004743866
  0
LINE
  5
28E
100
AcDbEntity
  8
0
100
AcDbLine
 62
7
  6
CONTINUOUS
 10
9.9251923427
 20
10.5033238116
 11
9.926699291
 21
10.5032708808
  0
LINE
  5
28F
100
AcDbEntity
  8
0
100
AcDbLine
 62
7
  6
CONTINUOUS
 10
9.926699291
 20
10.5032708808
 11
9.9301832835
 21
10.5033928799
  0
LINE
  5
290
100
AcDbEntity
  8
0
100
AcDbLine
 62
7
  6
CONTINUOUS
 10
10.3546890531
 20
10.4811043872
 11
10.3292339668
 21
10.4852807592
  0
LINE
  5
291
100
AcDbEntity
  8
0
100
AcDbLine
 62
7
  6
CONTINUOUS
 10
10.3292339668
 20
10.4852807592
 11
10.3166923427
 21
10.4874032184
  0
SPLINE
  5
292
100
AcDbEntity
  8
0
100
AcDbSpline
 62
7
  6
CONTINUOUS
 70
0
 71
3
 72
27
 73
23
 74
0
 42
0.0000001
 43
0.0000001
 44
0.0000000001
 40
0.0
 40
0.0
 40
0.0
 40
0.0
 40
0.0722962526
 40
0.1422513348
 40
0.2089057444
 40
0.2718685825
 40
0.3310938928
 40
0.3869770461
 40
0.4139839258
 40
0.4405436041
 40
0.4668399836
 40
0.4930661542
 40
0.5194222104
 40
0.5461007109
 40
0.5732750553
 40
0.6010999588
 40
0.6590842802
 40
0.7207391056
 40
0.7861390641
 40
0.8549653646
 40
0.9266192506
 40
1.0
 40
1.0
 40
1.0
 40
1.0
 10
12.8186923427
 20
9.892968396
 30
0.0
 10
12.8240628135
 20
9.8934378271
 30
0.0
 10
12.8345855551
 20
9.8950241202
 30
0.0
 10
12.8495957476
 20
9.8993630129
 30
0.0
 10
12.8632007094
 20
9.9055345689
 30
0.0
 10
12.8749879528
 20
9.9133616665
 30
0.0
 10
12.8846133155
 20
9.9226235167
 30
0.0
 10
12.8906357036
 20
9.9314554448
 30
0.0
 10
12.8940134964
 20
9.9389030527
 30
0.0
 10
12.8958154665
 20
9.9445946652
 30
0.0
 10
12.8969030567
 20
9.9504053252
 30
0.0
 10
12.8972674135
 20
9.9562909373
 30
0.0
 10
12.896899338
 20
9.9622046486
 30
0.0
 10
12.8958083946
 20
9.9680994987
 30
0.0
 10
12.8940048002
 20
9.9739312844
 30
0.0
 10
12.8906183368
 20
9.9816621292
 30
0.0
 10
12.8845966284
 20
9.9909617725
 30
0.0
 10
12.8749981161
 20
10.0009705356
 30
0.0
 10
12.8632365972
 20
10.0097329873
 30
0.0
 10
12.8496525275
 20
10.0169970208
 30
0.0
 10
12.8346563231
 20
10.0225486495
 30
0.0
 10
12.8240886395
 20
10.0249985157
 30
0.0
 10
12.8186923427
 20
10.0259044709
 30
0.0
  0
SPLINE
  5
293
100
AcDbEntity
  8
0
100
AcDbSpline
 62
7
  6
CONTINUOUS
 70
0
 71
3
 72
34
 73
30
 74
0
 42
0.0000001
 43
0.0000001
 44
0.0000000001
 40
0.0
 40
0.0
 40
0.0
 40
0.0
 40
0.0000651944
 40
0.0002606028
 40
0.0005859697
 40
0.0010410485
 40
0.0016256013
 40
0.002339399
 40
0.0041538522
 40
0.0064827571
 40
0.0093246027
 40
0.0126780219
 40
0.0165417929
 40
0.0257961247
 40
0.0370808369
 40
0.0503914493
 40
0.0657258618
 40
0.0830822125
 40
0.1024503154
 40
0.1238151276
 40
0.1471600218
 40
0.1997222903
 40
0.2600083709
 40
0.327897511
 40
0.4032281121
 40
0.4858151326
 40
0.5754755328
 40
0.7751609163
 40
1.0
 40
1.0
 40
1.0
 40
1.0
 10
10.6566923446
 20
9.9951735327
 30
0.0
 10
10.6566912305
 20
9.9951735327
 30
0.0
 10
10.6566950373
 20
9.9951806134
 30
0.0
 10
10.6566934953
 20
9.995187931
 30
0.0
 10
10.6566976081
 20
9.9952059079
 30
0.0
 10
10.6567000861
 20
9.9952283582
 30
0.0
 10
10.6567044009
 20
9.9952583032
 30
0.0
 10
10.6567111494
 20
9.9953109301
 30
0.0
 10
10.6567213632
 20
9.9953933939
 30
0.0
 10
10.6567347649
 20
9.9955119718
 30
0.0
 10
10.6567498036
 20
9.9956568783
 30
0.0
 10
10.656765892
 20
9.9958280198
 30
0.0
 10
10.6567895459
 20
9.9961085105
 30
0.0
 10
10.6568182357
 20
9.996524568
 30
0.0
 10
10.6568469003
 20
9.9971023468
 30
0.0
 10
10.6568674766
 20
9.9977844356
 30
0.0
 10
10.6568757339
 20
9.9985705594
 30
0.0
 10
10.6568680486
 20
9.9994601919
 30
0.0
 10
10.656848749
 20
10.0004526935
 30
0.0
 10
10.6568215719
 20
10.0015473787
 30
0.0
 10
10.6567782955
 20
10.0032090857
 30
0.0
 10
10.6567255583
 20
10.0055359076
 30
0.0
 10
10.6566977313
 20
10.0086245616
 30
0.0
 10
10.6567319532
 20
10.0121022071
 30
0.0
 10
10.6567948233
 20
10.0159604668
 30
0.0
 10
10.6568561318
 20
10.0201908725
 30
0.0
 10
10.6568935549
 20
10.0265468871
 30
0.0
 10
10.6567701555
 20
10.0353332195
 30
0.0
 10
10.6566923459
 20
10.0425875962
 30
0.0
 10
10.6566923445
 20
10.0464298521
 30
0.0
  0
LINE
  5
294
100
AcDbEntity
  8
0
100
AcDbLine
 62
7
  6
CONTINUOUS
 10
10.181870201
 20
10.5034874752
 11
10.1891923427
 21
10.5032770592
  0
LINE
  5
295
100
AcDbEntity
  8
0
100
AcDbLine
 62
7
  6
CONTINUOUS
 10
10.2191923427
 20
10.5004081232
 11
10.2265177822
 21
10.4992162271
  0
LINE
  5
296
100
AcDbEntity
  8
0
100
AcDbLine
 62
7
  6
CONTINUOUS
 10
10.2546923427
 20
10.4970418571
 11
10.2466923427
 21
10.4976769459
  0
LINE
  5
297
100
AcDbEntity
  8
0
100
AcDbLine
 62
7
  6
CONTINUOUS
 10
10.2366923427
 20
10.4988792013
 11
10.2232266347
 21
10.5006920896
  0
LINE
  5
298
100
AcDbEntity
  8
0
100
AcDbLine
 62
7
  6
CONTINUOUS
 10
10.2232266347
 20
10.5006920896
 11
10.2192293621
 21
10.501386317
  0
SPLINE
  5
299
100
AcDbEntity
  8
0
100
AcDbSpline
 62
7
  6
CONTINUOUS
 70
0
 71
3
 72
15
 73
11
 74
0
 42
0.0000001
 43
0.0000001
 44
0.0000000001
 40
0.0
 40
0.0
 40
0.0
 40
0.0
 40
0.1027851064
 40
0.2143033346
 40
0.3333638804
 40
0.4588052839
 40
0.589459164
 40
0.7241050067
 40
0.8614556611
 40
1.0
 40
1.0
 40
1.0
 40
1.0
 10
10.6566923445
 20
10.0464298521
 30
0.0
 10
10.6566923429
 20
10.0506695888
 30
0.0
 10
10.6567888251
 20
10.0595089135
 30
0.0
 10
10.6569160151
 20
10.0732594373
 30
0.0
 10
10.6567870347
 20
10.0879445403
 30
0.0
 10
10.6566664164
 20
10.103418946
 30
0.0
 10
10.6567948004
 20
10.119536232
 30
0.0
 10
10.6569158765
 20
10.1361447915
 30
0.0
 10
10.6567803716
 20
10.1530787805
 30
0.0
 10
10.6566923466
 20
10.1644587915
 30
0.0
 10
10.6566923445
 20
10.1701735446
 30
0.0
  0
LINE
  5
29A
100
AcDbEntity
  8
0
100
AcDbLine
 62
7
  6
CONTINUOUS
 10
9.7861923427
 20
10.4851041277
 11
9.791417624
 21
10.4856937142
  0
LINE
  5
29B
100
AcDbEntity
  8
0
100
AcDbLine
 62
7
  6
CONTINUOUS
 10
9.7521345257
 20
10.4783168874
 11
9.7581923427
 21
10.4798736112
  0
SPLINE
  5
29C
100
AcDbEntity
  8
0
100
AcDbSpline
 62
7
  6
CONTINUOUS
 70
0
 71
3
 72
15
 73
11
 74
0
 42
0.0000001
 43
0.0000001
 44
0.0000000001
 40
0.0
 40
0.0
 40
0.0
 40
0.0
 40
0.1385443566
 40
0.2758950377
 40
0.4105408877
 40
0.5411947638
 40
0.6666361681
 40
0.7856967076
 40
0.8972149118
 40
1.0
 40
1.0
 40
1.0
 40
1.0
 10
10.6566923445
 20
10.1701735446
 30
0.0
 10
10.6566923425
 20
10.1758882981
 30
0.0
 10
10.6567803604
 20
10.1872683102
 30
0.0
 10
10.6569158771
 20
10.2042023001
 30
0.0
 10
10.6567948163
 20
10.2208108597
 30
0.0
 10
10.6566664172
 20
10.2369281446
 30
0.0
 10
10.6567870192
 20
10.2524025491
 30
0.0
 10
10.6569160146
 20
10.2670876497
 30
0.0
 10
10.6567888367
 20
10.2808381707
 30
0.0
 10
10.6566923468
 20
10.2896774929
 30
0.0
 10
10.6566923445
 20
10.2939172285
 30
0.0
  0
LINE
  5
29D
100
AcDbEntity
  8
0
100
AcDbLine
 62
7
  6
CONTINUOUS
 10
10.1891923427
 20
10.50428085
 11
10.1843318805
 21
10.5043684312
  0
LINE
  5
29E
100
AcDbEntity
  8
0
100
AcDbLine
 62
7
  6
CONTINUOUS
 10
10.1843318805
 20
10.5043684312
 11
10.1716923427
 21
10.5050948812
  0
SPLINE
  5
29F
100
AcDbEntity
  8
0
100
AcDbSpline
 62
7
  6
CONTINUOUS
 70
0
 71
3
 72
34
 73
30
 74
0
 42
0.0000001
 43
0.0000001
 44
0.0000000001
 40
0.0
 40
0.0
 40
0.0
 40
0.0
 40
0.2248390917
 40
0.4245244931
 40
0.5141848973
 40
0.5967719146
 40
0.6721025098
 40
0.739991644
 40
0.8002777195
 40
0.8528399839
 40
0.8761848768
 40
0.8975496883
 40
0.9169177909
 40
0.9342741414
 40
0.9496085534
 40
0.9629191646
 40
0.9742038757
 40
0.9834582067
 40
0.9873219776
 40
0.9906753967
 40
0.9935172422
 40
0.9958461472
 40
0.9976606006
 40
0.9983743984
 40
0.9989589513
 40
0.9994140302
 40
0.9997393972
 40
0.9999348056
 40
1.0
 40
1.0
 40
1.0
 40
1.0
 10
10.6566923445
 20
10.2939172285
 30
0.0
 10
10.6566923424
 20
10.2977594835
 30
0.0
 10
10.6567701484
 20
10.3050138586
 30
0.0
 10
10.6568935548
 20
10.3138001888
 30
0.0
 10
10.6568561378
 20
10.3201562018
 30
0.0
 10
10.6567948293
 20
10.3243866063
 30
0.0
 10
10.6567319573
 20
10.3282448645
 30
0.0
 10
10.656697731
 20
10.3317225087
 30
0.0
 10
10.6567255546
 20
10.3348111615
 30
0.0
 10
10.6567782915
 20
10.3371379826
 30
0.0
 10
10.6568215686
 20
10.338799689
 30
0.0
 10
10.6568487466
 20
10.3398943738
 30
0.0
 10
10.6568680474
 20
10.3408868751
 30
0.0
 10
10.6568757342
 20
10.3417765073
 30
0.0
 10
10.6568674782
 20
10.3425626308
 30
0.0
 10
10.6568469024
 20
10.3432447194
 30
0.0
 10
10.6568182378
 20
10.343822498
 30
0.0
 10
10.6567895477
 20
10.3442385553
 30
0.0
 10
10.6567658935
 20
10.3445190459
 30
0.0
 10
10.6567498048
 20
10.3446901873
 30
0.0
 10
10.6567347658
 20
10.3448350937
 30
0.0
 10
10.6567213639
 20
10.3449536716
 30
0.0
 10
10.6567111498
 20
10.3450361353
 30
0.0
 10
10.6567044012
 20
10.3450887623
 30
0.0
 10
10.6567000863
 20
10.345118707
 30
0.0
 10
10.6566976082
 20
10.3451411578
 30
0.0
 10
10.6566934954
 20
10.3451591335
 30
0.0
 10
10.6566950373
 20
10.3451664533
 30
0.0
 10
10.6566912305
 20
10.3451735318
 30
0.0
 10
10.6566923446
 20
10.3451735327
 30
0.0
  0
LINE
  5
2A0
100
AcDbEntity
  8
0
100
AcDbLine
 62
7
  6
CONTINUOUS
 10
9.7581923427
 20
10.48089287
 11
9.7530135634
 21
10.4795401267
  0
LINE
  5
2A1
100
AcDbEntity
  8
0
100
AcDbLine
 62
7
  6
CONTINUOUS
 10
9.7530135634
 20
10.4795401267
 11
9.7396923427
 21
10.4766022275
  0
LINE
  5
2A2
100
AcDbEntity
  8
0
100
AcDbLine
 62
7
  6
CONTINUOUS
 10
9.8046923427
 20
10.4887430331
 11
9.7914171001
 21
10.4867090148
  0
LINE
  5
2A3
100
AcDbEntity
  8
0
100
AcDbLine
 62
7
  6
CONTINUOUS
 10
9.7914171001
 20
10.4867090148
 11
9.7875371589
 21
10.4861984984
  0
LINE
  5
2A4
100
AcDbEntity
  8
0
100
AcDbLine
 62
7
  6
CONTINUOUS
 10
9.7875371589
 20
10.4861984984
 11
9.7861923427
 21
10.4861198943
  0
LINE
  5
2A5
100
AcDbEntity
  8
0
100
AcDbLine
 62
7
  6
CONTINUOUS
 10
10.3546890531
 20
10.4811044172
 11
10.3586565602
 21
10.4804884732
  0
LINE
  5
2A6
100
AcDbEntity
  8
0
100
AcDbLine
 62
7
  6
CONTINUOUS
 10
9.9376923427
 20
10.504792042
 11
9.936934656
 21
10.5047481825
  0
LINE
  5
2A7
100
AcDbEntity
  8
0
100
AcDbLine
 62
7
  6
CONTINUOUS
 10
9.936934656
 20
10.5047481825
 11
9.9266751784
 21
10.5042742649
  0
LINE
  5
2A8
100
AcDbEntity
  8
0
100
AcDbLine
 62
7
  6
CONTINUOUS
 10
9.9266751784
 20
10.5042742649
 11
9.9251923427
 21
10.5043276096
  0
LINE
  5
2A9
100
AcDbEntity
  8
0
100
AcDbLine
 62
7
  6
CONTINUOUS
 10
9.8951923427
 20
10.5014800282
 11
9.8936851864
 21
10.5011405247
  0
LINE
  5
2AA
100
AcDbEntity
  8
0
100
AcDbLine
 62
7
  6
CONTINUOUS
 10
9.8936851864
 20
10.5011405247
 11
9.8826923427
 21
10.4995689369
  0
ENDSEC
  0
SECTION
  2
OBJECTS
  0
DICTIONARY
  5
C
100
AcDbDictionary
280
0
281
1
  3
ACAD_GROUP
350
D
  3
ACAD_MLINESTYLE
350
17
  3
ACAD_LAYOUT
350
1A
  3
ACAD_PLOTSETTINGS
350
19
  3
ACAD_PLOTSTYLENAME
350
E
  0
DICTIONARY
  5
D
102
{ACAD_REACTORS
330
C
102
}
100
AcDbDictionary
280
0
281
1
  0
ACDBDICTIONARYWDFLT
  5
E
102
{ACAD_REACTORS
330
C
102
}
100
AcDbDictionary
281
1
  3
Normal
350
F
100
AcDbDictionaryWithDefault
340
F
  0
DICTIONARY
  5
17
102
{ACAD_REACTORS
330
C
102
}
100
AcDbDictionary
280
0
281
1
  3
Standard
350
18
  0
DICTIONARY
  5
19
102
{ACAD_REACTORS
330
C
102
}
100
AcDbDictionary
281
1
  0
DICTIONARY
  5
1A
102
{ACAD_REACTORS
330
C
102
}
100
AcDbDictionary
281
1
  3
Model
350
2AB
  3
Layout1
350
2AC
  0
ACDBPLACEHOLDER
  5
F
102
{ACAD_REACTORS
330
E
102
}
  0
MLINESTYLE
  5
18
102
{ACAD_REACTORS
330
17
102
}
100
AcDbMlineStyle
  2
STANDARD
 70
0
  3

 62
256
 51
90.0
 52
90.0
 71
2
 49
0.5
 62
256
  6
BYLAYER
 49
-0.5
 62
256
  6
BYLAYER
  0
LAYOUT
  5
2AB
102
{ACAD_REACTORS
330
1A
102
}
100
AcDbPlotSettings
  1

  2
none_device
  4
ANSI_C_(22.00_x_17.00_Inches)
  6

 40
0.0
 41
0.0
 42
0.0
 43
0.0
 44
558.8
 45
431.8
 46
0.0
 47
0.0
 48
0.0
 49
0.0
140
0.0
141
0.0
142
1.0
143
1.0
 70
1024
 72
0
 73
0
 74
0
  7

 75
0
147
1.0
148
0.0
149
0.0
100
AcDbLayout
  1
Model
 70
0
 71
0
 10
0.0
 20
0.0
 11
22.0
 21
17.0
 12
0.0
 22
0.0
 32
0.0
 14
0.0
 24
0.0
 34
0.0
 15
0.0
 25
0.0
 35
0.0
146
0.0
 13
0.0
 23
0.0
 33
0.0
 16
1.0
 26
0.0
 36
0.0
 17
0.0
 27
1.0
 37
0.0
 76
0
330
202
345
0
346
0
  0
LAYOUT
  5
2AC
102
{ACAD_REACTORS
330
1A
102
}
100
AcDbPlotSettings
  1

  2
none_device
  4
ANSI_C_(22.00_x_17.00_Inches)
  6

 40
0.0
 41
0.0
 42
0.0
 43
0.0
 44
558.8
 45
431.8
 46
0.0
 47
0.0
 48
0.0
 49
0.0
140
0.0
141
0.0
142
1.0
143
1.0
 70
0
 72
0
 73
0
 74
0
  7

 75
0
147
1.0
148
0.0
149
0.0
100
AcDbLayout
  1
Layout1
 70
0
 71
1
 10
0.0
 20
0.0
 11
22.0
 21
17.0
 12
0.0
 22
0.0
 32
0.0
 14
0.0
 24
0.0
 34
0.0
 15
0.0
 25
0.0
 35
0.0
146
0.0
 13
0.0
 23
0.0
 33
0.0
 16
1.0
 26
0.0
 36
0.0
 17
0.0
 27
1.0
 37
0.0
 76
0
330
203
345
0
346
0
  0
ENDSEC
  0
EOF
