999
DXF file: E:\BT Custom\CADOUTPUT\_FRONT.dxf
999
Pro/ENGINEER 2018400 by Parametric Technology Corporation
  0
SECTION
  2
HEADER
  9
$ACADVER
  1
AC1018
  9
$DWGCODEPAGE
  3
ANSI_1252
  9
$EXTMAX
 10
22.0
 20
17.0
 30
0.0
  9
$EXTMIN
 10
0.0
 20
0.0
 30
0.0
  9
$LIMMIN
 10
0.0
 20
0.0
  9
$LIMMAX
 10
22.0
 20
17.0
  9
$VIEWCTR
 10
11.0
 20
8.5
  9
$VIEWSIZE
 40
17.0
  9
$CLAYER
  8
0
  9
$LTSCALE
 40
1.21
  9
$CELTYPE
  6
BYLAYER
  9
$DIMSCALE
 40
1.0
  9
$DIMASZ
 40
0.1
  9
$DIMEXO
 40
0.0625
  9
$DIMDLI
 40
0.836
  9
$DIMEXE
 40
0.125
  9
$DIMCEN
 40
0.198
  9
$DIMLFAC
 40
1.0
  9
$DIMBLK
  1
_FILLED
  9
$DIMALT
 70
1
  9
$DIMALTD
 70
2
  9
$DIMALTTD
 70
2
  9
$DIMALTF
 40
25.4
  9
$DIMTXT
 40
0.08
  9
$DIMTOL
 70
1
  9
$DIMLIM
 70
0
  9
$DIMTFAC
 40
1.0
  9
$DIMTP
 40
0.001
  9
$DIMTM
 40
0.001
  9
$DIMGAP
 40
0.09
  9
$DIMDSEP
 70
46
  9
$AUNITS
 70
0
  9
$PDMODE
 70
3
  9
$PDSIZE
 40
0.06
  9
$HANDSEED
  5
2C5
  9
$TILEMODE
 70
1
  9
$MEASUREMENT
 70
0
  9
$INSUNITS
 70
1
  0
ENDSEC
  0
SECTION
  2
CLASSES
  0
CLASS
  1
ACDBDICTIONARYWDFLT
  2
AcDbDictionaryWithDefault
  3
AutoCAD 2000
 90
0
 91
1
280
0
281
0
  0
CLASS
  1
ACDBPLACEHOLDER
  2
AcDbPlaceHolder
  3
AutoCAD 2000
 90
0
 91
1
280
0
281
0
  0
CLASS
  1
LAYOUT
  2
AcDbLayout
  3
AutoCAD 2000
 90
0
 91
0
280
0
281
0
  0
ENDSEC
  0
SECTION
  2
TABLES
  0
TABLE
  2
VPORT
  5
8
100
AcDbSymbolTable
 70
2
  0
VPORT
  5
1F4
100
AcDbSymbolTableRecord
100
AcDbViewportTableRecord
  2
*ACTIVE
 70
0
 10
0.0
 20
0.0
 11
1.0
 21
1.0
 12
11.0
 22
8.5
 13
0.0
 23
0.0
 14
1.0
 24
1.0
 15
0.0
 25
0.0
 16
0.0
 26
0.0
 36
1.0
 17
0.0
 27
0.0
 37
0.0
 40
17.0
 41
1.2941176471
 42
50.0
 43
0.0
 44
0.0
 50
0.0
 51
0.0
 71
0
 72
100
 73
1
 74
1
 75
0
 76
0
 77
0
 78
0
  0
ENDTAB
  0
TABLE
  2
LTYPE
  5
5
100
AcDbSymbolTable
 70
6
  0
LTYPE
  5
14
100
AcDbSymbolTableRecord
100
AcDbLinetypeTableRecord
  2
BYBLOCK
 70
0
  3

 72
65
 73
0
 40
0.0
  0
LTYPE
  5
15
100
AcDbSymbolTableRecord
100
AcDbLinetypeTableRecord
  2
BYLAYER
 70
0
  3

 72
65
 73
0
 40
0.0
  0
LTYPE
  5
16
100
AcDbSymbolTableRecord
100
AcDbLinetypeTableRecord
  2
CONTINUOUS
 70
64
  3
Solid line
 72
65
 73
0
 40
0.0
  0
LTYPE
  5
1F5
100
AcDbSymbolTableRecord
100
AcDbLinetypeTableRecord
  2
CENTER
 70
64
  3
____ _ ____ _ ____ _ ____ _ ____ _ ____ _ ____
 72
65
 73
4
 40
0.6
 49
0.375
 74
0
 49
-0.075
 74
0
 49
0.075
 74
0
 49
-0.075
 74
0
  0
LTYPE
  5
1F6
100
AcDbSymbolTableRecord
100
AcDbLinetypeTableRecord
  2
HIDDEN
 70
64
  3
- - - - - - - - - - - - - - - - - - - -
 72
65
 73
2
 40
0.2
 49
0.1
 74
0
 49
-0.1
 74
0
  0
LTYPE
  5
1F7
100
AcDbSymbolTableRecord
100
AcDbLinetypeTableRecord
  2
PHANTOM
 70
64
  3
_____ _ _ _____ _ _ _____ _ _ _____
 72
65
 73
6
 40
0.8
 49
0.45
 74
0
 49
-0.05
 74
0
 49
0.1
 74
0
 49
-0.05
 74
0
 49
0.1
 74
0
 49
-0.05
 74
0
  0
LTYPE
  5
1F8
100
AcDbSymbolTableRecord
100
AcDbLinetypeTableRecord
  2
DOT
 70
64
  3
. . . . . . . . . . . . . . . . . . . .
 72
65
 73
2
 40
0.2
 49
0.1
 74
0
 49
-0.1
 74
0
  0
LTYPE
  5
1F9
100
AcDbSymbolTableRecord
100
AcDbLinetypeTableRecord
  2
DASHED
 70
64
  3
- - - - - - - - - - - - - - - - - - - -
 72
65
 73
2
 40
0.2
 49
0.1
 74
0
 49
-0.1
 74
0
  0
ENDTAB
  0
TABLE
  2
LAYER
  5
2
100
AcDbSymbolTable
 70
36
  0
LAYER
  5
10
100
AcDbSymbolTableRecord
100
AcDbLayerTableRecord
  2
0
 70
0
 62
7
  6
CONTINUOUS
370
-3
390
F
  0
LAYER
  5
1FA
100
AcDbSymbolTableRecord
100
AcDbLayerTableRecord
  2
DEFAULT_1
 70
0
 62
7
  6
CENTER
370
-3
390
F
  0
LAYER
  5
1FB
100
AcDbSymbolTableRecord
100
AcDbLayerTableRecord
  2
DEFAULT_2
 70
0
 62
8
  6
HIDDEN
370
-3
390
F
  0
LAYER
  5
1FC
100
AcDbSymbolTableRecord
100
AcDbLayerTableRecord
  2
DEFAULT_3
 70
0
 62
7
  6
PHANTOM
370
-3
390
F
  0
LAYER
  5
1FD
100
AcDbSymbolTableRecord
100
AcDbLayerTableRecord
  2
ALL_FEATURES
 70
0
 62
7
  6
CONTINUOUS
370
-3
390
F
  0
LAYER
  5
1FE
100
AcDbSymbolTableRecord
100
AcDbLayerTableRecord
  2
AXES_FEATURES
 70
0
 62
7
  6
CONTINUOUS
370
-3
390
F
  0
LAYER
  5
1FF
100
AcDbSymbolTableRecord
100
AcDbLayerTableRecord
  2
DIMENSIONS
 70
0
 62
7
  6
CONTINUOUS
370
-3
390
F
  0
ENDTAB
  0
TABLE
  2
STYLE
  5
3
100
AcDbSymbolTable
 70
1
  0
STYLE
  5
11
100
AcDbSymbolTableRecord
100
AcDbTextStyleTableRecord
  2
STANDARD
 70
0
 40
0.0
 41
0.8
 50
0.0
 71
0
 42
0.2
  3
txt
  4

  0
STYLE
  5
200
100
AcDbSymbolTableRecord
100
AcDbTextStyleTableRecord
  2
TEXTSTYLE_1
 70
0
 40
0.0
 41
0.8
 50
0.0
 71
0
 42
0.2
  3
gdt
  4

  0
ENDTAB
  0
TABLE
  2
VIEW
  5
6
100
AcDbSymbolTable
 70
0
  0
ENDTAB
  0
TABLE
  2
UCS
  5
7
100
AcDbSymbolTable
 70
0
  0
ENDTAB
  0
TABLE
  2
APPID
  5
9
100
AcDbSymbolTable
 70
1
  0
APPID
  5
201
100
AcDbSymbolTableRecord
100
AcDbRegAppTableRecord
  2
ACAD
 70
0
  0
ENDTAB
  0
TABLE
  2
BLOCK_RECORD
  5
1
100
AcDbSymbolTable
 70
0
  0
BLOCK_RECORD
  5
202
100
AcDbSymbolTableRecord
100
AcDbBlockTableRecord
  2
*Model_Space
  0
BLOCK_RECORD
  5
203
100
AcDbSymbolTableRecord
100
AcDbBlockTableRecord
  2
*Paper_Space
  0
BLOCK_RECORD
  5
204
100
AcDbSymbolTableRecord
100
AcDbBlockTableRecord
  2
_FILLED
  0
ENDTAB
  0
TABLE
  2
DIMSTYLE
  5
A
100
AcDbSymbolTable
 70
1
100
AcDbDimStyleTable
 71
0
  0
DIMSTYLE
105
205
100
AcDbSymbolTableRecord
100
AcDbDimStyleTableRecord
  2
STANDARD
 70
0
  3

  4

 40
1.0
 41
0.1
 42
0.0625
 43
0.38
 44
0.125
 45
0.0
 46
0.0
 47
0.001
 48
0.001
140
0.08
141
0.09
142
0.0
143
25.4
144
1.0
145
0.0
146
1.0
147
0.09
 71
1.0
 72
0.0
 73
1
 74
1
 75
0
 76
0
 77
0
 78
4
 79
1
170
1
171
2
172
0
173
0
174
0
175
0
176
0
177
0
178
0
270
2
179
3
271
3
272
3
273
2
274
2
275
0
280
0
281
0
282
0
283
1
284
4
285
0
286
0
287
3
288
0
340
11
278
46
341
204
342
204
343
204
344
204
  0
ENDTAB
  0
ENDSEC
  0
SECTION
  2
BLOCKS
  0
BLOCK
  5
20
100
AcDbEntity
  8
0
100
AcDbBlockBegin
  2
*Model_Space
 70
0
 10
0.0
 20
0.0
 30
0.0
  3
*Model_Space
  1

  0
ENDBLK
  5
21
100
AcDbEntity
  8
0
100
AcDbBlockEnd
  0
BLOCK
  5
1C
100
AcDbEntity
  8
0
100
AcDbBlockBegin
  2
*Paper_Space
 70
0
 10
0.0
 20
0.0
 30
0.0
  3
*Paper_Space
  1

  0
ENDBLK
  5
1D
100
AcDbEntity
  8
0
100
AcDbBlockEnd
  0
BLOCK
  5
206
100
AcDbEntity
  8
0
100
AcDbBlockBegin
  2
_FILLED
 70
64
 10
0.0
 20
0.0
  3
_FILLED
  1

  0
SOLID
  5
207
100
AcDbEntity
  8
0
  6
BYBLOCK
 62
0
100
AcDbTrace
 10
0.0
 20
0.0
 11
-1.0
 21
0.2
 12
-1.0
 22
-0.2
 13
-1.0
 23
-0.2
  0
ENDBLK
  5
208
100
AcDbEntity
  8
0
  6
BYBLOCK
 62
0
100
AcDbBlockEnd
  0
ENDSEC
  0
SECTION
  2
ENTITIES
  0
LINE
  5
209
100
AcDbEntity
  8
0
100
AcDbLine
 62
7
  6
CONTINUOUS
 10
9.0066923427
 20
8.5001695021
 11
9.0066923427
 21
8.6001695021
  0
LINE
  5
20A
100
AcDbEntity
  8
0
100
AcDbLine
 62
7
  6
CONTINUOUS
 10
9.5191923427
 20
9.2501695021
 11
9.5191923427
 21
9.3001695021
  0
LINE
  5
20B
100
AcDbEntity
  8
0
100
AcDbLine
 62
7
  6
CONTINUOUS
 10
9.5566923427
 20
10.4201695021
 11
9.5566923427
 21
9.9201695021
  0
LINE
  5
20C
100
AcDbEntity
  8
0
100
AcDbLine
 62
7
  6
CONTINUOUS
 10
9.6191923427
 20
9.3001695021
 11
9.6191923427
 21
9.4001695021
  0
LINE
  5
20D
100
AcDbEntity
  8
0
100
AcDbLine
 62
7
  6
CONTINUOUS
 10
9.7366923427
 20
10.4757697164
 11
9.7366923427
 21
10.4767917293
  0
LINE
  5
20E
100
AcDbEntity
  8
0
100
AcDbLine
 62
9
  6
CONTINUOUS
 10
9.7418687184
 20
10.4776673878
 11
9.7418687184
 21
10.4766460594
  0
LINE
  5
20F
100
AcDbEntity
  8
0
100
AcDbLine
 62
7
  6
CONTINUOUS
 10
9.7441923427
 20
9.8119163267
 11
9.7441923427
 21
9.4201695021
  0
LINE
  5
210
100
AcDbEntity
  8
0
100
AcDbLine
 62
9
  6
CONTINUOUS
 10
9.7742949846
 20
10.4834272668
 11
9.7742949846
 21
10.4824097069
  0
LINE
  5
211
100
AcDbEntity
  8
0
100
AcDbLine
 62
7
  6
CONTINUOUS
 10
8.7941923427
 20
8.0251695021
 11
11.3191923427
 21
8.0251695021
  0
LINE
  5
212
100
AcDbEntity
  8
0
100
AcDbLine
 62
7
  6
CONTINUOUS
 10
9.8466923427
 20
10.4950702265
 11
9.8466923427
 21
10.4942885591
  0
LINE
  5
213
100
AcDbEntity
  8
0
100
AcDbLine
 62
7
  6
CONTINUOUS
 10
9.8566923427
 20
9.4001695021
 11
9.8566923427
 21
9.4201695021
  0
LINE
  5
214
100
AcDbEntity
  8
0
100
AcDbLine
 62
7
  6
CONTINUOUS
 10
9.8611923427
 20
10.4974885586
 11
9.8611923427
 21
10.4964803081
  0
LINE
  5
215
100
AcDbEntity
  8
0
100
AcDbLine
 62
7
  6
CONTINUOUS
 10
9.8941923427
 20
10.500318764
 11
9.8941923427
 21
10.5013245044
  0
LINE
  5
216
100
AcDbEntity
  8
0
100
AcDbLine
 62
7
  6
CONTINUOUS
 10
9.9066923427
 20
10.5013092988
 11
9.9066923427
 21
10.5021095676
  0
LINE
  5
217
100
AcDbEntity
  8
0
100
AcDbLine
 62
7
  6
CONTINUOUS
 10
9.9216923427
 20
10.5034945844
 11
9.9216923427
 21
10.5026950339
  0
LINE
  5
218
100
AcDbEntity
  8
0
100
AcDbLine
 62
7
  6
CONTINUOUS
 10
9.9341923427
 20
10.5050170004
 11
9.9341923427
 21
10.5040136644
  0
LINE
  5
219
100
AcDbEntity
  8
0
100
AcDbLine
 62
7
  6
CONTINUOUS
 10
8.7941923427
 20
8.1251695021
 11
11.3191923427
 21
8.1251695021
  0
LINE
  5
21A
100
AcDbEntity
  8
0
100
AcDbLine
 62
7
  6
CONTINUOUS
 10
9.9671923427
 20
10.5062767962
 11
9.9671923427
 21
10.5072786652
  0
LINE
  5
21B
100
AcDbEntity
  8
0
100
AcDbLine
 62
7
  6
CONTINUOUS
 10
9.9816923427
 20
10.5067720861
 11
9.9816923427
 21
10.50754745
  0
LINE
  5
21C
100
AcDbEntity
  8
0
100
AcDbLine
 62
7
  6
CONTINUOUS
 10
9.9866923427
 20
10.5077815982
 11
9.9866923427
 21
10.5070063516
  0
LINE
  5
21D
100
AcDbEntity
  8
0
100
AcDbLine
 62
9
  6
CONTINUOUS
 10
10.0082063115
 20
10.5091423739
 11
10.0082063115
 21
10.5081417107
  0
LINE
  5
21E
100
AcDbEntity
  8
0
100
AcDbLine
 62
7
  6
CONTINUOUS
 10
10.0224782954
 20
10.5083697041
 11
10.0224782954
 21
10.5093702202
  0
LINE
  5
21F
100
AcDbEntity
  8
0
100
AcDbLine
 62
7
  6
CONTINUOUS
 10
10.0316923427
 20
10.5083869896
 11
10.0316923427
 21
10.5091615456
  0
LINE
  5
220
100
AcDbEntity
  8
0
100
AcDbLine
 62
7
  6
CONTINUOUS
 10
10.0707296762
 20
10.509299619
 11
10.0707296762
 21
10.5085251321
  0
LINE
  5
221
100
AcDbEntity
  8
0
100
AcDbLine
 62
7
  6
CONTINUOUS
 10
10.0799437235
 20
10.5085730565
 11
10.0799437235
 21
10.5095734413
  0
LINE
  5
222
100
AcDbEntity
  8
0
100
AcDbLine
 62
9
  6
CONTINUOUS
 10
10.110178374
 20
10.5079770867
 11
10.110178374
 21
10.5089778562
  0
LINE
  5
223
100
AcDbEntity
  8
0
100
AcDbLine
 62
9
  6
CONTINUOUS
 10
8.9212032343
 20
8.3557112195
 11
11.1921814512
 21
8.3557112195
  0
LINE
  5
224
100
AcDbEntity
  8
0
100
AcDbLine
 62
7
  6
CONTINUOUS
 10
10.1316923427
 20
10.5067720861
 11
10.1316923427
 21
10.50754745
  0
LINE
  5
225
100
AcDbEntity
  8
0
100
AcDbLine
 62
7
  6
CONTINUOUS
 10
10.1676923427
 20
10.5051162428
 11
10.1676923427
 21
10.5061188635
  0
LINE
  5
226
100
AcDbEntity
  8
0
100
AcDbLine
 62
7
  6
CONTINUOUS
 10
10.2276923427
 20
10.5006391614
 11
10.2276923427
 21
10.4996329734
  0
LINE
  5
227
100
AcDbEntity
  8
0
100
AcDbLine
 62
7
  6
CONTINUOUS
 10
10.2566923427
 20
9.4001695021
 11
10.2566923427
 21
9.4201695021
  0
LINE
  5
228
100
AcDbEntity
  8
0
100
AcDbLine
 62
7
  6
CONTINUOUS
 10
10.2666923427
 20
10.4950702265
 11
10.2666923427
 21
10.4942885591
  0
LINE
  5
229
100
AcDbEntity
  8
0
100
AcDbLine
 62
7
  6
CONTINUOUS
 10
10.2746923427
 20
10.4943298183
 11
10.2746923427
 21
10.4933194914
  0
LINE
  5
22A
100
AcDbEntity
  8
0
100
AcDbLine
 62
7
  6
CONTINUOUS
 10
10.5566923427
 20
9.9201695021
 11
10.3691923427
 21
9.8119163267
  0
LINE
  5
22B
100
AcDbEntity
  8
0
100
AcDbLine
 62
7
  6
CONTINUOUS
 10
11.1816923427
 20
8.5001695021
 11
8.9316923427
 21
8.5001695021
  0
LINE
  5
22C
100
AcDbEntity
  8
0
100
AcDbLine
 62
7
  6
CONTINUOUS
 10
11.1066923427
 20
8.6001695021
 11
9.0066923427
 21
8.6001695021
  0
LINE
  5
22D
100
AcDbEntity
  8
0
100
AcDbLine
 62
7
  6
CONTINUOUS
 10
10.3116923427
 20
10.4873827142
 11
10.3116923427
 21
10.4890590628
  0
LINE
  5
22E
100
AcDbEntity
  8
0
100
AcDbLine
 62
9
  6
CONTINUOUS
 10
10.3166923427
 20
10.4873991879
 11
10.3166923427
 21
10.486384275
  0
LINE
  5
22F
100
AcDbEntity
  8
0
100
AcDbLine
 62
7
  6
CONTINUOUS
 10
10.3691923427
 20
9.8119163267
 11
10.3691923427
 21
9.4201695021
  0
LINE
  5
230
100
AcDbEntity
  8
0
100
AcDbLine
 62
9
  6
CONTINUOUS
 10
10.3746890531
 20
10.4770466323
 11
10.3746890531
 21
10.4760247911
  0
LINE
  5
231
100
AcDbEntity
  8
0
100
AcDbLine
 62
7
  6
CONTINUOUS
 10
10.3786956324
 20
10.4753440659
 11
10.3786956324
 21
10.4763663656
  0
LINE
  5
232
100
AcDbEntity
  8
0
100
AcDbLine
 62
7
  6
CONTINUOUS
 10
10.4941923427
 20
9.3001695021
 11
10.4941923427
 21
9.4001695021
  0
LINE
  5
233
100
AcDbEntity
  8
0
100
AcDbLine
 62
7
  6
CONTINUOUS
 10
10.5566923427
 20
10.4201695021
 11
10.5566923427
 21
10.3516695021
  0
LINE
  5
234
100
AcDbEntity
  8
0
100
AcDbLine
 62
7
  6
CONTINUOUS
 10
10.5566923427
 20
9.9886695021
 11
10.5566923427
 21
9.9201695021
  0
LINE
  5
235
100
AcDbEntity
  8
0
100
AcDbLine
 62
7
  6
CONTINUOUS
 10
10.5941923427
 20
9.2501695021
 11
10.5941923427
 21
9.3001695021
  0
LINE
  5
236
100
AcDbEntity
  8
0
100
AcDbLine
 62
7
  6
CONTINUOUS
 10
10.6941923427
 20
9.2501695021
 11
9.4191923427
 21
9.2501695021
  0
LINE
  5
237
100
AcDbEntity
  8
0
100
AcDbLine
 62
7
  6
CONTINUOUS
 10
9.5566923427
 20
9.9201695021
 11
9.7441923427
 21
9.8119163267
  0
LINE
  5
238
100
AcDbEntity
  8
0
100
AcDbLine
 62
7
  6
CONTINUOUS
 10
11.1066923427
 20
8.5001695021
 11
11.1066923427
 21
8.6001695021
  0
LINE
  5
239
100
AcDbEntity
  8
0
100
AcDbLine
 62
7
  6
CONTINUOUS
 10
10.5941923427
 20
9.3001695021
 11
9.5191923427
 21
9.3001695021
  0
LINE
  5
23A
100
AcDbEntity
  8
0
100
AcDbLine
 62
7
  6
CONTINUOUS
 10
10.4941923427
 20
9.4001695021
 11
9.6191923427
 21
9.4001695021
  0
LINE
  5
23B
100
AcDbEntity
  8
0
100
AcDbLine
 62
7
  6
CONTINUOUS
 10
9.7441923427
 20
9.4201695021
 11
10.3691923427
 21
9.4201695021
  0
LINE
  5
23C
100
AcDbEntity
  8
0
100
AcDbLine
 62
7
  6
CONTINUOUS
 10
10.3691923427
 20
9.8119163267
 11
9.7441923427
 21
9.8119163267
  0
LINE
  5
23D
100
AcDbEntity
  8
0
100
AcDbLine
 62
7
  6
CONTINUOUS
 10
9.5566923427
 20
9.9201695021
 11
10.5566923427
 21
9.9201695021
  0
LINE
  5
23E
100
AcDbEntity
  8
0
100
AcDbLine
 62
7
  6
CONTINUOUS
 10
10.5543881089
 20
9.9951695021
 11
10.6566923446
 21
9.9951695021
  0
LINE
  5
23F
100
AcDbEntity
  8
0
100
AcDbLine
 62
7
  6
CONTINUOUS
 10
10.6566923445
 20
10.0464258216
 11
12.8186923427
 21
10.0259004403
  0
LINE
  5
240
100
AcDbEntity
  8
0
100
AcDbLine
 62
7
  6
CONTINUOUS
 10
10.6566923446
 20
9.995169502
 11
12.8971464875
 21
9.867677854
  0
LINE
  5
241
100
AcDbEntity
  8
0
100
AcDbLine
 62
7
  6
CONTINUOUS
 10
12.8186923427
 20
9.8929643655
 11
10.6566923445
 21
10.0464258216
  0
LINE
  5
242
100
AcDbEntity
  8
0
100
AcDbLine
 62
7
  6
CONTINUOUS
 10
10.6566923445
 20
10.1701695141
 11
12.8186923427
 21
10.2641695021
  0
LINE
  5
243
100
AcDbEntity
  8
0
100
AcDbLine
 62
7
  6
CONTINUOUS
 10
12.8186923427
 20
10.314438564
 11
10.6566923445
 21
10.2939131981
  0
LINE
  5
244
100
AcDbEntity
  8
0
100
AcDbLine
 62
7
  6
CONTINUOUS
 10
12.8186923427
 20
10.0761695021
 11
10.6566923445
 21
10.1701695141
  0
LINE
  5
245
100
AcDbEntity
  8
0
100
AcDbLine
 62
7
  6
CONTINUOUS
 10
10.6566923445
 20
10.2939131981
 11
12.8186923427
 21
10.4473746388
  0
LINE
  5
246
100
AcDbEntity
  8
0
100
AcDbLine
 62
7
  6
CONTINUOUS
 10
10.6566923446
 20
10.3451695022
 11
12.8971464875
 21
10.4726611503
  0
LINE
  5
247
100
AcDbEntity
  8
0
100
AcDbLine
 62
7
  6
CONTINUOUS
 10
10.5543886548
 20
10.3451695021
 11
10.6566923446
 21
10.3451695021
  0
LINE
  5
248
100
AcDbEntity
  8
0
100
AcDbLine
 62
7
  6
CONTINUOUS
 10
10.5566923427
 20
10.4201695021
 11
9.5566923427
 21
10.4201695021
  0
LINE
  5
249
100
AcDbEntity
  8
0
100
AcDbLine
 62
9
  6
CONTINUOUS
 10
10.4518369993
 20
10.4589787954
 11
9.6615476862
 21
10.4589787954
  0
LINE
  5
24A
100
AcDbEntity
  8
0
100
AcDbLine
 62
7
  6
CONTINUOUS
 10
10.1676923427
 20
10.5061916011
 11
10.2276923427
 21
10.5007121576
  0
LINE
  5
24B
100
AcDbEntity
  8
0
100
AcDbLine
 62
7
  6
CONTINUOUS
 10
10.2746923427
 20
10.4937592942
 11
10.3116923427
 21
10.488045252
  0
LINE
  5
24C
100
AcDbEntity
  8
0
100
AcDbLine
 62
7
  6
CONTINUOUS
 10
12.81870161
 20
10.4681976944
 11
12.81870161
 21
10.447373212
  0
LINE
  5
24D
100
AcDbEntity
  8
0
100
AcDbLine
 62
7
  6
CONTINUOUS
 10
12.81870161
 20
10.3144413158
 11
12.81870161
 21
10.2641665548
  0
LINE
  5
24E
100
AcDbEntity
  8
0
100
AcDbLine
 62
7
  6
CONTINUOUS
 10
12.81870161
 20
10.0761724608
 11
12.81870161
 21
10.025897699
  0
LINE
  5
24F
100
AcDbEntity
  8
0
100
AcDbLine
 62
7
  6
CONTINUOUS
 10
12.81870161
 20
9.8929657978
 11
12.81870161
 21
9.8721413099
  0
ARC
  5
250
100
AcDbEntity
  8
0
100
AcDbCircle
 62
7
  6
CONTINUOUS
 10
7.9316923427
 20
8.5001695021
 40
1.0
100
AcDbArc
 50
351.6940891949
 51
360.0
  0
ARC
  5
251
100
AcDbEntity
  8
0
100
AcDbCircle
 62
7
  6
CONTINUOUS
 10
8.7008211306
 20
9.2501695021
 40
0.7183712121
100
AcDbArc
 50
295.2003196521
 51
360.0
  0
ARC
  5
252
100
AcDbEntity
  8
0
100
AcDbCircle
 62
7
  6
CONTINUOUS
 10
8.55013665
 20
8.4098830755
 40
0.375
100
AcDbArc
 50
310.6030912348
 51
351.6940891949
  0
ARC
  5
253
100
AcDbEntity
  8
0
100
AcDbCircle
 62
7
  6
CONTINUOUS
 10
8.7941923427
 20
8.0751695021
 40
0.05
100
AcDbArc
 50
90.0
 51
270.0
  0
ARC
  5
254
100
AcDbEntity
  8
0
100
AcDbCircle
 62
7
  6
CONTINUOUS
 10
8.6199736011
 20
16.8419093366
 40
6.4624107026
100
AcDbArc
 50
280.1664256907
 51
280.2894393382
  0
ARC
  5
255
100
AcDbEntity
  8
0
100
AcDbCircle
 62
7
  6
CONTINUOUS
 10
9.1235090399
 20
14.0342880045
 40
3.6099932233
100
AcDbArc
 50
279.984397022
 51
280.165442634
  0
ARC
  5
256
100
AcDbEntity
  8
0
100
AcDbCircle
 62
7
  6
CONTINUOUS
 10
10.0068947716
 20
9.2412411221
 40
1.2645604287
100
AcDbArc
 50
97.5065886531
 51
98.1253593269
  0
ARC
  5
257
100
AcDbEntity
  8
0
100
AcDbCircle
 62
7
  6
CONTINUOUS
 10
9.9843031612
 20
9.6675703011
 40
0.8389055983
100
AcDbArc
 50
95.8229380435
 51
95.995255084
  0
ARC
  5
258
100
AcDbEntity
  8
0
100
AcDbCircle
 62
7
  6
CONTINUOUS
 10
9.6691923427
 20
10.4299691552
 40
0.03
100
AcDbArc
 50
104.7630312683
 51
199.0658789538
  0
ARC
  5
259
100
AcDbEntity
  8
0
100
AcDbCircle
 62
7
  6
CONTINUOUS
 10
10.3631866216
 20
7.542734627
 40
2.9979351192
100
AcDbArc
 50
100.0176276395
 51
100.2144858785
  0
ARC
  5
25A
100
AcDbEntity
  8
0
100
AcDbCircle
 62
7
  6
CONTINUOUS
 10
10.0566923427
 20
8.9594994867
 40
1.5506700155
100
AcDbArc
 50
78.1581797411
 51
80.5350024872
  0
ARC
  5
25B
100
AcDbEntity
  8
0
100
AcDbCircle
 62
7
  6
CONTINUOUS
 10
10.0566923427
 20
8.9594994867
 40
1.5506700155
100
AcDbArc
 50
92.5885391142
 51
93.3087785184
  0
ARC
  5
25C
100
AcDbEntity
  8
0
100
AcDbCircle
 62
7
  6
CONTINUOUS
 10
10.0566923427
 20
8.9594994867
 40
1.5506700155
100
AcDbArc
 50
97.2428130036
 51
97.9708954844
  0
ARC
  5
25D
100
AcDbEntity
  8
0
100
AcDbCircle
 62
7
  6
CONTINUOUS
 10
10.0566923427
 20
8.9594994867
 40
1.5506700155
100
AcDbArc
 50
103.2342699908
 51
104.7630312681
  0
ARC
  5
25E
100
AcDbEntity
  8
0
100
AcDbCircle
 62
7
  6
CONTINUOUS
 10
10.0566923427
 20
8.9594994867
 40
1.5506700155
100
AcDbArc
 50
75.2369687319
 51
76.9554333656
  0
ARC
  5
25F
100
AcDbEntity
  8
0
100
AcDbCircle
 62
7
  6
CONTINUOUS
 10
10.0566923427
 20
8.9594994867
 40
1.5506700155
100
AcDbArc
 50
87.0057644753
 51
87.9431238683
  0
ARC
  5
260
100
AcDbEntity
  8
0
100
AcDbCircle
 62
7
  6
CONTINUOUS
 10
10.0566923427
 20
8.9594994867
 40
1.5506700155
100
AcDbArc
 50
81.9183361545
 51
82.924764186
  0
ARC
  5
261
100
AcDbEntity
  8
0
100
AcDbCircle
 62
7
  6
CONTINUOUS
 10
10.0566923427
 20
8.9594994867
 40
1.5506671135
100
AcDbArc
 50
94.7163367288
 51
95.8295384817
  0
ARC
  5
262
100
AcDbEntity
  8
0
100
AcDbCircle
 62
7
  6
CONTINUOUS
 10
10.0566923427
 20
8.9594994867
 40
1.5506619544
100
AcDbArc
 50
89.5243678793
 51
90.8807235312
  0
ARC
  5
263
100
AcDbEntity
  8
0
100
AcDbCircle
 62
7
  6
CONTINUOUS
 10
10.0566923427
 20
8.9594994867
 40
1.5504684766
100
AcDbArc
 50
89.4811438304
 51
91.1498779633
  0
ARC
  5
264
100
AcDbEntity
  8
0
100
AcDbCircle
 62
7
  6
CONTINUOUS
 10
10.0566923427
 20
8.9594994867
 40
1.5498637027
100
AcDbArc
 50
79.5917336892
 51
80.3425863685
  0
ARC
  5
265
100
AcDbEntity
  8
0
100
AcDbCircle
 62
7
  6
CONTINUOUS
 10
10.0566923427
 20
8.9594994867
 40
1.5496700155
100
AcDbArc
 50
93.3109160478
 51
94.123356094
  0
ARC
  5
266
100
AcDbEntity
  8
0
100
AcDbCircle
 62
7
  6
CONTINUOUS
 10
10.0566923427
 20
8.9594994867
 40
1.5496700155
100
AcDbArc
 50
96.4335007683
 51
97.2475118611
  0
ARC
  5
267
100
AcDbEntity
  8
0
100
AcDbCircle
 62
7
  6
CONTINUOUS
 10
10.0566923427
 20
8.9594994867
 40
1.5496700155
100
AcDbArc
 50
91.2654506348
 51
91.4042939308
  0
ARC
  5
268
100
AcDbEntity
  8
0
100
AcDbCircle
 62
7
  6
CONTINUOUS
 10
10.0566923427
 20
8.9594994867
 40
1.5496700155
100
AcDbArc
 50
88.4107784409
 51
89.140025113
  0
ARC
  5
269
100
AcDbEntity
  8
0
100
AcDbCircle
 62
7
  6
CONTINUOUS
 10
10.0566923427
 20
8.9594994867
 40
1.5490892475
100
AcDbArc
 50
95.5567194915
 51
97.7912071013
  0
ARC
  5
26A
100
AcDbEntity
  8
0
100
AcDbCircle
 62
7
  6
CONTINUOUS
 10
10.0566923427
 20
8.9594994867
 40
1.5490892475
100
AcDbArc
 50
92.7750912715
 51
94.9995535744
  0
ARC
  5
26B
100
AcDbEntity
  8
0
100
AcDbCircle
 62
7
  6
CONTINUOUS
 10
10.0566923427
 20
8.9594994867
 40
1.5490892475
100
AcDbArc
 50
90.9247089383
 51
92.5899545588
  0
ARC
  5
26C
100
AcDbEntity
  8
0
100
AcDbCircle
 62
7
  6
CONTINUOUS
 10
10.0566923427
 20
8.9594994867
 40
1.5490892475
100
AcDbArc
 50
87.2249087285
 51
89.4807975274
  0
ARC
  5
26D
100
AcDbEntity
  8
0
100
AcDbCircle
 62
7
  6
CONTINUOUS
 10
10.0566923427
 20
8.9594994867
 40
1.5490892475
100
AcDbArc
 50
79.5864721087
 51
82.2087928987
  0
ARC
  5
26E
100
AcDbEntity
  8
0
100
AcDbCircle
 62
7
  6
CONTINUOUS
 10
10.0696273199
 20
10.8493124142
 40
0.3400145875
100
AcDbArc
 50
270.1857581228
 51
271.0054761527
  0
ARC
  5
26F
100
AcDbEntity
  8
0
100
AcDbCircle
 62
7
  6
CONTINUOUS
 10
10.0947032919
 20
10.3270533121
 40
0.1825918338
100
AcDbArc
 50
93.719272671
 51
94.648522562
  0
ARC
  5
270
100
AcDbEntity
  8
0
100
AcDbCircle
 62
7
  6
CONTINUOUS
 10
10.0232163247
 20
10.3262833547
 40
0.1824767441
100
AcDbArc
 50
93.615714369
 51
94.7183174759
  0
ARC
  5
271
100
AcDbEntity
  8
0
100
AcDbCircle
 62
7
  6
CONTINUOUS
 10
10.0946081005
 20
10.3273746333
 40
0.1822694818
100
AcDbArc
 50
85.0995661461
 51
88.4085233602
  0
ARC
  5
272
100
AcDbEntity
  8
0
100
AcDbCircle
 62
7
  6
CONTINUOUS
 10
10.0231906822
 20
10.3275304775
 40
0.1822290106
100
AcDbArc
 50
92.5087628817
 51
94.7166565432
  0
ARC
  5
273
100
AcDbEntity
  8
0
100
AcDbCircle
 62
7
  6
CONTINUOUS
 10
10.0946076776
 20
10.3264840441
 40
0.1821597406
100
AcDbArc
 50
85.0964731646
 51
88.4074312597
  0
ARC
  5
274
100
AcDbEntity
  8
0
100
AcDbCircle
 62
7
  6
CONTINUOUS
 10
10.0946558693
 20
10.3278004287
 40
0.1818432146
100
AcDbArc
 50
91.0408815276
 51
93.7196322587
  0
ARC
  5
275
100
AcDbEntity
  8
0
100
AcDbCircle
 62
7
  6
CONTINUOUS
 10
10.0231713968
 20
10.3270175664
 40
0.1817411606
100
AcDbArc
 50
91.4052468738
 51
93.6161759078
  0
ARC
  5
276
100
AcDbEntity
  8
0
100
AcDbCircle
 62
7
  6
CONTINUOUS
 10
10.0231634328
 20
10.3281235426
 40
0.1816353212
100
AcDbArc
 50
91.4035529408
 51
92.5083643224
  0
ARC
  5
277
100
AcDbEntity
  8
0
100
AcDbCircle
 62
7
  6
CONTINUOUS
 10
10.0946429319
 20
10.3282351929
 40
0.1814082871
100
AcDbArc
 50
88.4119715751
 51
91.0392905097
  0
ARC
  5
278
100
AcDbEntity
  8
0
100
AcDbCircle
 62
7
  6
CONTINUOUS
 10
10.0231573319
 20
10.3283577101
 40
0.1814010745
100
AcDbArc
 50
90.2149608372
 51
91.4034381868
  0
ARC
  5
279
100
AcDbEntity
  8
0
100
AcDbCircle
 62
7
  6
CONTINUOUS
 10
10.2706607833
 20
12.8436413884
 40
2.3402237161
100
AcDbArc
 50
266.3690576081
 51
266.595627984
  0
ARC
  5
27A
100
AcDbEntity
  8
0
100
AcDbCircle
 62
7
  6
CONTINUOUS
 10
9.8654714189
 20
12.6688889105
 40
2.1645044105
100
AcDbArc
 50
273.2104730764
 51
273.4550957533
  0
ARC
  5
27B
100
AcDbEntity
  8
0
100
AcDbCircle
 62
7
  6
CONTINUOUS
 10
12.0911301242
 20
-2.2534797601
 40
12.9459077254
100
AcDbArc
 50
100.0671235254
 51
100.3093483122
  0
ARC
  5
27C
100
AcDbEntity
  8
0
100
AcDbCircle
 62
7
  6
CONTINUOUS
 10
11.9383067245
 20
-1.1200406661
 40
11.8027516288
100
AcDbArc
 50
100.3511269155
 51
100.5400054722
  0
ARC
  5
27D
100
AcDbEntity
  8
0
100
AcDbCircle
 62
7
  6
CONTINUOUS
 10
11.0002840352
 20
4.0088797727
 40
6.5887599822
100
AcDbArc
 50
100.2173455744
 51
100.3407653171
  0
ARC
  5
27E
100
AcDbEntity
  8
0
100
AcDbCircle
 62
7
  6
CONTINUOUS
 10
10.679411769
 20
16.0271986069
 40
5.5459902273
100
AcDbArc
 50
264.7460384541
 51
265.2473415555
  0
ARC
  5
27F
100
AcDbEntity
  8
0
100
AcDbCircle
 62
7
  6
CONTINUOUS
 10
10.4663690192
 20
13.4759652414
 40
2.9858774769
100
AcDbArc
 50
265.2651720474
 51
265.5013232368
  0
ARC
  5
280
100
AcDbEntity
  8
0
100
AcDbCircle
 62
7
  6
CONTINUOUS
 10
12.1816923427
 20
8.5001695021
 40
1.0
100
AcDbArc
 50
180.0
 51
188.3059108051
  0
ARC
  5
281
100
AcDbEntity
  8
0
100
AcDbCircle
 62
7
  6
CONTINUOUS
 10
11.4125635549
 20
9.2501695021
 40
0.7183712121
100
AcDbArc
 50
180.0
 51
244.7996803479
  0
ARC
  5
282
100
AcDbEntity
  8
0
100
AcDbCircle
 62
7
  6
CONTINUOUS
 10
11.5632480355
 20
8.4098830755
 40
0.375
100
AcDbArc
 50
188.3059108051
 51
229.3969087652
  0
ARC
  5
283
100
AcDbEntity
  8
0
100
AcDbCircle
 62
7
  6
CONTINUOUS
 10
12.8186923427
 20
10.1701695021
 40
0.3125
100
AcDbArc
 50
284.539847615
 51
75.460152385
  0
ARC
  5
284
100
AcDbEntity
  8
0
100
AcDbCircle
 62
7
  6
CONTINUOUS
 10
12.8015965017
 20
10.1701695454
 40
0.095559041
100
AcDbArc
 50
280.3077517761
 51
79.6922389472
  0
ARC
  5
285
100
AcDbEntity
  8
0
100
AcDbCircle
 62
7
  6
CONTINUOUS
 10
11.3191923427
 20
8.0751695021
 40
0.05
100
AcDbArc
 50
270.0
 51
90.0
  0
ARC
  5
286
100
AcDbEntity
  8
0
100
AcDbCircle
 62
7
  6
CONTINUOUS
 10
10.4441923427
 20
10.4299691552
 40
0.03
100
AcDbArc
 50
340.9341210462
 51
75.2369687317
  0
LINE
  5
287
100
AcDbEntity
  8
0
100
AcDbLine
 62
7
  6
CONTINUOUS
 10
9.7016923459
 20
10.4689869715
 11
9.7043043549
 21
10.4694783146
  0
LINE
  5
288
100
AcDbEntity
  8
0
100
AcDbLine
 62
7
  6
CONTINUOUS
 10
9.7043043549
 20
10.4694783146
 11
9.7120528217
 21
10.4709394621
  0
LINE
  5
289
100
AcDbEntity
  8
0
100
AcDbLine
 62
7
  6
CONTINUOUS
 10
9.7120528217
 20
10.4709394621
 11
9.724388981
 21
10.4732643498
  0
LINE
  5
28A
100
AcDbEntity
  8
0
100
AcDbLine
 62
7
  6
CONTINUOUS
 10
9.724388981
 20
10.4732643498
 11
9.7404783267
 21
10.4762922008
  0
LINE
  5
28B
100
AcDbEntity
  8
0
100
AcDbLine
 62
7
  6
CONTINUOUS
 10
9.7404783267
 20
10.4762922008
 11
9.741981614
 21
10.4765748309
  0
LINE
  5
28C
100
AcDbEntity
  8
0
100
AcDbLine
 62
7
  6
CONTINUOUS
 10
9.741981614
 20
10.4765748309
 11
9.7592821864
 21
10.4798240587
  0
SPLINE
  5
28D
100
AcDbEntity
  8
0
100
AcDbSpline
 62
7
  6
CONTINUOUS
 70
0
 71
3
 72
23
 73
19
 74
0
 42
0.0000001
 43
0.0000001
 44
0.0000000001
 40
0.0
 40
0.0
 40
0.0
 40
0.0
 40
0.0398898889
 40
0.1502374189
 40
0.2257568802
 40
0.3112492432
 40
0.3568358051
 40
0.4037821217
 40
0.4516504163
 40
0.4999967391
 40
0.5483409673
 40
0.5962039216
 40
0.6887051552
 40
0.7325184681
 40
0.7741999859
 40
0.8497243838
 40
0.9600999595
 40
1.0
 40
1.0
 40
1.0
 40
1.0
 10
10.5566923427
 20
10.3516695021
 30
0.0
 10
10.5550077649
 20
10.3470305599
 30
0.0
 10
10.5488496711
 20
10.3294872878
 30
0.0
 10
10.5407190015
 20
10.3027365681
 30
0.0
 10
10.5328921577
 20
10.2700706221
 30
0.0
 10
10.5283333205
 20
10.2448969274
 30
0.0
 10
10.5254783804
 20
10.2230499686
 30
0.0
 10
10.5238367268
 20
10.2057504494
 30
0.0
 10
10.5228151624
 20
10.1880607778
 30
0.0
 10
10.5224775791
 20
10.1701718252
 30
0.0
 10
10.5228148618
 20
10.1522832142
 30
0.0
 10
10.5241611115
 20
10.1289666714
 30
0.0
 10
10.5267173059
 20
10.1062972172
 30
0.0
 10
10.5303055357
 20
10.0845633671
 30
0.0
 10
10.5341507185
 20
10.0650103231
 30
0.0
 10
10.5407170698
 20
10.0376130147
 30
0.0
 10
10.5488472156
 20
10.0108571971
 30
0.0
 10
10.5550070746
 20
9.9933095965
 30
0.0
 10
10.5566923427
 20
9.9886695021
 30
0.0
  0
LINE
  5
28E
100
AcDbEntity
  8
0
100
AcDbLine
 62
7
  6
CONTINUOUS
 10
10.0689720715
 20
10.5101210906
 11
10.0695647771
 21
10.5101080115
  0
LINE
  5
28F
100
AcDbEntity
  8
0
100
AcDbLine
 62
7
  6
CONTINUOUS
 10
10.0328572418
 20
10.5099782466
 11
10.0340732849
 21
10.5099977603
  0
LINE
  5
290
100
AcDbEntity
  8
0
100
AcDbLine
 62
7
  6
CONTINUOUS
 10
10.3366923427
 20
10.483073409
 11
10.374793593
 21
10.4760550521
  0
LINE
  5
291
100
AcDbEntity
  8
0
100
AcDbLine
 62
7
  6
CONTINUOUS
 10
10.374793593
 20
10.4760550521
 11
10.37812208
 21
10.4754403945
  0
LINE
  5
292
100
AcDbEntity
  8
0
100
AcDbLine
 62
7
  6
CONTINUOUS
 10
10.37812208
 20
10.4754403945
 11
10.3787659625
 21
10.4753214624
  0
LINE
  5
293
100
AcDbEntity
  8
0
100
AcDbLine
 62
7
  6
CONTINUOUS
 10
10.3787659625
 20
10.4753214624
 11
10.3935424574
 21
10.4725895165
  0
LINE
  5
294
100
AcDbEntity
  8
0
100
AcDbLine
 62
7
  6
CONTINUOUS
 10
10.3935424574
 20
10.4725895165
 11
10.4066923427
 21
10.4701541451
  0
LINE
  5
295
100
AcDbEntity
  8
0
100
AcDbLine
 62
7
  6
CONTINUOUS
 10
9.7592821864
 20
10.4798240587
 11
9.7744497554
 21
10.4826605776
  0
LINE
  5
296
100
AcDbEntity
  8
0
100
AcDbLine
 62
7
  6
CONTINUOUS
 10
9.7744497554
 20
10.4826605776
 11
9.7793235982
 21
10.4835681635
  0
LINE
  5
297
100
AcDbEntity
  8
0
100
AcDbLine
 62
7
  6
CONTINUOUS
 10
10.0224782954
 20
10.5093702122
 11
10.022882564
 21
10.509455933
  0
LINE
  5
298
100
AcDbEntity
  8
0
100
AcDbLine
 62
7
  6
CONTINUOUS
 10
10.022882564
 20
10.509455933
 11
10.0233829061
 21
10.509501128
  0
LINE
  5
299
100
AcDbEntity
  8
0
100
AcDbLine
 62
7
  6
CONTINUOUS
 10
10.0790391128
 20
10.5096979359
 11
10.0798422404
 21
10.5096146153
  0
LINE
  5
29A
100
AcDbEntity
  8
0
100
AcDbLine
 62
7
  6
CONTINUOUS
 10
10.1376923427
 20
10.5079798698
 11
10.1404164023
 21
10.507574986
  0
LINE
  5
29B
100
AcDbEntity
  8
0
100
AcDbLine
 62
7
  6
CONTINUOUS
 10
10.1404164023
 20
10.507574986
 11
10.171562835
 21
10.5045093108
  0
SPLINE
  5
29C
100
AcDbEntity
  8
0
100
AcDbSpline
 62
7
  6
CONTINUOUS
 70
0
 71
3
 72
23
 73
19
 74
0
 42
0.0000001
 43
0.0000001
 44
0.0000000001
 40
0.0
 40
0.0
 40
0.0
 40
0.0
 40
0.2252870831
 40
0.4250020178
 40
0.5972456694
 40
0.6725219609
 40
0.7403537667
 40
0.8005918515
 40
0.8530872425
 40
0.8976918823
 40
0.9342928979
 40
0.9628368764
 40
0.9740738319
 40
0.9832812056
 40
0.9904563657
 40
0.9956012633
 40
0.9987343702
 40
1.0
 40
1.0
 40
1.0
 40
1.0
 10
10.2321685182
 20
10.4992868187
 30
0.0
 10
10.2333337783
 20
10.4991956054
 30
0.0
 10
10.2355321861
 20
10.4990255043
 30
0.0
 10
10.2386221077
 20
10.4987936682
 30
0.0
 10
10.2409364432
 20
10.4986269861
 30
0.0
 10
10.2425686927
 20
10.4985148638
 30
0.0
 10
10.2436213898
 20
10.4984453135
 30
0.0
 10
10.2445563531
 20
10.4983865795
 30
0.0
 10
10.2453712408
 20
10.4983387974
 30
0.0
 10
10.2460639644
 20
10.4983020589
 30
0.0
 10
10.2466327098
 20
10.498276429
 30
0.0
 10
10.247028979
 20
10.4982632545
 30
0.0
 10
10.2472828252
 20
10.4982590111
 30
0.0
 10
10.2474267272
 20
10.4982590325
 30
0.0
 10
10.2475368493
 20
10.4982611762
 30
0.0
 10
10.2476204387
 20
10.4982670062
 30
0.0
 10
10.2476631316
 20
10.4982723679
 30
0.0
 10
10.2476923427
 20
10.4982818913
 30
0.0
 10
10.2476923427
 20
10.4982884575
 30
0.0
  0
SPLINE
  5
29D
100
AcDbEntity
  8
0
100
AcDbSpline
 62
7
  6
CONTINUOUS
 70
0
 71
3
 72
15
 73
11
 74
0
 42
0.0000001
 43
0.0000001
 44
0.0000000001
 40
0.0
 40
0.0
 40
0.0
 40
0.0
 40
0.1385443566
 40
0.2758950377
 40
0.4105408877
 40
0.5411947638
 40
0.6666361681
 40
0.7856967076
 40
0.8972149118
 40
1.0
 40
1.0
 40
1.0
 40
1.0
 10
10.6566923445
 20
10.1701695141
 30
0.0
 10
10.6566923425
 20
10.1758842676
 30
0.0
 10
10.6567803604
 20
10.1872642797
 30
0.0
 10
10.6569158771
 20
10.2041982695
 30
0.0
 10
10.6567948163
 20
10.2208068292
 30
0.0
 10
10.6566664172
 20
10.2369241141
 30
0.0
 10
10.6567870192
 20
10.2523985186
 30
0.0
 10
10.6569160146
 20
10.2670836192
 30
0.0
 10
10.6567888367
 20
10.2808341402
 30
0.0
 10
10.6566923468
 20
10.2896734624
 30
0.0
 10
10.6566923445
 20
10.293913198
 30
0.0
  0
SPLINE
  5
29E
100
AcDbEntity
  8
0
100
AcDbSpline
 62
7
  6
CONTINUOUS
 70
0
 71
3
 72
34
 73
30
 74
0
 42
0.0000001
 43
0.0000001
 44
0.0000000001
 40
0.0
 40
0.0
 40
0.0
 40
0.0
 40
0.2248390917
 40
0.4245244931
 40
0.5141848973
 40
0.5967719146
 40
0.6721025098
 40
0.739991644
 40
0.8002777195
 40
0.8528399839
 40
0.8761848768
 40
0.8975496883
 40
0.9169177909
 40
0.9342741414
 40
0.9496085534
 40
0.9629191646
 40
0.9742038757
 40
0.9834582067
 40
0.9873219776
 40
0.9906753967
 40
0.9935172422
 40
0.9958461472
 40
0.9976606006
 40
0.9983743984
 40
0.9989589513
 40
0.9994140302
 40
0.9997393972
 40
0.9999348056
 40
1.0
 40
1.0
 40
1.0
 40
1.0
 10
10.6566923445
 20
10.293913198
 30
0.0
 10
10.6566923424
 20
10.2977554529
 30
0.0
 10
10.6567701484
 20
10.3050098281
 30
0.0
 10
10.6568935548
 20
10.3137961583
 30
0.0
 10
10.6568561378
 20
10.3201521713
 30
0.0
 10
10.6567948293
 20
10.3243825757
 30
0.0
 10
10.6567319573
 20
10.328240834
 30
0.0
 10
10.656697731
 20
10.3317184782
 30
0.0
 10
10.6567255546
 20
10.334807131
 30
0.0
 10
10.6567782915
 20
10.3371339521
 30
0.0
 10
10.6568215686
 20
10.3387956585
 30
0.0
 10
10.6568487466
 20
10.3398903432
 30
0.0
 10
10.6568680474
 20
10.3408828445
 30
0.0
 10
10.6568757342
 20
10.3417724768
 30
0.0
 10
10.6568674782
 20
10.3425586003
 30
0.0
 10
10.6568469024
 20
10.3432406889
 30
0.0
 10
10.6568182378
 20
10.3438184675
 30
0.0
 10
10.6567895477
 20
10.3442345248
 30
0.0
 10
10.6567658935
 20
10.3445150153
 30
0.0
 10
10.6567498048
 20
10.3446861568
 30
0.0
 10
10.6567347658
 20
10.3448310632
 30
0.0
 10
10.6567213639
 20
10.3449496411
 30
0.0
 10
10.6567111498
 20
10.3450321048
 30
0.0
 10
10.6567044012
 20
10.3450847317
 30
0.0
 10
10.6567000863
 20
10.3451146765
 30
0.0
 10
10.6566976082
 20
10.3451371273
 30
0.0
 10
10.6566934954
 20
10.345155103
 30
0.0
 10
10.6566950373
 20
10.3451624227
 30
0.0
 10
10.6566912305
 20
10.3451695013
 30
0.0
 10
10.6566923446
 20
10.3451695021
 30
0.0
  0
LINE
  5
29F
100
AcDbEntity
  8
0
100
AcDbLine
 62
7
  6
CONTINUOUS
 10
10.3166923427
 20
10.4873991879
 11
10.3116923427
 21
10.4883969642
  0
LINE
  5
2A0
100
AcDbEntity
  8
0
100
AcDbLine
 62
7
  6
CONTINUOUS
 10
9.856511403
 20
10.4955663065
 11
9.8611923427
 21
10.4964803081
  0
LINE
  5
2A1
100
AcDbEntity
  8
0
100
AcDbLine
 62
7
  6
CONTINUOUS
 10
9.8941923427
 20
10.500318631
 11
9.8988377327
 21
10.5004923526
  0
LINE
  5
2A2
100
AcDbEntity
  8
0
100
AcDbLine
 62
7
  6
CONTINUOUS
 10
9.9295377158
 20
10.5033284934
 11
9.9341923427
 21
10.5040136644
  0
LINE
  5
2A3
100
AcDbEntity
  8
0
100
AcDbLine
 62
7
  6
CONTINUOUS
 10
9.9671923427
 20
10.5062767848
 11
9.9718809837
 21
10.5062314514
  0
LINE
  5
2A4
100
AcDbEntity
  8
0
100
AcDbLine
 62
7
  6
CONTINUOUS
 10
10.3746890531
 20
10.4770466695
 11
10.3786565602
 21
10.4763767732
  0
LINE
  5
2A5
100
AcDbEntity
  8
0
100
AcDbLine
 62
7
  6
CONTINUOUS
 10
9.7494096112
 20
10.4789681106
 11
9.7418687184
 21
10.4776673892
  0
LINE
  5
2A6
100
AcDbEntity
  8
0
100
AcDbLine
 62
7
  6
CONTINUOUS
 10
9.7418687184
 20
10.4776673878
 11
9.7367048253
 21
10.4767949157
  0
LINE
  5
2A7
100
AcDbEntity
  8
0
100
AcDbLine
 62
7
  6
CONTINUOUS
 10
9.8611923427
 20
10.4974885586
 11
9.8601598923
 21
10.4972169648
  0
LINE
  5
2A8
100
AcDbEntity
  8
0
100
AcDbLine
 62
7
  6
CONTINUOUS
 10
9.8601598923
 20
10.4972169648
 11
9.8572087147
 21
10.496690533
  0
LINE
  5
2A9
100
AcDbEntity
  8
0
100
AcDbLine
 62
7
  6
CONTINUOUS
 10
9.8572087147
 20
10.496690533
 11
9.8466923427
 21
10.4950702265
  0
LINE
  5
2AA
100
AcDbEntity
  8
0
100
AcDbLine
 62
7
  6
CONTINUOUS
 10
10.2276923427
 20
10.5006391614
 11
10.2246124841
 21
10.5007919888
  0
SPLINE
  5
2AB
100
AcDbEntity
  8
0
100
AcDbSpline
 62
7
  6
CONTINUOUS
 70
0
 71
3
 72
27
 73
23
 74
0
 42
0.0000001
 43
0.0000001
 44
0.0000000001
 40
0.0
 40
0.0
 40
0.0
 40
0.0
 40
0.1016440603
 40
0.2438648149
 40
0.4110830917
 40
0.4984318855
 40
0.5850923448
 40
0.6687041737
 40
0.7469591245
 40
0.8176738448
 40
0.8789385389
 40
0.9054576292
 40
0.9289961401
 40
0.9493996855
 40
0.9665139837
 40
0.9801987359
 40
0.9857299366
 40
0.9903773538
 40
0.9941339204
 40
0.996992922
 40
0.99894866
 40
1.0
 40
1.0
 40
1.0
 40
1.0
 10
10.2246124841
 20
10.5007919888
 30
0.0
 10
10.2226806515
 20
10.5009304639
 30
0.0
 10
10.2180486237
 20
10.5013013349
 30
0.0
 10
10.210243697
 20
10.5019641026
 30
0.0
 10
10.2027126345
 20
10.5026325601
 30
0.0
 10
10.1962374359
 20
10.5032218878
 30
0.0
 10
10.1913494719
 20
10.5036745057
 30
0.0
 10
10.1866347666
 20
10.5041188162
 30
0.0
 10
10.1822233099
 20
10.5045425013
 30
0.0
 10
10.1782365497
 20
10.5049340297
 30
0.0
 10
10.1752316587
 20
10.5052370913
 30
0.0
 10
10.1731218014
 20
10.5054562208
 30
0.0
 10
10.1717867101
 20
10.5055981248
 30
0.0
 10
10.1706301981
 20
10.5057246301
 30
0.0
 10
10.1696607967
 20
10.5058348225
 30
0.0
 10
10.1689734318
 20
10.5059171644
 30
0.0
 10
10.1685224299
 20
10.5059749882
 30
0.0
 10
10.1682592539
 20
10.5060105576
 30
0.0
 10
10.1680470115
 20
10.5060417423
 30
0.0
 10
10.1678854755
 20
10.5060674295
 30
0.0
 10
10.167776335
 20
10.5060894974
 30
0.0
 10
10.1677198009
 20
10.5061022008
 30
0.0
 10
10.1677017118
 20
10.5061108091
 30
0.0
  0
LINE
  5
2AC
100
AcDbEntity
  8
0
100
AcDbLine
 62
7
  6
CONTINUOUS
 10
10.0788005662
 20
10.5084450674
 11
10.0794176717
 21
10.5084841245
  0
LINE
  5
2AD
100
AcDbEntity
  8
0
100
AcDbLine
 62
7
  6
CONTINUOUS
 10
10.0794176717
 20
10.5084841245
 11
10.0799437235
 21
10.5085730519
  0
LINE
  5
2AE
100
AcDbEntity
  8
0
100
AcDbLine
 62
7
  6
CONTINUOUS
 10
9.9066923427
 20
10.5021096741
 11
9.8957414463
 21
10.5013138199
  0
LINE
  5
2AF
100
AcDbEntity
  8
0
100
AcDbLine
 62
7
  6
CONTINUOUS
 10
9.8957414463
 20
10.5013138199
 11
9.8941923427
 21
10.5013243948
  0
LINE
  5
2B0
100
AcDbEntity
  8
0
100
AcDbLine
 62
7
  6
CONTINUOUS
 10
10.110178374
 20
10.5079770877
 11
10.1203665565
 21
10.5072485108
  0
LINE
  5
2B1
100
AcDbEntity
  8
0
100
AcDbLine
 62
7
  6
CONTINUOUS
 10
10.3746890531
 20
10.4770466323
 11
10.349241015
 21
10.4815673662
  0
LINE
  5
2B2
100
AcDbEntity
  8
0
100
AcDbLine
 62
7
  6
CONTINUOUS
 10
10.349241015
 20
10.4815673662
 11
10.3366923427
 21
10.4838608273
  0
LINE
  5
2B3
100
AcDbEntity
  8
0
100
AcDbLine
 62
7
  6
CONTINUOUS
 10
9.9341923427
 20
10.5050170004
 11
9.932648997
 21
10.5047212837
  0
LINE
  5
2B4
100
AcDbEntity
  8
0
100
AcDbLine
 62
7
  6
CONTINUOUS
 10
9.932648997
 20
10.5047212837
 11
9.9216923427
 21
10.5034945844
  0
LINE
  5
2B5
100
AcDbEntity
  8
0
100
AcDbLine
 62
7
  6
CONTINUOUS
 10
9.9816923427
 20
10.5075474655
 11
9.9690218229
 21
10.5071947208
  0
LINE
  5
2B6
100
AcDbEntity
  8
0
100
AcDbLine
 62
7
  6
CONTINUOUS
 10
9.9690218229
 20
10.5071947208
 11
9.9671923427
 21
10.5072786489
  0
LINE
  5
2B7
100
AcDbEntity
  8
0
100
AcDbLine
 62
7
  6
CONTINUOUS
 10
10.0082063115
 20
10.5091423736
 11
9.9959179952
 21
10.508318839
  0
LINE
  5
2B8
100
AcDbEntity
  8
0
100
AcDbLine
 62
7
  6
CONTINUOUS
 10
10.0316923427
 20
10.5091615352
 11
10.0236154464
 21
10.5092506522
  0
LINE
  5
2B9
100
AcDbEntity
  8
0
100
AcDbLine
 62
7
  6
CONTINUOUS
 10
10.0236154464
 20
10.5092506522
 11
10.0231702653
 21
10.5092738469
  0
LINE
  5
2BA
100
AcDbEntity
  8
0
100
AcDbLine
 62
7
  6
CONTINUOUS
 10
10.0231702653
 20
10.5092738469
 11
10.0224782954
 21
10.5093702122
  0
LINE
  5
2BB
100
AcDbEntity
  8
0
100
AcDbLine
 62
7
  6
CONTINUOUS
 10
9.9987952117
 20
10.5074944266
 11
10.0082063115
 21
10.5081417352
  0
LINE
  5
2BC
100
AcDbEntity
  8
0
100
AcDbLine
 62
7
  6
CONTINUOUS
 10
10.0799437235
 20
10.5095734394
 11
10.0755938852
 21
10.5093501813
  0
SPLINE
  5
2BD
100
AcDbEntity
  8
0
100
AcDbSpline
 62
7
  6
CONTINUOUS
 70
0
 71
3
 72
34
 73
30
 74
0
 42
0.0000001
 43
0.0000001
 44
0.0000000001
 40
0.0
 40
0.0
 40
0.0
 40
0.0
 40
0.0000651944
 40
0.0002606028
 40
0.0005859697
 40
0.0010410485
 40
0.0016256013
 40
0.002339399
 40
0.0041538522
 40
0.0064827571
 40
0.0093246027
 40
0.0126780219
 40
0.0165417929
 40
0.0257961247
 40
0.0370808369
 40
0.0503914493
 40
0.0657258618
 40
0.0830822125
 40
0.1024503154
 40
0.1238151276
 40
0.1471600218
 40
0.1997222903
 40
0.2600083709
 40
0.327897511
 40
0.4032281121
 40
0.4858151326
 40
0.5754755328
 40
0.7751609163
 40
1.0
 40
1.0
 40
1.0
 40
1.0
 10
10.6566923446
 20
9.9951695021
 30
0.0
 10
10.6566912305
 20
9.9951695021
 30
0.0
 10
10.6566950373
 20
9.9951765828
 30
0.0
 10
10.6566934953
 20
9.9951839005
 30
0.0
 10
10.6566976081
 20
9.9952018774
 30
0.0
 10
10.6567000861
 20
9.9952243277
 30
0.0
 10
10.6567044009
 20
9.9952542726
 30
0.0
 10
10.6567111494
 20
9.9953068995
 30
0.0
 10
10.6567213632
 20
9.9953893633
 30
0.0
 10
10.6567347649
 20
9.9955079413
 30
0.0
 10
10.6567498036
 20
9.9956528478
 30
0.0
 10
10.656765892
 20
9.9958239893
 30
0.0
 10
10.6567895459
 20
9.99610448
 30
0.0
 10
10.6568182357
 20
9.9965205374
 30
0.0
 10
10.6568469003
 20
9.9970983162
 30
0.0
 10
10.6568674766
 20
9.9977804051
 30
0.0
 10
10.6568757339
 20
9.9985665289
 30
0.0
 10
10.6568680486
 20
9.9994561614
 30
0.0
 10
10.656848749
 20
10.000448663
 30
0.0
 10
10.6568215719
 20
10.0015433482
 30
0.0
 10
10.6567782955
 20
10.0032050552
 30
0.0
 10
10.6567255583
 20
10.0055318771
 30
0.0
 10
10.6566977313
 20
10.008620531
 30
0.0
 10
10.6567319532
 20
10.0120981766
 30
0.0
 10
10.6567948233
 20
10.0159564363
 30
0.0
 10
10.6568561318
 20
10.020186842
 30
0.0
 10
10.6568935549
 20
10.0265428566
 30
0.0
 10
10.6567701555
 20
10.035329189
 30
0.0
 10
10.6566923459
 20
10.0425835657
 30
0.0
 10
10.6566923445
 20
10.0464258216
 30
0.0
  0
LINE
  5
2BE
100
AcDbEntity
  8
0
100
AcDbLine
 62
7
  6
CONTINUOUS
 10
10.1224556058
 20
10.5081152663
 11
10.110178374
 21
10.5089778859
  0
SPLINE
  5
2BF
100
AcDbEntity
  8
0
100
AcDbSpline
 62
7
  6
CONTINUOUS
 70
0
 71
3
 72
27
 73
23
 74
0
 42
0.0000001
 43
0.0000001
 44
0.0000000001
 40
0.0
 40
0.0
 40
0.0
 40
0.0
 40
0.0733829451
 40
0.1450423299
 40
0.2138716907
 40
0.2792725679
 40
0.3409286397
 40
0.3989131597
 40
0.4267382972
 40
0.4539125347
 40
0.4805909091
 40
0.5069470129
 40
0.5331730411
 40
0.5594693735
 40
0.5860290558
 40
0.6130356616
 40
0.6689185169
 40
0.728142625
 40
0.7911046272
 40
0.8577561396
 40
0.9277058614
 40
1.0
 40
1.0
 40
1.0
 40
1.0
 10
12.8186923427
 20
10.314438564
 30
0.0
 10
12.8240888011
 20
10.3153445463
 30
0.0
 10
12.8346569859
 20
10.3177947836
 30
0.0
 10
12.8496539848
 20
10.3233465721
 30
0.0
 10
12.8632385378
 20
10.3306112706
 30
0.0
 10
12.8750000475
 20
10.3393743499
 30
0.0
 10
12.8845985585
 20
10.3493834148
 30
0.0
 10
12.8906195863
 20
10.3586836421
 30
0.0
 10
12.8940059172
 20
10.36641456
 30
0.0
 10
12.8958092186
 20
10.3722464559
 30
0.0
 10
12.8968995308
 20
10.3781414047
 30
0.0
 10
12.8972674134
 20
10.3840550951
 30
0.0
 10
12.8969028677
 20
10.3899407019
 30
0.0
 10
12.8958146428
 20
10.3957512339
 30
0.0
 10
12.8940123771
 20
10.4014427076
 30
0.0
 10
12.8906344567
 20
10.4088902243
 30
0.0
 10
12.884611377
 20
10.4177215278
 30
0.0
 10
12.8749860173
 20
10.4269830655
 30
0.0
 10
12.8631987667
 20
10.4348095318
 30
0.0
 10
12.8495943028
 20
10.440980458
 30
0.0
 10
12.8345848872
 20
10.4453192603
 30
0.0
 10
12.8240626566
 20
10.4469052215
 30
0.0
 10
12.8186923427
 20
10.4473746388
 30
0.0
  0
LINE
  5
2C0
100
AcDbEntity
  8
0
100
AcDbLine
 62
7
  6
CONTINUOUS
 10
10.2746923427
 20
10.4943298183
 11
10.2666923427
 21
10.4950702265
  0
SPLINE
  5
2C1
100
AcDbEntity
  8
0
100
AcDbSpline
 62
7
  6
CONTINUOUS
 70
0
 71
3
 72
15
 73
11
 74
0
 42
0.0000001
 43
0.0000001
 44
0.0000000001
 40
0.0
 40
0.0
 40
0.0
 40
0.0
 40
0.1027851064
 40
0.2143033346
 40
0.3333638804
 40
0.4588052839
 40
0.589459164
 40
0.7241050067
 40
0.8614556611
 40
1.0
 40
1.0
 40
1.0
 40
1.0
 10
10.6566923445
 20
10.0464258216
 30
0.0
 10
10.6566923429
 20
10.0506655583
 30
0.0
 10
10.6567888251
 20
10.0595048829
 30
0.0
 10
10.6569160151
 20
10.0732554067
 30
0.0
 10
10.6567870347
 20
10.0879405097
 30
0.0
 10
10.6566664164
 20
10.1034149155
 30
0.0
 10
10.6567948004
 20
10.1195322015
 30
0.0
 10
10.6569158765
 20
10.1361407609
 30
0.0
 10
10.6567803716
 20
10.1530747499
 30
0.0
 10
10.6566923466
 20
10.1644547609
 30
0.0
 10
10.6566923445
 20
10.1701695141
 30
0.0
  0
SPLINE
  5
2C2
100
AcDbEntity
  8
0
100
AcDbSpline
 62
7
  6
CONTINUOUS
 70
0
 71
3
 72
27
 73
23
 74
0
 42
0.0000001
 43
0.0000001
 44
0.0000000001
 40
0.0
 40
0.0
 40
0.0
 40
0.0
 40
0.0722962526
 40
0.1422513348
 40
0.2089057444
 40
0.2718685825
 40
0.3310938928
 40
0.3869770461
 40
0.4139839258
 40
0.4405436041
 40
0.4668399836
 40
0.4930661542
 40
0.5194222104
 40
0.5461007109
 40
0.5732750553
 40
0.6010999588
 40
0.6590842802
 40
0.7207391056
 40
0.7861390641
 40
0.8549653646
 40
0.9266192506
 40
1.0
 40
1.0
 40
1.0
 40
1.0
 10
12.8186923427
 20
9.8929643655
 30
0.0
 10
12.8240628135
 20
9.8934337966
 30
0.0
 10
12.8345855551
 20
9.8950200897
 30
0.0
 10
12.8495957476
 20
9.8993589824
 30
0.0
 10
12.8632007094
 20
9.9055305384
 30
0.0
 10
12.8749879528
 20
9.913357636
 30
0.0
 10
12.8846133155
 20
9.9226194862
 30
0.0
 10
12.8906357036
 20
9.9314514143
 30
0.0
 10
12.8940134964
 20
9.9388990222
 30
0.0
 10
12.8958154665
 20
9.9445906347
 30
0.0
 10
12.8969030567
 20
9.9504012947
 30
0.0
 10
12.8972674135
 20
9.9562869068
 30
0.0
 10
12.896899338
 20
9.9622006181
 30
0.0
 10
12.8958083946
 20
9.9680954681
 30
0.0
 10
12.8940048002
 20
9.9739272539
 30
0.0
 10
12.8906183368
 20
9.9816580986
 30
0.0
 10
12.8845966284
 20
9.990957742
 30
0.0
 10
12.8749981161
 20
10.0009665051
 30
0.0
 10
12.8632365972
 20
10.0097289568
 30
0.0
 10
12.8496525275
 20
10.0169929903
 30
0.0
 10
12.8346563231
 20
10.0225446189
 30
0.0
 10
12.8240886395
 20
10.0249944852
 30
0.0
 10
12.8186923427
 20
10.0259004403
 30
0.0
  0
ENDSEC
  0
SECTION
  2
OBJECTS
  0
DICTIONARY
  5
C
100
AcDbDictionary
280
0
281
1
  3
ACAD_GROUP
350
D
  3
ACAD_MLINESTYLE
350
17
  3
ACAD_LAYOUT
350
1A
  3
ACAD_PLOTSETTINGS
350
19
  3
ACAD_PLOTSTYLENAME
350
E
  0
DICTIONARY
  5
D
102
{ACAD_REACTORS
330
C
102
}
100
AcDbDictionary
280
0
281
1
  0
ACDBDICTIONARYWDFLT
  5
E
102
{ACAD_REACTORS
330
C
102
}
100
AcDbDictionary
281
1
  3
Normal
350
F
100
AcDbDictionaryWithDefault
340
F
  0
DICTIONARY
  5
17
102
{ACAD_REACTORS
330
C
102
}
100
AcDbDictionary
280
0
281
1
  3
Standard
350
18
  0
DICTIONARY
  5
19
102
{ACAD_REACTORS
330
C
102
}
100
AcDbDictionary
281
1
  0
DICTIONARY
  5
1A
102
{ACAD_REACTORS
330
C
102
}
100
AcDbDictionary
281
1
  3
Model
350
2C3
  3
Layout1
350
2C4
  0
ACDBPLACEHOLDER
  5
F
102
{ACAD_REACTORS
330
E
102
}
  0
MLINESTYLE
  5
18
102
{ACAD_REACTORS
330
17
102
}
100
AcDbMlineStyle
  2
STANDARD
 70
0
  3

 62
256
 51
90.0
 52
90.0
 71
2
 49
0.5
 62
256
  6
BYLAYER
 49
-0.5
 62
256
  6
BYLAYER
  0
LAYOUT
  5
2C3
102
{ACAD_REACTORS
330
1A
102
}
100
AcDbPlotSettings
  1

  2
none_device
  4
ANSI_C_(22.00_x_17.00_Inches)
  6

 40
0.0
 41
0.0
 42
0.0
 43
0.0
 44
558.8
 45
431.8
 46
0.0
 47
0.0
 48
0.0
 49
0.0
140
0.0
141
0.0
142
1.0
143
1.0
 70
1024
 72
0
 73
0
 74
0
  7

 75
0
147
1.0
148
0.0
149
0.0
100
AcDbLayout
  1
Model
 70
0
 71
0
 10
0.0
 20
0.0
 11
22.0
 21
17.0
 12
0.0
 22
0.0
 32
0.0
 14
0.0
 24
0.0
 34
0.0
 15
0.0
 25
0.0
 35
0.0
146
0.0
 13
0.0
 23
0.0
 33
0.0
 16
1.0
 26
0.0
 36
0.0
 17
0.0
 27
1.0
 37
0.0
 76
0
330
202
345
0
346
0
  0
LAYOUT
  5
2C4
102
{ACAD_REACTORS
330
1A
102
}
100
AcDbPlotSettings
  1

  2
none_device
  4
ANSI_C_(22.00_x_17.00_Inches)
  6

 40
0.0
 41
0.0
 42
0.0
 43
0.0
 44
558.8
 45
431.8
 46
0.0
 47
0.0
 48
0.0
 49
0.0
140
0.0
141
0.0
142
1.0
143
1.0
 70
0
 72
0
 73
0
 74
0
  7

 75
0
147
1.0
148
0.0
149
0.0
100
AcDbLayout
  1
Layout1
 70
0
 71
1
 10
0.0
 20
0.0
 11
22.0
 21
17.0
 12
0.0
 22
0.0
 32
0.0
 14
0.0
 24
0.0
 34
0.0
 15
0.0
 25
0.0
 35
0.0
146
0.0
 13
0.0
 23
0.0
 33
0.0
 16
1.0
 26
0.0
 36
0.0
 17
0.0
 27
1.0
 37
0.0
 76
0
330
203
345
0
346
0
  0
ENDSEC
  0
EOF
