999
DXF file: E:\BT Custom\CADOUTPUT\_RIGHT.dxf
999
Pro/ENGINEER 2018400 by Parametric Technology Corporation
  0
SECTION
  2
HEADER
  9
$ACADVER
  1
AC1018
  9
$DWGCODEPAGE
  3
ANSI_1252
  9
$EXTMAX
 10
22.0
 20
17.0
 30
0.0
  9
$EXTMIN
 10
0.0
 20
0.0
 30
0.0
  9
$LIMMIN
 10
0.0
 20
0.0
  9
$LIMMAX
 10
22.0
 20
17.0
  9
$VIEWCTR
 10
11.0
 20
8.5
  9
$VIEWSIZE
 40
17.0
  9
$CLAYER
  8
0
  9
$LTSCALE
 40
1.21
  9
$CELTYPE
  6
BYLAYER
  9
$DIMSCALE
 40
1.0
  9
$DIMASZ
 40
0.1
  9
$DIMEXO
 40
0.0625
  9
$DIMDLI
 40
0.836
  9
$DIMEXE
 40
0.125
  9
$DIMCEN
 40
0.198
  9
$DIMLFAC
 40
1.0
  9
$DIMBLK
  1
_FILLED
  9
$DIMALT
 70
1
  9
$DIMALTD
 70
2
  9
$DIMALTTD
 70
2
  9
$DIMALTF
 40
25.4
  9
$DIMTXT
 40
0.08
  9
$DIMTOL
 70
1
  9
$DIMLIM
 70
0
  9
$DIMTFAC
 40
1.0
  9
$DIMTP
 40
0.001
  9
$DIMTM
 40
0.001
  9
$DIMGAP
 40
0.09
  9
$DIMDSEP
 70
46
  9
$AUNITS
 70
0
  9
$PDMODE
 70
3
  9
$PDSIZE
 40
0.06
  9
$HANDSEED
  5
2DB
  9
$TILEMODE
 70
1
  9
$MEASUREMENT
 70
0
  9
$INSUNITS
 70
1
  0
ENDSEC
  0
SECTION
  2
CLASSES
  0
CLASS
  1
ACDBDICTIONARYWDFLT
  2
AcDbDictionaryWithDefault
  3
AutoCAD 2000
 90
0
 91
1
280
0
281
0
  0
CLASS
  1
ACDBPLACEHOLDER
  2
AcDbPlaceHolder
  3
AutoCAD 2000
 90
0
 91
1
280
0
281
0
  0
CLASS
  1
LAYOUT
  2
AcDbLayout
  3
AutoCAD 2000
 90
0
 91
0
280
0
281
0
  0
ENDSEC
  0
SECTION
  2
TABLES
  0
TABLE
  2
VPORT
  5
8
100
AcDbSymbolTable
 70
2
  0
VPORT
  5
1F4
100
AcDbSymbolTableRecord
100
AcDbViewportTableRecord
  2
*ACTIVE
 70
0
 10
0.0
 20
0.0
 11
1.0
 21
1.0
 12
11.0
 22
8.5
 13
0.0
 23
0.0
 14
1.0
 24
1.0
 15
0.0
 25
0.0
 16
0.0
 26
0.0
 36
1.0
 17
0.0
 27
0.0
 37
0.0
 40
17.0
 41
1.2941176471
 42
50.0
 43
0.0
 44
0.0
 50
0.0
 51
0.0
 71
0
 72
100
 73
1
 74
1
 75
0
 76
0
 77
0
 78
0
  0
ENDTAB
  0
TABLE
  2
LTYPE
  5
5
100
AcDbSymbolTable
 70
6
  0
LTYPE
  5
14
100
AcDbSymbolTableRecord
100
AcDbLinetypeTableRecord
  2
BYBLOCK
 70
0
  3

 72
65
 73
0
 40
0.0
  0
LTYPE
  5
15
100
AcDbSymbolTableRecord
100
AcDbLinetypeTableRecord
  2
BYLAYER
 70
0
  3

 72
65
 73
0
 40
0.0
  0
LTYPE
  5
16
100
AcDbSymbolTableRecord
100
AcDbLinetypeTableRecord
  2
CONTINUOUS
 70
64
  3
Solid line
 72
65
 73
0
 40
0.0
  0
LTYPE
  5
1F5
100
AcDbSymbolTableRecord
100
AcDbLinetypeTableRecord
  2
CENTER
 70
64
  3
____ _ ____ _ ____ _ ____ _ ____ _ ____ _ ____
 72
65
 73
4
 40
0.6
 49
0.375
 74
0
 49
-0.075
 74
0
 49
0.075
 74
0
 49
-0.075
 74
0
  0
LTYPE
  5
1F6
100
AcDbSymbolTableRecord
100
AcDbLinetypeTableRecord
  2
HIDDEN
 70
64
  3
- - - - - - - - - - - - - - - - - - - -
 72
65
 73
2
 40
0.2
 49
0.1
 74
0
 49
-0.1
 74
0
  0
LTYPE
  5
1F7
100
AcDbSymbolTableRecord
100
AcDbLinetypeTableRecord
  2
PHANTOM
 70
64
  3
_____ _ _ _____ _ _ _____ _ _ _____
 72
65
 73
6
 40
0.8
 49
0.45
 74
0
 49
-0.05
 74
0
 49
0.1
 74
0
 49
-0.05
 74
0
 49
0.1
 74
0
 49
-0.05
 74
0
  0
LTYPE
  5
1F8
100
AcDbSymbolTableRecord
100
AcDbLinetypeTableRecord
  2
DOT
 70
64
  3
. . . . . . . . . . . . . . . . . . . .
 72
65
 73
2
 40
0.2
 49
0.1
 74
0
 49
-0.1
 74
0
  0
LTYPE
  5
1F9
100
AcDbSymbolTableRecord
100
AcDbLinetypeTableRecord
  2
DASHED
 70
64
  3
- - - - - - - - - - - - - - - - - - - -
 72
65
 73
2
 40
0.2
 49
0.1
 74
0
 49
-0.1
 74
0
  0
ENDTAB
  0
TABLE
  2
LAYER
  5
2
100
AcDbSymbolTable
 70
36
  0
LAYER
  5
10
100
AcDbSymbolTableRecord
100
AcDbLayerTableRecord
  2
0
 70
0
 62
7
  6
CONTINUOUS
370
-3
390
F
  0
LAYER
  5
1FA
100
AcDbSymbolTableRecord
100
AcDbLayerTableRecord
  2
DEFAULT_1
 70
0
 62
7
  6
CENTER
370
-3
390
F
  0
LAYER
  5
1FB
100
AcDbSymbolTableRecord
100
AcDbLayerTableRecord
  2
DEFAULT_2
 70
0
 62
8
  6
HIDDEN
370
-3
390
F
  0
LAYER
  5
1FC
100
AcDbSymbolTableRecord
100
AcDbLayerTableRecord
  2
DEFAULT_3
 70
0
 62
7
  6
PHANTOM
370
-3
390
F
  0
LAYER
  5
1FD
100
AcDbSymbolTableRecord
100
AcDbLayerTableRecord
  2
ALL_FEATURES
 70
0
 62
7
  6
CONTINUOUS
370
-3
390
F
  0
LAYER
  5
1FE
100
AcDbSymbolTableRecord
100
AcDbLayerTableRecord
  2
AXES_FEATURES
 70
0
 62
7
  6
CONTINUOUS
370
-3
390
F
  0
LAYER
  5
1FF
100
AcDbSymbolTableRecord
100
AcDbLayerTableRecord
  2
DIMENSIONS
 70
0
 62
7
  6
CONTINUOUS
370
-3
390
F
  0
ENDTAB
  0
TABLE
  2
STYLE
  5
3
100
AcDbSymbolTable
 70
1
  0
STYLE
  5
11
100
AcDbSymbolTableRecord
100
AcDbTextStyleTableRecord
  2
STANDARD
 70
0
 40
0.0
 41
0.8
 50
0.0
 71
0
 42
0.2
  3
txt
  4

  0
STYLE
  5
200
100
AcDbSymbolTableRecord
100
AcDbTextStyleTableRecord
  2
TEXTSTYLE_1
 70
0
 40
0.0
 41
0.8
 50
0.0
 71
0
 42
0.2
  3
gdt
  4

  0
ENDTAB
  0
TABLE
  2
VIEW
  5
6
100
AcDbSymbolTable
 70
0
  0
ENDTAB
  0
TABLE
  2
UCS
  5
7
100
AcDbSymbolTable
 70
0
  0
ENDTAB
  0
TABLE
  2
APPID
  5
9
100
AcDbSymbolTable
 70
1
  0
APPID
  5
201
100
AcDbSymbolTableRecord
100
AcDbRegAppTableRecord
  2
ACAD
 70
0
  0
ENDTAB
  0
TABLE
  2
BLOCK_RECORD
  5
1
100
AcDbSymbolTable
 70
0
  0
BLOCK_RECORD
  5
202
100
AcDbSymbolTableRecord
100
AcDbBlockTableRecord
  2
*Model_Space
  0
BLOCK_RECORD
  5
203
100
AcDbSymbolTableRecord
100
AcDbBlockTableRecord
  2
*Paper_Space
  0
BLOCK_RECORD
  5
204
100
AcDbSymbolTableRecord
100
AcDbBlockTableRecord
  2
_FILLED
  0
ENDTAB
  0
TABLE
  2
DIMSTYLE
  5
A
100
AcDbSymbolTable
 70
1
100
AcDbDimStyleTable
 71
0
  0
DIMSTYLE
105
205
100
AcDbSymbolTableRecord
100
AcDbDimStyleTableRecord
  2
STANDARD
 70
0
  3

  4

 40
1.0
 41
0.1
 42
0.0625
 43
0.38
 44
0.125
 45
0.0
 46
0.0
 47
0.001
 48
0.001
140
0.08
141
0.09
142
0.0
143
25.4
144
1.0
145
0.0
146
1.0
147
0.09
 71
1.0
 72
0.0
 73
1
 74
1
 75
0
 76
0
 77
0
 78
4
 79
1
170
1
171
2
172
0
173
0
174
0
175
0
176
0
177
0
178
0
270
2
179
3
271
3
272
3
273
2
274
2
275
0
280
0
281
0
282
0
283
1
284
4
285
0
286
0
287
3
288
0
340
11
278
46
341
204
342
204
343
204
344
204
  0
ENDTAB
  0
ENDSEC
  0
SECTION
  2
BLOCKS
  0
BLOCK
  5
20
100
AcDbEntity
  8
0
100
AcDbBlockBegin
  2
*Model_Space
 70
0
 10
0.0
 20
0.0
 30
0.0
  3
*Model_Space
  1

  0
ENDBLK
  5
21
100
AcDbEntity
  8
0
100
AcDbBlockEnd
  0
BLOCK
  5
1C
100
AcDbEntity
  8
0
100
AcDbBlockBegin
  2
*Paper_Space
 70
0
 10
0.0
 20
0.0
 30
0.0
  3
*Paper_Space
  1

  0
ENDBLK
  5
1D
100
AcDbEntity
  8
0
100
AcDbBlockEnd
  0
BLOCK
  5
206
100
AcDbEntity
  8
0
100
AcDbBlockBegin
  2
_FILLED
 70
64
 10
0.0
 20
0.0
  3
_FILLED
  1

  0
SOLID
  5
207
100
AcDbEntity
  8
0
  6
BYBLOCK
 62
0
100
AcDbTrace
 10
0.0
 20
0.0
 11
-1.0
 21
0.2
 12
-1.0
 22
-0.2
 13
-1.0
 23
-0.2
  0
ENDBLK
  5
208
100
AcDbEntity
  8
0
  6
BYBLOCK
 62
0
100
AcDbBlockEnd
  0
ENDSEC
  0
SECTION
  2
ENTITIES
  0
LINE
  5
209
100
AcDbEntity
  8
0
100
AcDbLine
 62
7
  6
CONTINUOUS
 10
9.4475000626
 20
7.767391804
 11
11.9724669157
 21
7.767391804
  0
LINE
  5
20A
100
AcDbEntity
  8
0
100
AcDbLine
 62
7
  6
CONTINUOUS
 10
9.4474834891
 20
7.867391804
 11
11.9724834891
 21
7.867391804
  0
LINE
  5
20B
100
AcDbEntity
  8
0
100
AcDbLine
 62
7
  6
CONTINUOUS
 10
9.6599834891
 20
8.242391804
 11
9.6599834891
 21
8.342391804
  0
LINE
  5
20C
100
AcDbEntity
  8
0
100
AcDbLine
 62
7
  6
CONTINUOUS
 10
9.5849834891
 20
8.242391804
 11
9.5744943807
 21
8.0979335214
  0
LINE
  5
20D
100
AcDbEntity
  8
0
100
AcDbLine
 62
9
  6
CONTINUOUS
 10
9.5744943807
 20
8.0979335214
 11
11.8454725976
 21
8.0979335214
  0
LINE
  5
20E
100
AcDbEntity
  8
0
100
AcDbLine
 62
7
  6
CONTINUOUS
 10
11.8349822649
 20
8.242391804
 11
9.5849847134
 21
8.242391804
  0
LINE
  5
20F
100
AcDbEntity
  8
0
100
AcDbLine
 62
7
  6
CONTINUOUS
 10
11.7599834891
 20
8.342391804
 11
9.6599834891
 21
8.342391804
  0
LINE
  5
210
100
AcDbEntity
  8
0
100
AcDbLine
 62
7
  6
CONTINUOUS
 10
10.1724834891
 20
8.992391804
 11
10.1724834891
 21
9.042391804
  0
LINE
  5
211
100
AcDbEntity
  8
0
100
AcDbLine
 62
7
  6
CONTINUOUS
 10
10.2099834891
 20
10.162391804
 11
10.2099834891
 21
9.662391804
  0
LINE
  5
212
100
AcDbEntity
  8
0
100
AcDbLine
 62
7
  6
CONTINUOUS
 10
10.2724834891
 20
9.042391804
 11
10.2724834891
 21
9.142391804
  0
LINE
  5
213
100
AcDbEntity
  8
0
100
AcDbLine
 62
7
  6
CONTINUOUS
 10
10.3974834891
 20
9.5541386286
 11
10.3974834891
 21
9.162391804
  0
LINE
  5
214
100
AcDbEntity
  8
0
100
AcDbLine
 62
7
  6
CONTINUOUS
 10
11.0224834891
 20
9.5541386286
 11
11.2099834891
 21
9.662391804
  0
LINE
  5
215
100
AcDbEntity
  8
0
100
AcDbLine
 62
7
  6
CONTINUOUS
 10
10.5099834891
 20
9.162391804
 11
10.5099834891
 21
9.142391804
  0
LINE
  5
216
100
AcDbEntity
  8
0
100
AcDbLine
 62
7
  6
CONTINUOUS
 10
10.6399834891
 20
10.250747434
 11
10.6399834891
 21
10.248994388
  0
LINE
  5
217
100
AcDbEntity
  8
0
100
AcDbLine
 62
7
  6
CONTINUOUS
 10
10.6399834891
 20
10.236510861
 11
10.6399834891
 21
10.2252957109
  0
LINE
  5
218
100
AcDbEntity
  8
0
100
AcDbLine
 62
7
  6
CONTINUOUS
 10
10.6599834891
 20
10.2260831292
 11
10.6599834891
 21
10.2296214898
  0
LINE
  5
219
100
AcDbEntity
  8
0
100
AcDbLine
 62
7
  6
CONTINUOUS
 10
10.6599834891
 20
10.2362826889
 11
10.6599834891
 21
10.2372925284
  0
LINE
  5
21A
100
AcDbEntity
  8
0
100
AcDbLine
 62
7
  6
CONTINUOUS
 10
10.6599834891
 20
10.2505213592
 11
10.6599834891
 21
10.2515219209
  0
LINE
  5
21B
100
AcDbEntity
  8
0
100
AcDbLine
 62
7
  6
CONTINUOUS
 10
10.6649834891
 20
10.2443076555
 11
10.6649834891
 21
10.2453122449
  0
LINE
  5
21C
100
AcDbEntity
  8
0
100
AcDbLine
 62
9
  6
CONTINUOUS
 10
10.6732499883
 20
10.2365521202
 11
10.6732499883
 21
10.2355417933
  0
LINE
  5
21D
100
AcDbEntity
  8
0
100
AcDbLine
 62
9
  6
CONTINUOUS
 10
10.6789529658
 20
10.2519202357
 11
10.6789529658
 21
10.2509199313
  0
LINE
  5
21E
100
AcDbEntity
  8
0
100
AcDbLine
 62
7
  6
CONTINUOUS
 10
10.6849834891
 20
10.2520593003
 11
10.6849834891
 21
10.2510590857
  0
LINE
  5
21F
100
AcDbEntity
  8
0
100
AcDbLine
 62
9
  6
CONTINUOUS
 10
10.6874834891
 20
10.2192689342
 11
10.6874834891
 21
10.218247093
  0
LINE
  5
220
100
AcDbEntity
  8
0
100
AcDbLine
 62
9
  6
CONTINUOUS
 10
10.6949834891
 20
10.2502021717
 11
10.6949834891
 21
10.2492007567
  0
LINE
  5
221
100
AcDbEntity
  8
0
100
AcDbLine
 62
9
  6
CONTINUOUS
 10
10.6949834891
 20
10.2428614633
 11
10.6949834891
 21
10.2418552753
  0
LINE
  5
222
100
AcDbEntity
  8
0
100
AcDbLine
 62
7
  6
CONTINUOUS
 10
11.3474826407
 20
8.992391804
 11
10.0724843375
 21
8.992391804
  0
LINE
  5
223
100
AcDbEntity
  8
0
100
AcDbLine
 62
9
  6
CONTINUOUS
 10
10.7374834891
 20
10.2191865731
 11
10.7374834891
 21
10.2181646815
  0
LINE
  5
224
100
AcDbEntity
  8
0
100
AcDbLine
 62
9
  6
CONTINUOUS
 10
10.7489834891
 20
10.241434475
 11
10.7489834891
 21
10.2424409378
  0
LINE
  5
225
100
AcDbEntity
  8
0
100
AcDbLine
 62
9
  6
CONTINUOUS
 10
10.7489834891
 20
10.2487819545
 11
10.7489834891
 21
10.2497836403
  0
LINE
  5
226
100
AcDbEntity
  8
0
100
AcDbLine
 62
9
  6
CONTINUOUS
 10
10.75171699
 20
10.2354138932
 11
10.75171699
 21
10.2364243043
  0
LINE
  5
227
100
AcDbEntity
  8
0
100
AcDbLine
 62
7
  6
CONTINUOUS
 10
10.7649834891
 20
10.2436450995
 11
10.7649834891
 21
10.2426394232
  0
LINE
  5
228
100
AcDbEntity
  8
0
100
AcDbLine
 62
7
  6
CONTINUOUS
 10
10.7649834891
 20
10.2500523401
 11
10.7649834891
 21
10.2490508282
  0
LINE
  5
229
100
AcDbEntity
  8
0
100
AcDbLine
 62
7
  6
CONTINUOUS
 10
10.7649834891
 20
10.2294496756
 11
10.7649834891
 21
10.2259109162
  0
LINE
  5
22A
100
AcDbEntity
  8
0
100
AcDbLine
 62
7
  6
CONTINUOUS
 10
10.7649834891
 20
10.2371215726
 11
10.7649834891
 21
10.2361116207
  0
LINE
  5
22B
100
AcDbEntity
  8
0
100
AcDbLine
 62
7
  6
CONTINUOUS
 10
10.7799834891
 20
10.2252957109
 11
10.7799834891
 21
10.236510861
  0
LINE
  5
22C
100
AcDbEntity
  8
0
100
AcDbLine
 62
7
  6
CONTINUOUS
 10
10.7799834891
 20
10.2371867009
 11
10.7799834891
 21
10.2430369727
  0
LINE
  5
22D
100
AcDbEntity
  8
0
100
AcDbLine
 62
7
  6
CONTINUOUS
 10
10.7799834891
 20
10.2455962967
 11
10.7799834891
 21
10.2494467308
  0
LINE
  5
22E
100
AcDbEntity
  8
0
100
AcDbLine
 62
7
  6
CONTINUOUS
 10
10.7799834891
 20
10.2507121846
 11
10.7799834891
 21
10.2508009491
  0
LINE
  5
22F
100
AcDbEntity
  8
0
100
AcDbLine
 62
7
  6
CONTINUOUS
 10
11.2474695353
 20
9.042391804
 11
10.1724974429
 21
9.042391804
  0
LINE
  5
230
100
AcDbEntity
  8
0
100
AcDbLine
 62
7
  6
CONTINUOUS
 10
11.1474826552
 20
9.142391804
 11
10.272484323
 21
9.142391804
  0
LINE
  5
231
100
AcDbEntity
  8
0
100
AcDbLine
 62
7
  6
CONTINUOUS
 10
10.9099834891
 20
9.162391804
 11
10.9099834891
 21
9.142391804
  0
LINE
  5
232
100
AcDbEntity
  8
0
100
AcDbLine
 62
7
  6
CONTINUOUS
 10
10.3974961863
 20
9.162391804
 11
11.0224707919
 21
9.162391804
  0
LINE
  5
233
100
AcDbEntity
  8
0
100
AcDbLine
 62
7
  6
CONTINUOUS
 10
11.0224834891
 20
9.5541386286
 11
11.0224834891
 21
9.162391804
  0
LINE
  5
234
100
AcDbEntity
  8
0
100
AcDbLine
 62
7
  6
CONTINUOUS
 10
10.3974834891
 20
9.5541386286
 11
10.2099834891
 21
9.662391804
  0
LINE
  5
235
100
AcDbEntity
  8
0
100
AcDbLine
 62
7
  6
CONTINUOUS
 10
11.1474834891
 20
9.042391804
 11
11.1474834891
 21
9.142391804
  0
LINE
  5
236
100
AcDbEntity
  8
0
100
AcDbLine
 62
7
  6
CONTINUOUS
 10
11.2099834891
 20
10.162391804
 11
11.2099834891
 21
9.662391804
  0
LINE
  5
237
100
AcDbEntity
  8
0
100
AcDbLine
 62
7
  6
CONTINUOUS
 10
11.2474834891
 20
8.992391804
 11
11.2474834891
 21
9.042391804
  0
LINE
  5
238
100
AcDbEntity
  8
0
100
AcDbLine
 62
7
  6
CONTINUOUS
 10
11.0224834891
 20
9.5541386286
 11
10.3974834891
 21
9.5541386286
  0
LINE
  5
239
100
AcDbEntity
  8
0
100
AcDbLine
 62
7
  6
CONTINUOUS
 10
10.2099834891
 20
9.662391804
 11
10.5334631669
 21
9.662391804
  0
LINE
  5
23A
100
AcDbEntity
  8
0
100
AcDbLine
 62
7
  6
CONTINUOUS
 10
10.8865105515
 20
9.662391804
 11
11.2099834891
 21
9.662391804
  0
LINE
  5
23B
100
AcDbEntity
  8
0
100
AcDbLine
 62
7
  6
CONTINUOUS
 10
11.8349834891
 20
8.242391804
 11
11.8454725976
 21
8.0979335214
  0
LINE
  5
23C
100
AcDbEntity
  8
0
100
AcDbLine
 62
7
  6
CONTINUOUS
 10
11.7599834891
 20
8.242391804
 11
11.7599834891
 21
8.342391804
  0
LINE
  5
23D
100
AcDbEntity
  8
0
100
AcDbLine
 62
7
  6
CONTINUOUS
 10
11.2099703046
 20
10.162391804
 11
10.8865038113
 21
10.162391804
  0
LINE
  5
23E
100
AcDbEntity
  8
0
100
AcDbLine
 62
7
  6
CONTINUOUS
 10
10.5334564268
 20
10.162391804
 11
10.2099966737
 21
10.162391804
  0
LINE
  5
23F
100
AcDbEntity
  8
0
100
AcDbLine
 62
9
  6
CONTINUOUS
 10
11.1051118782
 20
10.2012053829
 11
10.8289924559
 21
10.2012012252
  0
LINE
  5
240
100
AcDbEntity
  8
0
100
AcDbLine
 62
9
  6
CONTINUOUS
 10
10.5910401396
 20
10.2012284048
 11
10.3148560387
 21
10.2012056314
  0
ARC
  5
241
100
AcDbEntity
  8
0
100
AcDbCircle
 62
7
  6
CONTINUOUS
 10
10.7099832849
 20
8.7017196229
 40
1.5506721873
100
AcDbArc
 50
75.2369878056
 51
87.4126835368
  0
ARC
  5
242
100
AcDbEntity
  8
0
100
AcDbCircle
 62
7
  6
CONTINUOUS
 10
10.7099834195
 20
8.701723589
 40
1.5506682137
100
AcDbArc
 50
92.6597139334
 51
104.7630453865
  0
ARC
  5
243
100
AcDbEntity
  8
0
100
AcDbCircle
 62
7
  6
CONTINUOUS
 10
9.354112277
 20
8.992391804
 40
0.7183712121
100
AcDbArc
 50
295.2003196521
 51
360.0
  0
ARC
  5
244
100
AcDbEntity
  8
0
100
AcDbCircle
 62
7
  6
CONTINUOUS
 10
10.7009702163
 20
9.629531312
 40
0.6196983634
100
AcDbArc
 50
90.5535266147
 51
91.2531956011
  0
ARC
  5
245
100
AcDbEntity
  8
0
100
AcDbCircle
 62
7
  6
CONTINUOUS
 10
10.7009271374
 20
9.6355980074
 40
0.6146329032
100
AcDbArc
 50
90.5540726281
 51
91.8544829684
  0
ARC
  5
246
100
AcDbEntity
  8
0
100
AcDbCircle
 62
7
  6
CONTINUOUS
 10
10.6991482457
 20
9.6950760448
 40
0.5551284704
100
AcDbArc
 50
91.869636477
 51
92.1947541409
  0
ARC
  5
247
100
AcDbEntity
  8
0
100
AcDbCircle
 62
7
  6
CONTINUOUS
 10
10.6992272856
 20
9.6963572022
 40
0.5528504098
100
AcDbArc
 50
91.2240747876
 51
92.5801271864
  0
ARC
  5
248
100
AcDbEntity
  8
0
100
AcDbCircle
 62
7
  6
CONTINUOUS
 10
10.6949047734
 20
9.7922366357
 40
0.4568735903
100
AcDbArc
 50
92.579879627
 51
93.2921547233
  0
ARC
  5
249
100
AcDbEntity
  8
0
100
AcDbCircle
 62
7
  6
CONTINUOUS
 10
10.6934004855
 20
9.8422185954
 40
0.4091661436
100
AcDbArc
 50
91.7209273613
 51
92.9889268722
  0
ARC
  5
24A
100
AcDbEntity
  8
0
100
AcDbCircle
 62
7
  6
CONTINUOUS
 10
9.2034277964
 20
8.1521053774
 40
0.375
100
AcDbArc
 50
310.6030912348
 51
351.6940891949
  0
ARC
  5
24B
100
AcDbEntity
  8
0
100
AcDbCircle
 62
7
  6
CONTINUOUS
 10
10.7099036335
 20
9.9125845926
 40
0.3127086066
100
AcDbArc
 50
287.5084222375
 51
297.4915783821
  0
ARC
  5
24C
100
AcDbEntity
  8
0
100
AcDbCircle
 62
7
  6
CONTINUOUS
 10
10.7099036335
 20
9.9121990155
 40
0.3127086066
100
AcDbArc
 50
62.508419448
 51
72.491577739
  0
ARC
  5
24D
100
AcDbEntity
  8
0
100
AcDbCircle
 62
7
  6
CONTINUOUS
 10
10.7097907006
 20
9.9123119484
 40
0.3127086066
100
AcDbArc
 50
17.5084194479
 51
27.4915783823
  0
ARC
  5
24E
100
AcDbEntity
  8
0
100
AcDbCircle
 62
7
  6
CONTINUOUS
 10
10.7097907006
 20
9.9124716597
 40
0.3127086066
100
AcDbArc
 50
332.5084194478
 51
342.4915783822
  0
ARC
  5
24F
100
AcDbEntity
  8
0
100
AcDbCircle
 62
7
  6
CONTINUOUS
 10
10.6977909646
 20
9.9403380047
 40
0.3080159556
100
AcDbArc
 50
90.5222415174
 51
92.459339027
  0
ARC
  5
250
100
AcDbEntity
  8
0
100
AcDbCircle
 62
7
  6
CONTINUOUS
 10
10.6706224068
 20
10.3413031259
 40
0.105793968
100
AcDbArc
 50
268.5545044746
 51
271.4231890095
  0
ARC
  5
251
100
AcDbEntity
  8
0
100
AcDbCircle
 62
7
  6
CONTINUOUS
 10
9.4474834891
 20
7.817391804
 40
0.05
100
AcDbArc
 50
90.0000000005
 51
270.0
  0
ARC
  5
252
100
AcDbEntity
  8
0
100
AcDbCircle
 62
7
  6
CONTINUOUS
 10
10.3224834891
 20
10.1721914571
 40
0.03
100
AcDbArc
 50
104.7630312683
 51
199.0658789538
  0
ARC
  5
253
100
AcDbEntity
  8
0
100
AcDbCircle
 62
7
  6
CONTINUOUS
 10
10.6109705636
 20
12.9451957984
 40
2.6941333029
100
AcDbArc
 50
271.2149922401
 51
271.3367886435
  0
ARC
  5
254
100
AcDbEntity
  8
0
100
AcDbCircle
 62
7
  6
CONTINUOUS
 10
10.6361735927
 20
11.7403601796
 40
1.4900344405
100
AcDbArc
 50
271.0406390462
 51
271.2269472685
  0
ARC
  5
255
100
AcDbEntity
  8
0
100
AcDbCircle
 62
7
  6
CONTINUOUS
 10
10.6553442882
 20
10.656758612
 40
0.4062637498
100
AcDbArc
 50
270.6542853299
 51
271.1129008191
  0
ARC
  5
256
100
AcDbEntity
  8
0
100
AcDbCircle
 62
7
  6
CONTINUOUS
 10
10.6918100974
 20
10.5463734227
 40
0.304534682
100
AcDbArc
 50
268.5607577902
 51
270.597059234
  0
ARC
  5
257
100
AcDbEntity
  8
0
100
AcDbCircle
 62
7
  6
CONTINUOUS
 10
10.6980443392
 20
10.4323045502
 40
0.2194047856
100
AcDbArc
 50
262.4302673879
 51
263.4691483547
  0
ARC
  5
258
100
AcDbEntity
  8
0
100
AcDbCircle
 62
7
  6
CONTINUOUS
 10
10.7099834891
 20
8.7017217886
 40
1.5506064782
100
AcDbArc
 50
91.8478483751
 51
92.5874186265
  0
ARC
  5
259
100
AcDbEntity
  8
0
100
AcDbCircle
 62
7
  6
CONTINUOUS
 10
10.7099834891
 20
8.7017217886
 40
1.5496064372
100
AcDbArc
 50
91.8490413011
 51
92.5890895584
  0
ARC
  5
25A
100
AcDbEntity
  8
0
100
AcDbCircle
 62
7
  6
CONTINUOUS
 10
10.7099834891
 20
8.7017217886
 40
1.5493071022
100
AcDbArc
 50
87.4104098739
 51
87.9655872407
  0
ARC
  5
25B
100
AcDbEntity
  8
0
100
AcDbCircle
 62
7
  6
CONTINUOUS
 10
10.7099834891
 20
8.7017217886
 40
1.5488552214
100
AcDbArc
 50
91.8499384229
 51
92.5903461579
  0
ARC
  5
25C
100
AcDbEntity
  8
0
100
AcDbCircle
 62
7
  6
CONTINUOUS
 10
10.7099834891
 20
8.7017217886
 40
1.5485530333
100
AcDbArc
 50
88.5568646094
 51
90.5550020662
  0
ARC
  5
25D
100
AcDbEntity
  8
0
100
AcDbCircle
 62
7
  6
CONTINUOUS
 10
10.7099834891
 20
8.7017217886
 40
1.5483062219
100
AcDbArc
 50
87.4087347287
 51
87.9642715704
  0
ARC
  5
25E
100
AcDbEntity
  8
0
100
AcDbCircle
 62
7
  6
CONTINUOUS
 10
10.7099834891
 20
8.7017217886
 40
1.5475516653
100
AcDbArc
 50
88.555930608
 51
90.5553612004
  0
ARC
  5
25F
100
AcDbEntity
  8
0
100
AcDbCircle
 62
7
  6
CONTINUOUS
 10
10.7099834891
 20
8.7017217886
 40
1.5466921144
100
AcDbArc
 50
88.555127918
 51
90.5556698437
  0
ARC
  5
260
100
AcDbEntity
  8
0
100
AcDbCircle
 62
7
  6
CONTINUOUS
 10
10.7099834891
 20
8.7017217886
 40
1.5454606099
100
AcDbArc
 50
87.4039602421
 51
87.96052166
  0
ARC
  5
261
100
AcDbEntity
  8
0
100
AcDbCircle
 62
7
  6
CONTINUOUS
 10
10.7099834891
 20
8.7017217886
 40
1.5429039169
100
AcDbArc
 50
87.3996554804
 51
87.9571406789
  0
ARC
  5
262
100
AcDbEntity
  8
0
100
AcDbCircle
 62
7
  6
CONTINUOUS
 10
10.7099834891
 20
8.7017217886
 40
1.5418988802
100
AcDbArc
 50
87.3979593644
 51
87.9558085423
  0
ARC
  5
263
100
AcDbEntity
  8
0
100
AcDbCircle
 62
7
  6
CONTINUOUS
 10
10.7099834891
 20
8.7017217886
 40
1.5412126709
100
AcDbArc
 50
88.5499898973
 51
90.5576454682
  0
ARC
  5
264
100
AcDbEntity
  8
0
100
AcDbCircle
 62
7
  6
CONTINUOUS
 10
10.7099834891
 20
8.7017217886
 40
1.5402065306
100
AcDbArc
 50
88.5490424753
 51
90.5580097617
  0
ARC
  5
265
100
AcDbEntity
  8
0
100
AcDbCircle
 62
7
  6
CONTINUOUS
 10
10.7099834891
 20
8.7017217886
 40
1.5388620786
100
AcDbArc
 50
88.5477745512
 51
90.5584972915
  0
ARC
  5
266
100
AcDbEntity
  8
0
100
AcDbCircle
 62
7
  6
CONTINUOUS
 10
10.7099834891
 20
8.7017217886
 40
1.537059692
100
AcDbArc
 50
87.3897615897
 51
88.0239684873
  0
ARC
  5
267
100
AcDbEntity
  8
0
100
AcDbCircle
 62
7
  6
CONTINUOUS
 10
10.7099834891
 20
8.7017217886
 40
1.5363845537
100
AcDbArc
 50
87.3886137697
 51
87.9484684853
  0
ARC
  5
268
100
AcDbEntity
  8
0
100
AcDbCircle
 62
7
  6
CONTINUOUS
 10
10.7099834891
 20
8.7017217886
 40
1.5363845537
100
AcDbArc
 50
91.8649594573
 51
92.6113862303
  0
ARC
  5
269
100
AcDbEntity
  8
0
100
AcDbCircle
 62
7
  6
CONTINUOUS
 10
10.7099834891
 20
8.7017217886
 40
1.5353752495
100
AcDbArc
 50
91.8661858527
 51
92.6131040589
  0
ARC
  5
26A
100
AcDbEntity
  8
0
100
AcDbCircle
 62
7
  6
CONTINUOUS
 10
10.7099834891
 20
8.7017217886
 40
1.5353752495
100
AcDbArc
 50
87.3868959411
 51
87.9471193001
  0
ARC
  5
26B
100
AcDbEntity
  8
0
100
AcDbCircle
 62
7
  6
CONTINUOUS
 10
10.7099834891
 20
8.7017217886
 40
1.535269845
100
AcDbArc
 50
88.4423272244
 51
91.3710133336
  0
ARC
  5
26C
100
AcDbEntity
  8
0
100
AcDbCircle
 62
7
  6
CONTINUOUS
 10
10.7099834891
 20
8.7017217886
 40
1.5342598075
100
AcDbArc
 50
88.4413015207
 51
91.3719160748
  0
ARC
  5
26D
100
AcDbEntity
  8
0
100
AcDbCircle
 62
7
  6
CONTINUOUS
 10
10.7099834891
 20
8.7017217886
 40
1.5295595761
100
AcDbArc
 50
88.1267160328
 51
91.6858984809
  0
ARC
  5
26E
100
AcDbEntity
  8
0
100
AcDbCircle
 62
7
  6
CONTINUOUS
 10
10.7135397003
 20
8.8757330589
 40
1.3766239487
100
AcDbArc
 50
89.8523605283
 51
90.1480114565
  0
ARC
  5
26F
100
AcDbEntity
  8
0
100
AcDbCircle
 62
7
  6
CONTINUOUS
 10
10.7237837817
 20
8.8826243845
 40
1.3692416279
100
AcDbArc
 50
87.647668053
 51
88.2689275288
  0
ARC
  5
270
100
AcDbEntity
  8
0
100
AcDbCircle
 62
7
  6
CONTINUOUS
 10
10.7238027352
 20
8.8827102087
 40
1.3691556555
100
AcDbArc
 50
90.9810652904
 51
91.3838829592
  0
ARC
  5
271
100
AcDbEntity
  8
0
100
AcDbCircle
 62
7
  6
CONTINUOUS
 10
10.7221860586
 20
8.8828864494
 40
1.3690946712
100
AcDbArc
 50
87.5805613543
 51
88.5595367673
  0
ARC
  5
272
100
AcDbEntity
  8
0
100
AcDbCircle
 62
7
  6
CONTINUOUS
 10
10.7237951611
 20
8.8827766866
 40
1.3690891049
100
AcDbArc
 50
89.3073776789
 51
89.6216322722
  0
ARC
  5
273
100
AcDbEntity
  8
0
100
AcDbCircle
 62
7
  6
CONTINUOUS
 10
10.7221891163
 20
8.8830693451
 40
1.3689117403
100
AcDbArc
 50
90.7201641375
 51
91.5565921132
  0
ARC
  5
274
100
AcDbEntity
  8
0
100
AcDbCircle
 62
7
  6
CONTINUOUS
 10
10.7237979128
 20
8.883002729
 40
1.3688630457
100
AcDbArc
 50
88.9434087182
 51
89.3073784745
  0
ARC
  5
275
100
AcDbEntity
  8
0
100
AcDbCircle
 62
7
  6
CONTINUOUS
 10
10.7237961144
 20
8.8830523344
 40
1.3688134666
100
AcDbArc
 50
89.6215930895
 51
90.9810333956
  0
ARC
  5
276
100
AcDbEntity
  8
0
100
AcDbCircle
 62
7
  6
CONTINUOUS
 10
10.713540456
 20
8.8836077505
 40
1.3687492815
100
AcDbArc
 50
88.8776731242
 51
89.8515427659
  0
ARC
  5
277
100
AcDbEntity
  8
0
100
AcDbCircle
 62
7
  6
CONTINUOUS
 10
10.7238021114
 20
8.8832334583
 40
1.3686322782
100
AcDbArc
 50
88.2689409604
 51
88.9434063422
  0
ARC
  5
278
100
AcDbEntity
  8
0
100
AcDbCircle
 62
7
  6
CONTINUOUS
 10
10.7237747321
 20
8.883771602
 40
1.3680938955
100
AcDbArc
 50
91.38378407
 51
91.7869766247
  0
ARC
  5
279
100
AcDbEntity
  8
0
100
AcDbCircle
 62
7
  6
CONTINUOUS
 10
10.7135644627
 20
8.8844957154
 40
1.3678610926
100
AcDbArc
 50
88.2469347491
 51
88.7083988862
  0
ARC
  5
27A
100
AcDbEntity
  8
0
100
AcDbCircle
 62
7
  6
CONTINUOUS
 10
10.7100633448
 20
9.9125845926
 40
0.3127086066
100
AcDbArc
 50
242.5084194479
 51
252.4915777391
  0
ARC
  5
27B
100
AcDbEntity
  8
0
100
AcDbCircle
 62
7
  6
CONTINUOUS
 10
10.7101762777
 20
9.9124716597
 40
0.3127086066
100
AcDbArc
 50
197.5084194478
 51
207.4915783822
  0
ARC
  5
27C
100
AcDbEntity
  8
0
100
AcDbCircle
 62
7
  6
CONTINUOUS
 10
10.7101762777
 20
9.9123119484
 40
0.3127086066
100
AcDbArc
 50
152.508419448
 51
162.491578382
  0
ARC
  5
27D
100
AcDbEntity
  8
0
100
AcDbCircle
 62
7
  6
CONTINUOUS
 10
10.7100633448
 20
9.9121990155
 40
0.3127086066
100
AcDbArc
 50
107.5084222375
 51
117.4915783821
  0
ARC
  5
27E
100
AcDbEntity
  8
0
100
AcDbCircle
 62
7
  6
CONTINUOUS
 10
10.7546885996
 20
10.3421420859
 40
0.1057595377
100
AcDbArc
 50
268.3899031323
 51
271.2774211756
  0
ARC
  5
27F
100
AcDbEntity
  8
0
100
AcDbCircle
 62
7
  6
CONTINUOUS
 10
11.0974834891
 20
10.1721914571
 40
0.03
100
AcDbArc
 50
340.9341210462
 51
75.2369687317
  0
ARC
  5
280
100
AcDbEntity
  8
0
100
AcDbCircle
 62
7
  6
CONTINUOUS
 10
12.0658547013
 20
8.992391804
 40
0.7183712121
100
AcDbArc
 50
180.0
 51
244.7996803479
  0
ARC
  5
281
100
AcDbEntity
  8
0
100
AcDbCircle
 62
7
  6
CONTINUOUS
 10
12.2165391819
 20
8.1521053774
 40
0.375
100
AcDbArc
 50
188.3059108051
 51
229.3969087652
  0
ARC
  5
282
100
AcDbEntity
  8
0
100
AcDbCircle
 62
7
  6
CONTINUOUS
 10
11.9724834891
 20
7.817391804
 40
0.05
100
AcDbArc
 50
270.0
 51
89.9999999995
  0
ARC
  5
283
100
AcDbEntity
  8
0
100
AcDbCircle
 62
7
  6
CONTINUOUS
 10
10.7132148813
 20
10.7210866429
 40
0.5035187788
100
AcDbArc
 50
268.9547191036
 51
270.8794855953
  0
ARC
  5
284
100
AcDbEntity
  8
0
100
AcDbCircle
 62
7
  6
CONTINUOUS
 10
10.7133093788
 20
10.7187678098
 40
0.5001797593
100
AcDbArc
 50
269.9053939814
 51
270.8740495347
  0
ARC
  5
285
100
AcDbEntity
  8
0
100
AcDbCircle
 62
7
  6
CONTINUOUS
 10
10.7132592037
 20
10.715068111
 40
0.4964798424
100
AcDbArc
 50
268.7434600144
 51
269.6219660832
  0
ARC
  5
286
100
AcDbEntity
  8
0
100
AcDbCircle
 62
7
  6
CONTINUOUS
 10
10.7137883976
 20
10.691153025
 40
0.472560884
100
AcDbArc
 50
270.867051899
 51
272.8741233604
  0
ARC
  5
287
100
AcDbEntity
  8
0
100
AcDbCircle
 62
7
  6
CONTINUOUS
 10
10.7126929659
 20
10.6885450852
 40
0.4709731208
100
AcDbArc
 50
266.9316991439
 51
268.945982707
  0
ARC
  5
288
100
AcDbEntity
  8
0
100
AcDbCircle
 62
7
  6
CONTINUOUS
 10
10.7142527615
 20
10.6782689038
 40
0.4606903104
100
AcDbArc
 50
270.8321586966
 51
272.8904175936
  0
ARC
  5
289
100
AcDbEntity
  8
0
100
AcDbCircle
 62
7
  6
CONTINUOUS
 10
10.7122605282
 20
10.6787275077
 40
0.4601261221
100
AcDbArc
 50
266.9132229973
 51
268.7685539337
  0
ARC
  5
28A
100
AcDbEntity
  8
0
100
AcDbCircle
 62
7
  6
CONTINUOUS
 10
10.7581691766
 20
10.6123019167
 40
0.3636360193
100
AcDbArc
 50
268.552516573
 51
269.5175214522
  0
ARC
  5
28B
100
AcDbEntity
  8
0
100
AcDbCircle
 62
7
  6
CONTINUOUS
 10
10.7579899097
 20
10.6025690631
 40
0.3529003848
100
AcDbArc
 50
268.5375875418
 51
269.4897588674
  0
ARC
  5
28C
100
AcDbEntity
  8
0
100
AcDbCircle
 62
7
  6
CONTINUOUS
 10
10.7213332075
 20
10.4370545552
 40
0.2241910287
100
AcDbArc
 50
276.5394728573
 51
277.5865935367
  0
ARC
  5
28D
100
AcDbEntity
  8
0
100
AcDbCircle
 62
7
  6
CONTINUOUS
 10
10.7528328562
 20
10.3898981284
 40
0.1475074258
100
AcDbArc
 50
268.5046344374
 51
270.758169529
  0
SPLINE
  5
28E
100
AcDbEntity
  8
0
100
AcDbSpline
 62
7
  6
CONTINUOUS
 70
0
 71
3
 72
15
 73
11
 74
0
 42
0.0000001
 43
0.0000001
 44
0.0000000001
 40
0.0
 40
0.0
 40
0.0
 40
0.0
 40
0.099453166
 40
0.1380057689
 40
0.1829460661
 40
0.2927659852
 40
0.4296109632
 40
0.593363709
 40
0.7836565101
 40
1.0
 40
1.0
 40
1.0
 40
1.0
 10
10.6399847209
 20
10.2448295308
 30
0.0
 10
10.6399852583
 20
10.2445722052
 30
0.0
 10
10.6403128542
 20
10.2442757336
 30
0.0
 10
10.6407117887
 20
10.2440456198
 30
0.0
 10
10.6411670465
 20
10.2438286637
 30
0.0
 10
10.6418767077
 20
10.2435747125
 30
0.0
 10
10.6429009576
 20
10.2432893557
 30
0.0
 10
10.6441405688
 20
10.2430119081
 30
0.0
 10
10.6455919541
 20
10.242742635
 30
0.0
 10
10.6466315858
 20
10.2425802023
 30
0.0
 10
10.6471855343
 20
10.2424996858
 30
0.0
  0
SPLINE
  5
28F
100
AcDbEntity
  8
0
100
AcDbSpline
 62
7
  6
CONTINUOUS
 70
0
 71
3
 72
11
 73
7
 74
0
 42
0.0000001
 43
0.0000001
 44
0.0000000001
 40
0.0
 40
0.0
 40
0.0
 40
0.0
 40
0.1975488614
 40
0.4329126802
 40
0.7020599522
 40
1.0
 40
1.0
 40
1.0
 40
1.0
 10
10.6471855343
 20
10.2424996858
 30
0.0
 10
10.6485613734
 20
10.2422997075
 30
0.0
 10
10.6515875329
 20
10.2419383187
 30
0.0
 10
10.6565095616
 20
10.241501967
 30
0.0
 10
10.6621454196
 20
10.2411338606
 30
0.0
 10
10.6661322383
 20
10.2409465948
 30
0.0
 10
10.6682274305
 20
10.2408639079
 30
0.0
  0
SPLINE
  5
290
100
AcDbEntity
  8
0
100
AcDbSpline
 62
7
  6
CONTINUOUS
 70
0
 71
3
 72
9
 73
5
 74
0
 42
0.0000001
 43
0.0000001
 44
0.0000000001
 40
0.0
 40
0.0
 40
0.0
 40
0.0
 40
0.4834200964
 40
1.0
 40
1.0
 40
1.0
 40
1.0
 10
10.6682274305
 20
10.2408639079
 30
0.0
 10
10.6725362371
 20
10.2406938604
 30
0.0
 10
10.681454868
 20
10.2404766052
 30
0.0
 10
10.6903757582
 20
10.2404658436
 30
0.0
 10
10.6949834891
 20
10.2405107594
 30
0.0
  0
SPLINE
  5
291
100
AcDbEntity
  8
0
100
AcDbSpline
 62
7
  6
CONTINUOUS
 70
0
 71
3
 72
18
 73
14
 74
0
 42
0.0000001
 43
0.0000001
 44
0.0000000001
 40
0.0
 40
0.0
 40
0.0
 40
0.0
 40
0.0139957761
 40
0.0319995678
 40
0.0560799026
 40
0.0870664451
 40
0.1706144886
 40
0.2830789479
 40
0.3499879371
 40
0.4238715671
 40
0.5917007108
 40
0.7844829737
 40
1.0
 40
1.0
 40
1.0
 40
1.0
 10
10.6649846664
 20
10.2453122641
 30
0.0
 10
10.6649845452
 20
10.2453644409
 30
0.0
 10
10.6650256539
 20
10.2454837005
 30
0.0
 10
10.6651751677
 20
10.2456343851
 30
0.0
 10
10.6654052198
 20
10.2457821836
 30
0.0
 10
10.6658750727
 20
10.2459998609
 30
0.0
 10
10.6666853126
 20
10.2462525006
 30
0.0
 10
10.6676408805
 20
10.2464715573
 30
0.0
 10
10.6685684378
 20
10.2466484588
 30
0.0
 10
10.6697031137
 20
10.2468393403
 30
0.0
 10
10.6713075746
 20
10.2470640099
 30
0.0
 10
10.6734416632
 20
10.2473079138
 30
0.0
 10
10.6749572576
 20
10.2474502774
 30
0.0
 10
10.6757577678
 20
10.2475190446
 30
0.0
  0
LINE
  5
292
100
AcDbEntity
  8
0
100
AcDbLine
 62
7
  6
CONTINUOUS
 10
10.6757577678
 20
10.2475190446
 11
10.6845738816
 21
10.2480702547
  0
LINE
  5
293
100
AcDbEntity
  8
0
100
AcDbLine
 62
7
  6
CONTINUOUS
 10
10.6399811077
 20
10.2508109257
 11
10.6380260641
 21
10.250721345
  0
SPLINE
  5
294
100
AcDbEntity
  8
0
100
AcDbSpline
 62
7
  6
CONTINUOUS
 70
0
 71
3
 72
18
 73
14
 74
0
 42
0.0000001
 43
0.0000001
 44
0.0000000001
 40
0.0
 40
0.0
 40
0.0
 40
0.0
 40
0.019994348
 40
0.0472331521
 40
0.0815604606
 40
0.1227700967
 40
0.1705540268
 40
0.2245543144
 40
0.34965188
 40
0.4942706706
 40
0.6541143251
 40
0.8245419359
 40
1.0
 40
1.0
 40
1.0
 40
1.0
 10
10.8039834891
 20
9.6143645402
 30
0.0
 10
10.8033846031
 20
9.6141757568
 30
0.0
 10
10.8019372661
 20
9.6138373434
 30
0.0
 10
10.7994129558
 20
9.6134025755
 30
0.0
 10
10.796212465
 20
9.6129775056
 30
0.0
 10
10.7923611326
 20
9.6125669569
 30
0.0
 10
10.7878871741
 20
9.6121753864
 30
0.0
 10
10.7807804847
 20
9.6116572917
 30
0.0
 10
10.7706284232
 20
9.6111007723
 30
0.0
 10
10.7571476033
 20
9.6105769707
 30
0.0
 10
10.7422379941
 20
9.6101903497
 30
0.0
 10
10.7263567225
 20
9.609953501
 30
0.0
 10
10.7154938686
 20
9.6099001559
 30
0.0
 10
10.7099834891
 20
9.6099001559
 30
0.0
  0
SPLINE
  5
295
100
AcDbEntity
  8
0
100
AcDbSpline
 62
7
  6
CONTINUOUS
 70
0
 71
3
 72
18
 73
14
 74
0
 42
0.0000001
 43
0.0000001
 44
0.0000000001
 40
0.0
 40
0.0
 40
0.0
 40
0.0
 40
0.1754581239
 40
0.3458858612
 40
0.5057295505
 40
0.6503483138
 40
0.7754458513
 40
0.8294461109
 40
0.8772300027
 40
0.9184396095
 40
0.9527668881
 40
0.9800056642
 40
1.0
 40
1.0
 40
1.0
 40
1.0
 10
10.7099834891
 20
10.2148834522
 30
0.0
 10
10.7154938705
 20
10.2148834522
 30
0.0
 10
10.7263567302
 20
10.2148301068
 30
0.0
 10
10.7422380087
 20
10.2145932581
 30
0.0
 10
10.7571476222
 20
10.2142066368
 30
0.0
 10
10.7706284414
 20
10.2136828349
 30
0.0
 10
10.7807805003
 20
10.2131263153
 30
0.0
 10
10.7878871868
 20
10.2126082206
 30
0.0
 10
10.7923611422
 20
10.2122166501
 30
0.0
 10
10.7962124716
 20
10.2118061019
 30
0.0
 10
10.7994129597
 20
10.2113810324
 30
0.0
 10
10.8019372678
 20
10.2109462646
 30
0.0
 10
10.8033846034
 20
10.2106078512
 30
0.0
 10
10.8039834891
 20
10.2104190679
 30
0.0
  0
SPLINE
  5
296
100
AcDbEntity
  8
0
100
AcDbSpline
 62
7
  6
CONTINUOUS
 70
0
 71
3
 72
30
 73
26
 74
0
 42
0.0000001
 43
0.0000001
 44
0.0000000001
 40
0.0
 40
0.0
 40
0.0
 40
0.0
 40
0.0045443923
 40
0.0100005048
 40
0.0236211125
 40
0.0407864674
 40
0.0613937404
 40
0.0852888679
 40
0.1122905507
 40
0.1748358175
 40
0.2471559751
 40
0.3270922151
 40
0.4122303365
 40
0.5000127524
 40
0.5877942556
 40
0.672930738
 40
0.7528635855
 40
0.8251800926
 40
0.887721789
 40
0.9147213787
 40
0.9386141769
 40
0.9592197845
 40
0.9763836386
 40
0.990002949
 40
1.0
 40
1.0
 40
1.0
 40
1.0
 10
10.854252551
 20
10.1895969407
 30
0.0
 10
10.8545057306
 20
10.1894651219
 30
0.0
 10
10.8550518094
 20
10.1891538079
 30
0.0
 10
10.8563056709
 20
10.188360106
 30
0.0
 10
10.8581647481
 20
10.1870441984
 30
0.0
 10
10.8607288747
 20
10.1850826552
 30
0.0
 10
10.8637427712
 20
10.1826489314
 30
0.0
 10
10.8671835616
 20
10.179762047
 30
0.0
 10
10.8725751408
 20
10.1751030651
 30
0.0
 10
10.8801477236
 20
10.1683176764
 30
0.0
 10
10.8900514139
 20
10.1591546089
 30
0.0
 10
10.9008650699
 20
10.1488873209
 30
0.0
 10
10.9122622693
 20
10.1378256351
 30
0.0
 10
10.923897891
 20
10.1263032735
 30
0.0
 10
10.9354201457
 20
10.1146676908
 30
0.0
 10
10.9464815578
 20
10.1032707469
 30
0.0
 10
10.9567484274
 20
10.0924574424
 30
0.0
 10
10.965911015
 20
10.0825542262
 30
0.0
 10
10.972696014
 20
10.0749820552
 30
0.0
 10
10.977354592
 20
10.0695908305
 30
0.0
 10
10.9802413465
 20
10.0661503365
 30
0.0
 10
10.9826744405
 20
10.0631366446
 30
0.0
 10
10.9846369985
 20
10.0605729329
 30
0.0
 10
10.9861145262
 20
10.0584805392
 30
0.0
 10
10.9868986422
 20
10.057217827
 30
0.0
 10
10.9871886258
 20
10.0566608659
 30
0.0
  0
SPLINE
  5
297
100
AcDbEntity
  8
0
100
AcDbSpline
 62
7
  6
CONTINUOUS
 70
0
 71
3
 72
30
 73
26
 74
0
 42
0.0000001
 43
0.0000001
 44
0.0000000001
 40
0.0
 40
0.0
 40
0.0
 40
0.0
 40
0.0045443923
 40
0.0100005048
 40
0.0236211125
 40
0.0407864674
 40
0.0613937404
 40
0.0852888679
 40
0.1122905507
 40
0.1748358175
 40
0.2471559751
 40
0.3270922151
 40
0.4122303365
 40
0.5000127524
 40
0.5877942556
 40
0.672930738
 40
0.7528635855
 40
0.8251800926
 40
0.887721789
 40
0.9147213787
 40
0.9386141769
 40
0.9592197845
 40
0.9763836386
 40
0.990002949
 40
1.0
 40
1.0
 40
1.0
 40
1.0
 10
11.008010753
 20
10.006391804
 30
0.0
 10
11.0080965681
 20
10.006119569
 30
0.0
 10
11.0082625718
 20
10.0055133007
 30
0.0
 10
11.0085879538
 20
10.0040654547
 30
0.0
 10
11.0089720327
 20
10.0018204015
 30
0.0
 10
11.0093981235
 20
9.9986202697
 30
0.0
 10
11.0098083676
 20
9.9947682204
 30
0.0
 10
11.0102000382
 20
9.9902938787
 30
0.0
 10
11.0107180627
 20
9.9831870588
 30
0.0
 10
11.0112746931
 20
9.9730344397
 30
0.0
 10
11.0117983925
 20
9.9595522061
 30
0.0
 10
11.0121847329
 20
9.9446457276
 30
0.0
 10
11.0124219769
 20
9.9287648975
 30
0.0
 10
11.012502064
 20
9.9123897305
 30
0.0
 10
11.0124219289
 20
9.8960146667
 30
0.0
 10
11.0121846721
 20
9.8801342108
 30
0.0
 10
11.0117982843
 20
9.8652282768
 30
0.0
 10
11.0112745808
 20
9.8517467176
 30
0.0
 10
11.0107179661
 20
9.8415946653
 30
0.0
 10
11.0101999067
 20
9.8344883817
 30
0.0
 10
11.0098083537
 20
9.8300143414
 30
0.0
 10
11.009397809
 20
9.8261628821
 30
0.0
 10
11.0089727292
 20
9.8229623262
 30
0.0
 10
11.0085379532
 20
9.8204380105
 30
0.0
 10
11.0081995346
 20
9.8189906845
 30
0.0
 10
11.008010753
 20
9.818391804
 30
0.0
  0
SPLINE
  5
298
100
AcDbEntity
  8
0
100
AcDbSpline
 62
7
  6
CONTINUOUS
 70
0
 71
3
 72
30
 73
26
 74
0
 42
0.0000001
 43
0.0000001
 44
0.0000000001
 40
0.0
 40
0.0
 40
0.0
 40
0.0
 40
0.0045443923
 40
0.0100005048
 40
0.0236211125
 40
0.0407864674
 40
0.0613937404
 40
0.0852888679
 40
0.1122905507
 40
0.1748358175
 40
0.2471559751
 40
0.3270922151
 40
0.4122303365
 40
0.5000127524
 40
0.5877942556
 40
0.672930738
 40
0.7528635855
 40
0.8251800926
 40
0.887721789
 40
0.9147213787
 40
0.9386141769
 40
0.9592197845
 40
0.9763836386
 40
0.990002949
 40
1.0
 40
1.0
 40
1.0
 40
1.0
 10
10.9871886258
 20
9.7681227422
 30
0.0
 10
10.987056807
 20
9.7678695626
 30
0.0
 10
10.9867454929
 20
9.7673234837
 30
0.0
 10
10.9859517911
 20
9.7660696222
 30
0.0
 10
10.9846358835
 20
9.7642105451
 30
0.0
 10
10.9826743403
 20
9.7616464185
 30
0.0
 10
10.9802406165
 20
9.758632522
 30
0.0
 10
10.9773537321
 20
9.7551917316
 30
0.0
 10
10.9726947501
 20
9.7498001524
 30
0.0
 10
10.9659093615
 20
9.7422275695
 30
0.0
 10
10.956746294
 20
9.7323238793
 30
0.0
 10
10.9464790059
 20
9.7215102233
 30
0.0
 10
10.9354173201
 20
9.7101130239
 30
0.0
 10
10.9238949586
 20
9.6984774022
 30
0.0
 10
10.9122593759
 20
9.6869551475
 30
0.0
 10
10.900862432
 20
9.6758937353
 30
0.0
 10
10.8900491275
 20
9.6656268658
 30
0.0
 10
10.8801459113
 20
9.6564642782
 30
0.0
 10
10.8725737403
 20
9.6496792792
 30
0.0
 10
10.8671825156
 20
9.6450207012
 30
0.0
 10
10.8637420216
 20
9.6421339466
 30
0.0
 10
10.8607283296
 20
9.6397008526
 30
0.0
 10
10.858164618
 20
9.6377382947
 30
0.0
 10
10.8560722243
 20
9.6362607669
 30
0.0
 10
10.8548095121
 20
9.635476651
 30
0.0
 10
10.854252551
 20
9.6351866674
 30
0.0
  0
SPLINE
  5
299
100
AcDbEntity
  8
0
100
AcDbSpline
 62
7
  6
CONTINUOUS
 70
0
 71
3
 72
30
 73
26
 74
0
 42
0.0000001
 43
0.0000001
 44
0.0000000001
 40
0.0
 40
0.0
 40
0.0
 40
0.0
 40
0.0045443923
 40
0.0100005048
 40
0.0236211125
 40
0.0407864674
 40
0.0613937404
 40
0.0852888679
 40
0.1122905507
 40
0.1748358175
 40
0.2471559751
 40
0.3270922151
 40
0.4122303365
 40
0.5000127524
 40
0.5877942556
 40
0.672930738
 40
0.7528635855
 40
0.8251800926
 40
0.887721789
 40
0.9147213787
 40
0.9386141769
 40
0.9592197845
 40
0.9763836386
 40
0.990002949
 40
1.0
 40
1.0
 40
1.0
 40
1.0
 10
10.4327783525
 20
10.0566608659
 30
0.0
 10
10.4329101713
 20
10.0569140455
 30
0.0
 10
10.4332214853
 20
10.0574601244
 30
0.0
 10
10.4340151872
 20
10.0587139859
 30
0.0
 10
10.4353310948
 20
10.060573063
 30
0.0
 10
10.437292638
 20
10.0631371896
 30
0.0
 10
10.4397263618
 20
10.0661510861
 30
0.0
 10
10.4426132462
 20
10.0695918765
 30
0.0
 10
10.4472722281
 20
10.0749834557
 30
0.0
 10
10.4540576168
 20
10.0825560385
 30
0.0
 10
10.4632206842
 20
10.0924597288
 30
0.0
 10
10.4734879723
 20
10.1032733848
 30
0.0
 10
10.4845496581
 20
10.1146705842
 30
0.0
 10
10.4960720196
 20
10.1263062059
 30
0.0
 10
10.5077076024
 20
10.1378284606
 30
0.0
 10
10.5191045463
 20
10.1488898728
 30
0.0
 10
10.5299178508
 20
10.1591567423
 30
0.0
 10
10.539821067
 20
10.1683193299
 30
0.0
 10
10.547393238
 20
10.1751043289
 30
0.0
 10
10.5527844626
 20
10.1797629069
 30
0.0
 10
10.5562249567
 20
10.1826496615
 30
0.0
 10
10.5592386486
 20
10.1850827555
 30
0.0
 10
10.5618023603
 20
10.1870453134
 30
0.0
 10
10.563894754
 20
10.1885228412
 30
0.0
 10
10.5651574661
 20
10.1893069571
 30
0.0
 10
10.5657144273
 20
10.1895969407
 30
0.0
  0
SPLINE
  5
29A
100
AcDbEntity
  8
0
100
AcDbSpline
 62
7
  6
CONTINUOUS
 70
0
 71
3
 72
18
 73
14
 74
0
 42
0.0000001
 43
0.0000001
 44
0.0000000001
 40
0.0
 40
0.0
 40
0.0
 40
0.0
 40
0.019994348
 40
0.0472331521
 40
0.0815604606
 40
0.1227700967
 40
0.1705540268
 40
0.2245543144
 40
0.34965188
 40
0.4942706706
 40
0.6541143251
 40
0.8245419359
 40
1.0
 40
1.0
 40
1.0
 40
1.0
 10
10.6159834891
 20
10.2104190679
 30
0.0
 10
10.6165823752
 20
10.2106078513
 30
0.0
 10
10.6180297122
 20
10.2109462647
 30
0.0
 10
10.6205540224
 20
10.2113810326
 30
0.0
 10
10.6237545133
 20
10.2118061025
 30
0.0
 10
10.6276058456
 20
10.2122166512
 30
0.0
 10
10.6320798041
 20
10.2126082216
 30
0.0
 10
10.6391864936
 20
10.2131263163
 30
0.0
 10
10.6493385551
 20
10.2136828358
 30
0.0
 10
10.662819375
 20
10.2142066374
 30
0.0
 10
10.6777289842
 20
10.2145932584
 30
0.0
 10
10.6936102558
 20
10.2148301071
 30
0.0
 10
10.7044731097
 20
10.2148834522
 30
0.0
 10
10.7099834891
 20
10.2148834522
 30
0.0
  0
SPLINE
  5
29B
100
AcDbEntity
  8
0
100
AcDbSpline
 62
7
  6
CONTINUOUS
 70
0
 71
3
 72
18
 73
14
 74
0
 42
0.0000001
 43
0.0000001
 44
0.0000000001
 40
0.0
 40
0.0
 40
0.0
 40
0.0
 40
0.1754581239
 40
0.3458858612
 40
0.5057295505
 40
0.6503483138
 40
0.7754458513
 40
0.8294461109
 40
0.8772300027
 40
0.9184396095
 40
0.9527668881
 40
0.9800056642
 40
1.0
 40
1.0
 40
1.0
 40
1.0
 10
10.7099834891
 20
9.6099001559
 30
0.0
 10
10.7044731078
 20
9.6099001559
 30
0.0
 10
10.6936102481
 20
9.6099535013
 30
0.0
 10
10.6777289695
 20
9.61019035
 30
0.0
 10
10.6628193561
 20
9.6105769713
 30
0.0
 10
10.6493385369
 20
9.6111007732
 30
0.0
 10
10.639186478
 20
9.6116572928
 30
0.0
 10
10.6320797915
 20
9.6121753875
 30
0.0
 10
10.627605836
 20
9.612566958
 30
0.0
 10
10.6237545067
 20
9.6129775062
 30
0.0
 10
10.6205540186
 20
9.6134025757
 30
0.0
 10
10.6180297105
 20
9.6138373435
 30
0.0
 10
10.6165823748
 20
9.6141757569
 30
0.0
 10
10.6159834891
 20
9.6143645402
 30
0.0
  0
SPLINE
  5
29C
100
AcDbEntity
  8
0
100
AcDbSpline
 62
7
  6
CONTINUOUS
 70
0
 71
3
 72
30
 73
26
 74
0
 42
0.0000001
 43
0.0000001
 44
0.0000000001
 40
0.0
 40
0.0
 40
0.0
 40
0.0
 40
0.0045443923
 40
0.0100005048
 40
0.0236211125
 40
0.0407864674
 40
0.0613937404
 40
0.0852888679
 40
0.1122905507
 40
0.1748358175
 40
0.2471559751
 40
0.3270922151
 40
0.4122303365
 40
0.5000127524
 40
0.5877942556
 40
0.672930738
 40
0.7528635855
 40
0.8251800926
 40
0.887721789
 40
0.9147213787
 40
0.9386141769
 40
0.9592197845
 40
0.9763836386
 40
0.990002949
 40
1.0
 40
1.0
 40
1.0
 40
1.0
 10
10.5657144273
 20
9.6351866674
 30
0.0
 10
10.5654612476
 20
9.6353184862
 30
0.0
 10
10.5649151688
 20
9.6356298002
 30
0.0
 10
10.5636613073
 20
9.6364235021
 30
0.0
 10
10.5618022302
 20
9.6377394097
 30
0.0
 10
10.5592381036
 20
9.6397009529
 30
0.0
 10
10.556224207
 20
9.6421346767
 30
0.0
 10
10.5527834167
 20
9.6450215611
 30
0.0
 10
10.5473918375
 20
9.649680543
 30
0.0
 10
10.5398192546
 20
9.6564659317
 30
0.0
 10
10.5299155644
 20
9.6656289992
 30
0.0
 10
10.5191019084
 20
9.6758962872
 30
0.0
 10
10.5077047089
 20
9.686957973
 30
0.0
 10
10.4960690873
 20
9.6984803345
 30
0.0
 10
10.4845468326
 20
9.7101159173
 30
0.0
 10
10.4734854204
 20
9.7215128612
 30
0.0
 10
10.4632185508
 20
9.7323261657
 30
0.0
 10
10.4540559633
 20
9.7422293819
 30
0.0
 10
10.4472709643
 20
9.7498015529
 30
0.0
 10
10.4426123862
 20
9.7551927776
 30
0.0
 10
10.4397256317
 20
9.7586332716
 30
0.0
 10
10.4372925377
 20
9.7616469635
 30
0.0
 10
10.4353299798
 20
9.7642106752
 30
0.0
 10
10.433852452
 20
9.7663030689
 30
0.0
 10
10.4330683361
 20
9.767565781
 30
0.0
 10
10.4327783525
 20
9.7681227422
 30
0.0
  0
SPLINE
  5
29D
100
AcDbEntity
  8
0
100
AcDbSpline
 62
7
  6
CONTINUOUS
 70
0
 71
3
 72
30
 73
26
 74
0
 42
0.0000001
 43
0.0000001
 44
0.0000000001
 40
0.0
 40
0.0
 40
0.0
 40
0.0
 40
0.0045443923
 40
0.0100005048
 40
0.0236211125
 40
0.0407864674
 40
0.0613937404
 40
0.0852888679
 40
0.1122905507
 40
0.1748358175
 40
0.2471559751
 40
0.3270922151
 40
0.4122303365
 40
0.5000127524
 40
0.5877942556
 40
0.672930738
 40
0.7528635855
 40
0.8251800926
 40
0.887721789
 40
0.9147213787
 40
0.9386141769
 40
0.9592197845
 40
0.9763836386
 40
0.990002949
 40
1.0
 40
1.0
 40
1.0
 40
1.0
 10
10.4119562253
 20
9.818391804
 30
0.0
 10
10.4118704102
 20
9.8186640391
 30
0.0
 10
10.4117044064
 20
9.8192703074
 30
0.0
 10
10.4113790245
 20
9.8207181534
 30
0.0
 10
10.4109949456
 20
9.8229632066
 30
0.0
 10
10.4105688548
 20
9.8261633384
 30
0.0
 10
10.4101586107
 20
9.8300153877
 30
0.0
 10
10.40976694
 20
9.8344897294
 30
0.0
 10
10.4092489155
 20
9.8415965493
 30
0.0
 10
10.4086922852
 20
9.8517491684
 30
0.0
 10
10.4081685858
 20
9.865231402
 30
0.0
 10
10.4077822453
 20
9.8801378805
 30
0.0
 10
10.4075450014
 20
9.8960187106
 30
0.0
 10
10.4074649143
 20
9.9123938776
 30
0.0
 10
10.4075450494
 20
9.9287689414
 30
0.0
 10
10.4077823061
 20
9.9446493973
 30
0.0
 10
10.408168694
 20
9.9595553313
 30
0.0
 10
10.4086923975
 20
9.9730368905
 30
0.0
 10
10.4092490122
 20
9.9831889428
 30
0.0
 10
10.4097670716
 20
9.9902952264
 30
0.0
 10
10.4101586245
 20
9.9947692667
 30
0.0
 10
10.4105691693
 20
9.998620726
 30
0.0
 10
10.4109942491
 20
10.0018212819
 30
0.0
 10
10.411429025
 20
10.0043455976
 30
0.0
 10
10.4117674436
 20
10.0057929236
 30
0.0
 10
10.4119562253
 20
10.006391804
 30
0.0
  0
SPLINE
  5
29E
100
AcDbEntity
  8
0
100
AcDbSpline
 62
7
  6
CONTINUOUS
 70
0
 71
3
 72
9
 73
5
 74
0
 42
0.0000001
 43
0.0000001
 44
0.0000000001
 40
0.0
 40
0.0
 40
0.0
 40
0.0
 40
0.5367883543
 40
1.0
 40
1.0
 40
1.0
 40
1.0
 10
10.7509319059
 20
10.2148259918
 30
0.0
 10
10.753724714
 20
10.215198907
 30
0.0
 10
10.7589142622
 20
10.2159984038
 30
0.0
 10
10.7640567934
 20
10.2170716772
 30
0.0
 10
10.7664147477
 20
10.2176647361
 30
0.0
  0
SPLINE
  5
29F
100
AcDbEntity
  8
0
100
AcDbSpline
 62
7
  6
CONTINUOUS
 70
0
 71
3
 72
16
 73
12
 74
0
 42
0.0000001
 43
0.0000001
 44
0.0000000001
 40
0.0
 40
0.0
 40
0.0
 40
0.0
 40
0.1978215632
 40
0.3741250494
 40
0.5285036587
 40
0.660810986
 40
0.7714682134
 40
0.8620793802
 40
0.9360006875
 40
0.9687119417
 40
1.0
 40
1.0
 40
1.0
 40
1.0
 10
10.7664147477
 20
10.2176647361
 30
0.0
 10
10.7674558365
 20
10.2179265847
 30
0.0
 10
10.7694159745
 20
10.2184583102
 30
0.0
 10
10.7721462867
 20
10.2193405628
 30
0.0
 10
10.7744879046
 20
10.2202567586
 30
0.0
 10
10.7764296853
 20
10.2212010653
 30
0.0
 10
10.7779638367
 20
10.2221723165
 30
0.0
 10
10.7790891481
 20
10.2231657713
 30
0.0
 10
10.7797075976
 20
10.2240628252
 30
0.0
 10
10.7799447661
 20
10.2247775763
 30
0.0
 10
10.7799834891
 20
10.2251259208
 30
0.0
 10
10.7799834891
 20
10.2252957109
 30
0.0
  0
LINE
  5
2A0
100
AcDbEntity
  8
0
100
AcDbLine
 62
7
  6
CONTINUOUS
 10
10.7489834891
 20
10.2400895914
 11
10.7545379734
 21
10.2397956331
  0
SPLINE
  5
2A1
100
AcDbEntity
  8
0
100
AcDbSpline
 62
7
  6
CONTINUOUS
 70
0
 71
3
 72
11
 73
7
 74
0
 42
0.0000001
 43
0.0000001
 44
0.0000000001
 40
0.0
 40
0.0
 40
0.0
 40
0.0
 40
0.3177660564
 40
0.5961481339
 40
0.8258848531
 40
1.0
 40
1.0
 40
1.0
 40
1.0
 10
10.7545379734
 20
10.2397956331
 30
0.0
 10
10.755330912
 20
10.2397299462
 30
0.0
 10
10.7568167877
 20
10.239585022
 30
0.0
 10
10.7588672753
 20
10.2393104974
 30
0.0
 10
10.760547321
 20
10.239000235
 30
0.0
 10
10.7615288368
 20
10.2387461542
 30
0.0
 10
10.7619401087
 20
10.2386015073
 30
0.0
  0
SPLINE
  5
2A2
100
AcDbEntity
  8
0
100
AcDbSpline
 62
7
  6
CONTINUOUS
 70
0
 71
3
 72
10
 73
6
 74
0
 42
0.0000001
 43
0.0000001
 44
0.0000000001
 40
0.0
 40
0.0
 40
0.0
 40
0.0
 40
0.3713600111
 40
0.6565150954
 40
1.0
 40
1.0
 40
1.0
 40
1.0
 10
10.7619401087
 20
10.2386015073
 30
0.0
 10
10.7620936956
 20
10.2385474898
 30
0.0
 10
10.7623659713
 20
10.2384393589
 30
0.0
 10
10.7627393
 20
10.2382437896
 30
0.0
 10
10.7629834891
 20
10.2380180396
 30
0.0
 10
10.7629834891
 20
10.2378674512
 30
0.0
  0
SPLINE
  5
2A3
100
AcDbEntity
  8
0
100
AcDbSpline
 62
7
  6
CONTINUOUS
 70
0
 71
3
 72
19
 73
15
 74
0
 42
0.0000001
 43
0.0000001
 44
0.0000000001
 40
0.0
 40
0.0
 40
0.0
 40
0.0
 40
0.1926387368
 40
0.3786668833
 40
0.5497764235
 40
0.6997355454
 40
0.8231597406
 40
0.8735532211
 40
0.9157371304
 40
0.9493152692
 40
0.9742020996
 40
0.9834449594
 40
0.9906541135
 40
1.0
 40
1.0
 40
1.0
 40
1.0
 10
10.7489834891
 20
10.2479221303
 30
0.0
 10
10.7500242236
 20
10.2478958798
 30
0.0
 10
10.7520695975
 20
10.2478276687
 30
0.0
 10
10.7550372155
 20
10.2476807133
 30
0.0
 10
10.757771546
 20
10.2474942156
 30
0.0
 10
10.7601640285
 20
10.2472769064
 30
0.0
 10
10.7619016758
 20
10.2470669114
 30
0.0
 10
10.7630545086
 20
10.2468824534
 30
0.0
 10
10.7637238774
 20
10.2467523203
 30
0.0
 10
10.764252194
 20
10.2466207249
 30
0.0
 10
10.7645997988
 20
10.2465062299
 30
0.0
 10
10.764802311
 20
10.2464073063
 30
0.0
 10
10.764916915
 20
10.2463337983
 30
0.0
 10
10.7649834891
 20
10.2462539232
 30
0.0
 10
10.7649834891
 20
10.2462034158
 30
0.0
  0
LINE
  5
2A4
100
AcDbEntity
  8
0
100
AcDbLine
 62
7
  6
CONTINUOUS
 10
10.7566026039
 20
10.2515484677
 11
10.7554077948
 21
10.2515779905
  0
SPLINE
  5
2A5
100
AcDbEntity
  8
0
100
AcDbSpline
 62
7
  6
CONTINUOUS
 70
0
 71
3
 72
13
 73
9
 74
0
 42
0.0000001
 43
0.0000001
 44
0.0000000001
 40
0.0
 40
0.0
 40
0.0
 40
0.0
 40
0.1042308324
 40
0.1920745488
 40
0.3060366422
 40
0.4458173817
 40
0.6096369399
 40
1.0
 40
1.0
 40
1.0
 40
1.0
 10
10.6599834891
 20
10.2296214898
 30
0.0
 10
10.6599834891
 20
10.2297157805
 30
0.0
 10
10.6601453271
 20
10.2298531389
 30
0.0
 10
10.6603827416
 20
10.2299708484
 30
0.0
 10
10.6606771001
 20
10.2300793478
 30
0.0
 10
10.6610400395
 20
10.2301795145
 30
0.0
 10
10.6616540439
 20
10.2303143747
 30
0.0
 10
10.6621499994
 20
10.2303896714
 30
0.0
 10
10.6625003545
 20
10.2304338973
 30
0.0
  0
LINE
  5
2A6
100
AcDbEntity
  8
0
100
AcDbLine
 62
7
  6
CONTINUOUS
 10
10.6625003545
 20
10.2304338973
 11
10.6649834891
 21
10.2306192661
  0
SPLINE
  5
2A7
100
AcDbEntity
  8
0
100
AcDbSpline
 62
7
  6
CONTINUOUS
 70
0
 71
3
 72
15
 73
11
 74
0
 42
0.0000001
 43
0.0000001
 44
0.0000000001
 40
0.0
 40
0.0
 40
0.0
 40
0.0
 40
0.3699289285
 40
0.5379066541
 40
0.6850099484
 40
0.806894691
 40
0.8998912953
 40
0.9351065894
 40
0.9629809095
 40
1.0
 40
1.0
 40
1.0
 40
1.0
 10
10.7599834891
 20
10.2304639175
 30
0.0
 10
10.7606258651
 20
10.2304429076
 30
0.0
 10
10.7615594902
 20
10.2303824794
 30
0.0
 10
10.7627412617
 20
10.2302392439
 30
0.0
 10
10.7634901535
 20
10.2301126438
 30
0.0
 10
10.7641031993
 20
10.2299692591
 30
0.0
 10
10.7645164665
 20
10.2298333434
 30
0.0
 10
10.7647608211
 20
10.2297104833
 30
0.0
 10
10.7649023786
 20
10.2296158957
 30
0.0
 10
10.7649834891
 20
10.2295139931
 30
0.0
 10
10.7649834891
 20
10.2294496756
 30
0.0
  0
SPLINE
  5
2A8
100
AcDbEntity
  8
0
100
AcDbSpline
 62
7
  6
CONTINUOUS
 70
0
 71
3
 72
19
 73
15
 74
0
 42
0.0000001
 43
0.0000001
 44
0.0000000001
 40
0.0
 40
0.0
 40
0.0
 40
0.0
 40
0.023848738
 40
0.049980659
 40
0.0800638494
 40
0.1151689531
 40
0.1559403466
 40
0.2027574837
 40
0.2557883642
 40
0.3150589435
 40
0.4520947012
 40
0.6131299843
 40
0.7965044665
 40
1.0
 40
1.0
 40
1.0
 40
1.0
 10
10.6399834891
 20
10.2252957109
 30
0.0
 10
10.6399834891
 20
10.2250402376
 30
0.0
 10
10.6400754076
 20
10.2245019355
 30
0.0
 10
10.6404666537
 20
10.2237282965
 30
0.0
 10
10.6410963576
 20
10.222971739
 30
0.0
 10
10.6419592451
 20
10.2222286503
 30
0.0
 10
10.643054302
 20
10.2214974262
 30
0.0
 10
10.6443806121
 20
10.2207798632
 30
0.0
 10
10.6459348601
 20
10.2200773423
 30
0.0
 10
10.6484281067
 20
10.2191162924
 30
0.0
 10
10.6520923946
 20
10.2179939628
 30
0.0
 10
10.657111057
 20
10.2167967165
 30
0.0
 10
10.662880703
 20
10.2157098557
 30
0.0
 10
10.6669806802
 20
10.215099213
 30
0.0
 10
10.6691415442
 20
10.2148118184
 30
0.0
  0
LINE
  5
2A9
100
AcDbEntity
  8
0
100
AcDbLine
 62
7
  6
CONTINUOUS
 10
10.6599834891
 20
10.2497697679
 11
10.6647965507
 21
10.2503375682
  0
LINE
  5
2AA
100
AcDbEntity
  8
0
100
AcDbLine
 62
7
  6
CONTINUOUS
 10
10.6647965507
 20
10.2503375682
 11
10.6720653526
 21
10.2508281219
  0
LINE
  5
2AB
100
AcDbEntity
  8
0
100
AcDbLine
 62
7
  6
CONTINUOUS
 10
10.7443971226
 20
10.2520092677
 11
10.740350212
 21
10.2520944448
  0
SPLINE
  5
2AC
100
AcDbEntity
  8
0
100
AcDbSpline
 62
7
  6
CONTINUOUS
 70
0
 71
3
 72
19
 73
15
 74
0
 42
0.0000001
 43
0.0000001
 44
0.0000000001
 40
0.0
 40
0.0
 40
0.0
 40
0.0
 40
0.199419081
 40
0.384004744
 40
0.5487157903
 40
0.6902135364
 40
0.7514263037
 40
0.805983664
 40
0.8537579679
 40
0.8947050615
 40
0.9289693783
 40
0.9570728476
 40
0.9800810051
 40
1.0
 40
1.0
 40
1.0
 40
1.0
 10
10.6874834891
 20
10.2192689342
 30
0.0
 10
10.6855449921
 20
10.2193738231
 30
0.0
 10
10.6818150347
 20
10.2196344111
 30
0.0
 10
10.676501422
 20
10.2201950705
 30
0.0
 10
10.6717745835
 20
10.2209018658
 30
0.0
 10
10.6682678295
 20
10.2216214667
 30
0.0
 10
10.6658486761
 20
10.2222725711
 30
0.0
 10
10.6643323434
 20
10.2227603666
 30
0.0
 10
10.6630320256
 20
10.2232680682
 30
0.0
 10
10.661954035
 20
10.223792996
 30
0.0
 10
10.6611025625
 20
10.2243338597
 30
0.0
 10
10.660478362
 20
10.2248902965
 30
0.0
 10
10.6600814757
 20
10.2254686716
 30
0.0
 10
10.6599834891
 20
10.225889219
 30
0.0
 10
10.6599834891
 20
10.2260831292
 30
0.0
  0
LINE
  5
2AD
100
AcDbEntity
  8
0
100
AcDbLine
 62
7
  6
CONTINUOUS
 10
10.7124834891
 20
10.2185887324
 11
10.709983485
 21
10.2185990751
  0
SPLINE
  5
2AE
100
AcDbEntity
  8
0
100
AcDbSpline
 62
7
  6
CONTINUOUS
 70
0
 71
3
 72
19
 73
15
 74
0
 42
0.0000001
 43
0.0000001
 44
0.0000000001
 40
0.0
 40
0.0
 40
0.0
 40
0.0
 40
0.0199160682
 40
0.0429004492
 40
0.0709703226
 40
0.1051998655
 40
0.1461155908
 40
0.1938635574
 40
0.2484018438
 40
0.3096047274
 40
0.4511116864
 40
0.6158606749
 40
0.8005048076
 40
1.0
 40
1.0
 40
1.0
 40
1.0
 10
10.7649834891
 20
10.2259109162
 30
0.0
 10
10.7649834891
 20
10.225717156
 30
0.0
 10
10.7648856989
 20
10.2252970864
 30
0.0
 10
10.7644888996
 20
10.2247198102
 30
0.0
 10
10.7638647955
 20
10.2241653562
 30
0.0
 10
10.7630134448
 20
10.2236272632
 30
0.0
 10
10.7619355774
 20
10.2231058455
 30
0.0
 10
10.7606353628
 20
10.2226023409
 30
0.0
 10
10.7591190731
 20
10.2221194382
 30
0.0
 10
10.7566996617
 20
10.2214761031
 30
0.0
 10
10.7531924951
 20
10.2207679025
 30
0.0
 10
10.7484653584
 20
10.2200765489
 30
0.0
 10
10.7431516065
 20
10.2195333502
 30
0.0
 10
10.7394218449
 20
10.2192850633
 30
0.0
 10
10.7374834891
 20
10.2191865622
 30
0.0
  0
SPLINE
  5
2AF
100
AcDbEntity
  8
0
100
AcDbSpline
 62
7
  6
CONTINUOUS
 70
0
 71
3
 72
9
 73
5
 74
0
 42
0.0000001
 43
0.0000001
 44
0.0000000001
 40
0.0
 40
0.0
 40
0.0
 40
0.0
 40
0.5344022413
 40
1.0
 40
1.0
 40
1.0
 40
1.0
 10
10.75171699
 20
10.2354138932
 30
0.0
 10
10.7534840084
 20
10.2353658106
 30
0.0
 10
10.7567927844
 20
10.2353517104
 30
0.0
 10
10.7600999498
 20
10.2355024268
 30
0.0
 10
10.7616338917
 20
10.2356398357
 30
0.0
  0
LINE
  5
2B0
100
AcDbEntity
  8
0
100
AcDbLine
 62
7
  6
CONTINUOUS
 10
10.7616338917
 20
10.2356398357
 11
10.7634575602
 21
10.2358444313
  0
LINE
  5
2B1
100
AcDbEntity
  8
0
100
AcDbLine
 62
7
  6
CONTINUOUS
 10
10.7634575602
 20
10.2358444313
 11
10.7649834891
 21
10.2361116207
  0
SPLINE
  5
2B2
100
AcDbEntity
  8
0
100
AcDbSpline
 62
7
  6
CONTINUOUS
 70
0
 71
3
 72
10
 73
6
 74
0
 42
0.0000001
 43
0.0000001
 44
0.0000000001
 40
0.0
 40
0.0
 40
0.0
 40
0.0
 40
0.1867251266
 40
0.4207409627
 40
1.0
 40
1.0
 40
1.0
 40
1.0
 10
10.6599834891
 20
10.2362826889
 30
0.0
 10
10.6604699131
 20
10.2361723817
 30
0.0
 10
10.6615794853
 20
10.2359848218
 30
0.0
 10
10.6642344969
 20
10.2356871981
 30
0.0
 10
10.6664068695
 20
10.2355828644
 30
0.0
 10
10.6679536503
 20
10.2355428242
 30
0.0
  0
SPLINE
  5
2B3
100
AcDbEntity
  8
0
100
AcDbSpline
 62
7
  6
CONTINUOUS
 70
0
 71
3
 72
19
 73
15
 74
0
 42
0.0000001
 43
0.0000001
 44
0.0000000001
 40
0.0
 40
0.0
 40
0.0
 40
0.0
 40
0.1994871395
 40
0.3841249285
 40
0.5488632183
 40
0.6903587063
 40
0.7515587871
 40
0.8060966023
 40
0.8538458135
 40
0.8947640775
 40
0.9289988565
 40
0.957077142
 40
0.9800722205
 40
1.0
 40
1.0
 40
1.0
 40
1.0
 10
10.7374834891
 20
10.2181646655
 30
0.0
 10
10.7394218842
 20
10.2182632347
 30
0.0
 10
10.7431517282
 20
10.2185117054
 30
0.0
 10
10.748465533
 20
10.2190552761
 30
0.0
 10
10.7531926271
 20
10.2197470813
 30
0.0
 10
10.7566996805
 20
10.2204557583
 30
0.0
 10
10.759119
 20
10.221099491
 30
0.0
 10
10.7606352769
 20
10.2215826978
 30
0.0
 10
10.7619354956
 20
10.2220865263
 30
0.0
 10
10.7630133664
 20
10.2226083165
 30
0.0
 10
10.7638647275
 20
10.2231468078
 30
0.0
 10
10.7644888668
 20
10.2237016595
 30
0.0
 10
10.7648856926
 20
10.2242793309
 30
0.0
 10
10.7649834891
 20
10.2246996447
 30
0.0
 10
10.7649834891
 20
10.224893531
 30
0.0
  0
SPLINE
  5
2B4
100
AcDbEntity
  8
0
100
AcDbSpline
 62
7
  6
CONTINUOUS
 70
0
 71
3
 72
11
 73
7
 74
0
 42
0.0000001
 43
0.0000001
 44
0.0000000001
 40
0.0
 40
0.0
 40
0.0
 40
0.0
 40
0.1878207949
 40
0.4057432421
 40
0.6730956491
 40
1.0
 40
1.0
 40
1.0
 40
1.0
 10
10.6599834891
 20
10.225065859
 30
0.0
 10
10.6599834891
 20
10.2248678358
 30
0.0
 10
10.6600859691
 20
10.2244373608
 30
0.0
 10
10.6604991548
 20
10.2238476529
 30
0.0
 10
10.6611477717
 20
10.2232808441
 30
0.0
 10
10.6616816153
 20
10.2229487866
 30
0.0
 10
10.6619830981
 20
10.2227817543
 30
0.0
  0
SPLINE
  5
2B5
100
AcDbEntity
  8
0
100
AcDbSpline
 62
7
  6
CONTINUOUS
 70
0
 71
3
 72
13
 73
9
 74
0
 42
0.0000001
 43
0.0000001
 44
0.0000000001
 40
0.0
 40
0.0
 40
0.0
 40
0.0
 40
0.0721036556
 40
0.1611640005
 40
0.2667691668
 40
0.3880687876
 40
0.6724475262
 40
1.0
 40
1.0
 40
1.0
 40
1.0
 10
10.6619830981
 20
10.2227817543
 30
0.0
 10
10.6625305737
 20
10.2224784331
 30
0.0
 10
10.6638147358
 20
10.2219109794
 30
0.0
 10
10.6660161485
 20
10.2211873163
 30
0.0
 10
10.6686767564
 20
10.22051352
 30
0.0
 10
10.6730314286
 20
10.2196498021
 30
0.0
 10
10.6793460483
 20
10.2188079663
 30
0.0
 10
10.6846443732
 20
10.2184008163
 30
0.0
 10
10.6874834891
 20
10.218247093
 30
0.0
  0
LINE
  5
2B6
100
AcDbEntity
  8
0
100
AcDbLine
 62
7
  6
CONTINUOUS
 10
10.7649834891
 20
10.2371215726
 11
10.7616495969
 21
10.2366515027
  0
LINE
  5
2B7
100
AcDbEntity
  8
0
100
AcDbLine
 62
7
  6
CONTINUOUS
 10
10.7616495969
 20
10.2366515027
 11
10.7570463349
 21
10.2364088324
  0
SPLINE
  5
2B8
100
AcDbEntity
  8
0
100
AcDbSpline
 62
7
  6
CONTINUOUS
 70
0
 71
3
 72
19
 73
15
 74
0
 42
0.0000001
 43
0.0000001
 44
0.0000000001
 40
0.0
 40
0.0
 40
0.0
 40
0.0
 40
0.0144904532
 40
0.0327389348
 40
0.0568724988
 40
0.0877435366
 40
0.1256813633
 40
0.1708047648
 40
0.2231359065
 40
0.2826475791
 40
0.4229402432
 40
0.5905054405
 40
0.7835003127
 40
1.0
 40
1.0
 40
1.0
 40
1.0
 10
10.6649844117
 20
10.2443076631
 30
0.0
 10
10.6649841934
 20
10.2442584789
 30
0.0
 10
10.6650201619
 20
10.2441469426
 30
0.0
 10
10.6651557896
 20
10.2440050795
 30
0.0
 10
10.6653646143
 20
10.2438682857
 30
0.0
 10
10.6656507221
 20
10.2437337054
 30
0.0
 10
10.6660141844
 20
10.2436007461
 30
0.0
 10
10.6664549671
 20
10.2434699366
 30
0.0
 10
10.6669722281
 20
10.2433416949
 30
0.0
 10
10.6678097439
 20
10.2431649831
 30
0.0
 10
10.6690402751
 20
10.2429601629
 30
0.0
 10
10.6707263778
 20
10.2427413379
 30
0.0
 10
10.6726749956
 20
10.2425409471
 30
0.0
 10
10.6740603959
 20
10.2424275675
 30
0.0
 10
10.6747932764
 20
10.2423736423
 30
0.0
  0
LINE
  5
2B9
100
AcDbEntity
  8
0
100
AcDbLine
 62
7
  6
CONTINUOUS
 10
10.6747932764
 20
10.2423736423
 11
10.6841611383
 21
10.2419348148
  0
SPLINE
  5
2BA
100
AcDbEntity
  8
0
100
AcDbSpline
 62
7
  6
CONTINUOUS
 70
0
 71
3
 72
16
 73
12
 74
0
 42
0.0000001
 43
0.0000001
 44
0.0000000001
 40
0.0
 40
0.0
 40
0.0
 40
0.0
 40
0.0348169471
 40
0.0596649083
 40
0.090876945
 40
0.173863774
 40
0.2852357387
 40
0.4249285742
 40
0.5916972745
 40
0.7839461193
 40
1.0
 40
1.0
 40
1.0
 40
1.0
 10
10.7649834891
 20
10.2436450995
 30
0.0
 10
10.7649834891
 20
10.2435858788
 30
0.0
 10
10.7649193307
 20
10.2434900956
 30
0.0
 10
10.7647951769
 20
10.2434013527
 30
0.0
 10
10.7645847397
 20
10.2432899654
 30
0.0
 10
10.7642204953
 20
10.2431662575
 30
0.0
 10
10.7636678155
 20
10.2430326672
 30
0.0
 10
10.7629675947
 20
10.2429091176
 30
0.0
 10
10.7621268495
 20
10.2427953777
 30
0.0
 10
10.7611538976
 20
10.2426935345
 30
0.0
 10
10.76046162
 20
10.2426374385
 30
0.0
 10
10.7600950732
 20
10.2426111305
 30
0.0
  0
LINE
  5
2BB
100
AcDbEntity
  8
0
100
AcDbLine
 62
7
  6
CONTINUOUS
 10
10.7600950732
 20
10.2426111305
 11
10.7547846993
 21
10.2424036167
  0
LINE
  5
2BC
100
AcDbEntity
  8
0
100
AcDbLine
 62
7
  6
CONTINUOUS
 10
10.6949834891
 20
10.2428614633
 11
10.6817431722
 21
10.2430142907
  0
SPLINE
  5
2BD
100
AcDbEntity
  8
0
100
AcDbSpline
 62
7
  6
CONTINUOUS
 70
0
 71
3
 72
17
 73
13
 74
0
 42
0.0000001
 43
0.0000001
 44
0.0000000001
 40
0.0
 40
0.0
 40
0.0
 40
0.0
 40
0.403001079
 40
0.572486608
 40
0.7163206588
 40
0.7777415089
 40
0.8318277553
 40
0.8784094373
 40
0.9173492319
 40
0.948577237
 40
0.972224766
 40
1.0
 40
1.0
 40
1.0
 40
1.0
 10
10.6817431722
 20
10.2430142907
 30
0.0
 10
10.6794442157
 20
10.2430953591
 30
0.0
 10
10.6761791406
 20
10.243254142
 30
0.0
 10
10.672104171
 20
10.243594968
 30
0.0
 10
10.6699781555
 20
10.2438353398
 30
0.0
 10
10.6685134493
 20
10.2440518198
 30
0.0
 10
10.6676023934
 20
10.2442123322
 30
0.0
 10
10.6668221099
 20
10.2443795956
 30
0.0
 10
10.6661799074
 20
10.2445491674
 30
0.0
 10
10.665667164
 20
10.2447290018
 30
0.0
 10
10.6652573997
 20
10.2449202211
 30
0.0
 10
10.6649850348
 20
10.2451537197
 30
0.0
 10
10.6649846664
 20
10.2453122641
 30
0.0
  0
SPLINE
  5
2BE
100
AcDbEntity
  8
0
100
AcDbSpline
 62
7
  6
CONTINUOUS
 70
0
 71
3
 72
16
 73
12
 74
0
 42
0.0000001
 43
0.0000001
 44
0.0000000001
 40
0.0
 40
0.0
 40
0.0
 40
0.0
 40
0.0078361255
 40
0.0217587164
 40
0.0722223359
 40
0.1537905817
 40
0.2662117778
 40
0.4087840406
 40
0.579878679
 40
0.7775906947
 40
1.0
 40
1.0
 40
1.0
 40
1.0
 10
10.7649834891
 20
10.2500523632
 30
0.0
 10
10.7649834891
 20
10.2500393526
 30
0.0
 10
10.7649558861
 20
10.2500081504
 30
0.0
 10
10.7648465351
 20
10.2499638567
 30
0.0
 10
10.7646063013
 20
10.2499124499
 30
0.0
 10
10.7642049716
 20
10.2498619768
 30
0.0
 10
10.763647433
 20
10.2498144018
 30
0.0
 10
10.7629413906
 20
10.2497731736
 30
0.0
 10
10.7620929394
 20
10.2497381224
 30
0.0
 10
10.761111738
 20
10.249710048
 30
0.0
 10
10.7604143033
 20
10.2496969288
 30
0.0
 10
10.7600450719
 20
10.2496913991
 30
0.0
  0
LINE
  5
2BF
100
AcDbEntity
  8
0
100
AcDbLine
 62
7
  6
CONTINUOUS
 10
10.7600450719
 20
10.2496913991
 11
10.7548472364
 21
10.2496826717
  0
LINE
  5
2C0
100
AcDbEntity
  8
0
100
AcDbLine
 62
7
  6
CONTINUOUS
 10
10.6849834891
 20
10.2520593003
 11
10.6809644955
 21
10.2519927198
  0
LINE
  5
2C1
100
AcDbEntity
  8
0
100
AcDbLine
 62
7
  6
CONTINUOUS
 10
10.6809644955
 20
10.2519927198
 11
10.6789529658
 21
10.2519202357
  0
LINE
  5
2C2
100
AcDbEntity
  8
0
100
AcDbLine
 62
7
  6
CONTINUOUS
 10
10.6789529658
 20
10.2519202378
 11
10.6755645578
 21
10.2518369172
  0
LINE
  5
2C3
100
AcDbEntity
  8
0
100
AcDbLine
 62
7
  6
CONTINUOUS
 10
10.6755645578
 20
10.2518369172
 11
10.6738226637
 21
10.2517957413
  0
LINE
  5
2C4
100
AcDbEntity
  8
0
100
AcDbLine
 62
7
  6
CONTINUOUS
 10
10.6680970355
 20
10.2516682192
 11
10.6599834891
 21
10.2515219156
  0
LINE
  5
2C5
100
AcDbEntity
  8
0
100
AcDbLine
 62
7
  6
CONTINUOUS
 10
10.6778888687
 20
10.2497972879
 11
10.6637288562
 21
10.2490432312
  0
LINE
  5
2C6
100
AcDbEntity
  8
0
100
AcDbLine
 62
7
  6
CONTINUOUS
 10
10.6637288562
 20
10.2490432312
 11
10.652010027
 21
10.2479685364
  0
SPLINE
  5
2C7
100
AcDbEntity
  8
0
100
AcDbSpline
 62
7
  6
CONTINUOUS
 70
0
 71
3
 72
14
 73
10
 74
0
 42
0.0000001
 43
0.0000001
 44
0.0000000001
 40
0.0
 40
0.0
 40
0.0
 40
0.0
 40
0.3699541981
 40
0.5261779999
 40
0.6622978784
 40
0.7777599944
 40
0.8723669383
 40
0.9462103735
 40
1.0
 40
1.0
 40
1.0
 40
1.0
 10
10.652010027
 20
10.2479685364
 30
0.0
 10
10.6505304982
 20
10.2477913167
 30
0.0
 10
10.6484290347
 20
10.2475108268
 30
0.0
 10
10.6457990827
 20
10.2470627763
 30
0.0
 10
10.6441884263
 20
10.2467385647
 30
0.0
 10
10.6428333229
 20
10.2464087591
 30
0.0
 10
10.6417377837
 20
10.2460758044
 30
0.0
 10
10.6409067845
 20
10.2457428222
 30
0.0
 10
10.6404564422
 20
10.2454833316
 30
0.0
 10
10.6402905784
 20
10.2453439462
 30
0.0
  0
LINE
  5
2C8
100
AcDbEntity
  8
0
100
AcDbLine
 62
7
  6
CONTINUOUS
 10
10.6402905784
 20
10.2453439462
 11
10.6399847209
 21
10.2448295308
  0
SPLINE
  5
2C9
100
AcDbEntity
  8
0
100
AcDbSpline
 62
7
  6
CONTINUOUS
 70
0
 71
3
 72
12
 73
8
 74
0
 42
0.0000001
 43
0.0000001
 44
0.0000000001
 40
0.0
 40
0.0
 40
0.0
 40
0.0
 40
0.3023297073
 40
0.5828332404
 40
0.8208132857
 40
0.9186867437
 40
1.0
 40
1.0
 40
1.0
 40
1.0
 10
10.6732499883
 20
10.2365521202
 30
0.0
 10
10.6719089875
 20
10.2365200256
 30
0.0
 10
10.6693223832
 20
10.2365033896
 30
0.0
 10
10.6656816327
 20
10.2366156962
 30
0.0
 10
10.6629529925
 20
10.2368245989
 30
0.0
 10
10.6611179913
 20
10.2370694915
 30
0.0
 10
10.66033534
 20
10.237212791
 30
0.0
 10
10.6599834891
 20
10.2372925284
 30
0.0
  0
LINE
  5
2CA
100
AcDbEntity
  8
0
100
AcDbLine
 62
7
  6
CONTINUOUS
 10
10.7551070923
 20
10.2486787901
 11
10.7602636811
 21
10.2486930995
  0
LINE
  5
2CB
100
AcDbEntity
  8
0
100
AcDbLine
 62
7
  6
CONTINUOUS
 10
10.7602636811
 20
10.2486930995
 11
10.7642334986
 21
10.2488665255
  0
LINE
  5
2CC
100
AcDbEntity
  8
0
100
AcDbLine
 62
7
  6
CONTINUOUS
 10
10.7642334986
 20
10.2488665255
 11
10.7646013486
 21
10.2489148728
  0
LINE
  5
2CD
100
AcDbEntity
  8
0
100
AcDbLine
 62
7
  6
CONTINUOUS
 10
10.7647751295
 20
10.2489485022
 11
10.7649834891
 21
10.2490508445
  0
LINE
  5
2CE
100
AcDbEntity
  8
0
100
AcDbLine
 62
7
  6
CONTINUOUS
 10
10.7489834891
 20
10.241434475
 11
10.7550895287
 21
10.2414017179
  0
LINE
  5
2CF
100
AcDbEntity
  8
0
100
AcDbLine
 62
7
  6
CONTINUOUS
 10
10.7550895287
 20
10.2414017179
 11
10.7602555007
 21
10.2416165344
  0
LINE
  5
2D0
100
AcDbEntity
  8
0
100
AcDbLine
 62
7
  6
CONTINUOUS
 10
10.7602555007
 20
10.2416165344
 11
10.7637393964
 21
10.2420485792
  0
SPLINE
  5
2D1
100
AcDbEntity
  8
0
100
AcDbSpline
 62
7
  6
CONTINUOUS
 70
0
 71
3
 72
12
 73
8
 74
0
 42
0.0000001
 43
0.0000001
 44
0.0000000001
 40
0.0
 40
0.0
 40
0.0
 40
0.0
 40
0.3897507509
 40
0.680413944
 40
0.7898757814
 40
0.8771591221
 40
1.0
 40
1.0
 40
1.0
 40
1.0
 10
10.7637393964
 20
10.2420485792
 30
0.0
 10
10.7639209516
 20
10.2420876307
 30
0.0
 10
10.7642360696
 20
10.2421649348
 30
0.0
 10
10.7645929269
 20
10.2422876539
 30
0.0
 10
10.764799026
 20
10.2423980021
 30
0.0
 10
10.7649209008
 20
10.2424861564
 30
0.0
 10
10.7649834891
 20
10.2425808923
 30
0.0
 10
10.7649834891
 20
10.2426394232
 30
0.0
  0
LINE
  5
2D2
100
AcDbEntity
  8
0
100
AcDbLine
 62
7
  6
CONTINUOUS
 10
10.7099834891
 20
10.2523524143
 11
10.7066119345
 21
10.2523433925
  0
LINE
  5
2D3
100
AcDbEntity
  8
0
100
AcDbLine
 62
7
  6
CONTINUOUS
 10
10.7066119345
 20
10.2523433925
 11
10.7049834891
 21
10.2523303134
  0
LINE
  5
2D4
100
AcDbEntity
  8
0
100
AcDbLine
 62
7
  6
CONTINUOUS
 10
10.6680791533
 20
10.2506673693
 11
10.6704110519
 21
10.2507178215
  0
SPLINE
  5
2D5
100
AcDbEntity
  8
0
100
AcDbSpline
 62
7
  6
CONTINUOUS
 70
0
 71
3
 72
11
 73
7
 74
0
 42
0.0000001
 43
0.0000001
 44
0.0000000001
 40
0.0
 40
0.0
 40
0.0
 40
0.0
 40
0.1594482331
 40
0.3785483153
 40
0.658869246
 40
1.0
 40
1.0
 40
1.0
 40
1.0
 10
10.6403874275
 20
10.2444152083
 30
0.0
 10
10.6405936173
 20
10.244566328
 30
0.0
 10
10.6411386293
 20
10.2448455157
 30
0.0
 10
10.6421323526
 20
10.2452040465
 30
0.0
 10
10.6434333024
 20
10.2455611516
 30
0.0
 10
10.6444064878
 20
10.2457755798
 30
0.0
 10
10.6449425003
 20
10.2458842941
 30
0.0
  0
LINE
  5
2D6
100
AcDbEntity
  8
0
100
AcDbLine
 62
7
  6
CONTINUOUS
 10
10.6449425003
 20
10.2458842941
 11
10.6489705083
 21
10.2465667893
  0
LINE
  5
2D7
100
AcDbEntity
  8
0
100
AcDbLine
 62
7
  6
CONTINUOUS
 10
10.6489705083
 20
10.2465667893
 11
10.6535390474
 21
10.2471416794
  0
LINE
  5
2D8
100
AcDbEntity
  8
0
100
AcDbLine
 62
7
  6
CONTINUOUS
 10
10.6535390474
 20
10.2471416794
 11
10.6686677441
 21
10.2483562426
  0
ENDSEC
  0
SECTION
  2
OBJECTS
  0
DICTIONARY
  5
C
100
AcDbDictionary
280
0
281
1
  3
ACAD_GROUP
350
D
  3
ACAD_MLINESTYLE
350
17
  3
ACAD_LAYOUT
350
1A
  3
ACAD_PLOTSETTINGS
350
19
  3
ACAD_PLOTSTYLENAME
350
E
  0
DICTIONARY
  5
D
102
{ACAD_REACTORS
330
C
102
}
100
AcDbDictionary
280
0
281
1
  0
ACDBDICTIONARYWDFLT
  5
E
102
{ACAD_REACTORS
330
C
102
}
100
AcDbDictionary
281
1
  3
Normal
350
F
100
AcDbDictionaryWithDefault
340
F
  0
DICTIONARY
  5
17
102
{ACAD_REACTORS
330
C
102
}
100
AcDbDictionary
280
0
281
1
  3
Standard
350
18
  0
DICTIONARY
  5
19
102
{ACAD_REACTORS
330
C
102
}
100
AcDbDictionary
281
1
  0
DICTIONARY
  5
1A
102
{ACAD_REACTORS
330
C
102
}
100
AcDbDictionary
281
1
  3
Model
350
2D9
  3
Layout1
350
2DA
  0
ACDBPLACEHOLDER
  5
F
102
{ACAD_REACTORS
330
E
102
}
  0
MLINESTYLE
  5
18
102
{ACAD_REACTORS
330
17
102
}
100
AcDbMlineStyle
  2
STANDARD
 70
0
  3

 62
256
 51
90.0
 52
90.0
 71
2
 49
0.5
 62
256
  6
BYLAYER
 49
-0.5
 62
256
  6
BYLAYER
  0
LAYOUT
  5
2D9
102
{ACAD_REACTORS
330
1A
102
}
100
AcDbPlotSettings
  1

  2
none_device
  4
ANSI_C_(22.00_x_17.00_Inches)
  6

 40
0.0
 41
0.0
 42
0.0
 43
0.0
 44
558.8
 45
431.8
 46
0.0
 47
0.0
 48
0.0
 49
0.0
140
0.0
141
0.0
142
1.0
143
1.0
 70
1024
 72
0
 73
0
 74
0
  7

 75
0
147
1.0
148
0.0
149
0.0
100
AcDbLayout
  1
Model
 70
0
 71
0
 10
0.0
 20
0.0
 11
22.0
 21
17.0
 12
0.0
 22
0.0
 32
0.0
 14
0.0
 24
0.0
 34
0.0
 15
0.0
 25
0.0
 35
0.0
146
0.0
 13
0.0
 23
0.0
 33
0.0
 16
1.0
 26
0.0
 36
0.0
 17
0.0
 27
1.0
 37
0.0
 76
0
330
202
345
0
346
0
  0
LAYOUT
  5
2DA
102
{ACAD_REACTORS
330
1A
102
}
100
AcDbPlotSettings
  1

  2
none_device
  4
ANSI_C_(22.00_x_17.00_Inches)
  6

 40
0.0
 41
0.0
 42
0.0
 43
0.0
 44
558.8
 45
431.8
 46
0.0
 47
0.0
 48
0.0
 49
0.0
140
0.0
141
0.0
142
1.0
143
1.0
 70
0
 72
0
 73
0
 74
0
  7

 75
0
147
1.0
148
0.0
149
0.0
100
AcDbLayout
  1
Layout1
 70
0
 71
1
 10
0.0
 20
0.0
 11
22.0
 21
17.0
 12
0.0
 22
0.0
 32
0.0
 14
0.0
 24
0.0
 34
0.0
 15
0.0
 25
0.0
 35
0.0
146
0.0
 13
0.0
 23
0.0
 33
0.0
 16
1.0
 26
0.0
 36
0.0
 17
0.0
 27
1.0
 37
0.0
 76
0
330
203
345
0
346
0
  0
ENDSEC
  0
EOF
