  0
SECTION
  2
HEADER
  9
$ACADVER
  1
AC1015
  9
$DWGCODEPAGE
  3
ANSI_1252
  9
$EXTMAX
 10
11.6929133858
 20
8.2677165354
 30
0.0
  9
$EXTMIN
 10
0.0
 20
0.0
 30
0.0
  9
$LIMMIN
 10
0.0
 20
0.0
  9
$LIMMAX
 10
11.6929133858
 20
8.2677165354
  9
$VIEWCTR
 10
5.8464566929
 20
4.1338582677
  9
$VIEWSIZE
 40
8.2677165354
  9
$CLAYER
  8
0
  9
$LTSCALE
 40
0.6431102362
  9
$CELTYPE
  6
BYLAYER
  9
$DIMSCALE
 40
1.0
  9
$DIMASZ
 40
0.1
  9
$DIMEXO
 40
0.0730807087
  9
$DIMDLI
 40
0.4443307087
  9
$DIMEXE
 40
0.2104724409
  9
$DIMCEN
 40
0.1052362205
  9
$DIMLFAC
 40
1.0
  9
$DIMBLK
  1
_FILLED
  9
$DIMTXT
 40
0.08
  9
$DIMTOL
 70
1
  9
$DIMLIM
 70
0
  9
$DIMTFAC
 40
1.0
  9
$DIMTP
 40
0.01
  9
$DIMTM
 40
0.01
  9
$PDMODE
 70
3
  9
$PDSIZE
 40
0.06
  9
$HANDSEED
  5
4B3
  9
$TILEMODE
 70
1
  9
$MEASUREMENT
 70
0
  9
$INSUNITS
 70
1
  0
ENDSEC
  0
SECTION
  2
CLASSES
  0
CLASS
  1
ACDBDICTIONARYWDFLT
  2
AcDbDictionaryWithDefault
  3
AutoCAD 2000
 90
0
280
0
281
0
  0
CLASS
  1
ACDBPLACEHOLDER
  2
AcDbPlaceHolder
  3
AutoCAD 2000
 90
0
280
0
281
0
  0
CLASS
  1
LAYOUT
  2
AcDbLayout
  3
AutoCAD 2000
 90
0
280
0
281
0
  0
ENDSEC
  0
SECTION
  2
TABLES
  0
TABLE
  2
VPORT
  5
8
100
AcDbSymbolTable
 70
2
  0
VPORT
  5
1F4
100
AcDbSymbolTableRecord
100
AcDbViewportTableRecord
  2
*ACTIVE
 70
0
 10
0.0
 20
0.0
 11
1.0
 21
1.0
 12
5.8464566929
 22
4.1338582677
 13
0.0
 23
0.0
 14
1.0
 24
1.0
 15
0.0
 25
0.0
 16
0.0
 26
0.0
 36
1.0
 17
0.0
 27
0.0
 37
0.0
 40
8.2677165354
 41
1.4142857143
 42
50.0
 43
0.0
 44
0.0
 50
0.0
 51
0.0
 71
0
 72
100
 73
1
 74
1
 75
0
 76
0
 77
0
 78
0
  0
ENDTAB
  0
TABLE
  2
LTYPE
  5
5
100
AcDbSymbolTable
 70
6
  0
LTYPE
  5
14
100
AcDbSymbolTableRecord
100
AcDbLinetypeTableRecord
  2
BYBLOCK
 70
0
  3

 72
65
 73
0
 40
0.0
  0
LTYPE
  5
15
100
AcDbSymbolTableRecord
100
AcDbLinetypeTableRecord
  2
BYLAYER
 70
0
  3

 72
65
 73
0
 40
0.0
  0
LTYPE
  5
16
100
AcDbSymbolTableRecord
100
AcDbLinetypeTableRecord
  2
CONTINUOUS
 70
64
  3
Solid line
 72
65
 73
0
 40
0.0
  0
LTYPE
  5
1F5
100
AcDbSymbolTableRecord
100
AcDbLinetypeTableRecord
  2
CENTER
 70
64
  3
____ _ ____ _ ____ _ ____ _ ____ _ ____ _ ____
 72
65
 73
4
 40
0.6
 49
0.375
 74
0
 49
-0.075
 74
0
 49
0.075
 74
0
 49
-0.075
 74
0
  0
LTYPE
  5
1F6
100
AcDbSymbolTableRecord
100
AcDbLinetypeTableRecord
  2
HIDDEN
 70
64
  3
- - - - - - - - - - - - - - - - - - - -
 72
65
 73
2
 40
0.2
 49
0.1
 74
0
 49
-0.1
 74
0
  0
LTYPE
  5
1F7
100
AcDbSymbolTableRecord
100
AcDbLinetypeTableRecord
  2
PHANTOM
 70
64
  3
_____ _ _ _____ _ _ _____ _ _ _____
 72
65
 73
6
 40
0.8
 49
0.45
 74
0
 49
-0.05
 74
0
 49
0.1
 74
0
 49
-0.05
 74
0
 49
0.1
 74
0
 49
-0.05
 74
0
  0
LTYPE
  5
1F8
100
AcDbSymbolTableRecord
100
AcDbLinetypeTableRecord
  2
DOT
 70
64
  3
. . . . . . . . . . . . . . . . . . . .
 72
65
 73
2
 40
0.2
 49
0.1
 74
0
 49
-0.1
 74
0
  0
LTYPE
  5
1F9
100
AcDbSymbolTableRecord
100
AcDbLinetypeTableRecord
  2
DASHED
 70
64
  3
- - - - - - - - - - - - - - - - - - - -
 72
65
 73
2
 40
0.2
 49
0.1
 74
0
 49
-0.1
 74
0
  0
ENDTAB
  0
TABLE
  2
LAYER
  5
2
100
AcDbSymbolTable
 70
36
  0
LAYER
  5
10
100
AcDbSymbolTableRecord
100
AcDbLayerTableRecord
  2
0
 70
0
 62
7
  6
CONTINUOUS
370
-3
390
F
  0
LAYER
  5
1FA
100
AcDbSymbolTableRecord
100
AcDbLayerTableRecord
  2
DEFAULT_1
 70
0
 62
7
  6
CENTER
370
-3
390
F
  0
LAYER
  5
1FB
100
AcDbSymbolTableRecord
100
AcDbLayerTableRecord
  2
DEFAULT_2
 70
0
 62
8
  6
HIDDEN
370
-3
390
F
  0
LAYER
  5
1FC
100
AcDbSymbolTableRecord
100
AcDbLayerTableRecord
  2
DEFAULT_3
 70
0
 62
7
  6
PHANTOM
370
-3
390
F
  0
LAYER
  5
1FD
100
AcDbSymbolTableRecord
100
AcDbLayerTableRecord
  2
DEFAULT_COORDINATE_SYSTEM
 70
0
 62
7
  6
CONTINUOUS
370
-3
390
F
  0
LAYER
  5
1FE
100
AcDbSymbolTableRecord
100
AcDbLayerTableRecord
  2
DEFAULT_DATUM_AXES
 70
0
 62
7
  6
CONTINUOUS
370
-3
390
F
  0
LAYER
  5
1FF
100
AcDbSymbolTableRecord
100
AcDbLayerTableRecord
  2
DEFAULT_DATUM_CURVES
 70
0
 62
7
  6
CONTINUOUS
370
-3
390
F
  0
LAYER
  5
200
100
AcDbSymbolTableRecord
100
AcDbLayerTableRecord
  2
DEFAULT_DATUM_PLANES
 70
0
 62
7
  6
CONTINUOUS
370
-3
390
F
  0
ENDTAB
  0
TABLE
  2
STYLE
  5
3
100
AcDbSymbolTable
 70
1
  0
STYLE
  5
11
100
AcDbSymbolTableRecord
100
AcDbTextStyleTableRecord
  2
STANDARD
 70
0
 40
0.0
 41
0.8
 50
0.0
 71
0
 42
0.2
  3
txt
  4

  0
STYLE
  5
201
100
AcDbSymbolTableRecord
100
AcDbTextStyleTableRecord
  2
TEXTSTYLE_1
 70
0
 40
0.0
 41
0.8
 50
0.0
 71
0
 42
0.2
  3
gdt
  4

  0
ENDTAB
  0
TABLE
  2
VIEW
  5
6
100
AcDbSymbolTable
 70
0
  0
ENDTAB
  0
TABLE
  2
UCS
  5
7
100
AcDbSymbolTable
 70
0
  0
ENDTAB
  0
TABLE
  2
APPID
  5
9
100
AcDbSymbolTable
 70
1
  0
APPID
  5
202
100
AcDbSymbolTableRecord
100
AcDbRegAppTableRecord
  2
ACAD
 70
0
  0
ENDTAB
  0
TABLE
  2
BLOCK_RECORD
  5
1
100
AcDbSymbolTable
 70
0
  0
BLOCK_RECORD
  5
203
100
AcDbSymbolTableRecord
100
AcDbBlockTableRecord
  2
*Model_Space
  0
BLOCK_RECORD
  5
204
100
AcDbSymbolTableRecord
100
AcDbBlockTableRecord
  2
*Paper_Space
  0
ENDTAB
  0
TABLE
  2
DIMSTYLE
  5
A
100
AcDbSymbolTable
 70
1
100
AcDbDimStyleTable
 71
0
  0
DIMSTYLE
105
205
100
AcDbSymbolTableRecord
100
AcDbDimStyleTableRecord
  2
STANDARD
 70
0
  3

  4

 40
1.0
 41
0.1
 42
0.0625
 43
0.38
 44
0.18
 45
0.0
 46
0.0
 47
0.01
 48
0.01
140
0.08
141
0.09
142
0.0
143
25.4
144
1.0
145
0.0
146
1.0
147
0.09
 71
1.0
 72
0.0
 73
1
 74
1
 75
0
 76
0
 77
0
 78
4
170
0
171
2
172
0
173
0
174
0
175
0
176
0
177
0
178
0
270
2
271
2
272
2
273
2
274
2
275
0
280
0
281
0
282
0
283
1
284
4
285
0
286
0
287
3
288
0
340
11
  0
ENDTAB
  0
ENDSEC
  0
SECTION
  2
BLOCKS
  0
BLOCK
  5
20
100
AcDbEntity
  8
0
100
AcDbBlockBegin
  2
*Model_Space
 70
0
 10
0.0
 20
0.0
 30
0.0
  3
*Model_Space
  1

  0
ENDBLK
  5
21
100
AcDbEntity
  8
0
100
AcDbBlockEnd
  0
BLOCK
  5
1C
100
AcDbEntity
  8
0
100
AcDbBlockBegin
  2
*Paper_Space
 70
0
 10
0.0
 20
0.0
 30
0.0
  3
*Paper_Space
  1

  0
ENDBLK
  5
1D
100
AcDbEntity
  8
0
100
AcDbBlockEnd
  0
ENDSEC
  0
SECTION
  2
ENTITIES
  0
LINE
  5
206
100
AcDbEntity
  8
0
100
AcDbLine
 62
6
  6
CONTINUOUS
 10
5.2612029673
 20
5.8419180144
 11
5.3192029673
 21
5.8607633568
  0
LINE
  5
207
100
AcDbEntity
  8
0
100
AcDbLine
 62
9
  6
CONTINUOUS
 10
4.7237055608
 20
2.1307633568
 11
6.8237003738
 21
2.1307633568
  0
LINE
  5
208
100
AcDbEntity
  8
0
100
AcDbLine
 62
6
  6
CONTINUOUS
 10
5.2462029673
 20
5.8269180144
 11
5.2612029673
 21
5.8419180144
  0
LWPOLYLINE
  5
209
100
AcDbEntity
  8
0
100
AcDbPolyline
 62
6
  6
CONTINUOUS
 90
5
 70
0
 10
4.9467884459
 20
5.459893824
 10
4.9289140373
 20
5.4461762996
 10
4.9066281257
 20
5.4256351349
 10
4.8853982227
 20
5.4019074979
 10
4.865842102
 20
5.3756792905
  0
LINE
  5
20A
100
AcDbEntity
  8
0
100
AcDbLine
 62
9
  6
CONTINUOUS
 10
4.9467884459
 20
5.459893824
 11
4.946768102
 21
5.4598794567
  0
LINE
  5
20B
100
AcDbEntity
  8
0
100
AcDbLine
 62
6
  6
CONTINUOUS
 10
4.9642313618
 20
5.471237797
 11
4.946768102
 21
5.4598794567
  0
LINE
  5
20C
100
AcDbEntity
  8
0
100
AcDbLine
 62
6
  6
CONTINUOUS
 10
4.9888637767
 20
5.4842166696
 11
4.9637680977
 21
5.4709607212
  0
LINE
  5
20D
100
AcDbEntity
  8
0
100
AcDbLine
 62
6
  6
CONTINUOUS
 10
5.0139726903
 20
5.4941424924
 11
4.9885412113
 21
5.484068093
  0
LINE
  5
20E
100
AcDbEntity
  8
0
100
AcDbLine
 62
9
  6
CONTINUOUS
 10
4.6671912609
 20
2.3672596663
 11
6.8802146737
 21
2.3672596663
  0
LINE
  5
20F
100
AcDbEntity
  8
0
100
AcDbLine
 62
6
  6
CONTINUOUS
 10
4.8659386186
 20
5.3758208567
 11
4.8487555097
 21
5.3483080562
  0
LINE
  5
210
100
AcDbEntity
  8
0
100
AcDbLine
 62
6
  6
CONTINUOUS
 10
4.8853226039
 20
5.4018061268
 11
4.8852418018
 21
5.4017156681
  0
LINE
  5
211
100
AcDbEntity
  8
0
100
AcDbLine
 62
6
  6
CONTINUOUS
 10
5.2462029673
 20
5.7197633568
 11
5.2618279673
 21
5.7353883568
  0
LINE
  5
212
100
AcDbEntity
  8
0
100
AcDbLine
 62
9
  6
CONTINUOUS
 10
5.3142912187
 20
5.5355162772
 11
5.3142980081
 21
5.5355203047
  0
LWPOLYLINE
  5
213
100
AcDbEntity
  8
0
100
AcDbPolyline
 62
6
  6
CONTINUOUS
 90
3
 70
0
 10
5.3142912187
 20
5.5355162772
 10
5.3135184886
 20
5.5351382895
 10
5.3113598627
 20
5.5344599596
  0
LINE
  5
214
100
AcDbEntity
  8
0
100
AcDbLine
 62
6
  6
CONTINUOUS
 10
4.8155335396
 20
5.2783557822
 11
4.7973184982
 21
5.2296672542
  0
LINE
  5
215
100
AcDbEntity
  8
0
100
AcDbLine
 62
6
  6
CONTINUOUS
 10
4.8352615384
 20
5.3226331933
 11
4.8155335396
 21
5.2783557822
  0
LINE
  5
216
100
AcDbEntity
  8
0
100
AcDbLine
 62
6
  6
CONTINUOUS
 10
4.8487995402
 20
5.3483851874
 11
4.8352611038
 21
5.3226322921
  0
LINE
  5
217
100
AcDbEntity
  8
0
100
AcDbLine
 62
6
  6
CONTINUOUS
 10
4.7818308382
 20
5.1787971425
 11
4.7693391847
 21
5.1259836005
  0
LINE
  5
218
100
AcDbEntity
  8
0
100
AcDbLine
 62
6
  6
CONTINUOUS
 10
4.7973185025
 20
5.2296672656
 11
4.7818308328
 21
5.1787971246
  0
LINE
  5
219
100
AcDbEntity
  8
0
100
AcDbLine
 62
7
  6
CONTINUOUS
 10
5.0237029673
 20
2.7557633568
 11
6.5237029673
 21
2.7557633568
  0
LINE
  5
21A
100
AcDbEntity
  8
0
100
AcDbLine
 62
6
  6
CONTINUOUS
 10
4.7529415618
 20
4.9605097235
 11
4.752941206
 21
4.9604928983
  0
LWPOLYLINE
  5
21B
100
AcDbEntity
  8
0
100
AcDbPolyline
 62
6
  6
CONTINUOUS
 90
3
 70
0
 10
4.7601378345
 20
5.0714546057
 10
4.7545646152
 20
5.0155638482
 10
4.752941206
 20
4.9604928983
  0
LINE
  5
21C
100
AcDbEntity
  8
0
100
AcDbLine
 62
6
  6
CONTINUOUS
 10
4.7693391905
 20
5.1259836252
 11
4.7601378292
 21
5.071454574
  0
LINE
  5
21D
100
AcDbEntity
  8
0
100
AcDbLine
 62
6
  6
CONTINUOUS
 10
5.2462029673
 20
5.7197633568
 11
5.2162029673
 21
5.6397633568
  0
LINE
  5
21E
100
AcDbEntity
  8
0
100
AcDbLine
 62
6
  6
CONTINUOUS
 10
5.2032126684
 20
5.1956987794
 11
5.2134560641
 21
5.2164465003
  0
LINE
  5
21F
100
AcDbEntity
  8
0
100
AcDbLine
 62
9
  6
CONTINUOUS
 10
5.2134551923
 20
5.2164448507
 11
5.2134560641
 21
5.2164465003
  0
LWPOLYLINE
  5
220
100
AcDbEntity
  8
0
100
AcDbPolyline
 62
6
  6
CONTINUOUS
 90
10
 70
0
 10
5.2134551923
 20
5.2164448507
 10
5.2221378023
 20
5.2318321324
 10
5.230583234
 20
5.2450054088
 10
5.2381597005
 20
5.2554784415
 10
5.2450586219
 20
5.2639580897
 10
5.2512604071
 20
5.2706996581
 10
5.2563031607
 20
5.2754827482
 10
5.2606753642
 20
5.2790014807
 10
5.2642369381
 20
5.2813614271
 10
5.2652906452
 20
5.2819443969
  0
LWPOLYLINE
  5
221
100
AcDbEntity
  8
0
100
AcDbPolyline
 62
6
  6
CONTINUOUS
 90
3
 70
0
 10
6.2777945356
 20
5.2778824431
 10
6.283320754
 20
5.2796409766
 10
6.2852023003
 20
5.280029413
  0
LINE
  5
222
100
AcDbEntity
  8
0
100
AcDbLine
 62
6
  6
CONTINUOUS
 10
6.5212029673
 20
2.8857633568
 11
5.0262029673
 21
2.8857633568
  0
LINE
  5
223
100
AcDbEntity
  8
0
100
AcDbLine
 62
6
  6
CONTINUOUS
 10
4.7529507508
 20
4.9355542812
 11
4.755526098
 21
4.9094845301
  0
LINE
  5
224
100
AcDbEntity
  8
0
100
AcDbLine
 62
6
  6
CONTINUOUS
 10
4.7528897801
 20
4.9605095107
 11
4.7529507428
 21
4.9355543626
  0
LINE
  5
225
100
AcDbEntity
  8
0
100
AcDbLine
 62
6
  6
CONTINUOUS
 10
5.1775493532
 20
5.125601284
 11
5.1847810984
 21
5.1491681654
  0
LINE
  5
226
100
AcDbEntity
  8
0
100
AcDbLine
 62
6
  6
CONTINUOUS
 10
5.1847810984
 20
5.1491681654
 11
5.1933382558
 21
5.1726015987
  0
LINE
  5
227
100
AcDbEntity
  8
0
100
AcDbLine
 62
6
  6
CONTINUOUS
 10
5.1323558461
 20
4.8791676587
 11
5.1404703239
 21
4.9008615189
  0
LINE
  5
228
100
AcDbEntity
  8
0
100
AcDbLine
 62
6
  6
CONTINUOUS
 10
5.193345411
 20
5.1726183367
 11
5.2032126684
 21
5.1956987794
  0
LWPOLYLINE
  5
229
100
AcDbEntity
  8
0
100
AcDbPolyline
 62
6
  6
CONTINUOUS
 90
5
 70
0
 10
5.0888619921
 20
4.8067110695
 10
5.1013290308
 20
4.8229343255
 10
5.1134805875
 20
4.8414911543
 10
5.1240899726
 20
4.8608736881
 10
5.1323558785
 20
4.8791677379
  0
LWPOLYLINE
  5
22A
100
AcDbEntity
  8
0
100
AcDbPolyline
 62
6
  6
CONTINUOUS
 90
4
 70
0
 10
5.086288251
 20
4.8036580342
 10
5.0868006798
 20
4.8042570102
 10
5.0884542829
 20
4.806219913
 10
5.0888620183
 20
4.8067111009
  0
LWPOLYLINE
  5
22B
100
AcDbEntity
  8
0
100
AcDbPolyline
 62
6
  6
CONTINUOUS
 90
4
 70
0
 10
5.048729287
 20
4.7690931919
 10
5.0614364285
 20
4.7790140465
 10
5.0749031469
 20
4.7913803706
 10
5.0862882444
 20
4.8036580266
  0
LINE
  5
22C
100
AcDbEntity
  8
0
100
AcDbLine
 62
6
  6
CONTINUOUS
 10
5.0484740208
 20
4.7689093968
 11
5.0487292407
 21
4.7690931584
  0
LINE
  5
22D
100
AcDbEntity
  8
0
100
AcDbLine
 62
6
  6
CONTINUOUS
 10
5.046600443
 20
4.7675799497
 11
5.0484548526
 21
4.7688956215
  0
LINE
  5
22E
100
AcDbEntity
  8
0
100
AcDbLine
 62
6
  6
CONTINUOUS
 10
5.0447547754
 20
4.7663033244
 11
5.0466386022
 21
4.7676066867
  0
LINE
  5
22F
100
AcDbEntity
  8
0
100
AcDbLine
 62
6
  6
CONTINUOUS
 10
5.0429180484
 20
4.7650645839
 11
5.0448117418
 21
4.7663422456
  0
LINE
  5
230
100
AcDbEntity
  8
0
100
AcDbLine
 62
6
  6
CONTINUOUS
 10
5.0410904276
 20
4.7638626079
 11
5.0429936326
 21
4.7651149462
  0
LINE
  5
231
100
AcDbEntity
  8
0
100
AcDbLine
 62
6
  6
CONTINUOUS
 10
5.0392719939
 20
4.7626962823
 11
5.0411844377
 21
4.7639237021
  0
LINE
  5
232
100
AcDbEntity
  8
0
100
AcDbLine
 62
6
  6
CONTINUOUS
 10
5.0374627796
 20
4.7615645226
 11
5.0393842387
 21
4.7627674324
  0
LINE
  5
233
100
AcDbEntity
  8
0
100
AcDbLine
 62
6
  6
CONTINUOUS
 10
5.0356627746
 20
4.7604662766
 11
5.0375930688
 21
4.7616450839
  0
LINE
  5
234
100
AcDbEntity
  8
0
100
AcDbLine
 62
6
  6
CONTINUOUS
 10
5.0338719286
 20
4.7594005247
 11
5.0358109211
 21
4.7605556346
  0
LINE
  5
235
100
AcDbEntity
  8
0
100
AcDbLine
 62
6
  6
CONTINUOUS
 10
5.0320901532
 20
4.7583662789
 11
5.0340377499
 21
4.7594980936
  0
LINE
  5
236
100
AcDbEntity
  8
0
100
AcDbLine
 62
6
  6
CONTINUOUS
 10
5.0303173229
 20
4.7573625831
 11
5.0322734723
 21
4.7584715007
  0
LINE
  5
237
100
AcDbEntity
  8
0
100
AcDbLine
 62
6
  6
CONTINUOUS
 10
5.0285532774
 20
4.7563885122
 11
5.0305179703
 21
4.7574749259
  0
LINE
  5
238
100
AcDbEntity
  8
0
100
AcDbLine
 62
6
  6
CONTINUOUS
 10
5.0267978228
 20
4.7554431722
 11
5.0287710921
 21
4.7565074692
  0
LINE
  5
239
100
AcDbEntity
  8
0
100
AcDbLine
 62
6
  6
CONTINUOUS
 10
5.0250507333
 20
4.7545256999
 11
5.0270326533
 21
4.7555682604
  0
LINE
  5
23A
100
AcDbEntity
  8
0
100
AcDbLine
 62
6
  6
CONTINUOUS
 10
5.0233117526
 20
4.7536352623
 11
5.0253024391
 21
4.7546564589
  0
LINE
  5
23B
100
AcDbEntity
  8
0
100
AcDbLine
 62
6
  6
CONTINUOUS
 10
5.0215805953
 20
4.7527710569
 11
5.0235802049
 21
4.7537712531
  0
LINE
  5
23C
100
AcDbEntity
  8
0
100
AcDbLine
 62
6
  6
CONTINUOUS
 10
5.0198569482
 20
4.7519323108
 11
5.0218656782
 21
4.7529118608
  0
LINE
  5
23D
100
AcDbEntity
  8
0
100
AcDbLine
 62
6
  6
CONTINUOUS
 10
5.0181404717
 20
4.7511182812
 11
5.0201585596
 21
4.7520775281
  0
LINE
  5
23E
100
AcDbEntity
  8
0
100
AcDbLine
 62
6
  6
CONTINUOUS
 10
5.0164308009
 20
4.7503282547
 11
5.0184585241
 21
4.7512675301
  0
LINE
  5
23F
100
AcDbEntity
  8
0
100
AcDbLine
 62
6
  6
CONTINUOUS
 10
5.0147275469
 20
4.7495615472
 11
5.0167652223
 21
4.75048117
  0
LINE
  5
240
100
AcDbEntity
  8
0
100
AcDbLine
 62
6
  6
CONTINUOUS
 10
5.013030298
 20
4.7488175041
 11
5.0150782815
 21
4.7497177793
  0
LINE
  5
241
100
AcDbEntity
  8
0
100
AcDbLine
 62
6
  6
CONTINUOUS
 10
5.0113386205
 20
4.7480954995
 11
5.013397307
 21
4.7489767177
  0
LINE
  5
242
100
AcDbEntity
  8
0
100
AcDbLine
 62
6
  6
CONTINUOUS
 10
5.0096520601
 20
4.7473949368
 11
5.0117218828
 21
4.7482573725
  0
LINE
  5
243
100
AcDbEntity
  8
0
100
AcDbLine
 62
6
  6
CONTINUOUS
 10
5.0079701429
 20
4.746715248
 11
5.0100515728
 21
4.7475591593
  0
LINE
  5
244
100
AcDbEntity
  8
0
100
AcDbLine
 62
6
  6
CONTINUOUS
 10
5.006292376
 20
4.7460558941
 11
5.0083859218
 21
4.7468815209
  0
LINE
  5
245
100
AcDbEntity
  8
0
100
AcDbLine
 62
6
  6
CONTINUOUS
 10
5.004619797
 20
4.7454169477
 11
5.0067244564
 21
4.7462239282
  0
LINE
  5
246
100
AcDbEntity
  8
0
100
AcDbLine
 62
6
  6
CONTINUOUS
 10
5.0029633603
 20
4.7448020773
 11
5.0050671782
 21
4.745586066
  0
LINE
  5
247
100
AcDbEntity
  8
0
100
AcDbLine
 62
6
  6
CONTINUOUS
 10
5.0013380686
 20
4.7442159408
 11
5.0034219638
 21
4.7449705362
  0
LINE
  5
248
100
AcDbEntity
  8
0
100
AcDbLine
 62
6
  6
CONTINUOUS
 10
4.9997591112
 20
4.7436626714
 11
5.0018031431
 21
4.7443819338
  0
LINE
  5
249
100
AcDbEntity
  8
0
100
AcDbLine
 62
6
  6
CONTINUOUS
 10
4.9982417271
 20
4.7431458693
 11
5.0002253991
 21
4.7438244099
  0
LINE
  5
24A
100
AcDbEntity
  8
0
100
AcDbLine
 62
6
  6
CONTINUOUS
 10
4.9967922595
 20
4.7426657357
 11
4.9987035688
 21
4.7433016279
  0
LINE
  5
24B
100
AcDbEntity
  8
0
100
AcDbLine
 62
6
  6
CONTINUOUS
 10
4.9954011297
 20
4.7422172874
 11
4.9972486163
 21
4.7428154817
  0
LINE
  5
24C
100
AcDbEntity
  8
0
100
AcDbLine
 62
6
  6
CONTINUOUS
 10
4.9940573371
 20
4.7417955294
 11
4.9958543348
 21
4.7423620586
  0
LINE
  5
24D
100
AcDbEntity
  8
0
100
AcDbLine
 62
6
  6
CONTINUOUS
 10
4.9927538666
 20
4.7413971022
 11
4.9945098022
 21
4.741936288
  0
LINE
  5
24E
100
AcDbEntity
  8
0
100
AcDbLine
 62
6
  6
CONTINUOUS
 10
4.9914862693
 20
4.7410196741
 11
4.9932065223
 21
4.7415342757
  0
LINE
  5
24F
100
AcDbEntity
  8
0
100
AcDbLine
 62
6
  6
CONTINUOUS
 10
4.9902500788
 20
4.7406610838
 11
4.9919399024
 21
4.7411536098
  0
LINE
  5
250
100
AcDbEntity
  8
0
100
AcDbLine
 62
6
  6
CONTINUOUS
 10
4.9894993505
 20
4.7404478697
 11
4.9907056332
 21
4.7407921422
  0
LINE
  5
251
100
AcDbEntity
  8
0
100
AcDbLine
 62
6
  6
CONTINUOUS
 10
5.1531244294
 20
4.947509908
 11
5.1531277495
 21
4.9475356124
  0
LINE
  5
252
100
AcDbEntity
  8
0
100
AcDbLine
 62
9
  6
CONTINUOUS
 10
5.1675838386
 20
5.0814498028
 11
5.1675833932
 21
5.0814472245
  0
LWPOLYLINE
  5
253
100
AcDbEntity
  8
0
100
AcDbPolyline
 62
6
  6
CONTINUOUS
 90
3
 70
0
 10
5.1675838386
 20
5.0814498028
 10
5.1716976791
 20
5.102248134
 10
5.1775446864
 20
5.1255860734
  0
LINE
  5
254
100
AcDbEntity
  8
0
100
AcDbLine
 62
6
  6
CONTINUOUS
 10
5.1477888509
 20
4.924898922
 11
5.1531220346
 21
4.9475104517
  0
LINE
  5
255
100
AcDbEntity
  8
0
100
AcDbLine
 62
6
  6
CONTINUOUS
 10
5.1404703239
 20
4.9008615189
 11
5.1477888509
 21
4.924898922
  0
LINE
  5
256
100
AcDbEntity
  8
0
100
AcDbLine
 62
6
  6
CONTINUOUS
 10
6.2855779673
 20
5.7353883568
 11
6.3012029673
 21
5.7510133568
  0
LINE
  5
257
100
AcDbEntity
  8
0
100
AcDbLine
 62
6
  6
CONTINUOUS
 10
6.3312029673
 20
5.0707633568
 11
6.1172029673
 21
5.0012305418
  0
LWPOLYLINE
  5
258
100
AcDbEntity
  8
0
100
AcDbPolyline
 62
6
  6
CONTINUOUS
 90
5
 70
0
 10
4.7601522767
 20
4.8861757111
 10
4.7661130007
 20
4.8661732164
 10
4.7745071221
 20
4.84547841
 10
4.7847004706
 20
4.8261664508
 10
4.7954820614
 20
4.8098063448
  0
LINE
  5
259
100
AcDbEntity
  8
0
100
AcDbLine
 62
6
  6
CONTINUOUS
 10
4.7555261064
 20
4.9094844877
 11
4.7601522581
 21
4.8861757858
  0
LINE
  5
25A
100
AcDbEntity
  8
0
100
AcDbLine
 62
6
  6
CONTINUOUS
 10
5.1531277486
 20
4.9475355982
 11
5.1555148529
 21
4.9815789299
  0
LWPOLYLINE
  5
25B
100
AcDbEntity
  8
0
100
AcDbPolyline
 62
6
  6
CONTINUOUS
 90
4
 70
0
 10
5.1555139301
 20
4.9815688002
 10
5.1584296529
 20
5.0135736612
 10
5.1622373791
 20
5.0461800861
 10
5.1675833932
 20
5.0814472245
  0
LWPOLYLINE
  5
25C
100
AcDbEntity
  8
0
100
AcDbPolyline
 62
6
  6
CONTINUOUS
 90
5
 70
0
 10
6.2471962287
 20
5.2580146796
 10
6.2519478117
 20
5.2622425293
 10
6.2625658526
 20
5.2700680456
 10
6.2720027606
 20
5.2753815641
 10
6.2777954465
 20
5.2778827857
  0
LINE
  5
25D
100
AcDbEntity
  8
0
100
AcDbLine
 62
6
  6
CONTINUOUS
 10
5.2162029673
 20
5.6397633568
 11
5.2162029673
 21
5.528119917
  0
LINE
  5
25E
100
AcDbEntity
  8
0
100
AcDbLine
 62
6
  6
CONTINUOUS
 10
5.2162029673
 20
5.221314519
 11
5.2162029673
 21
5.0707633568
  0
LINE
  5
25F
100
AcDbEntity
  8
0
100
AcDbLine
 62
6
  6
CONTINUOUS
 10
5.2462029673
 20
5.7510133568
 11
5.2462029673
 21
5.8269180144
  0
LINE
  5
260
100
AcDbEntity
  8
0
100
AcDbLine
 62
6
  6
CONTINUOUS
 10
5.1896442946
 20
3.8492069703
 11
5.0262029673
 21
2.8857633568
  0
LINE
  5
261
100
AcDbEntity
  8
0
100
AcDbLine
 62
9
  6
CONTINUOUS
 10
6.2471949507
 20
5.2580138747
 11
6.2472594825
 21
5.2580744787
  0
LINE
  5
262
100
AcDbEntity
  8
0
100
AcDbLine
 62
6
  6
CONTINUOUS
 10
6.6550980037
 20
4.741085276
 11
6.6564409279
 21
4.7414783018
  0
LINE
  5
263
100
AcDbEntity
  8
0
100
AcDbLine
 62
6
  6
CONTINUOUS
 10
6.6542010346
 20
4.7408289077
 11
6.6555364738
 21
4.7412123848
  0
LINE
  5
264
100
AcDbEntity
  8
0
100
AcDbLine
 62
6
  6
CONTINUOUS
 10
5.4302029673
 20
5.0012305418
 11
5.4302029673
 21
4.6607633568
  0
LWPOLYLINE
  5
265
100
AcDbEntity
  8
0
100
AcDbPolyline
 62
6
  6
CONTINUOUS
 90
3
 70
0
 10
6.6785597368
 20
4.7496308253
 10
6.6797414181
 20
4.7501614544
 10
6.6812366837
 20
4.7508477788
  0
LINE
  5
266
100
AcDbEntity
  8
0
100
AcDbLine
 62
6
  6
CONTINUOUS
 10
6.6773810938
 20
4.7491117709
 11
6.6788899209
 21
4.7497780561
  0
LINE
  5
267
100
AcDbEntity
  8
0
100
AcDbLine
 62
6
  6
CONTINUOUS
 10
6.676205339
 20
4.7486040321
 11
6.6777211178
 21
4.749260472
  0
LINE
  5
268
100
AcDbEntity
  8
0
100
AcDbLine
 62
6
  6
CONTINUOUS
 10
6.6750323163
 20
4.7481073581
 11
6.6765551779
 21
4.7487540652
  0
LINE
  5
269
100
AcDbEntity
  8
0
100
AcDbLine
 62
6
  6
CONTINUOUS
 10
6.6738623033
 20
4.747621687
 11
6.6753919516
 21
4.7482585897
  0
LINE
  5
26A
100
AcDbEntity
  8
0
100
AcDbLine
 62
6
  6
CONTINUOUS
 10
6.6726969913
 20
4.7471475226
 11
6.674231397
 21
4.7477738546
  0
LINE
  5
26B
100
AcDbEntity
  8
0
100
AcDbLine
 62
6
  6
CONTINUOUS
 10
6.6715383702
 20
4.7466854376
 11
6.6730747042
 21
4.7473001751
  0
LINE
  5
26C
100
AcDbEntity
  8
0
100
AcDbLine
 62
6
  6
CONTINUOUS
 10
6.6703884467
 20
4.7462359542
 11
6.6719238329
 21
4.7468381392
  0
LINE
  5
26D
100
AcDbEntity
  8
0
100
AcDbLine
 62
6
  6
CONTINUOUS
 10
6.6692492429
 20
4.7457995458
 11
6.6707807709
 21
4.7463882894
  0
LINE
  5
26E
100
AcDbEntity
  8
0
100
AcDbLine
 62
6
  6
CONTINUOUS
 10
6.668122795
 20
4.7453766375
 11
6.6696475218
 21
4.7459511191
  0
LINE
  5
26F
100
AcDbEntity
  8
0
100
AcDbLine
 62
6
  6
CONTINUOUS
 10
6.667011152
 20
4.7449676084
 11
6.6685261037
 21
4.7455270744
  0
LINE
  5
270
100
AcDbEntity
  8
0
100
AcDbLine
 62
6
  6
CONTINUOUS
 10
6.6659163739
 20
4.7445727929
 11
6.6674185478
 21
4.7451165548
  0
LINE
  5
271
100
AcDbEntity
  8
0
100
AcDbLine
 62
6
  6
CONTINUOUS
 10
6.6648405307
 20
4.7441924829
 11
6.6663268969
 21
4.744719915
  0
LINE
  5
272
100
AcDbEntity
  8
0
100
AcDbLine
 62
6
  6
CONTINUOUS
 10
6.6637856631
 20
4.743826917
 11
6.6652532044
 21
4.7443374671
  0
LINE
  5
273
100
AcDbEntity
  8
0
100
AcDbLine
 62
6
  6
CONTINUOUS
 10
6.6627523576
 20
4.743475805
 11
6.6641995325
 21
4.7439694826
  0
LINE
  5
274
100
AcDbEntity
  8
0
100
AcDbLine
 62
6
  6
CONTINUOUS
 10
6.6617393006
 20
4.7431382314
 11
6.6631673595
 21
4.7436159936
  0
LINE
  5
275
100
AcDbEntity
  8
0
100
AcDbLine
 62
6
  6
CONTINUOUS
 10
6.6607450323
 20
4.7428132829
 11
6.6621558402
 21
4.7432762369
  0
LINE
  5
276
100
AcDbEntity
  8
0
100
AcDbLine
 62
6
  6
CONTINUOUS
 10
6.6597680735
 20
4.7425000905
 11
6.6611635423
 21
4.7429492955
  0
LINE
  5
277
100
AcDbEntity
  8
0
100
AcDbLine
 62
6
  6
CONTINUOUS
 10
6.6588069271
 20
4.7421978281
 11
6.660189014
 21
4.7426342965
  0
LINE
  5
278
100
AcDbEntity
  8
0
100
AcDbLine
 62
6
  6
CONTINUOUS
 10
6.6578601601
 20
4.7419057349
 11
6.6592307853
 21
4.7423304094
  0
LINE
  5
279
100
AcDbEntity
  8
0
100
AcDbLine
 62
6
  6
CONTINUOUS
 10
6.6569268729
 20
4.7416232527
 11
6.6582873802
 21
4.7420368476
  0
LINE
  5
27A
100
AcDbEntity
  8
0
100
AcDbLine
 62
6
  6
CONTINUOUS
 10
6.6560063839
 20
4.7413499151
 11
6.657357665
 21
4.7417529719
  0
LWPOLYLINE
  5
27B
100
AcDbEntity
  8
0
100
AcDbPolyline
 62
6
  6
CONTINUOUS
 90
4
 70
0
 10
4.7954821036
 20
4.8098062867
 10
4.7958442274
 20
4.8093107616
 10
4.797356489
 20
4.8072740995
 10
4.7978217248
 20
4.8066578768
  0
LINE
  5
27C
100
AcDbEntity
  8
0
100
AcDbLine
 62
6
  6
CONTINUOUS
 10
5.4972029673
 20
4.6307633568
 11
5.4972029673
 21
4.0057633568
  0
LINE
  5
27D
100
AcDbEntity
  8
0
100
AcDbLine
 62
6
  6
CONTINUOUS
 10
6.6979105019
 20
4.7597124117
 11
6.6993084507
 21
4.7605651147
  0
LINE
  5
27E
100
AcDbEntity
  8
0
100
AcDbLine
 62
6
  6
CONTINUOUS
 10
6.6966704412
 20
4.7589711804
 11
6.6980751398
 21
4.7598118878
  0
LINE
  5
27F
100
AcDbEntity
  8
0
100
AcDbLine
 62
6
  6
CONTINUOUS
 10
6.6954347081
 20
4.7582464592
 11
6.69684606
 21
4.759075298
  0
LINE
  5
280
100
AcDbEntity
  8
0
100
AcDbLine
 62
6
  6
CONTINUOUS
 10
6.6942032842
 20
4.7575378553
 11
6.6956212067
 21
4.7583549541
  0
LINE
  5
281
100
AcDbEntity
  8
0
100
AcDbLine
 62
6
  6
CONTINUOUS
 10
6.69297614
 20
4.7568449854
 11
6.6944005638
 21
4.7576504736
  0
LINE
  5
282
100
AcDbEntity
  8
0
100
AcDbLine
 62
6
  6
CONTINUOUS
 10
6.6917532348
 20
4.7561674757
 11
6.6931841046
 21
4.7569614833
  0
LINE
  5
283
100
AcDbEntity
  8
0
100
AcDbLine
 62
6
  6
CONTINUOUS
 10
6.6905345178
 20
4.7555049614
 11
6.6919717918
 21
4.7562876191
  0
LINE
  5
284
100
AcDbEntity
  8
0
100
AcDbLine
 62
6
  6
CONTINUOUS
 10
6.689319928
 20
4.7548570871
 11
6.690763578
 21
4.7556285256
  0
LINE
  5
285
100
AcDbEntity
  8
0
100
AcDbLine
 62
6
  6
CONTINUOUS
 10
6.6881093945
 20
4.7542235065
 11
6.6895594061
 21
4.7549838565
  0
LINE
  5
286
100
AcDbEntity
  8
0
100
AcDbLine
 62
6
  6
CONTINUOUS
 10
6.6869028373
 20
4.7536038822
 11
6.6883592094
 21
4.754353274
  0
LINE
  5
287
100
AcDbEntity
  8
0
100
AcDbLine
 62
6
  6
CONTINUOUS
 10
6.6857001674
 20
4.7529978861
 11
6.6871629124
 21
4.7537364493
  0
LINE
  5
288
100
AcDbEntity
  8
0
100
AcDbLine
 62
6
  6
CONTINUOUS
 10
6.6845012868
 20
4.7524051986
 11
6.6859704307
 21
4.753133062
  0
LINE
  5
289
100
AcDbEntity
  8
0
100
AcDbLine
 62
6
  6
CONTINUOUS
 10
6.6833060896
 20
4.7518255093
 11
6.6847816718
 21
4.7525428003
  0
LINE
  5
28A
100
AcDbEntity
  8
0
100
AcDbLine
 62
6
  6
CONTINUOUS
 10
6.6821144616
 20
4.7512585161
 11
6.6835965346
 21
4.7519653611
  0
LINE
  5
28B
100
AcDbEntity
  8
0
100
AcDbLine
 62
6
  6
CONTINUOUS
 10
6.6809262808
 20
4.750703926
 11
6.6824149106
 21
4.7514004494
  0
LINE
  5
28C
100
AcDbEntity
  8
0
100
AcDbLine
 62
6
  6
CONTINUOUS
 10
6.6788899209
 20
4.7497780561
 11
6.6800617305
 21
4.750307071
  0
LINE
  5
28D
100
AcDbEntity
  8
0
100
AcDbLine
 62
9
  6
CONTINUOUS
 10
5.1896442946
 20
3.8492069703
 11
6.35776164
 21
3.8492069703
  0
LWPOLYLINE
  5
28E
100
AcDbEntity
  8
0
100
AcDbPolyline
 62
6
  6
CONTINUOUS
 90
4
 70
0
 10
4.7978217041
 20
4.8066579041
 10
4.8081125172
 20
4.7942085826
 10
4.8207973951
 20
4.7813803233
 10
4.8331909814
 20
4.7708953068
  0
LWPOLYLINE
  5
28F
100
AcDbEntity
  8
0
100
AcDbPolyline
 62
6
  6
CONTINUOUS
 90
3
 70
0
 10
6.7118290945
 20
4.7690773322
 10
6.7131175642
 20
4.7700506548
 10
6.7142149833
 20
4.7708953301
  0
LINE
  5
290
100
AcDbEntity
  8
0
100
AcDbLine
 62
6
  6
CONTINUOUS
 10
6.7105440548
 20
4.7681259318
 11
6.7118660033
 21
4.7691049412
  0
LINE
  5
291
100
AcDbEntity
  8
0
100
AcDbLine
 62
6
  6
CONTINUOUS
 10
6.7092626106
 20
4.7671959546
 11
6.710593089
 21
4.7681618864
  0
LINE
  5
292
100
AcDbEntity
  8
0
100
AcDbLine
 62
6
  6
CONTINUOUS
 10
6.7079849098
 20
4.7662869108
 11
6.7093236739
 21
4.7672398513
  0
LINE
  5
293
100
AcDbEntity
  8
0
100
AcDbLine
 62
6
  6
CONTINUOUS
 10
6.7067110835
 20
4.7653983198
 11
6.7080579025
 21
4.7663383603
  0
LINE
  5
294
100
AcDbEntity
  8
0
100
AcDbLine
 62
6
  6
CONTINUOUS
 10
6.7054412514
 20
4.7645297134
 11
6.7067959032
 21
4.7654569468
  0
LINE
  5
295
100
AcDbEntity
  8
0
100
AcDbLine
 62
6
  6
CONTINUOUS
 10
6.7041755228
 20
4.7636806359
 11
6.7055377933
 21
4.7645951565
  0
LINE
  5
296
100
AcDbEntity
  8
0
100
AcDbLine
 62
6
  6
CONTINUOUS
 10
6.7029139717
 20
4.7628506274
 11
6.7042836807
 21
4.763752547
  0
LINE
  5
297
100
AcDbEntity
  8
0
100
AcDbLine
 62
6
  6
CONTINUOUS
 10
6.7016566563
 20
4.7620392369
 11
6.7030336388
 21
4.7629286716
  0
LINE
  5
298
100
AcDbEntity
  8
0
100
AcDbLine
 62
6
  6
CONTINUOUS
 10
6.7004036211
 20
4.7612460233
 11
6.7017877255
 21
4.7621230919
  0
LINE
  5
299
100
AcDbEntity
  8
0
100
AcDbLine
 62
6
  6
CONTINUOUS
 10
6.699154897
 20
4.7604705554
 11
6.7005459856
 21
4.7613353794
  0
LINE
  5
29A
100
AcDbEntity
  8
0
100
AcDbLine
 62
9
  6
CONTINUOUS
 10
5.3749961208
 20
4.0057633568
 11
6.1724098138
 21
4.0057633568
  0
LWPOLYLINE
  5
29B
100
AcDbEntity
  8
0
100
AcDbPolyline
 62
6
  6
CONTINUOUS
 90
3
 70
0
 10
4.8331909513
 20
4.7708953301
 10
4.8344675147
 20
4.7699141477
 10
4.8358435517
 20
4.768878296
  0
LWPOLYLINE
  5
29C
100
AcDbEntity
  8
0
100
AcDbPolyline
 62
6
  6
CONTINUOUS
 90
4
 70
0
 10
6.7142149532
 20
4.7708953068
 10
6.7266085395
 20
4.7813803233
 10
6.7392934174
 20
4.7942085826
 10
6.7495842305
 20
4.8066579041
  0
LINE
  5
29D
100
AcDbEntity
  8
0
100
AcDbLine
 62
6
  6
CONTINUOUS
 10
4.8519370724
 20
4.7582663049
 11
4.8532770358
 21
4.7574954808
  0
LWPOLYLINE
  5
29E
100
AcDbEntity
  8
0
100
AcDbPolyline
 62
6
  6
CONTINUOUS
 90
3
 70
0
 10
4.8372147592
 20
4.7678679879
 10
4.8385809329
 20
4.7668825829
 10
4.8399418924
 20
4.7659214532
  0
LWPOLYLINE
  5
29F
100
AcDbEntity
  8
0
100
AcDbPolyline
 62
6
  6
CONTINUOUS
 90
13
 70
0
 10
4.8358530668
 20
4.7688712106
 10
4.8372271822
 20
4.7678589328
 10
4.8385961273
 20
4.7668717403
 10
4.8399597195
 20
4.7659089971
 10
4.8413177995
 20
4.7649700805
 10
4.8426702307
 20
4.7640543805
 10
4.8440168981
 20
4.7631613003
 10
4.8453577052
 20
4.7622902574
 10
4.8466925787
 20
4.7614406803
 10
4.8480214745
 20
4.7606120042
 10
4.8493443675
 20
4.7598036775
 10
4.8506612499
 20
4.7590151622
 10
4.8519721309
 20
4.7582459338
  0
LINE
  5
2A0
100
AcDbEntity
  8
0
100
AcDbLine
 62
6
  6
CONTINUOUS
 10
6.0502029673
 20
4.6307633568
 11
6.0502029673
 21
4.0057633568
  0
LWPOLYLINE
  5
2A1
100
AcDbEntity
  8
0
100
AcDbPolyline
 62
6
  6
CONTINUOUS
 90
4
 70
0
 10
6.7495842098
 20
4.8066578768
 10
6.7500494456
 20
4.8072740995
 10
6.7515617072
 20
4.8093107616
 10
6.751923831
 20
4.8098062867
  0
LWPOLYLINE
  5
2A2
100
AcDbEntity
  8
0
100
AcDbPolyline
 62
6
  6
CONTINUOUS
 90
18
 70
0
 10
4.8721891584
 20
4.7481848111
 10
4.873406431
 20
4.7476781392
 10
4.8746156262
 20
4.7471851443
 10
4.8758157736
 20
4.7467058951
 10
4.8770058985
 20
4.7462404392
 10
4.8781850234
 20
4.7457888044
 10
4.8793521684
 20
4.7453509984
 10
4.8805063512
 20
4.7449270103
 10
4.8816465883
 20
4.7445168109
 10
4.8827718949
 20
4.7441203537
 10
4.8838813343
 20
4.7437375589
 10
4.884974649
 20
4.7433681053
 10
4.8860520881
 20
4.7430115107
 10
4.8871139224
 20
4.7426673049
 10
4.8881604325
 20
4.742335033
 10
4.8891919078
 20
4.7420142549
 10
4.8902086466
 20
4.7417045454
 10
4.891210961
 20
4.7414054916
  0
LINE
  5
2A3
100
AcDbEntity
  8
0
100
AcDbLine
 62
6
  6
CONTINUOUS
 10
4.8709271323
 20
4.7487212354
 11
4.8721530113
 21
4.7482000173
  0
LINE
  5
2A4
100
AcDbEntity
  8
0
100
AcDbLine
 62
6
  6
CONTINUOUS
 10
4.8696954754
 20
4.749255798
 11
4.8709647751
 21
4.7487050702
  0
LINE
  5
2A5
100
AcDbEntity
  8
0
100
AcDbLine
 62
6
  6
CONTINUOUS
 10
4.8684590668
 20
4.7498035301
 11
4.8697342428
 21
4.7492388046
  0
LINE
  5
2A6
100
AcDbEntity
  8
0
100
AcDbLine
 62
6
  6
CONTINUOUS
 10
4.8672183275
 20
4.7503645046
 11
4.8684985166
 21
4.7497858805
  0
LINE
  5
2A7
100
AcDbEntity
  8
0
100
AcDbLine
 62
6
  6
CONTINUOUS
 10
4.8659730982
 20
4.7509390581
 11
4.8672582488
 21
4.7503462769
  0
LINE
  5
2A8
100
AcDbEntity
  8
0
100
AcDbLine
 62
6
  6
CONTINUOUS
 10
4.8647232052
 20
4.7515275491
 11
4.8660133635
 21
4.750920297
  0
LINE
  5
2A9
100
AcDbEntity
  8
0
100
AcDbLine
 62
6
  6
CONTINUOUS
 10
4.8634684842
 20
4.7521303476
 11
4.8647636846
 21
4.7515083034
  0
LINE
  5
2AA
100
AcDbEntity
  8
0
100
AcDbLine
 62
6
  6
CONTINUOUS
 10
4.8622087813
 20
4.7527478354
 11
4.8635090457
 21
4.7521106706
  0
LINE
  5
2AB
100
AcDbEntity
  8
0
100
AcDbLine
 62
6
  6
CONTINUOUS
 10
4.8609439532
 20
4.753380406
 11
4.8622492907
 21
4.7527277848
  0
LINE
  5
2AC
100
AcDbEntity
  8
0
100
AcDbLine
 62
6
  6
CONTINUOUS
 10
4.8596738679
 20
4.7540284647
 11
4.8609842745
 21
4.7533600441
  0
LINE
  5
2AD
100
AcDbEntity
  8
0
100
AcDbLine
 62
6
  6
CONTINUOUS
 10
4.8583984046
 20
4.7546924291
 11
4.859713863
 21
4.7540078589
  0
LINE
  5
2AE
100
AcDbEntity
  8
0
100
AcDbLine
 62
6
  6
CONTINUOUS
 10
4.8571174549
 20
4.7553727288
 11
4.8584379341
 21
4.7546716513
  0
LINE
  5
2AF
100
AcDbEntity
  8
0
100
AcDbLine
 62
6
  6
CONTINUOUS
 10
4.8558309228
 20
4.7560698056
 11
4.8571563775
 21
4.7553518563
  0
LINE
  5
2B0
100
AcDbEntity
  8
0
100
AcDbLine
 62
6
  6
CONTINUOUS
 10
4.8545387254
 20
4.7567841138
 11
4.855869096
 21
4.7560489209
  0
LINE
  5
2B1
100
AcDbEntity
  8
0
100
AcDbLine
 62
6
  6
CONTINUOUS
 10
4.8532407936
 20
4.7575161204
 11
4.8545760055
 21
4.7567633049
  0
LINE
  5
2B2
100
AcDbEntity
  8
0
100
AcDbLine
 62
6
  6
CONTINUOUS
 10
6.1172029673
 20
5.0012305418
 11
6.1172029673
 21
4.6607633568
  0
LWPOLYLINE
  5
2B3
100
AcDbEntity
  8
0
100
AcDbPolyline
 62
6
  6
CONTINUOUS
 90
5
 70
0
 10
6.7519238732
 20
4.8098063448
 10
6.762705464
 20
4.8261664508
 10
6.7728988125
 20
4.84547841
 10
6.7812929339
 20
4.8661732164
 10
6.7872536579
 20
4.8861757111
  0
LINE
  5
2B4
100
AcDbEntity
  8
0
100
AcDbLine
 62
6
  6
CONTINUOUS
 10
6.6533147717
 20
4.7405804015
 11
6.6546435998
 21
4.7409547874
  0
LINE
  5
2B5
100
AcDbEntity
  8
0
100
AcDbLine
 62
6
  6
CONTINUOUS
 10
6.6524385028
 20
4.7403393662
 11
6.6537615952
 21
4.7407050948
  0
LINE
  5
2B6
100
AcDbEntity
  8
0
100
AcDbLine
 62
6
  6
CONTINUOUS
 10
6.6515715089
 20
4.7401054283
 11
6.6528897421
 21
4.7404629103
  0
LINE
  5
2B7
100
AcDbEntity
  8
0
100
AcDbLine
 62
6
  6
CONTINUOUS
 10
6.6507130649
 20
4.7398782312
 11
6.6520273158
 21
4.7402278547
  0
LINE
  5
2B8
100
AcDbEntity
  8
0
100
AcDbLine
 62
6
  6
CONTINUOUS
 10
6.6498624397
 20
4.7396574348
 11
6.6511735853
 21
4.7399995659
  0
LINE
  5
2B9
100
AcDbEntity
  8
0
100
AcDbLine
 62
6
  6
CONTINUOUS
 10
6.6490188967
 20
4.7394427155
 11
6.6503278133
 21
4.7397776986
  0
LINE
  5
2BA
100
AcDbEntity
  8
0
100
AcDbLine
 62
6
  6
CONTINUOUS
 10
4.8968989693
 20
4.739824339
 11
4.8978643686
 21
4.7395752617
  0
LINE
  5
2BB
100
AcDbEntity
  8
0
100
AcDbLine
 62
6
  6
CONTINUOUS
 10
4.8959744342
 20
4.7400680729
 11
4.8969490166
 21
4.7398112904
  0
LINE
  5
2BC
100
AcDbEntity
  8
0
100
AcDbLine
 62
6
  6
CONTINUOUS
 10
4.8950387042
 20
4.7403199647
 11
4.8960228607
 21
4.7400551796
  0
LINE
  5
2BD
100
AcDbEntity
  8
0
100
AcDbLine
 62
6
  6
CONTINUOUS
 10
4.8940912311
 20
4.7405803825
 11
4.8950853495
 21
4.7403072837
  0
LINE
  5
2BE
100
AcDbEntity
  8
0
100
AcDbLine
 62
6
  6
CONTINUOUS
 10
4.8931314731
 20
4.7408497102
 11
4.8941359384
 21
4.7405679727
  0
LINE
  5
2BF
100
AcDbEntity
  8
0
100
AcDbLine
 62
6
  6
CONTINUOUS
 10
4.8921588957
 20
4.7411283481
 11
4.8931740892
 21
4.7408376327
  0
LINE
  5
2C0
100
AcDbEntity
  8
0
100
AcDbLine
 62
6
  6
CONTINUOUS
 10
4.8911729722
 20
4.7414167132
 11
4.8921992711
 21
4.7411166659
  0
LINE
  5
2C1
100
AcDbEntity
  8
0
100
AcDbLine
 62
6
  6
CONTINUOUS
 10
4.8849504064
 20
4.7433762141
 11
4.8860262047
 21
4.7430199904
  0
LINE
  5
2C2
100
AcDbEntity
  8
0
100
AcDbLine
 62
6
  6
CONTINUOUS
 10
6.3012029673
 20
5.7510133568
 11
6.3012029673
 21
5.8269180144
  0
LINE
  5
2C3
100
AcDbEntity
  8
0
100
AcDbLine
 62
6
  6
CONTINUOUS
 10
6.3312029673
 20
5.6397633568
 11
6.3312029673
 21
5.528119917
  0
LINE
  5
2C4
100
AcDbEntity
  8
0
100
AcDbLine
 62
6
  6
CONTINUOUS
 10
6.3312029673
 20
5.2213527651
 11
6.3312029673
 21
5.0707633568
  0
LINE
  5
2C5
100
AcDbEntity
  8
0
100
AcDbLine
 62
6
  6
CONTINUOUS
 10
6.6481816939
 20
4.7392337652
 11
6.6494892573
 21
4.7395619237
  0
LINE
  5
2C6
100
AcDbEntity
  8
0
100
AcDbLine
 62
6
  6
CONTINUOUS
 10
6.6473500844
 20
4.7390302915
 11
6.648657169
 21
4.7393519281
  0
LINE
  5
2C7
100
AcDbEntity
  8
0
100
AcDbLine
 62
6
  6
CONTINUOUS
 10
6.6465234873
 20
4.7388320577
 11
6.6478307954
 21
4.7391474142
  0
LINE
  5
2C8
100
AcDbEntity
  8
0
100
AcDbLine
 62
6
  6
CONTINUOUS
 10
6.6457019247
 20
4.7386389803
 11
6.6470094166
 21
4.738948109
  0
LINE
  5
2C9
100
AcDbEntity
  8
0
100
AcDbLine
 62
6
  6
CONTINUOUS
 10
6.6448855529
 20
4.7384510071
 11
6.6461928135
 21
4.7387538727
  0
LINE
  5
2CA
100
AcDbEntity
  8
0
100
AcDbLine
 62
6
  6
CONTINUOUS
 10
6.6440745276
 20
4.7382680845
 11
6.6453811243
 21
4.7385646536
  0
LINE
  5
2CB
100
AcDbEntity
  8
0
100
AcDbLine
 62
6
  6
CONTINUOUS
 10
6.6432690041
 20
4.738090157
 11
6.644574494
 21
4.7383804001
  0
LINE
  5
2CC
100
AcDbEntity
  8
0
100
AcDbLine
 62
6
  6
CONTINUOUS
 10
6.6421864004
 20
4.7378568967
 11
6.6437730673
 21
4.7382010593
  0
LINE
  5
2CD
100
AcDbEntity
  8
0
100
AcDbLine
 62
6
  6
CONTINUOUS
 10
6.6408869875
 20
4.7375857694
 11
6.6424691368
 21
4.7379171679
  0
LINE
  5
2CE
100
AcDbEntity
  8
0
100
AcDbLine
 62
6
  6
CONTINUOUS
 10
6.6398490129
 20
4.7373760937
 11
6.6414014469
 21
4.7376919621
  0
LINE
  5
2CF
100
AcDbEntity
  8
0
100
AcDbLine
 62
6
  6
CONTINUOUS
 10
6.6385600236
 20
4.7371242022
 11
6.6401050122
 21
4.7374272389
  0
LINE
  5
2D0
100
AcDbEntity
  8
0
100
AcDbLine
 62
6
  6
CONTINUOUS
 10
6.6375661691
 20
4.7369363797
 11
6.6390818161
 21
4.7372250393
  0
LINE
  5
2D1
100
AcDbEntity
  8
0
100
AcDbLine
 62
6
  6
CONTINUOUS
 10
6.6362922216
 20
4.7367037299
 11
6.6377973142
 21
4.7369795668
  0
LINE
  5
2D2
100
AcDbEntity
  8
0
100
AcDbLine
 62
6
  6
CONTINUOUS
 10
6.6353416701
 20
4.7365360483
 11
6.6368179999
 21
4.7367986468
  0
LINE
  5
2D3
100
AcDbEntity
  8
0
100
AcDbLine
 62
6
  6
CONTINUOUS
 10
6.6340876569
 20
4.7363225289
 11
6.63555014
 21
4.736572392
  0
LINE
  5
2D4
100
AcDbEntity
  8
0
100
AcDbLine
 62
6
  6
CONTINUOUS
 10
6.6331792895
 20
4.7361733096
 11
6.6346137886
 21
4.7364110489
  0
LINE
  5
2D5
100
AcDbEntity
  8
0
100
AcDbLine
 62
6
  6
CONTINUOUS
 10
6.6319508947
 20
4.7359787711
 11
6.6333675581
 21
4.7362038617
  0
LINE
  5
2D6
100
AcDbEntity
  8
0
100
AcDbLine
 62
6
  6
CONTINUOUS
 10
6.6310843727
 20
4.7358465412
 11
6.6324730506
 21
4.7360604468
  0
LINE
  5
2D7
100
AcDbEntity
  8
0
100
AcDbLine
 62
6
  6
CONTINUOUS
 10
6.629890168
 20
4.7356710624
 11
6.6312550523
 21
4.7358722602
  0
LINE
  5
2D8
100
AcDbEntity
  8
0
100
AcDbLine
 62
6
  6
CONTINUOUS
 10
6.6290667667
 20
4.7355546172
 11
6.6304027217
 21
4.7357454205
  0
LINE
  5
2D9
100
AcDbEntity
  8
0
100
AcDbLine
 62
6
  6
CONTINUOUS
 10
6.6277699068
 20
4.7353787176
 11
6.6292218552
 21
4.7355762666
  0
LINE
  5
2DA
100
AcDbEntity
  8
0
100
AcDbLine
 62
6
  6
CONTINUOUS
 10
6.6265144393
 20
4.7352171475
 11
6.627915313
 21
4.7353979838
  0
LINE
  5
2DB
100
AcDbEntity
  8
0
100
AcDbLine
 62
6
  6
CONTINUOUS
 10
6.6252986017
 20
4.7350688225
 11
6.6266503727
 21
4.7352342282
  0
LINE
  5
2DC
100
AcDbEntity
  8
0
100
AcDbLine
 62
6
  6
CONTINUOUS
 10
6.6241194283
 20
4.7349326016
 11
6.625425129
 21
4.7350838852
  0
LINE
  5
2DD
100
AcDbEntity
  8
0
100
AcDbLine
 62
6
  6
CONTINUOUS
 10
6.6229739442
 20
4.7348074466
 11
6.6242366644
 21
4.7349458092
  0
LINE
  5
2DE
100
AcDbEntity
  8
0
100
AcDbLine
 62
6
  6
CONTINUOUS
 10
6.6218591887
 20
4.7346924179
 11
6.6230820532
 21
4.734818957
  0
LINE
  5
2DF
100
AcDbEntity
  8
0
100
AcDbLine
 62
6
  6
CONTINUOUS
 10
6.6207723615
 20
4.7345866809
 11
6.6219583812
 21
4.7347023832
  0
LINE
  5
2E0
100
AcDbEntity
  8
0
100
AcDbLine
 62
6
  6
CONTINUOUS
 10
5.4972029673
 20
4.6307633568
 11
6.0502029673
 21
4.6307633568
  0
LINE
  5
2E1
100
AcDbEntity
  8
0
100
AcDbLine
 62
6
  6
CONTINUOUS
 10
4.9256896861
 20
4.7346781502
 11
4.9269867544
 21
4.7345536794
  0
LINE
  5
2E2
100
AcDbEntity
  8
0
100
AcDbLine
 62
6
  6
CONTINUOUS
 10
4.9243636203
 20
4.7348147187
 11
4.9256896861
 21
4.7346781502
  0
LINE
  5
2E3
100
AcDbEntity
  8
0
100
AcDbLine
 62
6
  6
CONTINUOUS
 10
4.9230136181
 20
4.7349634592
 11
4.924345664
 21
4.7348166327
  0
LINE
  5
2E4
100
AcDbEntity
  8
0
100
AcDbLine
 62
6
  6
CONTINUOUS
 10
4.9216419759
 20
4.7351246483
 11
4.9230136181
 21
4.7349634592
  0
LINE
  5
2E5
100
AcDbEntity
  8
0
100
AcDbLine
 62
6
  6
CONTINUOUS
 10
4.9202478465
 20
4.7352989115
 11
4.9216419759
 21
4.7351246483
  0
LINE
  5
2E6
100
AcDbEntity
  8
0
100
AcDbLine
 62
6
  6
CONTINUOUS
 10
4.9188302429
 20
4.7354869319
 11
4.9202478465
 21
4.7352989115
  0
LINE
  5
2E7
100
AcDbEntity
  8
0
100
AcDbLine
 62
6
  6
CONTINUOUS
 10
4.9173881606
 20
4.7356894402
 11
4.9188302429
 21
4.7354869319
  0
LINE
  5
2E8
100
AcDbEntity
  8
0
100
AcDbLine
 62
6
  6
CONTINUOUS
 10
4.9158795125
 20
4.7359134814
 11
4.9173881606
 21
4.7356894402
  0
LINE
  5
2E9
100
AcDbEntity
  8
0
100
AcDbLine
 62
6
  6
CONTINUOUS
 10
4.914381773
 20
4.7361482828
 11
4.9159205983
 21
4.7359072144
  0
LINE
  5
2EA
100
AcDbEntity
  8
0
100
AcDbLine
 62
6
  6
CONTINUOUS
 10
4.9128569382
 20
4.7364000649
 11
4.9144265697
 21
4.7361410805
  0
LINE
  5
2EB
100
AcDbEntity
  8
0
100
AcDbLine
 62
6
  6
CONTINUOUS
 10
4.9113552937
 20
4.7366606361
 11
4.9129051084
 21
4.7363919138
  0
LINE
  5
2EC
100
AcDbEntity
  8
0
100
AcDbLine
 62
6
  6
CONTINUOUS
 10
4.9105171972
 20
4.7368115349
 11
4.9120841022
 21
4.7365326024
  0
LINE
  5
2ED
100
AcDbEntity
  8
0
100
AcDbLine
 62
6
  6
CONTINUOUS
 10
4.908975974
 20
4.7370993064
 11
4.9105695339
 21
4.7368019967
  0
LINE
  5
2EE
100
AcDbEntity
  8
0
100
AcDbLine
 62
6
  6
CONTINUOUS
 10
4.9081680436
 20
4.7372554995
 11
4.9097230031
 21
4.7369581581
  0
LINE
  5
2EF
100
AcDbEntity
  8
0
100
AcDbLine
 62
6
  6
CONTINUOUS
 10
4.9073525949
 20
4.7374168855
 11
4.9089215663
 21
4.7371097092
  0
LINE
  5
2F0
100
AcDbEntity
  8
0
100
AcDbLine
 62
6
  6
CONTINUOUS
 10
4.9065295662
 20
4.7375835933
 11
4.9081128272
 21
4.7372663087
  0
LINE
  5
2F1
100
AcDbEntity
  8
0
100
AcDbLine
 62
6
  6
CONTINUOUS
 10
4.9056988974
 20
4.7377557547
 11
4.9072967273
 21
4.7374280801
  0
LINE
  5
2F2
100
AcDbEntity
  8
0
100
AcDbLine
 62
6
  6
CONTINUOUS
 10
4.9048605299
 20
4.7379335043
 11
4.9064732096
 21
4.7375951493
  0
LINE
  5
2F3
100
AcDbEntity
  8
0
100
AcDbLine
 62
6
  6
CONTINUOUS
 10
4.904014407
 20
4.7381169798
 11
4.9056422188
 21
4.737767645
  0
LINE
  5
2F4
100
AcDbEntity
  8
0
100
AcDbLine
 62
6
  6
CONTINUOUS
 10
4.9031604737
 20
4.7383063217
 11
4.9048037008
 21
4.7379456987
  0
LINE
  5
2F5
100
AcDbEntity
  8
0
100
AcDbLine
 62
6
  6
CONTINUOUS
 10
4.9031038765
 20
4.7383190194
 11
4.9039576035
 21
4.7381294445
  0
LINE
  5
2F6
100
AcDbEntity
  8
0
100
AcDbLine
 62
6
  6
CONTINUOUS
 10
4.9022424712
 20
4.7385145634
 11
4.9031604737
 21
4.7383063217
  0
LINE
  5
2F7
100
AcDbEntity
  8
0
100
AcDbLine
 62
6
  6
CONTINUOUS
 10
4.901373341
 20
4.7387162192
 11
4.9022986769
 21
4.7385016735
  0
LINE
  5
2F8
100
AcDbEntity
  8
0
100
AcDbLine
 62
6
  6
CONTINUOUS
 10
4.9004963442
 20
4.7389241556
 11
4.9014289655
 21
4.7387031817
  0
LINE
  5
2F9
100
AcDbEntity
  8
0
100
AcDbLine
 62
6
  6
CONTINUOUS
 10
4.8996109827
 20
4.7391386344
 11
4.9005512016
 21
4.7389110173
  0
LINE
  5
2FA
100
AcDbEntity
  8
0
100
AcDbLine
 62
6
  6
CONTINUOUS
 10
4.89871668
 20
4.7393599498
 11
4.8996648955
 21
4.7391254427
  0
LINE
  5
2FB
100
AcDbEntity
  8
0
100
AcDbLine
 62
6
  6
CONTINUOUS
 10
4.8978128643
 20
4.7395884104
 11
4.8987694739
 21
4.739346754
  0
LINE
  5
2FC
100
AcDbEntity
  8
0
100
AcDbLine
 62
6
  6
CONTINUOUS
 10
5.2954817975
 20
5.2622225975
 11
5.300209289
 21
5.2580149653
  0
LINE
  5
2FD
100
AcDbEntity
  8
0
100
AcDbLine
 62
9
  6
CONTINUOUS
 10
5.3002098132
 20
5.2580144948
 11
5.3001451301
 21
5.2580752495
  0
LINE
  5
2FE
100
AcDbEntity
  8
0
100
AcDbLine
 62
6
  6
CONTINUOUS
 10
6.35776164
 20
3.8492069703
 11
6.5212029673
 21
2.8857633568
  0
LINE
  5
2FF
100
AcDbEntity
  8
0
100
AcDbLine
 62
6
  6
CONTINUOUS
 10
6.6197124069
 20
4.7344896366
 11
6.6208629327
 21
4.7345952512
  0
LINE
  5
300
100
AcDbEntity
  8
0
100
AcDbLine
 62
6
  6
CONTINUOUS
 10
4.9558122254
 20
4.7343332702
 11
4.9567981161
 21
4.734417384
  0
LINE
  5
301
100
AcDbEntity
  8
0
100
AcDbLine
 62
6
  6
CONTINUOUS
 10
6.6186786628
 20
4.7344007556
 11
6.6197946018
 21
4.7344969477
  0
LINE
  5
302
100
AcDbEntity
  8
0
100
AcDbLine
 62
6
  6
CONTINUOUS
 10
4.9550453549
 20
4.7342717993
 11
4.956007568
 21
4.7343494819
  0
LINE
  5
303
100
AcDbEntity
  8
0
100
AcDbLine
 62
6
  6
CONTINUOUS
 10
6.6176701638
 20
4.7343195099
 11
6.6187525572
 21
4.7344069205
  0
LINE
  5
304
100
AcDbEntity
  8
0
100
AcDbLine
 62
6
  6
CONTINUOUS
 10
4.9542916806
 20
4.734214763
 11
4.9552291349
 21
4.7342862151
  0
LINE
  5
305
100
AcDbEntity
  8
0
100
AcDbLine
 62
6
  6
CONTINUOUS
 10
6.6166859846
 20
4.7342454024
 11
6.6177356943
 21
4.7343246256
  0
LINE
  5
306
100
AcDbEntity
  8
0
100
AcDbLine
 62
6
  6
CONTINUOUS
 10
4.9535525489
 20
4.7341620816
 11
4.9544637916
 21
4.7342274929
  0
LINE
  5
307
100
AcDbEntity
  8
0
100
AcDbLine
 62
6
  6
CONTINUOUS
 10
6.6157245121
 20
4.7341779088
 11
6.6167430002
 21
4.7342495566
  0
LINE
  5
308
100
AcDbEntity
  8
0
100
AcDbLine
 62
6
  6
CONTINUOUS
 10
6.6148167597
 20
4.7341185731
 11
6.6157726188
 21
4.7341811714
  0
LINE
  5
309
100
AcDbEntity
  8
0
100
AcDbLine
 62
6
  6
CONTINUOUS
 10
4.9522602234
 20
4.7340777252
 11
4.9537129183
 21
4.734173238
  0
LINE
  5
30A
100
AcDbEntity
  8
0
100
AcDbLine
 62
6
  6
CONTINUOUS
 10
6.6137487114
 20
4.7340539825
 11
6.6148568534
 21
4.7341211053
  0
LINE
  5
30B
100
AcDbEntity
  8
0
100
AcDbLine
 62
6
  6
CONTINUOUS
 10
4.9514360492
 20
4.7340290871
 11
4.952829325
 21
4.7341136567
  0
LINE
  5
30C
100
AcDbEntity
  8
0
100
AcDbLine
 62
9
  6
CONTINUOUS
 10
6.6135004033
 20
4.7340397111
 11
6.6134801558
 21
4.7340385285
  0
LINE
  5
30D
100
AcDbEntity
  8
0
100
AcDbLine
 62
6
  6
CONTINUOUS
 10
6.6134478526
 20
4.7340366523
 11
6.6137272537
 21
4.7340527374
  0
LINE
  5
30E
100
AcDbEntity
  8
0
100
AcDbLine
 62
6
  6
CONTINUOUS
 10
4.9502187151
 20
4.7339646131
 11
4.9515612481
 21
4.7340362165
  0
LINE
  5
30F
100
AcDbEntity
  8
0
100
AcDbLine
 62
6
  6
CONTINUOUS
 10
4.9494779943
 20
4.7339296893
 11
4.9507670055
 21
4.733992564
  0
LINE
  5
310
100
AcDbEntity
  8
0
100
AcDbLine
 62
6
  6
CONTINUOUS
 10
4.9482452194
 20
4.7338788101
 11
4.9495722279
 21
4.7339339511
  0
LINE
  5
311
100
AcDbEntity
  8
0
100
AcDbLine
 62
6
  6
CONTINUOUS
 10
4.9470613991
 20
4.7338384978
 11
4.9483216912
 21
4.7338817025
  0
LWPOLYLINE
  5
312
100
AcDbEntity
  8
0
100
AcDbPolyline
 62
6
  6
CONTINUOUS
 90
4
 70
0
 10
6.6069104483
 20
4.7337807204
 10
6.6091312499
 20
4.7338373474
 10
6.6116478029
 20
4.7339406013
 10
6.6135004033
 20
4.7340397111
  0
LINE
  5
313
100
AcDbEntity
  8
0
100
AcDbLine
 62
6
  6
CONTINUOUS
 10
4.9459239118
 20
4.7338076924
 11
4.947121417
 21
4.7338403395
  0
LINE
  5
314
100
AcDbEntity
  8
0
100
AcDbLine
 62
6
  6
CONTINUOUS
 10
4.9448627123
 20
4.7337860182
 11
4.9459688437
 21
4.7338087611
  0
LINE
  5
315
100
AcDbEntity
  8
0
100
AcDbLine
 62
6
  6
CONTINUOUS
 10
6.605028134
 20
4.7337637785
 11
6.6069087868
 21
4.733780705
  0
LWPOLYLINE
  5
316
100
AcDbEntity
  8
0
100
AcDbPolyline
 62
6
  6
CONTINUOUS
 90
3
 70
0
 10
4.9433270458
 20
4.7337670207
 10
4.9438174933
 20
4.7337714543
 10
4.9448627123
 20
4.7337860182
  0
LINE
  5
317
100
AcDbEntity
  8
0
100
AcDbLine
 62
6
  6
CONTINUOUS
 10
4.9424579525
 20
4.7337633668
 11
4.9433166155
 21
4.7337669438
  0
LINE
  5
318
100
AcDbEntity
  8
0
100
AcDbLine
 62
6
  6
CONTINUOUS
 10
6.6050310033
 20
4.733763366
 11
6.6049890884
 21
4.7337633568
  0
LINE
  5
319
100
AcDbEntity
  8
0
100
AcDbLine
 62
9
  6
CONTINUOUS
 10
4.9424566048
 20
4.7337633665
 11
4.9424168462
 21
4.7337633568
  0
LINE
  5
31A
100
AcDbEntity
  8
0
100
AcDbLine
 62
6
  6
CONTINUOUS
 10
5.4302123301
 20
4.6607633568
 11
6.1171936045
 21
4.6607633568
  0
LINE
  5
31B
100
AcDbEntity
  8
0
100
AcDbLine
 62
6
  6
CONTINUOUS
 10
4.9423749313
 20
4.733763366
 11
4.9424168462
 21
4.7337633568
  0
LINE
  5
31C
100
AcDbEntity
  8
0
100
AcDbLine
 62
9
  6
CONTINUOUS
 10
6.6049493298
 20
4.7337633665
 11
6.6049890884
 21
4.7337633568
  0
LINE
  5
31D
100
AcDbEntity
  8
0
100
AcDbLine
 62
6
  6
CONTINUOUS
 10
6.604089319
 20
4.7337669438
 11
6.604947982
 21
4.7337633668
  0
LINE
  5
31E
100
AcDbEntity
  8
0
100
AcDbLine
 62
6
  6
CONTINUOUS
 10
4.9404971478
 20
4.733780705
 11
4.9423747996
 21
4.733763366
  0
LINE
  5
31F
100
AcDbEntity
  8
0
100
AcDbLine
 62
6
  6
CONTINUOUS
 10
6.6030991887
 20
4.7337774207
 11
6.604089319
 21
4.7337669438
  0
LINE
  5
320
100
AcDbEntity
  8
0
100
AcDbLine
 62
6
  6
CONTINUOUS
 10
6.6020340611
 20
4.733795561
 11
6.6030991887
 21
4.7337774207
  0
LINE
  5
321
100
AcDbEntity
  8
0
100
AcDbLine
 62
6
  6
CONTINUOUS
 10
4.9382829167
 20
4.7338371375
 11
4.9404971478
 21
4.733780705
  0
LINE
  5
322
100
AcDbEntity
  8
0
100
AcDbLine
 62
6
  6
CONTINUOUS
 10
6.6008664169
 20
4.7338233963
 11
6.6019963647
 21
4.7337963305
  0
LINE
  5
323
100
AcDbEntity
  8
0
100
AcDbLine
 62
6
  6
CONTINUOUS
 10
6.5996907518
 20
4.7338597235
 11
6.600918762
 21
4.7338219721
  0
LINE
  5
324
100
AcDbEntity
  8
0
100
AcDbLine
 62
6
  6
CONTINUOUS
 10
6.5984655958
 20
4.733906385
 11
6.5997588491
 21
4.7338573931
  0
LINE
  5
325
100
AcDbEntity
  8
0
100
AcDbLine
 62
6
  6
CONTINUOUS
 10
4.9357992568
 20
4.7339386143
 11
4.9382911464
 21
4.7338368012
  0
LINE
  5
326
100
AcDbEntity
  8
0
100
AcDbLine
 62
6
  6
CONTINUOUS
 10
6.5971872195
 20
4.7339646131
 11
6.5985506994
 21
4.7339028541
  0
LINE
  5
327
100
AcDbEntity
  8
0
100
AcDbLine
 62
6
  6
CONTINUOUS
 10
6.5959698854
 20
4.7340290871
 11
6.5972911382
 21
4.7339595168
  0
LINE
  5
328
100
AcDbEntity
  8
0
100
AcDbLine
 62
9
  6
CONTINUOUS
 10
4.9339055313
 20
4.7340397111
 11
4.9339307452
 21
4.7340382388
  0
LINE
  5
329
100
AcDbEntity
  8
0
100
AcDbLine
 62
6
  6
CONTINUOUS
 10
4.9332831757
 20
4.7340759959
 11
4.9357749972
 21
4.7339399093
  0
LINE
  5
32A
100
AcDbEntity
  8
0
100
AcDbLine
 62
6
  6
CONTINUOUS
 10
6.5951457112
 20
4.7340777252
 11
6.5965247101
 21
4.7339986113
  0
LINE
  5
32B
100
AcDbEntity
  8
0
100
AcDbLine
 62
6
  6
CONTINUOUS
 10
4.9323327451
 20
4.7341349088
 11
4.9336687018
 21
4.7340533162
  0
LINE
  5
32C
100
AcDbEntity
  8
0
100
AcDbLine
 62
6
  6
CONTINUOUS
 10
6.5938533857
 20
4.7341620816
 11
6.5952825419
 21
4.7340693718
  0
LINE
  5
32D
100
AcDbEntity
  8
0
100
AcDbLine
 62
6
  6
CONTINUOUS
 10
4.9312378259
 20
4.7342084494
 11
4.9323327451
 21
4.7341349088
  0
LINE
  5
32E
100
AcDbEntity
  8
0
100
AcDbLine
 62
6
  6
CONTINUOUS
 10
6.593114254
 20
4.734214763
 11
6.5944280141
 21
4.7341233539
  0
LINE
  5
32F
100
AcDbEntity
  8
0
100
AcDbLine
 62
6
  6
CONTINUOUS
 10
4.9300718869
 20
4.7342936271
 11
4.9312304504
 21
4.7342089659
  0
LINE
  5
330
100
AcDbEntity
  8
0
100
AcDbLine
 62
6
  6
CONTINUOUS
 10
6.5923605797
 20
4.7342717993
 11
6.5936930163
 21
4.734173238
  0
LINE
  5
331
100
AcDbEntity
  8
0
100
AcDbLine
 62
6
  6
CONTINUOUS
 10
6.5915937091
 20
4.7343332702
 11
6.592942143
 21
4.7342274929
  0
LINE
  5
332
100
AcDbEntity
  8
0
100
AcDbLine
 62
6
  6
CONTINUOUS
 10
4.9288661003
 20
4.7343892515
 11
4.9300718869
 21
4.7342936271
  0
LINE
  5
333
100
AcDbEntity
  8
0
100
AcDbLine
 62
6
  6
CONTINUOUS
 10
6.5908147816
 20
4.7343992521
 11
6.5921767997
 21
4.7342862151
  0
LINE
  5
334
100
AcDbEntity
  8
0
100
AcDbLine
 62
6
  6
CONTINUOUS
 10
6.5906078185
 20
4.734417384
 11
6.5913983666
 21
4.7343494819
  0
LWPOLYLINE
  5
335
100
AcDbEntity
  8
0
100
AcDbPolyline
 62
6
  6
CONTINUOUS
 90
3
 70
0
 10
4.9269779101
 20
4.7345544977
 10
4.927616544
 20
4.7344964831
 10
4.9288661003
 20
4.7343892515
  0
LWPOLYLINE
  5
336
100
AcDbEntity
  8
0
100
AcDbPolyline
 62
6
  6
CONTINUOUS
 90
5
 70
0
 10
6.3798209124
 20
5.0814447539
 10
6.3851800062
 20
5.0460834388
 10
6.3889924857
 20
5.0134122482
 10
6.3919036509
 20
4.9814235259
 10
6.3942781857
 20
4.9475356013
  0
LINE
  5
337
100
AcDbEntity
  8
0
100
AcDbLine
 62
6
  6
CONTINUOUS
 10
6.3942781857
 20
4.9475356013
 11
6.3942815055
 21
4.9475099066
  0
LINE
  5
338
100
AcDbEntity
  8
0
100
AcDbLine
 62
6
  6
CONTINUOUS
 10
6.7872536765
 20
4.8861757858
 11
6.791879845
 21
4.9094845862
  0
LINE
  5
339
100
AcDbEntity
  8
0
100
AcDbLine
 62
6
  6
CONTINUOUS
 10
4.9883166403
 20
4.7401189275
 11
4.9902500788
 21
4.7406610838
  0
LINE
  5
33A
100
AcDbEntity
  8
0
100
AcDbLine
 62
6
  6
CONTINUOUS
 10
4.9871530531
 20
4.7398035857
 11
4.9890407735
 21
4.7403193183
  0
LINE
  5
33B
100
AcDbEntity
  8
0
100
AcDbLine
 62
6
  6
CONTINUOUS
 10
4.9860054247
 20
4.7395005874
 11
4.9878537814
 21
4.7399925066
  0
LINE
  5
33C
100
AcDbEntity
  8
0
100
AcDbLine
 62
6
  6
CONTINUOUS
 10
4.9848731812
 20
4.7392094298
 11
4.9866846788
 21
4.7396789646
  0
LINE
  5
33D
100
AcDbEntity
  8
0
100
AcDbLine
 62
6
  6
CONTINUOUS
 10
4.9837560462
 20
4.7389297072
 11
4.9855314707
 21
4.7393777708
  0
LINE
  5
33E
100
AcDbEntity
  8
0
100
AcDbLine
 62
6
  6
CONTINUOUS
 10
4.982653736
 20
4.7386610267
 11
4.9843938432
 21
4.7390884898
  0
LINE
  5
33F
100
AcDbEntity
  8
0
100
AcDbLine
 62
6
  6
CONTINUOUS
 10
4.9815659603
 20
4.7384030083
 11
4.9832715078
 21
4.7388107086
  0
LINE
  5
340
100
AcDbEntity
  8
0
100
AcDbLine
 62
6
  6
CONTINUOUS
 10
4.9804924222
 20
4.7381552843
 11
4.9821641689
 21
4.7385440281
  0
LINE
  5
341
100
AcDbEntity
  8
0
100
AcDbLine
 62
6
  6
CONTINUOUS
 10
4.9794328185
 20
4.7379174995
 11
4.9810715239
 21
4.7382880621
  0
LINE
  5
342
100
AcDbEntity
  8
0
100
AcDbLine
 62
6
  6
CONTINUOUS
 10
4.9783868403
 20
4.7376893106
 11
4.9799932636
 21
4.7380424372
  0
LINE
  5
343
100
AcDbEntity
  8
0
100
AcDbLine
 62
6
  6
CONTINUOUS
 10
4.977354173
 20
4.7374703863
 11
4.9789290725
 21
4.737806793
  0
LINE
  5
344
100
AcDbEntity
  8
0
100
AcDbLine
 62
6
  6
CONTINUOUS
 10
4.9763344958
 20
4.7372604064
 11
4.9778786289
 21
4.7375807813
  0
LINE
  5
345
100
AcDbEntity
  8
0
100
AcDbLine
 62
6
  6
CONTINUOUS
 10
4.9753274632
 20
4.7370590586
 11
4.9768416056
 21
4.7373640661
  0
LINE
  5
346
100
AcDbEntity
  8
0
100
AcDbLine
 62
6
  6
CONTINUOUS
 10
4.9743327056
 20
4.7368660384
 11
4.9758176636
 21
4.7371563223
  0
LINE
  5
347
100
AcDbEntity
  8
0
100
AcDbLine
 62
6
  6
CONTINUOUS
 10
4.9733498495
 20
4.7366810533
 11
4.9748064306
 21
4.7369572312
  0
LINE
  5
348
100
AcDbEntity
  8
0
100
AcDbLine
 62
6
  6
CONTINUOUS
 10
4.9723785171
 20
4.7365038225
 11
4.9738075238
 21
4.7367664853
  0
LINE
  5
349
100
AcDbEntity
  8
0
100
AcDbLine
 62
6
  6
CONTINUOUS
 10
4.9714183274
 20
4.7363340768
 11
4.9728205563
 21
4.7365837895
  0
LINE
  5
34A
100
AcDbEntity
  8
0
100
AcDbLine
 62
6
  6
CONTINUOUS
 10
4.9704688958
 20
4.7361715582
 11
4.9718451377
 21
4.7364088609
  0
LINE
  5
34B
100
AcDbEntity
  8
0
100
AcDbLine
 62
6
  6
CONTINUOUS
 10
4.9695298345
 20
4.7360160197
 11
4.9708808736
 21
4.7362414282
  0
LINE
  5
34C
100
AcDbEntity
  8
0
100
AcDbLine
 62
6
  6
CONTINUOUS
 10
4.9686007525
 20
4.7358672251
 11
4.9699273663
 21
4.736081232
  0
LINE
  5
34D
100
AcDbEntity
  8
0
100
AcDbLine
 62
6
  6
CONTINUOUS
 10
4.9676812561
 20
4.7357249491
 11
4.9689842148
 21
4.7359280239
  0
LINE
  5
34E
100
AcDbEntity
  8
0
100
AcDbLine
 62
6
  6
CONTINUOUS
 10
4.9667709489
 20
4.7355889764
 11
4.9680510151
 21
4.735781567
  0
LINE
  5
34F
100
AcDbEntity
  8
0
100
AcDbLine
 62
6
  6
CONTINUOUS
 10
4.9658694708
 20
4.7354591078
 11
4.9671273601
 21
4.7356416351
  0
LINE
  5
350
100
AcDbEntity
  8
0
100
AcDbLine
 62
6
  6
CONTINUOUS
 10
4.964976844
 20
4.7353352055
 11
4.9662128432
 21
4.7355080133
  0
LINE
  5
351
100
AcDbEntity
  8
0
100
AcDbLine
 62
6
  6
CONTINUOUS
 10
4.9640933046
 20
4.7352171614
 11
4.9653072898
 21
4.7353805294
  0
LINE
  5
352
100
AcDbEntity
  8
0
100
AcDbLine
 62
6
  6
CONTINUOUS
 10
4.9632190941
 20
4.7351048647
 11
4.96441091
 21
4.7352590682
  0
LINE
  5
353
100
AcDbEntity
  8
0
100
AcDbLine
 62
6
  6
CONTINUOUS
 10
4.9623544568
 20
4.7349982022
 11
4.9635239508
 21
4.7351435166
  0
LINE
  5
354
100
AcDbEntity
  8
0
100
AcDbLine
 62
6
  6
CONTINUOUS
 10
4.9614996402
 20
4.7348970581
 11
4.9626466631
 21
4.735033759
  0
LINE
  5
355
100
AcDbEntity
  8
0
100
AcDbLine
 62
6
  6
CONTINUOUS
 10
4.9606548945
 20
4.7348013136
 11
4.9617793006
 21
4.7349296769
  0
LINE
  5
356
100
AcDbEntity
  8
0
100
AcDbLine
 62
6
  6
CONTINUOUS
 10
4.959820472
 20
4.7347108475
 11
4.9609221201
 21
4.7348311488
  0
LINE
  5
357
100
AcDbEntity
  8
0
100
AcDbLine
 62
6
  6
CONTINUOUS
 10
4.9589966277
 20
4.734625536
 11
4.960075381
 21
4.7347380509
  0
LINE
  5
358
100
AcDbEntity
  8
0
100
AcDbLine
 62
6
  6
CONTINUOUS
 10
4.9581836192
 20
4.7345452526
 11
4.9592393451
 21
4.7346502562
  0
LINE
  5
359
100
AcDbEntity
  8
0
100
AcDbLine
 62
6
  6
CONTINUOUS
 10
4.9573817065
 20
4.7344698684
 11
4.9584142769
 21
4.7345676353
  0
LINE
  5
35A
100
AcDbEntity
  8
0
100
AcDbLine
 62
6
  6
CONTINUOUS
 10
4.956591153
 20
4.7343992521
 11
4.9576004437
 21
4.7344900561
  0
LINE
  5
35B
100
AcDbEntity
  8
0
100
AcDbLine
 62
6
  6
CONTINUOUS
 10
6.5898054908
 20
4.7344900561
 11
6.5908147816
 21
4.7343992521
  0
LINE
  5
35C
100
AcDbEntity
  8
0
100
AcDbLine
 62
6
  6
CONTINUOUS
 10
6.5889916577
 20
4.7345676353
 11
6.5900242281
 21
4.7344698684
  0
LINE
  5
35D
100
AcDbEntity
  8
0
100
AcDbLine
 62
6
  6
CONTINUOUS
 10
6.5881665895
 20
4.7346502562
 11
6.5892223154
 21
4.7345452526
  0
LINE
  5
35E
100
AcDbEntity
  8
0
100
AcDbLine
 62
6
  6
CONTINUOUS
 10
6.5873305536
 20
4.7347380509
 11
6.5884093068
 21
4.734625536
  0
LINE
  5
35F
100
AcDbEntity
  8
0
100
AcDbLine
 62
6
  6
CONTINUOUS
 10
6.5864838144
 20
4.7348311488
 11
6.5875854626
 21
4.7347108475
  0
LINE
  5
360
100
AcDbEntity
  8
0
100
AcDbLine
 62
6
  6
CONTINUOUS
 10
6.5856266339
 20
4.7349296769
 11
6.5867510401
 21
4.7348013136
  0
LINE
  5
361
100
AcDbEntity
  8
0
100
AcDbLine
 62
6
  6
CONTINUOUS
 10
6.5847592715
 20
4.735033759
 11
6.5859062943
 21
4.7348970581
  0
LINE
  5
362
100
AcDbEntity
  8
0
100
AcDbLine
 62
6
  6
CONTINUOUS
 10
6.5838819837
 20
4.7351435166
 11
6.5850514778
 21
4.7349982022
  0
LINE
  5
363
100
AcDbEntity
  8
0
100
AcDbLine
 62
6
  6
CONTINUOUS
 10
6.5829950246
 20
4.7352590682
 11
6.5841868405
 21
4.7351048647
  0
LINE
  5
364
100
AcDbEntity
  8
0
100
AcDbLine
 62
6
  6
CONTINUOUS
 10
6.5820986448
 20
4.7353805294
 11
6.5833126299
 21
4.7352171614
  0
LINE
  5
365
100
AcDbEntity
  8
0
100
AcDbLine
 62
6
  6
CONTINUOUS
 10
6.5811930914
 20
4.7355080133
 11
6.5824290906
 21
4.7353352055
  0
LINE
  5
366
100
AcDbEntity
  8
0
100
AcDbLine
 62
6
  6
CONTINUOUS
 10
6.5802785745
 20
4.7356416351
 11
6.5815364638
 21
4.7354591078
  0
LINE
  5
367
100
AcDbEntity
  8
0
100
AcDbLine
 62
6
  6
CONTINUOUS
 10
6.5793549195
 20
4.735781567
 11
6.5806349857
 21
4.7355889764
  0
LINE
  5
368
100
AcDbEntity
  8
0
100
AcDbLine
 62
6
  6
CONTINUOUS
 10
6.5784217198
 20
4.7359280239
 11
6.5797246784
 21
4.7357249491
  0
LINE
  5
369
100
AcDbEntity
  8
0
100
AcDbLine
 62
6
  6
CONTINUOUS
 10
6.5774785683
 20
4.736081232
 11
6.5788051821
 21
4.7358672251
  0
LINE
  5
36A
100
AcDbEntity
  8
0
100
AcDbLine
 62
6
  6
CONTINUOUS
 10
6.576525061
 20
4.7362414282
 11
6.5778761001
 21
4.7360160197
  0
LINE
  5
36B
100
AcDbEntity
  8
0
100
AcDbLine
 62
6
  6
CONTINUOUS
 10
6.5755607969
 20
4.7364088609
 11
6.5769370388
 21
4.7361715582
  0
LINE
  5
36C
100
AcDbEntity
  8
0
100
AcDbLine
 62
6
  6
CONTINUOUS
 10
6.5745853783
 20
4.7365837895
 11
6.5759876072
 21
4.7363340768
  0
LINE
  5
36D
100
AcDbEntity
  8
0
100
AcDbLine
 62
6
  6
CONTINUOUS
 10
6.5735984108
 20
4.7367664853
 11
6.5750274175
 21
4.7365038225
  0
LINE
  5
36E
100
AcDbEntity
  8
0
100
AcDbLine
 62
6
  6
CONTINUOUS
 10
6.572599504
 20
4.7369572312
 11
6.5740560851
 21
4.7366810533
  0
LINE
  5
36F
100
AcDbEntity
  8
0
100
AcDbLine
 62
6
  6
CONTINUOUS
 10
6.571588271
 20
4.7371563223
 11
6.5730732289
 21
4.7368660384
  0
LINE
  5
370
100
AcDbEntity
  8
0
100
AcDbLine
 62
6
  6
CONTINUOUS
 10
6.570564329
 20
4.7373640661
 11
6.5720784714
 21
4.7370590586
  0
LINE
  5
371
100
AcDbEntity
  8
0
100
AcDbLine
 62
6
  6
CONTINUOUS
 10
6.5695273057
 20
4.7375807813
 11
6.5710714387
 21
4.7372604064
  0
LINE
  5
372
100
AcDbEntity
  8
0
100
AcDbLine
 62
6
  6
CONTINUOUS
 10
6.5684768621
 20
4.737806793
 11
6.5700517616
 21
4.7374703863
  0
LINE
  5
373
100
AcDbEntity
  8
0
100
AcDbLine
 62
6
  6
CONTINUOUS
 10
6.567412671
 20
4.7380424372
 11
6.5690190942
 21
4.7376893106
  0
LINE
  5
374
100
AcDbEntity
  8
0
100
AcDbLine
 62
6
  6
CONTINUOUS
 10
6.5663344107
 20
4.7382880621
 11
6.5679731161
 21
4.7379174995
  0
LINE
  5
375
100
AcDbEntity
  8
0
100
AcDbLine
 62
6
  6
CONTINUOUS
 10
6.5652417657
 20
4.7385440281
 11
6.5669135124
 21
4.7381552843
  0
LINE
  5
376
100
AcDbEntity
  8
0
100
AcDbLine
 62
6
  6
CONTINUOUS
 10
6.5641344268
 20
4.7388107086
 11
6.5658399743
 21
4.7384030083
  0
LINE
  5
377
100
AcDbEntity
  8
0
100
AcDbLine
 62
6
  6
CONTINUOUS
 10
6.5630120914
 20
4.7390884898
 11
6.5647521986
 21
4.7386610267
  0
LINE
  5
378
100
AcDbEntity
  8
0
100
AcDbLine
 62
6
  6
CONTINUOUS
 10
6.5618744638
 20
4.7393777708
 11
6.5636498884
 21
4.7389297072
  0
LINE
  5
379
100
AcDbEntity
  8
0
100
AcDbLine
 62
6
  6
CONTINUOUS
 10
6.5607212558
 20
4.7396789646
 11
6.5625327534
 21
4.7392094298
  0
LINE
  5
37A
100
AcDbEntity
  8
0
100
AcDbLine
 62
6
  6
CONTINUOUS
 10
6.5595521532
 20
4.7399925066
 11
6.5614005099
 21
4.7395005874
  0
LINE
  5
37B
100
AcDbEntity
  8
0
100
AcDbLine
 62
6
  6
CONTINUOUS
 10
6.5583651611
 20
4.7403193183
 11
6.5602528815
 21
4.7398035857
  0
LINE
  5
37C
100
AcDbEntity
  8
0
100
AcDbLine
 62
6
  6
CONTINUOUS
 10
6.5571558558
 20
4.7406610838
 11
6.5590892943
 21
4.7401189275
  0
LINE
  5
37D
100
AcDbEntity
  8
0
100
AcDbLine
 62
6
  6
CONTINUOUS
 10
6.5559196653
 20
4.7410196741
 11
6.557906584
 21
4.7404478697
  0
LINE
  5
37E
100
AcDbEntity
  8
0
100
AcDbLine
 62
6
  6
CONTINUOUS
 10
6.5554660322
 20
4.7411536098
 11
6.5567003014
 21
4.7407921422
  0
LINE
  5
37F
100
AcDbEntity
  8
0
100
AcDbLine
 62
6
  6
CONTINUOUS
 10
6.5541994122
 20
4.7415342757
 11
6.5559196653
 21
4.7410196741
  0
LINE
  5
380
100
AcDbEntity
  8
0
100
AcDbLine
 62
6
  6
CONTINUOUS
 10
6.5528961323
 20
4.741936288
 11
6.554652068
 21
4.7413971022
  0
LINE
  5
381
100
AcDbEntity
  8
0
100
AcDbLine
 62
6
  6
CONTINUOUS
 10
6.5515515998
 20
4.7423620586
 11
6.5533485974
 21
4.7417955294
  0
LINE
  5
382
100
AcDbEntity
  8
0
100
AcDbLine
 62
6
  6
CONTINUOUS
 10
5.2162029673
 20
5.0707633568
 11
5.4302029673
 21
5.0012305418
  0
LINE
  5
383
100
AcDbEntity
  8
0
100
AcDbLine
 62
6
  6
CONTINUOUS
 10
6.5501573182
 20
4.7428154817
 11
6.5520048049
 21
4.7422172874
  0
LINE
  5
384
100
AcDbEntity
  8
0
100
AcDbLine
 62
6
  6
CONTINUOUS
 10
5.2618279673
 20
5.7353883568
 11
5.2462029673
 21
5.7510133568
  0
LWPOLYLINE
  5
385
100
AcDbEntity
  8
0
100
AcDbPolyline
 62
6
  6
CONTINUOUS
 90
4
 70
0
 10
6.3942838945
 20
4.9475104785
 10
6.3996170797
 20
4.9248989356
 10
6.406935608
 20
4.900861526
 10
6.4150500885
 20
4.8791676587
  0
LINE
  5
386
100
AcDbEntity
  8
0
100
AcDbLine
 62
9
  6
CONTINUOUS
 10
6.3798209124
 20
5.0814447539
 11
6.3798204733
 21
5.0814472958
  0
LWPOLYLINE
  5
387
100
AcDbEntity
  8
0
100
AcDbPolyline
 62
6
  6
CONTINUOUS
 90
7
 70
0
 10
6.7944647283
 20
4.9604928621
 10
6.7928413199
 20
5.0155638391
 10
6.7872681064
 20
5.0714545666
 10
6.7780667511
 20
5.1259835947
 10
6.765575103
 20
5.1787971204
 10
6.7500874373
 20
5.2296672515
 10
6.731872398
 20
5.2783557753
  0
LINE
  5
388
100
AcDbEntity
  8
0
100
AcDbLine
 62
6
  6
CONTINUOUS
 10
6.7944647313
 20
4.9604933591
 11
6.7944644103
 21
4.9605094325
  0
LINE
  5
389
100
AcDbEntity
  8
0
100
AcDbLine
 62
6
  6
CONTINUOUS
 10
6.7944551925
 20
4.9355544275
 11
6.794516156
 21
4.9605094759
  0
LINE
  5
38A
100
AcDbEntity
  8
0
100
AcDbLine
 62
6
  6
CONTINUOUS
 10
6.7918798398
 20
4.9094845603
 11
6.7944551974
 21
4.9355544773
  0
LINE
  5
38B
100
AcDbEntity
  8
0
100
AcDbLine
 62
6
  6
CONTINUOUS
 10
5.4302029673
 20
5.0012305418
 11
6.1172029673
 21
5.0012305418
  0
LINE
  5
38C
100
AcDbEntity
  8
0
100
AcDbLine
 62
6
  6
CONTINUOUS
 10
6.3312029673
 20
5.0707633568
 11
5.2162029673
 21
5.0707633568
  0
LINE
  5
38D
100
AcDbEntity
  8
0
100
AcDbLine
 62
6
  6
CONTINUOUS
 10
6.5487023658
 20
4.7433016279
 11
6.550613675
 21
4.7426657357
  0
LINE
  5
38E
100
AcDbEntity
  8
0
100
AcDbLine
 62
6
  6
CONTINUOUS
 10
6.5471805355
 20
4.7438244099
 11
6.5491642075
 21
4.7431458693
  0
LINE
  5
38F
100
AcDbEntity
  8
0
100
AcDbLine
 62
6
  6
CONTINUOUS
 10
6.5456027915
 20
4.7443819338
 11
6.5476468234
 21
4.7436626714
  0
LINE
  5
390
100
AcDbEntity
  8
0
100
AcDbLine
 62
6
  6
CONTINUOUS
 10
6.5439839707
 20
4.7449705362
 11
6.5460678659
 21
4.7442159408
  0
LINE
  5
391
100
AcDbEntity
  8
0
100
AcDbLine
 62
6
  6
CONTINUOUS
 10
6.5423387564
 20
4.745586066
 11
6.5444425743
 21
4.7448020773
  0
LINE
  5
392
100
AcDbEntity
  8
0
100
AcDbLine
 62
9
  6
CONTINUOUS
 10
5.2696130301
 20
5.2778818298
 11
5.2696102002
 21
5.2778828939
  0
LINE
  5
393
100
AcDbEntity
  8
0
100
AcDbLine
 62
6
  6
CONTINUOUS
 10
6.5406814782
 20
4.7462239282
 11
6.5427861375
 21
4.7454169477
  0
LINE
  5
394
100
AcDbEntity
  8
0
100
AcDbLine
 62
6
  6
CONTINUOUS
 10
6.5390200128
 20
4.7468815209
 11
6.5411135586
 21
4.7460558941
  0
LINE
  5
395
100
AcDbEntity
  8
0
100
AcDbLine
 62
6
  6
CONTINUOUS
 10
6.5373543618
 20
4.7475591593
 11
6.5394357917
 21
4.746715248
  0
LINE
  5
396
100
AcDbEntity
  8
0
100
AcDbLine
 62
6
  6
CONTINUOUS
 10
6.5356840518
 20
4.7482573725
 11
6.5377538744
 21
4.7473949368
  0
LINE
  5
397
100
AcDbEntity
  8
0
100
AcDbLine
 62
6
  6
CONTINUOUS
 10
6.5340086275
 20
4.7489767177
 11
6.5360673141
 21
4.7480954995
  0
LWPOLYLINE
  5
398
100
AcDbEntity
  8
0
100
AcDbPolyline
 62
6
  6
CONTINUOUS
 90
4
 70
0
 10
5.2696102002
 20
5.2778828939
 10
5.2754006474
 20
5.2753827877
 10
5.2848550862
 20
5.2700583993
 10
5.2954817975
 20
5.2622225975
  0
LINE
  5
399
100
AcDbEntity
  8
0
100
AcDbLine
 62
6
  6
CONTINUOUS
 10
6.532327653
 20
4.7497177793
 11
6.5343756366
 21
4.7488175041
  0
LINE
  5
39A
100
AcDbEntity
  8
0
100
AcDbLine
 62
6
  6
CONTINUOUS
 10
6.5306407123
 20
4.75048117
 11
6.5326783877
 21
4.7495615472
  0
LINE
  5
39B
100
AcDbEntity
  8
0
100
AcDbLine
 62
6
  6
CONTINUOUS
 10
6.5289474105
 20
4.7512675301
 11
6.5309751337
 21
4.7503282547
  0
LINE
  5
39C
100
AcDbEntity
  8
0
100
AcDbLine
 62
6
  6
CONTINUOUS
 10
6.527247375
 20
4.7520775281
 11
6.5292654629
 21
4.7511182812
  0
LINE
  5
39D
100
AcDbEntity
  8
0
100
AcDbLine
 62
6
  6
CONTINUOUS
 10
6.5255402564
 20
4.7529118608
 11
6.5275489864
 21
4.7519323108
  0
LINE
  5
39E
100
AcDbEntity
  8
0
100
AcDbLine
 62
6
  6
CONTINUOUS
 10
6.5238257297
 20
4.7537712531
 11
6.5258253393
 21
4.7527710568
  0
LINE
  5
39F
100
AcDbEntity
  8
0
100
AcDbLine
 62
6
  6
CONTINUOUS
 10
6.5221034955
 20
4.7546564589
 11
6.5240941819
 21
4.7536352623
  0
LINE
  5
3A0
100
AcDbEntity
  8
0
100
AcDbLine
 62
6
  6
CONTINUOUS
 10
6.5203732812
 20
4.7555682604
 11
6.5223552012
 21
4.7545256999
  0
LINE
  5
3A1
100
AcDbEntity
  8
0
100
AcDbLine
 62
6
  6
CONTINUOUS
 10
6.5186348425
 20
4.7565074692
 11
6.5206081118
 21
4.7554431722
  0
LINE
  5
3A2
100
AcDbEntity
  8
0
100
AcDbLine
 62
6
  6
CONTINUOUS
 10
6.5168879642
 20
4.7574749259
 11
6.5188526572
 21
4.7563885122
  0
LINE
  5
3A3
100
AcDbEntity
  8
0
100
AcDbLine
 62
6
  6
CONTINUOUS
 10
6.5151324623
 20
4.7584715007
 11
6.5170886117
 21
4.7573625831
  0
LINE
  5
3A4
100
AcDbEntity
  8
0
100
AcDbLine
 62
6
  6
CONTINUOUS
 10
6.5133681847
 20
4.7594980936
 11
6.5153157814
 21
4.7583662789
  0
LINE
  5
3A5
100
AcDbEntity
  8
0
100
AcDbLine
 62
6
  6
CONTINUOUS
 10
6.5115950135
 20
4.7605556346
 11
6.5135340059
 21
4.7594005247
  0
LINE
  5
3A6
100
AcDbEntity
  8
0
100
AcDbLine
 62
6
  6
CONTINUOUS
 10
6.5098128658
 20
4.7616450839
 11
6.51174316
 21
4.7604662766
  0
LINE
  5
3A7
100
AcDbEntity
  8
0
100
AcDbLine
 62
6
  6
CONTINUOUS
 10
6.5080216959
 20
4.7627674324
 11
6.509943155
 21
4.7615645226
  0
LINE
  5
3A8
100
AcDbEntity
  8
0
100
AcDbLine
 62
6
  6
CONTINUOUS
 10
6.5062214968
 20
4.7639237021
 11
6.5081339407
 21
4.7626962823
  0
LINE
  5
3A9
100
AcDbEntity
  8
0
100
AcDbLine
 62
6
  6
CONTINUOUS
 10
6.504412302
 20
4.7651149462
 11
6.506315507
 21
4.7638626079
  0
LINE
  5
3AA
100
AcDbEntity
  8
0
100
AcDbLine
 62
6
  6
CONTINUOUS
 10
6.5025941928
 20
4.7663422456
 11
6.5044878862
 21
4.7650645839
  0
LINE
  5
3AB
100
AcDbEntity
  8
0
100
AcDbLine
 62
6
  6
CONTINUOUS
 10
6.5007673324
 20
4.7676066867
 11
6.5026511592
 21
4.7663033244
  0
LWPOLYLINE
  5
3AC
100
AcDbEntity
  8
0
100
AcDbPolyline
 62
6
  6
CONTINUOUS
 90
3
 70
0
 10
6.4986766939
 20
4.7690931584
 10
6.498951082
 20
4.7688956215
 10
6.5008054916
 20
4.7675799497
  0
LWPOLYLINE
  5
3AD
100
AcDbEntity
  8
0
100
AcDbPolyline
 62
6
  6
CONTINUOUS
 90
4
 70
0
 10
6.4611176902
 20
4.8036580266
 10
6.4725027876
 20
4.7913803706
 10
6.485969506
 20
4.7790140465
 10
6.4986766476
 20
4.7690931919
  0
LWPOLYLINE
  5
3AE
100
AcDbEntity
  8
0
100
AcDbPolyline
 62
6
  6
CONTINUOUS
 90
4
 70
0
 10
6.4585439163
 20
4.8067111009
 10
6.4589516517
 20
4.806219913
 10
6.4606052548
 20
4.8042570102
 10
6.4611176836
 20
4.8036580342
  0
LINE
  5
3AF
100
AcDbEntity
  8
0
100
AcDbLine
 62
9
  6
CONTINUOUS
 10
6.3339805609
 20
5.2163963494
 11
6.333978778
 21
5.2163997242
  0
LWPOLYLINE
  5
3B0
100
AcDbEntity
  8
0
100
AcDbPolyline
 62
6
  6
CONTINUOUS
 90
7
 70
0
 10
6.3339805609
 20
5.2163963494
 10
6.3441267023
 20
5.1958531823
 10
6.3539267824
 20
5.1729659316
 10
6.3624647346
 20
5.149651203
 10
6.3697169676
 20
5.1261026139
 10
6.3756257119
 20
5.1026110004
 10
6.3798204733
 20
5.0814472958
  0
LWPOLYLINE
  5
3B1
100
AcDbEntity
  8
0
100
AcDbPolyline
 62
6
  6
CONTINUOUS
 90
5
 70
0
 10
6.4150500561
 20
4.8791677379
 10
6.423315962
 20
4.8608736881
 10
6.433925347
 20
4.8414911543
 10
6.4460769037
 20
4.8229343255
 10
6.4585439425
 20
4.8067110695
  0
LWPOLYLINE
  5
3B2
100
AcDbEntity
  8
0
100
AcDbPolyline
 62
6
  6
CONTINUOUS
 90
3
 70
0
 10
5.2622272304
 20
5.280029768
 10
5.2635680084
 20
5.2797715798
 10
5.2696130301
 20
5.2778818298
  0
LINE
  5
3B3
100
AcDbEntity
  8
0
100
AcDbLine
 62
6
  6
CONTINUOUS
 10
6.3012029673
 20
5.7197633568
 11
6.3312029673
 21
5.6397633568
  0
LINE
  5
3B4
100
AcDbEntity
  8
0
100
AcDbLine
 62
9
  6
CONTINUOUS
 10
6.1097180873
 20
5.3757633568
 11
6.150598548
 21
5.3757633568
  0
LINE
  5
3B5
100
AcDbEntity
  8
0
100
AcDbLine
 62
9
  6
CONTINUOUS
 10
5.4376921948
 20
5.3757633737
 11
5.3968073866
 21
5.3757633568
  0
LWPOLYLINE
  5
3B6
100
AcDbEntity
  8
0
100
AcDbPolyline
 62
6
  6
CONTINUOUS
 90
12
 70
0
 10
6.282251972
 20
5.2819758979
 10
6.2816820146
 20
5.2821713691
 10
6.2819555656
 20
5.2820257335
 10
6.2842676209
 20
5.2806897679
 10
6.2878892994
 20
5.2781310371
 10
6.2920128302
 20
5.2746735617
 10
6.2966691066
 20
5.270162949
 10
6.3024669594
 20
5.263816659
 10
6.3096242291
 20
5.2549825408
 10
6.3176874391
 20
5.243731708
 10
6.3262018441
 20
5.2302765606
 10
6.333978778
 20
5.2163997242
  0
LINE
  5
3B7
100
AcDbEntity
  8
0
100
AcDbLine
 62
9
  6
CONTINUOUS
 10
5.2993714128
 20
5.5337828104
 11
5.297750526
 21
5.5337504335
  0
LINE
  5
3B8
100
AcDbEntity
  8
0
100
AcDbLine
 62
9
  6
CONTINUOUS
 10
5.3091352714
 20
5.5341701532
 11
5.3104652216
 21
5.5341920767
  0
LINE
  5
3B9
100
AcDbEntity
  8
0
100
AcDbLine
 62
9
  6
CONTINUOUS
 10
6.238272548
 20
5.5341701175
 11
6.2369407132
 21
5.5341920914
  0
LINE
  5
3BA
100
AcDbEntity
  8
0
100
AcDbLine
 62
9
  6
CONTINUOUS
 10
6.2496554086
 20
5.5337504335
 11
6.2480345218
 21
5.5337828104
  0
LINE
  5
3BB
100
AcDbEntity
  8
0
100
AcDbLine
 62
6
  6
CONTINUOUS
 10
6.6986504249
 20
5.3483080562
 11
6.681467316
 21
5.3758208567
  0
LINE
  5
3BC
100
AcDbEntity
  8
0
100
AcDbLine
 62
6
  6
CONTINUOUS
 10
6.7121448308
 20
5.3226322921
 11
6.6986063944
 21
5.3483851874
  0
LINE
  5
3BD
100
AcDbEntity
  8
0
100
AcDbLine
 62
6
  6
CONTINUOUS
 10
6.7318723839
 20
5.2783558097
 11
6.7121443962
 21
5.3226331933
  0
LINE
  5
3BE
100
AcDbEntity
  8
0
100
AcDbLine
 62
6
  6
CONTINUOUS
 10
5.0378466055
 20
5.5006760509
 11
5.0138055507
 21
5.4940868979
  0
LINE
  5
3BF
100
AcDbEntity
  8
0
100
AcDbLine
 62
9
  6
CONTINUOUS
 10
5.0378428158
 20
5.5006752348
 11
5.0378466055
 21
5.5006760509
  0
LINE
  5
3C0
100
AcDbEntity
  8
0
100
AcDbLine
 62
6
  6
CONTINUOUS
 10
5.1235308412
 20
5.5165955124
 11
5.0378428158
 21
5.5006752348
  0
LINE
  5
3C1
100
AcDbEntity
  8
0
100
AcDbLine
 62
6
  6
CONTINUOUS
 10
5.3113598627
 20
5.5344599596
 11
5.3091351966
 21
5.5341701507
  0
LINE
  5
3C2
100
AcDbEntity
  8
0
100
AcDbLine
 62
6
  6
CONTINUOUS
 10
5.21092691
 20
5.5277556267
 11
5.1235308412
 21
5.5165955124
  0
LINE
  5
3C3
100
AcDbEntity
  8
0
100
AcDbLine
 62
6
  6
CONTINUOUS
 10
5.2977501328
 20
5.5337504179
 11
5.21092691
 21
5.5277556267
  0
LWPOLYLINE
  5
3C4
100
AcDbEntity
  8
0
100
AcDbPolyline
 62
6
  6
CONTINUOUS
 90
3
 70
0
 10
5.3091120772
 20
5.5341694206
 10
5.3074147275
 20
5.5341113797
 10
5.297750526
 20
5.5337504335
  0
LINE
  5
3C5
100
AcDbEntity
  8
0
100
AcDbLine
 62
9
  6
CONTINUOUS
 10
5.3091120407
 20
5.5341693773
 11
5.3091352714
 21
5.5341701532
  0
LINE
  5
3C6
100
AcDbEntity
  8
0
100
AcDbLine
 62
6
  6
CONTINUOUS
 10
6.3312029673
 20
5.6397633568
 11
5.2162029673
 21
5.6397633568
  0
LINE
  5
3C7
100
AcDbEntity
  8
0
100
AcDbLine
 62
9
  6
CONTINUOUS
 10
6.2382939233
 20
5.5341694032
 11
6.238272548
 21
5.5341701175
  0
LWPOLYLINE
  5
3C8
100
AcDbEntity
  8
0
100
AcDbPolyline
 62
6
  6
CONTINUOUS
 90
3
 70
0
 10
6.2496554086
 20
5.5337504335
 10
6.2454006411
 20
5.5339154818
 10
6.2382939002
 20
5.5341694192
  0
LINE
  5
3C9
100
AcDbEntity
  8
0
100
AcDbLine
 62
6
  6
CONTINUOUS
 10
6.3364790246
 20
5.5277556267
 11
6.2496558018
 21
5.5337504179
  0
LINE
  5
3CA
100
AcDbEntity
  8
0
100
AcDbLine
 62
6
  6
CONTINUOUS
 10
6.2382728435
 20
5.5341701076
 11
6.2360267537
 21
5.5344642086
  0
LWPOLYLINE
  5
3CB
100
AcDbEntity
  8
0
100
AcDbPolyline
 62
6
  6
CONTINUOUS
 90
3
 70
0
 10
6.5095631188
 20
5.5006752348
 10
6.4238750934
 20
5.5165955124
 10
6.3364790246
 20
5.5277556267
  0
LINE
  5
3CC
100
AcDbEntity
  8
0
100
AcDbLine
 62
9
  6
CONTINUOUS
 10
6.5095631188
 20
5.5006752348
 11
6.5095593291
 21
5.5006760509
  0
LINE
  5
3CD
100
AcDbEntity
  8
0
100
AcDbLine
 62
6
  6
CONTINUOUS
 10
6.5336003839
 20
5.4940868979
 11
6.5095593625
 21
5.5006760437
  0
LWPOLYLINE
  5
3CE
100
AcDbEntity
  8
0
100
AcDbPolyline
 62
6
  6
CONTINUOUS
 90
3
 70
0
 10
6.2360267537
 20
5.5344642086
 10
6.2338818463
 20
5.535140654
 10
6.2331146279
 20
5.5355163282
  0
LINE
  5
3CF
100
AcDbEntity
  8
0
100
AcDbLine
 62
6
  6
CONTINUOUS
 10
6.5588647233
 20
5.484068093
 11
6.5334332443
 21
5.4941424924
  0
LINE
  5
3D0
100
AcDbEntity
  8
0
100
AcDbLine
 62
6
  6
CONTINUOUS
 10
6.5836378369
 20
5.4709607212
 11
6.5585421578
 21
5.4842166696
  0
LINE
  5
3D1
100
AcDbEntity
  8
0
100
AcDbLine
 62
9
  6
CONTINUOUS
 10
6.2331085071
 20
5.535519959
 11
6.2331146279
 21
5.5355163282
  0
LINE
  5
3D2
100
AcDbEntity
  8
0
100
AcDbLine
 62
6
  6
CONTINUOUS
 10
6.6006378326
 20
5.4598794567
 11
6.5831745727
 21
5.471237797
  0
LINE
  5
3D3
100
AcDbEntity
  8
0
100
AcDbLine
 62
9
  6
CONTINUOUS
 10
6.6006181582
 20
5.4598933512
 11
6.6006373526
 21
5.4598797957
  0
LINE
  5
3D4
100
AcDbEntity
  8
0
100
AcDbLine
 62
6
  6
CONTINUOUS
 10
6.6187861163
 20
5.4459312535
 11
6.6006181582
 21
5.4598933512
  0
LINE
  5
3D5
100
AcDbEntity
  8
0
100
AcDbLine
 62
6
  6
CONTINUOUS
 10
6.3012029673
 20
5.7197633568
 11
6.2855779673
 21
5.7353883568
  0
LINE
  5
3D6
100
AcDbEntity
  8
0
100
AcDbLine
 62
6
  6
CONTINUOUS
 10
6.3012029673
 20
5.8269180144
 11
6.2862029673
 21
5.8419180144
  0
LWPOLYLINE
  5
3D7
100
AcDbEntity
  8
0
100
AcDbPolyline
 62
6
  6
CONTINUOUS
 90
3
 70
0
 10
6.6621641328
 20
5.4017156681
 10
6.6410007798
 20
5.4254082395
 10
6.6186155085
 20
5.4460623658
  0
LINE
  5
3D8
100
AcDbEntity
  8
0
100
AcDbLine
 62
6
  6
CONTINUOUS
 10
6.6815638326
 20
5.3756792905
 11
6.6620833307
 21
5.4018061268
  0
LINE
  5
3D9
100
AcDbEntity
  8
0
100
AcDbLine
 62
6
  6
CONTINUOUS
 10
5.2462029673
 20
5.7197633568
 11
6.3012029673
 21
5.7197633568
  0
LINE
  5
3DA
100
AcDbEntity
  8
0
100
AcDbLine
 62
6
  6
CONTINUOUS
 10
5.2618279673
 20
5.7353883568
 11
6.2855779673
 21
5.7353883568
  0
LINE
  5
3DB
100
AcDbEntity
  8
0
100
AcDbLine
 62
6
  6
CONTINUOUS
 10
5.2462029673
 20
5.7510133568
 11
6.3012029673
 21
5.7510133568
  0
LINE
  5
3DC
100
AcDbEntity
  8
0
100
AcDbLine
 62
6
  6
CONTINUOUS
 10
5.2462029673
 20
5.8269180144
 11
6.3012029673
 21
5.8269180144
  0
LINE
  5
3DD
100
AcDbEntity
  8
0
100
AcDbLine
 62
6
  6
CONTINUOUS
 10
5.2612029673
 20
5.8419180144
 11
6.2862029673
 21
5.8419180144
  0
LINE
  5
3DE
100
AcDbEntity
  8
0
100
AcDbLine
 62
6
  6
CONTINUOUS
 10
5.3192082928
 20
5.8607633568
 11
6.2281976418
 21
5.8607633568
  0
LINE
  5
3DF
100
AcDbEntity
  8
0
100
AcDbLine
 62
9
  6
CONTINUOUS
 10
5.3785583107
 20
5.88957265
 11
6.1688476238
 21
5.88957265
  0
LINE
  5
3E0
100
AcDbEntity
  8
0
100
AcDbLine
 62
6
  6
CONTINUOUS
 10
6.2862029673
 20
5.8419180144
 11
6.2282029673
 21
5.8607633568
  0
ARC
  5
3E1
100
AcDbEntity
  8
0
100
AcDbCircle
 62
9
  6
CONTINUOUS
 10
5.371179015
 20
3.7384325596
 40
1.7967857009
100
AcDbArc
 50
91.9788151035
 51
92.2904058716
  0
ARC
  5
3E2
100
AcDbEntity
  8
0
100
AcDbCircle
 62
9
  6
CONTINUOUS
 10
5.3906531688
 20
3.7532677444
 40
1.7755912663
100
AcDbArc
 50
91.7750497459
 51
92.2037105742
  0
ARC
  5
3E3
100
AcDbEntity
  8
0
100
AcDbCircle
 62
6
  6
CONTINUOUS
 10
4.3281210226
 20
3.0362375236
 40
0.75
100
AcDbArc
 50
296.8780899777
 51
338.0396077086
  0
ARC
  5
3E4
100
AcDbEntity
  8
0
100
AcDbCircle
 62
6
  6
CONTINUOUS
 10
5.37499612
 20
3.8177633568
 40
0.188
100
AcDbArc
 50
89.9999997371
 51
170.3718437847
  0
ARC
  5
3E5
100
AcDbEntity
  8
0
100
AcDbCircle
 62
6
  6
CONTINUOUS
 10
4.7237029673
 20
2.2557633568
 40
0.125
100
AcDbArc
 50
116.8780899777
 51
270.0
  0
ARC
  5
3E6
100
AcDbEntity
  8
0
100
AcDbCircle
 62
6
  6
CONTINUOUS
 10
5.0262029673
 20
2.8207633568
 40
0.065
100
AcDbArc
 50
90.0
 51
267.8004275869
  0
ARC
  5
3E7
100
AcDbEntity
  8
0
100
AcDbCircle
 62
6
  6
CONTINUOUS
 10
5.6603751284
 20
4.8711195622
 40
0.7706786538
100
AcDbArc
 50
17.8782700246
 51
22.2928424917
  0
ARC
  5
3E8
100
AcDbEntity
  8
0
100
AcDbCircle
 62
9
  6
CONTINUOUS
 10
5.3111169367
 20
4.9620435692
 40
0.4564891783
100
AcDbArc
 50
199.4103039527
 51
199.8391772034
  0
ARC
  5
3E9
100
AcDbEntity
  8
0
100
AcDbCircle
 62
9
  6
CONTINUOUS
 10
4.8100850589
 20
4.9786282893
 40
0.3092786662
100
AcDbArc
 50
341.5540697657
 51
355.0008347719
  0
ARC
  5
3EA
100
AcDbEntity
  8
0
100
AcDbCircle
 62
9
  6
CONTINUOUS
 10
5.0580261319
 20
4.9340205177
 40
0.2572024307
100
AcDbArc
 50
208.7369575461
 51
209.5704153837
  0
ARC
  5
3EB
100
AcDbEntity
  8
0
100
AcDbCircle
 62
9
  6
CONTINUOUS
 10
5.0859114639
 20
5.2628835389
 40
0.2411809834
100
AcDbArc
 50
125.234559578
 51
126.9526484433
  0
ARC
  5
3EC
100
AcDbEntity
  8
0
100
AcDbCircle
 62
9
  6
CONTINUOUS
 10
4.8778985711
 20
4.9441370349
 40
0.2325143665
100
AcDbArc
 50
323.0229797468
 51
323.9554950667
  0
ARC
  5
3ED
100
AcDbEntity
  8
0
100
AcDbCircle
 62
9
  6
CONTINUOUS
 10
4.9796283599
 20
4.927757745
 40
0.2115389549
100
AcDbArc
 50
213.7157449829
 51
214.7702743725
  0
ARC
  5
3EE
100
AcDbEntity
  8
0
100
AcDbCircle
 62
9
  6
CONTINUOUS
 10
4.9529798158
 20
4.9090613695
 40
0.1789847303
100
AcDbArc
 50
214.7188268662
 51
230.5731710703
  0
ARC
  5
3EF
100
AcDbEntity
  8
0
100
AcDbCircle
 62
9
  6
CONTINUOUS
 10
5.0849777601
 20
5.328652102
 40
0.1770366074
100
AcDbArc
 50
102.194308472
 51
105.2427936191
  0
ARC
  5
3F0
100
AcDbEntity
  8
0
100
AcDbCircle
 62
9
  6
CONTINUOUS
 10
4.9434841549
 20
4.8978337035
 40
0.1640738306
100
AcDbArc
 50
266.6619478767
 51
269.5042264094
  0
ARC
  5
3F1
100
AcDbEntity
  8
0
100
AcDbCircle
 62
9
  6
CONTINUOUS
 10
5.3037004383
 20
5.3682372374
 40
0.0965736471
100
AcDbArc
 50
245.3340159949
 51
246.0129529225
  0
ARC
  5
3F2
100
AcDbEntity
  8
0
100
AcDbCircle
 62
6
  6
CONTINUOUS
 10
4.9424413521
 20
4.8299519124
 40
0.0961886403
100
AcDbArc
 50
264.9387792844
 51
269.7773059868
  0
ARC
  5
3F3
100
AcDbEntity
  8
0
100
AcDbCircle
 62
9
  6
CONTINUOUS
 10
5.3087818288
 20
5.5840402916
 40
0.049876628
100
AcDbArc
 50
271.934164919
 51
276.4969040513
  0
ARC
  5
3F4
100
AcDbEntity
  8
0
100
AcDbCircle
 62
9
  6
CONTINUOUS
 10
5.0471939019
 20
5.457255633
 40
0.0444151397
100
AcDbArc
 50
100.3834101207
 51
102.1489407271
  0
ARC
  5
3F5
100
AcDbEntity
  8
0
100
AcDbCircle
 62
6
  6
CONTINUOUS
 10
5.3862029673
 20
5.8605630098
 40
0.03
100
AcDbArc
 50
104.7630312681
 51
179.6177286235
  0
ARC
  5
3F6
100
AcDbEntity
  8
0
100
AcDbCircle
 62
9
  6
CONTINUOUS
 10
4.9428627804
 20
4.7628437468
 40
0.029083809
100
AcDbArc
 50
268.4547470556
 51
269.1214647481
  0
ARC
  5
3F7
100
AcDbEntity
  8
0
100
AcDbCircle
 62
9
  6
CONTINUOUS
 10
6.1762254379
 20
3.7383932065
 40
1.7968250817
100
AcDbArc
 50
87.7095970681
 51
88.0211138626
  0
ARC
  5
3F8
100
AcDbEntity
  8
0
100
AcDbCircle
 62
9
  6
CONTINUOUS
 10
6.1567527658
 20
3.7532677444
 40
1.7755912663
100
AcDbArc
 50
87.7962894258
 51
88.2249502541
  0
ARC
  5
3F9
100
AcDbEntity
  8
0
100
AcDbCircle
 62
6
  6
CONTINUOUS
 10
7.219284912
 20
3.0362375236
 40
0.75
100
AcDbArc
 50
201.9603922914
 51
243.1219100223
  0
ARC
  5
3FA
100
AcDbEntity
  8
0
100
AcDbCircle
 62
6
  6
CONTINUOUS
 10
6.1724098146
 20
3.8177633568
 40
0.188
100
AcDbArc
 50
9.6281562153
 51
90.0000002629
  0
ARC
  5
3FB
100
AcDbEntity
  8
0
100
AcDbCircle
 62
6
  6
CONTINUOUS
 10
6.8237029673
 20
2.2557633568
 40
0.125
100
AcDbArc
 50
270.0
 51
63.1219100223
  0
ARC
  5
3FC
100
AcDbEntity
  8
0
100
AcDbCircle
 62
6
  6
CONTINUOUS
 10
6.5212029673
 20
2.8207633568
 40
0.065
100
AcDbArc
 50
272.1995724131
 51
90.0
  0
ARC
  5
3FD
100
AcDbEntity
  8
0
100
AcDbCircle
 62
6
  6
CONTINUOUS
 10
5.7737029673
 20
4.3900933413
 40
1.5506700155
100
AcDbArc
 50
75.2369687319
 51
104.7630312681
  0
ARC
  5
3FE
100
AcDbEntity
  8
0
100
AcDbCircle
 62
6
  6
CONTINUOUS
 10
5.8870310073
 20
4.8711194935
 40
0.7706788681
100
AcDbArc
 50
157.7071736566
 51
162.1217296622
  0
ARC
  5
3FF
100
AcDbEntity
  8
0
100
AcDbCircle
 62
9
  6
CONTINUOUS
 10
6.236288998
 20
4.9620435692
 40
0.4564891782
100
AcDbArc
 50
340.1608227966
 51
340.5896960474
  0
ARC
  5
400
100
AcDbEntity
  8
0
100
AcDbCircle
 62
9
  6
CONTINUOUS
 10
6.7373208754
 20
4.9786282892
 40
0.3092786662
100
AcDbArc
 50
184.9991652233
 51
198.4459302386
  0
ARC
  5
401
100
AcDbEntity
  8
0
100
AcDbCircle
 62
9
  6
CONTINUOUS
 10
6.4893798027
 20
4.9340205177
 40
0.2572024307
100
AcDbArc
 50
330.4295846164
 51
331.2630424537
  0
ARC
  5
402
100
AcDbEntity
  8
0
100
AcDbCircle
 62
9
  6
CONTINUOUS
 10
6.4614877854
 20
5.2628741909
 40
0.2411924758
100
AcDbArc
 50
53.0330945724
 51
54.7655640137
  0
ARC
  5
403
100
AcDbEntity
  8
0
100
AcDbCircle
 62
9
  6
CONTINUOUS
 10
6.6695073635
 20
4.9441370349
 40
0.2325143664
100
AcDbArc
 50
216.0445049331
 51
216.9770202533
  0
ARC
  5
404
100
AcDbEntity
  8
0
100
AcDbCircle
 62
9
  6
CONTINUOUS
 10
6.5677775747
 20
4.927757745
 40
0.2115389549
100
AcDbArc
 50
325.2297256274
 51
326.2842550171
  0
ARC
  5
405
100
AcDbEntity
  8
0
100
AcDbCircle
 62
9
  6
CONTINUOUS
 10
6.5944261188
 20
4.9090613695
 40
0.1789847303
100
AcDbArc
 50
309.4268289279
 51
325.2811731349
  0
ARC
  5
406
100
AcDbEntity
  8
0
100
AcDbCircle
 62
9
  6
CONTINUOUS
 10
6.4624281774
 20
5.3286521147
 40
0.1770365944
100
AcDbArc
 50
74.7572171103
 51
77.8056915727
  0
ARC
  5
407
100
AcDbEntity
  8
0
100
AcDbCircle
 62
9
  6
CONTINUOUS
 10
6.6039217933
 20
4.8978335314
 40
0.164073658
100
AcDbArc
 50
270.4920487504
 51
273.3397443606
  0
ARC
  5
408
100
AcDbEntity
  8
0
100
AcDbCircle
 62
6
  6
CONTINUOUS
 10
6.6049651289
 20
4.8299392271
 40
0.0961759503
100
AcDbArc
 50
270.2145380234
 51
275.0168369027
  0
ARC
  5
409
100
AcDbEntity
  8
0
100
AcDbCircle
 62
9
  6
CONTINUOUS
 10
6.2442989499
 20
5.3668896445
 40
0.0951011893
100
AcDbArc
 50
290.6231319931
 51
294.0746370752
  0
ARC
  5
40A
100
AcDbEntity
  8
0
100
AcDbCircle
 62
9
  6
CONTINUOUS
 10
6.2386360685
 20
5.5842025251
 40
0.0500391621
100
AcDbArc
 50
263.5103962008
 51
268.05841478
  0
ARC
  5
40B
100
AcDbEntity
  8
0
100
AcDbCircle
 62
9
  6
CONTINUOUS
 10
6.5002264202
 20
5.457328098
 40
0.0443412698
100
AcDbArc
 50
77.8495720207
 51
79.6634990378
  0
ARC
  5
40C
100
AcDbEntity
  8
0
100
AcDbCircle
 62
6
  6
CONTINUOUS
 10
6.1612029673
 20
5.8605630098
 40
0.03
100
AcDbArc
 50
0.3822713765
 51
75.2369687319
  0
ARC
  5
40D
100
AcDbEntity
  8
0
100
AcDbCircle
 62
9
  6
CONTINUOUS
 10
6.6045431602
 20
4.7628434451
 40
0.0290835072
100
AcDbArc
 50
270.8785325497
 51
271.5050614578
  0
SPLINE
  5
40E
100
AcDbEntity
  8
0
100
AcDbSpline
 62
6
  6
CONTINUOUS
 70
0
 71
3
 72
16
 73
12
 74
10
 42
0.0000001
 43
0.0000001
 44
0.0000000001
 12
0.0579775464
 22
-0.0587533786
 32
0.0
 13
0.0822217845
 23
-0.0072755446
 33
0.0
 40
0.0
 40
0.0
 40
0.0
 40
0.0
 40
0.1344056708
 40
0.2003638482
 40
0.2655261915
 40
0.3935726016
 40
0.518865724
 40
0.6417403003
 40
0.7625808846
 40
0.8818308355
 40
1.0
 40
1.0
 40
1.0
 40
1.0
 10
4.8616911092
 20
4.7704438326
 30
0.0
 10
4.8642886129
 20
4.7678115702
 30
0.0
 10
4.8683110674
 20
4.7640310576
 30
0.0
 10
4.8739238389
 20
4.7593521084
 30
0.0
 10
4.8795809607
 20
4.755008234
 30
0.0
 10
4.8868522527
 20
4.7500975188
 30
0.0
 10
4.8959003867
 20
4.7450436966
 30
0.0
 10
4.9051767305
 20
4.7408833651
 30
0.0
 10
4.914636758
 20
4.7376378847
 30
0.0
 10
4.9242345001
 20
4.7353286829
 30
0.0
 10
4.9307168846
 20
4.7344248929
 30
0.0
 10
4.9339555778
 20
4.7341383113
 30
0.0
 11
4.8616911092
 21
4.7704438326
 31
0.0
 11
4.8697810018
 21
4.7628519874
 31
0.0
 11
4.8739635487
 21
4.7593666357
 31
0.0
 11
4.8782303324
 21
4.7560917378
 31
0.0
 11
4.8869941198
 21
4.7501835224
 31
0.0
 11
4.8960273832
 21
4.74514778
 31
0.0
 11
4.9052851417
 21
4.741004949
 31
0.0
 11
4.9147224142
 21
4.7377754682
 31
0.0
 11
4.9242942199
 21
4.735479776
 31
0.0
 11
4.9339555778
 21
4.7341383113
 31
0.0
  0
LINE
  5
40F
100
AcDbEntity
  8
0
100
AcDbLine
 62
6
  6
CONTINUOUS
 10
4.9420674924
 20
4.7337639986
 11
4.9423749313
 21
4.733763366
  0
SPLINE
  5
410
100
AcDbEntity
  8
0
100
AcDbSpline
 62
6
  6
CONTINUOUS
 70
0
 71
3
 72
16
 73
12
 74
10
 42
0.0000001
 43
0.0000001
 44
0.0000000001
 12
-0.0580302261
 22
-0.0588067633
 32
0.0
 13
-0.0823020995
 23
-0.0072185152
 33
0.0
 40
0.0
 40
0.0
 40
0.0
 40
0.0
 40
0.1344114874
 40
0.2003713904
 40
0.2655347424
 40
0.3935812598
 40
0.5188725892
 40
0.6417442913
 40
0.7625819228
 40
0.8818300594
 40
1.0
 40
1.0
 40
1.0
 40
1.0
 10
6.6857148254
 20
4.7704438326
 30
0.0
 10
6.6831148491
 20
4.7678090644
 30
0.0
 10
6.6790884421
 20
4.7640251088
 30
0.0
 10
6.6734699403
 20
4.7593422917
 30
0.0
 10
6.6678070218
 20
4.7549951915
 30
0.0
 10
6.6605281433
 20
4.7500814579
 30
0.0
 10
6.6514704105
 20
4.745025712
 30
0.0
 10
6.6421841926
 20
4.7408652641
 30
0.0
 10
6.6327141442
 20
4.7376215388
 30
0.0
 10
6.6231063689
 20
4.735316028
 30
0.0
 10
6.6166174477
 20
4.7344160599
 30
0.0
 10
6.6133755696
 20
4.7341317227
 30
0.0
 11
6.6857148254
 21
4.7704438326
 31
0.0
 11
6.6776169483
 21
4.7628450623
 31
0.0
 11
6.6734301573
 21
4.7593568538
 31
0.0
 11
6.6691589831
 21
4.7560795126
 31
0.0
 11
6.660386041
 21
4.7501676811
 31
0.0
 11
6.6513432331
 21
4.7451300659
 31
0.0
 11
6.6420756708
 21
4.7409871646
 31
0.0
 11
6.6326284653
 21
4.7377594751
 31
0.0
 11
6.6230467278
 21
4.7354674952
 31
0.0
 11
6.6133755696
 21
4.7341317227
 31
0.0
  0
LINE
  5
411
100
AcDbEntity
  8
0
100
AcDbLine
 62
6
  6
CONTINUOUS
 10
6.6053252488
 20
4.733763951
 11
6.6050310033
 21
4.733763366
  0
SPLINE
  5
412
100
AcDbEntity
  8
0
100
AcDbSpline
 62
7
  6
CONTINUOUS
 70
0
 71
3
 72
33
 73
29
 74
27
 42
0.0000001
 43
0.0000001
 44
0.0000000001
 12
0.2495734133
 22
-0.1417927728
 32
0.0
 13
-0.0000465117
 23
-0.2870402008
 33
0.0
 40
0.0
 40
0.0
 40
0.0
 40
0.0
 40
0.0270970679
 40
0.0547747514
 40
0.082981058
 40
0.1116534941
 40
0.140753654
 40
0.170249444
 40
0.200099963
 40
0.2302658882
 40
0.260721993
 40
0.2914413715
 40
0.32239346
 40
0.3535508785
 40
0.3848972434
 40
0.4164164023
 40
0.4480910063
 40
0.4799034986
 40
0.5118412457
 40
0.5438940864
 40
0.5760523424
 40
0.6083068806
 40
0.6730609197
 40
0.7380926351
 40
0.8033544368
 40
0.8687976031
 40
0.9343866663
 40
1.0
 40
1.0
 40
1.0
 40
1.0
 10
5.4222897623
 20
5.6215224633
 30
0.0
 10
5.4245439982
 20
5.6202417405
 30
0.0
 10
5.4290215234
 20
5.6175112297
 30
0.0
 10
5.4355630992
 20
5.613005622
 30
0.0
 10
5.4419877999
 20
5.6080832772
 30
0.0
 10
5.448280629
 20
5.6027804858
 30
0.0
 10
5.4544310179
 20
5.5971296335
 30
0.0
 10
5.4604324981
 20
5.5911603953
 30
0.0
 10
5.4662806107
 20
5.5849008963
 30
0.0
 10
5.4719717678
 20
5.5783761834
 30
0.0
 10
5.4775010057
 20
5.5716061991
 30
0.0
 10
5.4828651745
 20
5.5646098321
 30
0.0
 10
5.4880617399
 20
5.5574053333
 30
0.0
 10
5.4930882867
 20
5.5500086398
 30
0.0
 10
5.4979401631
 20
5.5424317579
 30
0.0
 10
5.5026140187
 20
5.5346859847
 30
0.0
 10
5.5071063985
 20
5.526782276
 30
0.0
 10
5.5114145454
 20
5.5187312262
 30
0.0
 10
5.5155322824
 20
5.5105406024
 30
0.0
 10
5.5194531507
 20
5.5022173581
 30
0.0
 10
5.5231709079
 20
5.4937682082
 30
0.0
 10
5.5278547279
 20
5.4823302771
 30
0.0
 10
5.5331647044
 20
5.4677553417
 30
0.0
 10
5.538581249
 20
5.4498863778
 30
0.0
 10
5.5429695841
 20
5.4316682107
 30
0.0
 10
5.5462331476
 20
5.4131593029
 30
0.0
 10
5.5482722511
 20
5.3944412816
 30
0.0
 10
5.548748293
 20
5.3818834063
 30
0.0
 10
5.5487472757
 20
5.3756055182
 30
0.0
 11
5.4222897623
 21
5.6215224633
 31
0.0
 11
5.428935024
 21
5.6174805614
 31
0.0
 11
5.4354823462
 21
5.6129806319
 31
0.0
 11
5.4419133458
 21
5.6080619906
 31
0.0
 11
5.4482107079
 21
5.6027630789
 31
0.0
 11
5.4543652377
 21
5.597115693
 31
0.0
 11
5.460371467
 21
5.5911485788
 31
0.0
 11
5.4662239514
 21
5.5848904501
 31
0.0
 11
5.4719179229
 21
5.5783671009
 31
0.0
 11
5.4774500691
 21
5.5715980437
 31
0.0
 11
5.4828172664
 21
5.5646019757
 31
0.0
 11
5.4880163909
 21
5.5573975788
 31
0.0
 11
5.4930442322
 21
5.5500012429
 31
0.0
 11
5.4978974023
 21
5.5424246506
 31
0.0
 11
5.5025724916
 21
5.5346789061
 31
0.0
 11
5.5070660906
 21
5.5267751135
 31
0.0
 11
5.5113745092
 21
5.5187239539
 31
0.0
 11
5.5154922336
 21
5.5105333564
 31
0.0
 11
5.5194130206
 21
5.5022101489
 31
0.0
 11
5.523130625
 21
5.4937611568
 31
0.0
 11
5.5266387852
 21
5.4851932024
 31
0.0
 11
5.5329940953
 21
5.4677264605
 31
0.0
 11
5.538401181
 21
5.4498600187
 31
0.0
 11
5.5427767269
 21
5.4316454385
 31
0.0
 11
5.5460262287
 21
5.4131438117
 31
0.0
 11
5.548050968
 21
5.3944263067
 31
0.0
 11
5.5487472757
 21
5.3756055182
 31
0.0
  0
SPLINE
  5
413
100
AcDbEntity
  8
0
100
AcDbSpline
 62
7
  6
CONTINUOUS
 70
0
 71
3
 72
18
 73
14
 74
12
 42
0.0000001
 43
0.0000001
 44
0.0000000001
 12
0.0322916068
 22
0.1005695354
 32
0.0
 13
0.0865559234
 23
0.0605396684
 33
0.0
 40
0.0
 40
0.0
 40
0.0
 40
0.0
 40
0.1369624542
 40
0.2707657694
 40
0.4012649071
 40
0.5282315495
 40
0.5903683315
 40
0.6515836663
 40
0.7711898969
 40
0.8296654084
 40
0.8872733091
 40
0.9440306746
 40
1.0
 40
1.0
 40
1.0
 40
1.0
 10
5.2861079347
 20
5.5332354992
 30
0.0
 10
5.2875821806
 20
5.537826916
 30
0.0
 10
5.290686694
 20
5.5468445535
 30
0.0
 10
5.2959208564
 20
5.5599736419
 30
0.0
 10
5.3017105815
 20
5.5724823854
 30
0.0
 10
5.3070799966
 20
5.5823827016
 30
0.0
 10
5.3117093483
 20
5.5898850495
 30
0.0
 10
5.3164921053
 20
5.5969791682
 30
0.0
 10
5.3216587256
 20
5.6036542472
 30
0.0
 10
5.3272414788
 20
5.6097986664
 30
0.0
 10
5.3315856809
 20
5.6140656513
 30
0.0
 10
5.3361190818
 20
5.6179978606
 30
0.0
 10
5.3392887989
 20
5.6203930085
 30
0.0
 10
5.3409036244
 20
5.6215224633
 30
0.0
 11
5.2861079347
 21
5.5332354992
 31
0.0
 11
5.290832273
 21
5.5469092408
 31
0.0
 11
5.2960827109
 21
5.5600309767
 31
0.0
 11
5.3018953404
 21
5.5725296556
 31
0.0
 11
5.3083135263
 21
5.5843051934
 31
0.0
 11
5.3117636894
 21
5.589888494
 31
0.0
 11
5.3153821367
 21
5.5952471859
 31
0.0
 11
5.3231469688
 21
5.6052128885
 31
0.0
 11
5.3273046602
 21
5.6097805592
 31
0.0
 11
5.3316500213
 21
5.6140401568
 31
0.0
 11
5.3361830329
 21
5.6179635332
 31
0.0
 11
5.3409036244
 21
5.6215224633
 31
0.0
  0
SPLINE
  5
414
100
AcDbEntity
  8
0
100
AcDbSpline
 62
7
  6
CONTINUOUS
 70
0
 71
3
 72
58
 73
54
 74
52
 42
0.0000001
 43
0.0000001
 44
0.0000000001
 12
-0.0013162857
 22
-0.4810060695
 32
0.0
 13
-0.0979257084
 23
0.470934313
 33
0.0
 40
0.0
 40
0.0
 40
0.0
 40
0.0
 40
0.0369106621
 40
0.0737897522
 40
0.1106027658
 40
0.147308451
 40
0.1838562476
 40
0.2201853199
 40
0.2382499979
 40
0.2562327496
 40
0.2741233452
 40
0.2919124454
 40
0.3095898583
 40
0.3271456469
 40
0.3445708586
 40
0.3618551837
 40
0.3959544703
 40
0.4293628854
 40
0.4457825245
 40
0.4619951624
 40
0.4779885409
 40
0.4937510999
 40
0.5092707572
 40
0.5245360732
 40
0.539536608
 40
0.5542628384
 40
0.56870801
 40
0.5828683278
 40
0.5967454576
 40
0.6103475608
 40
0.6236904434
 40
0.6368000242
 40
0.6497111157
 40
0.6624637516
 40
0.6750986487
 40
0.6876558325
 40
0.7001740853
 40
0.7126892414
 40
0.7252351266
 40
0.7378427765
 40
0.7633470206
 40
0.7763083687
 40
0.7894372032
 40
0.8162795564
 40
0.8440446604
 40
0.8728645241
 40
0.8877045768
 40
0.9028420226
 40
0.9182833422
 40
0.934033064
 40
0.9500899695
 40
0.9664457691
 40
1.0
 40
1.0
 40
1.0
 40
1.0
 10
5.548749137
 20
5.3756055151
 30
0.0
 10
5.548732942
 20
5.369687431
 30
0.0
 10
5.5483235482
 20
5.3578536669
 30
0.0
 10
5.5465519912
 20
5.3401963519
 30
0.0
 10
5.5436079732
 20
5.3227282109
 30
0.0
 10
5.5394750346
 20
5.3055562086
 30
0.0
 10
5.5341390968
 20
5.2887998027
 30
0.0
 10
5.5286841634
 20
5.2752610644
 30
0.0
 10
5.5237398807
 20
5.2647599473
 30
0.0
 10
5.51975834
 20
5.2570802584
 30
0.0
 10
5.5155037426
 20
5.2495993379
 30
0.0
 10
5.5109907546
 20
5.2423290138
 30
0.0
 10
5.5062357316
 20
5.2352793695
 30
0.0
 10
5.5012549801
 20
5.2284595993
 30
0.0
 10
5.4960664552
 20
5.2218765849
 30
0.0
 10
5.4889276127
 20
5.2134624745
 30
0.0
 10
5.4795831159
 20
5.2035709824
 30
0.0
 10
5.4696622584
 20
5.1944613268
 30
0.0
 10
5.4614837073
 20
5.1877327575
 30
0.0
 10
5.4552844548
 20
5.1830017336
 30
0.0
 10
5.4489980061
 20
5.1785675821
 30
0.0
 10
5.4426379891
 20
5.174440113
 30
0.0
 10
5.4362172464
 20
5.1706314884
 30
0.0
 10
5.4297485806
 20
5.1671556483
 30
0.0
 10
5.423245322
 20
5.1640276646
 30
0.0
 10
5.4167206473
 20
5.1612655452
 30
0.0
 10
5.4101889092
 20
5.1588881741
 30
0.0
 10
5.40366488
 20
5.1569170461
 30
0.0
 10
5.3971649338
 20
5.1553736165
 30
0.0
 10
5.390706727
 20
5.1542790598
 30
0.0
 10
5.3843089504
 20
5.1536567214
 30
0.0
 10
5.3779924725
 20
5.1535243222
 30
0.0
 10
5.3717798404
 20
5.1538906695
 30
0.0
 10
5.365691699
 20
5.1547396645
 30
0.0
 10
5.3597445745
 20
5.1560511985
 30
0.0
 10
5.3539517559
 20
5.1578035939
 30
0.0
 10
5.3483234887
 20
5.1599747267
 30
0.0
 10
5.342867595
 20
5.1625431823
 30
0.0
 10
5.3375892636
 20
5.1654884157
 30
0.0
 10
5.3307693047
 20
5.1699081954
 30
0.0
 10
5.3243332088
 20
5.1750098054
 30
0.0
 10
5.3183148544
 20
5.1806898434
 30
0.0
 10
5.3124696999
 20
5.1868485874
 30
0.0
 10
5.3056304028
 20
5.1953111387
 30
0.0
 10
5.2982453386
 20
5.2064851401
 30
0.0
 10
5.2927747619
 20
5.2165619279
 30
0.0
 10
5.2887646347
 20
5.2250956805
 30
0.0
 10
5.2859138759
 20
5.2317986402
 30
0.0
 10
5.2832495968
 20
5.2387340623
 30
0.0
 10
5.2807724263
 20
5.2458945815
 30
0.0
 10
5.2784813467
 20
5.2532704032
 30
0.0
 10
5.2756466614
 20
5.263461526
 30
0.0
 10
5.2738296105
 20
5.2712599065
 30
0.0
 10
5.2727343365
 20
5.2765271861
 30
0.0
 11
5.548749137
 21
5.3756055151
 31
0.0
 11
5.5481300782
 21
5.3578619921
 31
0.0
 11
5.5463543743
 21
5.3402119581
 31
0.0
 11
5.543404517
 21
5.3227520451
 31
0.0
 11
5.5392641439
 21
5.3055886573
 31
0.0
 11
5.5339215233
 21
5.288840374
 31
0.0
 11
5.5273864826
 21
5.2726337757
 31
0.0
 11
5.5236844608
 21
5.2647725964
 31
0.0
 11
5.5197022508
 21
5.2570939361
 31
0.0
 11
5.5154481832
 21
5.249613439
 31
0.0
 11
5.5109358132
 21
5.2423432544
 31
0.0
 11
5.5061813087
 21
5.2352937675
 31
0.0
 11
5.501201336
 21
5.2284740176
 31
0.0
 11
5.4960133118
 21
5.2218909564
 31
0.0
 11
5.4906346117
 21
5.2155513618
 31
0.0
 11
5.4793691373
 21
5.2036301405
 31
0.0
 11
5.4675278693
 21
5.1927664408
 31
0.0
 11
5.4614279306
 21
5.1877495925
 31
0.0
 11
5.4552274128
 21
5.1830200342
 31
0.0
 11
5.4489397484
 21
5.1785875838
 31
0.0
 11
5.4425782369
 21
5.1744624649
 31
0.0
 11
5.4361560115
 21
5.1706568901
 31
0.0
 11
5.429686069
 21
5.1671847677
 31
0.0
 11
5.4231816891
 21
5.1640615191
 31
0.0
 11
5.4166566277
 21
5.1613049645
 31
0.0
 11
5.4101253176
 21
5.158934301
 31
0.0
 11
5.4036032907
 21
5.1569706462
 31
0.0
 11
5.3971072619
 21
5.1554352795
 31
0.0
 11
5.3906552605
 21
5.1543495328
 31
0.0
 11
5.3842667149
 21
5.1537350294
 31
0.0
 11
5.3779621774
 21
5.1536082748
 31
0.0
 11
5.3717626652
 21
5.1539747838
 31
0.0
 11
5.3656872916
 21
5.1548216856
 31
0.0
 11
5.3597521513
 21
5.1561293294
 31
0.0
 11
5.3539702256
 21
5.1578763823
 31
0.0
 11
5.348351457
 21
5.1600411997
 31
0.0
 11
5.3429036705
 21
5.1626025824
 31
0.0
 11
5.3376323167
 21
5.1655402795
 31
0.0
 11
5.3325414624
 21
5.1688357148
 31
0.0
 11
5.3229110342
 21
5.1764352115
 31
0.0
 11
5.3183744479
 21
5.1807117177
 31
0.0
 11
5.3140248169
 21
5.1852900202
 31
0.0
 11
5.3058878232
 21
5.1953146473
 31
0.0
 11
5.2985012256
 21
5.2064412119
 31
0.0
 11
5.2918636211
 21
5.2186113953
 31
0.0
 11
5.2888248562
 21
5.2250704628
 31
0.0
 11
5.2859723466
 21
5.2317696798
 31
0.0
 11
5.2833061601
 21
5.2387020433
 31
0.0
 11
5.2808264285
 21
5.2458604489
 31
0.0
 11
5.2785321438
 21
5.2532353169
 31
0.0
 11
5.2764208869
 21
5.2608140044
 31
0.0
 11
5.2727343365
 21
5.2765271861
 31
0.0
  0
SPLINE
  5
415
100
AcDbEntity
  8
0
100
AcDbSpline
 62
7
  6
CONTINUOUS
 70
0
 71
3
 72
18
 73
14
 74
12
 42
0.0000001
 43
0.0000001
 44
0.0000000001
 12
-0.0322938542
 22
0.1006233239
 32
0.0
 13
-0.086600492
 23
0.0605665017
 33
0.0
 40
0.0
 40
0.0
 40
0.0
 40
0.0
 40
0.1369681519
 40
0.2707703857
 40
0.4012676628
 40
0.5282339944
 40
0.5903687574
 40
0.6515833448
 40
0.7711898353
 40
0.8296655411
 40
0.8872744899
 40
0.9440323161
 40
1.0
 40
1.0
 40
1.0
 40
1.0
 10
6.2613132516
 20
5.5331855237
 30
0.0
 10
6.2598388417
 20
5.5377795873
 30
0.0
 10
6.2567343485
 20
5.5468023569
 30
0.0
 10
6.2514993892
 20
5.5599387214
 30
0.0
 10
6.2457085272
 20
5.5724542618
 30
0.0
 10
6.2403382962
 20
5.5823602663
 30
0.0
 10
6.235707706
 20
5.5898668153
 30
0.0
 10
6.230923704
 20
5.5969650541
 30
0.0
 10
6.2257555512
 20
5.6036441891
 30
0.0
 10
6.2201707263
 20
5.6097923143
 30
0.0
 10
6.2158247278
 20
5.6140618308
 30
0.0
 10
6.2112893163
 20
5.6179962228
 30
0.0
 10
6.2081180802
 20
5.620392541
 30
0.0
 10
6.2065024705
 20
5.6215224633
 30
0.0
 11
6.2613132516
 21
5.5331855237
 31
0.0
 11
6.2565885353
 21
5.5468672925
 31
0.0
 11
6.2513374422
 21
5.5599961228
 31
0.0
 11
6.2455238002
 21
5.5725015836
 31
0.0
 11
6.2391043523
 21
5.5842839009
 31
0.0
 11
6.2356533805
 21
5.5898702419
 31
0.0
 11
6.2320339815
 21
5.5952320295
 31
0.0
 11
6.2242667358
 21
5.6052037557
 31
0.0
 11
6.2201075134
 21
5.6097741645
 31
0.0
 11
6.2157603142
 21
5.6140363164
 31
0.0
 11
6.2112252432
 21
5.6179618891
 31
0.0
 11
6.2065024705
 21
5.6215224633
 31
0.0
  0
SPLINE
  5
416
100
AcDbEntity
  8
0
100
AcDbSpline
 62
7
  6
CONTINUOUS
 70
0
 71
3
 72
35
 73
31
 74
29
 42
0.0000001
 43
0.0000001
 44
0.0000000001
 12
-0.2496299863
 22
-0.1417066999
 32
0.0
 13
-0.0000596472
 23
-0.2870468869
 33
0.0
 40
0.0
 40
0.0
 40
0.0
 40
0.0
 40
0.0270959692
 40
0.0547755906
 40
0.0829837146
 40
0.1116556213
 40
0.1407540513
 40
0.1702464721
 40
0.2000921124
 40
0.2302551291
 40
0.2914207742
 40
0.3223696135
 40
0.3535245803
 40
0.3848695911
 40
0.4163875477
 40
0.4480600693
 40
0.479870269
 40
0.5118067393
 40
0.5438591188
 40
0.5760174047
 40
0.6082719479
 40
0.6406128218
 40
0.6730309111
 40
0.7055188346
 40
0.7380710736
 40
0.8033360768
 40
0.8687825365
 40
0.9015720087
 40
0.9343853838
 40
1.0
 40
1.0
 40
1.0
 40
1.0
 10
6.1251172698
 20
5.6215224632
 30
0.0
 10
6.1228626143
 20
5.6202425698
 30
0.0
 10
6.1183846516
 20
5.6175122916
 30
0.0
 10
6.1118434235
 20
5.6130053855
 30
0.0
 10
6.1054190547
 20
5.6080818235
 30
0.0
 10
6.0991255359
 20
5.6027796703
 30
0.0
 10
6.0929737711
 20
5.5971308343
 30
0.0
 10
6.0869707733
 20
5.5911642283
 30
0.0
 10
6.0811212421
 20
5.5849071217
 30
0.0
 10
6.0734978536
 20
5.5761691969
 30
0.0
 10
6.0662412039
 20
5.566980354
 30
0.0
 10
6.0593408171
 20
5.557413533
 30
0.0
 10
6.0543152091
 20
5.5500166162
 30
0.0
 10
6.049464593
 20
5.5424392823
 30
0.0
 10
6.0447920728
 20
5.5346929686
 30
0.0
 10
6.040300663
 20
5.5267890846
 30
0.0
 10
6.0359937219
 20
5.5187377528
 30
0.0
 10
6.0318778137
 20
5.5105464029
 30
0.0
 10
6.0279587393
 20
5.5022222417
 30
0.0
 10
6.0242425117
 20
5.493772298
 30
0.0
 10
6.0207346782
 20
5.4852038834
 30
0.0
 10
6.017443543
 20
5.4765232723
 30
0.0
 10
6.0143788461
 20
5.4677364684
 30
0.0
 10
6.0115500447
 20
5.4588495339
 30
0.0
 10
6.008102873
 20
5.4468662552
 30
0.0
 10
6.0044347944
 20
5.4316715663
 30
0.0
 10
6.0017114952
 20
5.4162544723
 30
0.0
 10
6.0001501266
 20
5.4038106412
 30
0.0
 10
5.999014515
 20
5.3913052816
 30
0.0
 10
5.9986590305
 20
5.3818832438
 30
0.0
 10
5.9986577259
 20
5.3756050867
 30
0.0
 11
6.1251172698
 21
5.6215224632
 31
0.0
 11
6.1184715797
 21
5.6174815239
 31
0.0
 11
6.1119241677
 21
5.612980416
 31
0.0
 11
6.1054931186
 21
5.6080606705
 31
0.0
 11
6.0991952032
 21
5.6027623544
 31
0.0
 11
6.0930393775
 21
5.5971168279
 31
0.0
 11
6.0870317195
 21
5.5911522447
 31
0.0
 11
6.0811782711
 21
5.5848966619
 31
0.0
 11
6.0754838416
 21
5.5783745531
 31
0.0
 11
6.0645847432
 21
5.5646096614
 31
0.0
 11
6.0593862683
 21
5.5574056906
 31
0.0
 11
6.0543593908
 21
5.5500092986
 31
0.0
 11
6.0495073746
 21
5.5424321799
 31
0.0
 11
6.0448334867
 21
5.5346858672
 31
0.0
 11
6.0403409978
 21
5.5267818874
 31
0.0
 11
6.0360339159
 21
5.5187305177
 31
0.0
 11
6.0319179041
 21
5.5105392305
 31
0.0
 11
6.0279988508
 21
5.5022151159
 31
0.0
 11
6.0242826447
 21
5.4937652643
 31
0.0
 11
6.0207753471
 21
5.4851967221
 31
0.0
 11
6.0174850852
 21
5.4765160127
 31
0.0
 11
6.014421345
 21
5.4677293156
 31
0.0
 11
6.0115936362
 21
5.4588428042
 31
0.0
 11
6.0090114715
 21
5.4498626528
 31
0.0
 11
6.0046282365
 21
5.4316485273
 31
0.0
 11
6.0013743051
 21
5.4131462747
 31
0.0
 11
6.0002038377
 21
5.4038072204
 31
0.0
 11
5.9993535548
 21
5.3944267005
 31
0.0
 11
5.9986577259
 21
5.3756050867
 31
0.0
  0
SPLINE
  5
417
100
AcDbEntity
  8
0
100
AcDbSpline
 62
7
  6
CONTINUOUS
 70
0
 71
3
 72
60
 73
56
 74
54
 42
0.0000001
 43
0.0000001
 44
0.0000000001
 12
0.0013193465
 22
-0.480959027
 32
0.0
 13
0.0979798623
 23
0.4708750078
 33
0.0
 40
0.0
 40
0.0
 40
0.0
 40
0.0
 40
0.0368981606
 40
0.0737647702
 40
0.092178237
 40
0.1105703765
 40
0.128935837
 40
0.1472687735
 40
0.1655623628
 40
0.1838094939
 40
0.2201261018
 40
0.2381846232
 40
0.2561616973
 40
0.2740467058
 40
0.2918300529
 40
0.3095020913
 40
0.3270525503
 40
0.3444724805
 40
0.3617519049
 40
0.3958429341
 40
0.4292466753
 40
0.4456658178
 40
0.4618797757
 40
0.4778760683
 40
0.4936423104
 40
0.5091676115
 40
0.5244408178
 40
0.5394501874
 40
0.5541877307
 40
0.5686493035
 40
0.5828277741
 40
0.5967199177
 40
0.6103334959
 40
0.6236890274
 40
0.6368157324
 40
0.6497453275
 40
0.656147988
 40
0.6625143882
 40
0.6751587128
 40
0.6877263897
 40
0.7002557036
 40
0.7127777981
 40
0.7253273896
 40
0.7379389006
 40
0.7506401375
 40
0.7634570506
 40
0.7895344679
 40
0.8163692619
 40
0.84412338
 40
0.8729292978
 40
0.9028870052
 40
0.9340590564
 40
0.9501088241
 40
0.9664579456
 40
1.0
 40
1.0
 40
1.0
 40
1.0
 10
5.9986567925
 20
5.3756050882
 30
0.0
 10
5.9986730197
 20
5.369689587
 30
0.0
 10
5.9990794447
 20
5.3578612633
 30
0.0
 10
6.0005509772
 20
5.3431452319
 30
0.0
 10
6.002317823
 20
5.3314650102
 30
0.0
 10
6.00393914
 20
5.3227679918
 30
0.0
 10
6.0058588076
 20
5.314145164
 30
0.0
 10
6.0080776272
 20
5.3056107133
 30
0.0
 10
6.0105972831
 20
5.2971797161
 30
0.0
 10
6.0143512264
 20
5.2861168419
 30
0.0
 10
6.018704118
 20
5.2753041646
 30
0.0
 10
6.0236437089
 20
5.2648065738
 30
0.0
 10
6.0276219335
 20
5.2571292438
 30
0.0
 10
6.0318718696
 20
5.2496497926
 30
0.0
 10
6.0363812337
 20
5.2423813435
 30
0.0
 10
6.0411322837
 20
5.2353332175
 30
0.0
 10
6.0461088278
 20
5.2285145721
 30
0.0
 10
6.0512932286
 20
5.2219325166
 30
0.0
 10
6.0584269621
 20
5.2135193606
 30
0.0
 10
6.067765527
 20
5.2036280635
 30
0.0
 10
6.0776801937
 20
5.1945168303
 30
0.0
 10
6.0858547411
 20
5.1877859949
 30
0.0
 10
6.0920517621
 20
5.1830523346
 30
0.0
 10
6.0983362766
 20
5.1786145383
 30
0.0
 10
6.10469577
 20
5.1744839939
 30
0.0
 10
6.111116772
 20
5.1706718587
 30
0.0
 10
6.1175859943
 20
5.1671910078
 30
0.0
 10
6.1240911474
 20
5.1640581962
 30
0.0
 10
6.1306190126
 20
5.1612904376
 30
0.0
 10
6.1371546597
 20
5.1589044545
 30
0.0
 10
6.1436832759
 20
5.1569233001
 30
0.0
 10
6.1501885235
 20
5.1553735511
 30
0.0
 10
6.1566532109
 20
5.1542816906
 30
0.0
 10
6.1630586727
 20
5.1536749807
 30
0.0
 10
6.1693818564
 20
5.1535511238
 30
0.0
 10
6.1745828855
 20
5.1538491097
 30
0.0
 10
6.1786759538
 20
5.154327781
 30
0.0
 10
6.1827015178
 20
5.1549620349
 30
0.0
 10
6.1876522141
 20
5.1560477048
 30
0.0
 10
6.1934500559
 20
5.1577983796
 30
0.0
 10
6.199082395
 20
5.1599701835
 30
0.0
 10
6.2045409744
 20
5.1625398757
 30
0.0
 10
6.2098199923
 20
5.1654871232
 30
0.0
 10
6.2149160388
 20
5.1687927809
 30
0.0
 10
6.2198278924
 20
5.1724384008
 30
0.0
 10
6.2261649944
 20
5.1777612725
 30
0.0
 10
6.2336304113
 20
5.1852320365
 30
0.0
 10
6.2417720171
 20
5.195306914
 30
0.0
 10
6.249154644
 20
5.2064760123
 30
0.0
 10
6.2557813112
 20
5.2186789816
 30
0.0
 10
6.2616568505
 20
5.2318603313
 30
0.0
 10
6.2658881557
 20
5.2434983393
 30
0.0
 10
6.2689134106
 20
5.2532320379
 30
0.0
 10
6.2717482919
 20
5.263417827
 30
0.0
 10
6.2735650488
 20
5.2712123248
 30
0.0
 10
6.2746605308
 20
5.2764770298
 30
0.0
 11
5.9986567925
 21
5.3756050882
 31
0.0
 11
5.9992725723
 21
5.3578692045
 31
0.0
 11
6.0010427112
 21
5.3402263875
 31
0.0
 11
6.0023681217
 21
5.3314699731
 31
0.0
 11
6.0039901581
 21
5.322774059
 31
0.0
 11
6.0059105124
 21
5.3141522658
 31
0.0
 11
6.0081303209
 21
5.305618836
 31
0.0
 11
6.0106507692
 21
5.2971890707
 31
0.0
 11
6.0134715493
 21
5.2888785892
 31
0.0
 11
6.0200005987
 21
5.2726778816
 31
0.0
 11
6.0236991136
 21
5.2648192632
 31
0.0
 11
6.0276777799
 21
5.2571427943
 31
0.0
 11
6.0319276034
 21
5.2496639435
 31
0.0
 11
6.0364360727
 21
5.2423955797
 31
0.0
 11
6.0411866473
 21
5.2353475634
 31
0.0
 11
6.0461624634
 21
5.2285289753
 31
0.0
 11
6.0513463412
 21
5.2219469245
 31
0.0
 11
6.0567210787
 21
5.2156081257
 31
0.0
 11
6.0679788992
 21
5.2036873435
 31
0.0
 11
6.0798131675
 21
5.1928216656
 31
0.0
 11
6.0859102605
 21
5.18780295
 31
0.0
 11
6.0921085386
 21
5.1830706673
 31
0.0
 11
6.098394553
 21
5.1786347508
 31
0.0
 11
6.1047552557
 21
5.1745064926
 31
0.0
 11
6.1111776038
 21
5.1706972333
 31
0.0
 11
6.1176484381
 21
5.1672202681
 31
0.0
 11
6.124154406
 21
5.1640921418
 31
0.0
 11
6.1306821363
 21
5.1613297066
 31
0.0
 11
6.137217976
 21
5.1589504029
 31
0.0
 11
6.1437455748
 21
5.1569772942
 31
0.0
 11
6.1502470846
 21
5.1554365664
 31
0.0
 11
6.1567046413
 21
5.1543544385
 31
0.0
 11
6.1630998414
 21
5.1537522688
 31
0.0
 11
6.1694121267
 21
5.1536319966
 31
0.0
 11
6.1756204008
 21
5.1539907126
 31
0.0
 11
6.1786789412
 21
5.1543487821
 31
0.0
 11
6.1817036018
 21
5.154825443
 31
0.0
 11
6.1876442285
 21
5.1561264748
 31
0.0
 11
6.193431403
 21
5.15787156
 31
0.0
 11
6.1990549689
 21
5.1600370851
 31
0.0
 11
6.2045052009
 21
5.162599726
 31
0.0
 11
6.2097769206
 21
5.165539216
 31
0.0
 11
6.2148676798
 21
5.1688371236
 31
0.0
 11
6.219775078
 21
5.172475097
 31
0.0
 11
6.2244972616
 21
5.1764375734
 31
0.0
 11
6.2333818224
 21
5.1852903568
 31
0.0
 11
6.2415156139
 21
5.1953112744
 31
0.0
 11
6.2488990162
 21
5.2064320506
 31
0.0
 11
6.2555340553
 21
5.2185944489
 31
0.0
 11
6.2614232712
 21
5.2317444127
 31
0.0
 11
6.2665683348
 21
5.2458264741
 31
0.0
 11
6.2688626118
 21
5.2531969581
 31
0.0
 11
6.2709739113
 21
5.260771501
 31
0.0
 11
6.2746605308
 21
5.2764770298
 31
0.0
  0
SPLINE
  5
418
100
AcDbEntity
  8
0
100
AcDbSpline
 62
7
  6
CONTINUOUS
 70
0
 71
3
 72
14
 73
10
 74
8
 42
0.0000001
 43
0.0000001
 44
0.0000000001
 12
0.0451135731
 22
-0.0000018391
 32
0.0
 13
0.0392256122
 23
-0.0222842058
 33
0.0
 40
0.0
 40
0.0
 40
0.0
 40
0.0
 40
0.1172676028
 40
0.2364480235
 40
0.3577370107
 40
0.4813204735
 40
0.7356950442
 40
0.8666551214
 40
1.0
 40
1.0
 40
1.0
 40
1.0
 10
5.3794907774
 20
5.6341637155
 30
0.0
 10
5.3812542309
 20
5.6341636436
 30
0.0
 10
5.3848113502
 20
5.6340188458
 30
0.0
 10
5.3901584395
 20
5.6333864246
 30
0.0
 10
5.3955380384
 20
5.6323451323
 30
0.0
 10
5.4027976002
 20
5.6304129058
 30
0.0
 10
5.4099867379
 20
5.6277243045
 30
0.0
 10
5.4170422585
 20
5.624394277
 30
0.0
 10
5.4205458872
 20
5.6225129582
 30
0.0
 10
5.4222893987
 20
5.6215224633
 30
0.0
 11
5.3794907774
 21
5.6341637155
 31
0.0
 11
5.3847769326
 21
5.6339528168
 31
0.0
 11
5.3901168806
 21
5.6333256243
 31
0.0
 11
5.3954899581
 21
5.6322910179
 31
0.0
 11
5.400879006
 21
5.6308620188
 31
0.0
 11
5.4116422285
 21
5.6268813426
 31
0.0
 11
5.416987312
 21
5.6243643093
 31
0.0
 11
5.4222893987
 21
5.6215224633
 31
0.0
  0
SPLINE
  5
419
100
AcDbEntity
  8
0
100
AcDbSpline
 62
7
  6
CONTINUOUS
 70
0
 71
3
 72
15
 73
11
 74
9
 42
0.0000001
 43
0.0000001
 44
0.0000000001
 12
0.0337988691
 22
0.023648118
 32
0.0
 13
0.0412504186
 23
0.0000015511
 33
0.0
 40
0.0
 40
0.0
 40
0.0
 40
0.0
 40
0.1261559726
 40
0.2513056275
 40
0.3757101921
 40
0.4997100125
 40
0.6237119727
 40
0.7481430351
 40
0.8734470724
 40
1.0
 40
1.0
 40
1.0
 40
1.0
 10
5.3409041922
 20
5.6215224633
 30
0.0
 10
5.342325502
 20
5.6225169137
 30
0.0
 10
5.345221303
 20
5.6244077536
 30
0.0
 10
5.3497333897
 20
5.6269319911
 30
0.0
 10
5.3543901515
 20
5.6291105665
 30
0.0
 10
5.3591837792
 20
5.6309255363
 30
0.0
 10
5.3641056693
 20
5.6323589982
 30
0.0
 10
5.3691445595
 20
5.6333967604
 30
0.0
 10
5.37428588
 20
5.6340244227
 30
0.0
 10
5.3777506267
 20
5.6341636501
 30
0.0
 10
5.3794907471
 20
5.6341637155
 30
0.0
 11
5.3409041922
 21
5.6215224633
 31
0.0
 11
5.3452637068
 21
5.6243643131
 31
0.0
 11
5.3497709956
 21
5.6268813555
 31
0.0
 11
5.3544204884
 21
5.6290532155
 31
0.0
 11
5.3592050469
 21
5.6308619942
 31
0.0
 11
5.3641165203
 21
5.6322909842
 31
0.0
 11
5.3691439996
 21
5.6333256003
 31
0.0
 11
5.3742746478
 21
5.6339528144
 31
0.0
 11
5.3794907471
 21
5.6341637155
 31
0.0
  0
SPLINE
  5
41A
100
AcDbEntity
  8
0
100
AcDbSpline
 62
7
  6
CONTINUOUS
 70
0
 71
3
 72
15
 73
11
 74
9
 42
0.0000001
 43
0.0000001
 44
0.0000000001
 12
-0.0337981162
 22
0.0236492576
 32
0.0
 13
-0.0412504551
 23
0.0000003412
 33
0.0
 40
0.0
 40
0.0
 40
0.0
 40
0.0
 40
0.1261675768
 40
0.2513123174
 40
0.37570841
 40
0.4997141172
 40
0.6237191264
 40
0.7481443251
 40
0.8734370945
 40
1.0
 40
1.0
 40
1.0
 40
1.0
 10
6.2065017224
 20
5.6215224633
 30
0.0
 10
6.2050803136
 20
5.6225170531
 30
0.0
 10
6.2021844722
 20
5.6244080234
 30
0.0
 10
6.1976722334
 20
5.6269319316
 30
0.0
 10
6.1930156969
 20
5.6291107592
 30
0.0
 10
6.1882219489
 20
5.6309254397
 30
0.0
 10
6.183300101
 20
5.6323592213
 30
0.0
 10
6.1782613266
 20
5.6333965933
 30
0.0
 10
6.173120162
 20
5.6340247207
 30
0.0
 10
6.1696554071
 20
5.6341637011
 30
0.0
 10
6.167915148
 20
5.6341637155
 30
0.0
 11
6.2065017224
 21
5.6215224633
 31
0.0
 11
6.2021418349
 21
5.6243646259
 31
0.0
 11
6.1976346363
 21
5.6268814233
 31
0.0
 11
6.1929855012
 21
5.6290532342
 31
0.0
 11
6.1882006763
 21
5.6308620075
 31
0.0
 11
6.1832891051
 21
5.6322911279
 31
0.0
 11
6.1782618359
 21
5.6333255877
 31
0.0
 11
6.1731316693
 21
5.6339529475
 31
0.0
 11
6.167915148
 21
5.6341637155
 31
0.0
  0
SPLINE
  5
41B
100
AcDbEntity
  8
0
100
AcDbSpline
 62
7
  6
CONTINUOUS
 70
0
 71
3
 72
14
 73
10
 74
8
 42
0.0000001
 43
0.0000001
 44
0.0000000001
 12
-0.0451135786
 22
-0.0000001031
 32
0.0
 13
-0.0392250344
 23
-0.0222852339
 33
0.0
 40
0.0
 40
0.0
 40
0.0
 40
0.0
 40
0.1172777475
 40
0.2364449385
 40
0.3577256204
 40
0.4813153198
 40
0.7356870931
 40
0.8666423691
 40
1.0
 40
1.0
 40
1.0
 40
1.0
 10
6.1679151567
 20
5.6341637155
 30
0.0
 10
6.1661515504
 20
5.6341637115
 30
0.0
 10
6.1625944544
 20
5.634019152
 30
0.0
 10
6.1572475979
 20
5.6333862199
 30
0.0
 10
6.1518681844
 20
5.6323452308
 30
0.0
 10
6.1446087283
 20
5.6304128437
 30
0.0
 10
6.1374195997
 20
5.6277243398
 30
0.0
 10
6.1303638885
 20
5.6243945227
 30
0.0
 10
6.1268601759
 20
5.6225130986
 30
0.0
 10
6.1251165233
 20
5.6215224633
 30
0.0
 11
6.1679151567
 21
5.6341637155
 31
0.0
 11
6.1626285375
 21
5.6339529498
 31
0.0
 11
6.1572892118
 21
5.6333255698
 31
0.0
 11
6.151916489
 21
5.6322910997
 31
0.0
 11
6.1465271799
 21
5.6308619852
 31
0.0
 11
6.1357640425
 21
5.6268814386
 31
0.0
 11
6.1304190923
 21
5.6243646289
 31
0.0
 11
6.1251165233
 21
5.6215224633
 31
0.0
  0
LINE
  5
41C
100
AcDbEntity
  8
0
100
AcDbLine
 62
9
  6
CONTINUOUS
 10
6.7415452318
 20
4.8071197295
 11
6.7130815808
 21
4.8070929602
  0
LINE
  5
41D
100
AcDbEntity
  8
0
100
AcDbLine
 62
9
  6
CONTINUOUS
 10
6.7130815808
 20
4.8070929602
 11
6.6656850549
 21
4.8071197295
  0
SPLINE
  5
41E
100
AcDbEntity
  8
0
100
AcDbSpline
 62
9
  6
CONTINUOUS
 70
0
 71
3
 72
19
 73
15
 74
13
 42
0.0000001
 43
0.0000001
 44
0.0000000001
 12
-0.1819525533
 22
-0.0003864314
 32
0.0
 13
-0.1819183606
 23
-0.0035483898
 33
0.0
 40
0.0
 40
0.0
 40
0.0
 40
0.0
 40
0.044557105
 40
0.0953620344
 40
0.1518091959
 40
0.2132684533
 40
0.2789354181
 40
0.347930381
 40
0.4922056171
 40
0.6376106494
 40
0.7755023961
 40
0.898187305
 40
0.9519395683
 40
1.0
 40
1.0
 40
1.0
 40
1.0
 10
6.6656850549
 20
4.8071197295
 30
0.0
 10
6.6629826285
 20
4.8071139901
 30
0.0
 10
6.6571988556
 20
4.8070938773
 30
0.0
 10
6.6479916181
 20
4.8070420002
 30
0.0
 10
6.6377593995
 20
4.8069638861
 30
0.0
 10
6.6266259971
 20
4.8068571885
 30
0.0
 10
6.6147318186
 20
4.8067217422
 30
0.0
 10
6.5978154484
 20
4.8065000637
 30
0.0
 10
6.5760641029
 20
4.8061571526
 30
0.0
 10
6.5501358744
 20
4.8056760155
 30
0.0
 10
6.5255180034
 20
4.8051637095
 30
0.0
 10
6.5064581076
 20
4.8047512162
 30
0.0
 10
6.4928451517
 20
4.8044632314
 30
0.0
 10
6.4866713848
 20
4.8043377298
 30
0.0
 10
6.4837570265
 20
4.8042808841
 30
0.0
 11
6.6656850549
 21
4.8071197295
 31
0.0
 11
6.6575778034
 21
4.8070924716
 31
0.0
 11
6.6483338392
 21
4.8070410096
 31
0.0
 11
6.638063407
 21
4.8069630119
 31
0.0
 11
6.6268812214
 21
4.8068563836
 31
0.0
 11
6.6149336928
 21
4.8067207071
 31
0.0
 11
6.6023809316
 21
4.80655629
 31
0.0
 11
6.5761328301
 21
4.8061460726
 31
0.0
 11
6.5496804676
 21
4.8056573651
 31
0.0
 11
6.524595973
 21
4.8051408421
 31
0.0
 11
6.5022781993
 21
4.8046632727
 31
0.0
 11
6.4924999837
 21
4.8044573524
 31
0.0
 11
6.4837570265
 21
4.8042808841
 31
0.0
  0
LINE
  5
41F
100
AcDbEntity
  8
0
100
AcDbLine
 62
9
  6
CONTINUOUS
 10
6.4837570265
 20
4.8042808841
 11
6.4611176836
 21
4.8036580342
  0
SPLINE
  5
420
100
AcDbEntity
  8
0
100
AcDbSpline
 62
9
  6
CONTINUOUS
 70
0
 71
3
 72
11
 73
7
 74
5
 42
0.0000001
 43
0.0000001
 44
0.0000000001
 12
-0.02237378
 22
-0.00074021
 32
0.0
 13
-0.0223860211
 23
-0.0
 33
0.0
 40
0.0
 40
0.0
 40
0.0
 40
0.0
 40
0.1892812618
 40
0.419308242
 40
0.6854069639
 40
1.0
 40
1.0
 40
1.0
 40
1.0
 10
6.7080967448
 20
4.7708085237
 30
0.0
 10
6.706685099
 20
4.770761821
 30
0.0
 10
6.7035577496
 20
4.7706635299
 30
0.0
 10
6.6984446422
 20
4.7705404258
 30
0.0
 10
6.6923954847
 20
4.7704592801
 30
0.0
 10
6.6880623208
 20
4.7704438326
 30
0.0
 10
6.6857148254
 20
4.7704438326
 30
0.0
 11
6.7080967448
 21
4.7708085237
 31
0.0
 11
6.7038615085
 21
4.770677764
 31
0.0
 11
6.6987135741
 21
4.7705553851
 31
0.0
 11
6.6927572509
 21
4.7704730951
 31
0.0
 11
6.6857148254
 21
4.7704438326
 31
0.0
  0
SPLINE
  5
421
100
AcDbEntity
  8
0
100
AcDbSpline
 62
9
  6
CONTINUOUS
 70
0
 71
3
 72
11
 73
7
 74
5
 42
0.0000001
 43
0.0000001
 44
0.0000000001
 12
-0.0226337334
 22
-0.0398879717
 32
0.0
 13
-0.0322131842
 23
-0.0326442481
 33
0.0
 40
0.0
 40
0.0
 40
0.0
 40
0.0
 40
0.2585595146
 40
0.511485138
 40
0.7586496696
 40
1.0
 40
1.0
 40
1.0
 40
1.0
 10
6.7130815808
 20
4.8070929602
 30
0.0
 10
6.7111308584
 20
4.8036551554
 30
0.0
 10
6.7070679228
 20
4.7969676039
 30
0.0
 10
6.7004345312
 20
4.7874447978
 30
0.0
 10
6.6933587337
 20
4.7785797004
 30
0.0
 10
6.6883063796
 20
4.773070066
 30
0.0
 10
6.6857148254
 20
4.7704438326
 30
0.0
 11
6.7130815808
 21
4.8070929602
 31
0.0
 11
6.7069185718
 21
4.7969622297
 31
0.0
 11
6.7002818697
 21
4.7874486876
 31
0.0
 11
6.6932033343
 21
4.7785949999
 31
0.0
 11
6.6857148254
 21
4.7704438326
 31
0.0
  0
LINE
  5
422
100
AcDbEntity
  8
0
100
AcDbLine
 62
9
  6
CONTINUOUS
 10
6.6857148254
 20
4.7704438326
 11
6.6493816761
 21
4.7708085237
  0
SPLINE
  5
423
100
AcDbEntity
  8
0
100
AcDbSpline
 62
9
  6
CONTINUOUS
 70
0
 71
3
 72
11
 73
7
 74
5
 42
0.0000001
 43
0.0000001
 44
0.0000000001
 12
-0.0135248332
 22
-0.0374815504
 32
0.0
 13
-0.0196523788
 23
-0.0346636948
 33
0.0
 40
0.0
 40
0.0
 40
0.0
 40
0.0
 40
0.2682182049
 40
0.5246533819
 40
0.7687418299
 40
1.0
 40
1.0
 40
1.0
 40
1.0
 10
6.6656850549
 20
4.8071197295
 30
0.0
 10
6.6644758527
 20
4.8037686514
 30
0.0
 10
6.6620007069
 20
4.7972525646
 30
0.0
 10
6.6580193467
 20
4.7878472352
 30
0.0
 10
6.6538611289
 20
4.7790586208
 30
0.0
 10
6.6508966005
 20
4.7734806112
 30
0.0
 10
6.6493816761
 20
4.7708085237
 30
0.0
 11
6.6656850549
 21
4.8071197295
 31
0.0
 11
6.6618818532
 21
4.7971316014
 31
0.0
 11
6.6578892839
 21
4.7877257137
 31
0.0
 11
6.6537187554
 21
4.7789390324
 31
0.0
 11
6.6493816761
 21
4.7708085237
 31
0.0
  0
SPLINE
  5
424
100
AcDbEntity
  8
0
100
AcDbSpline
 62
9
  6
CONTINUOUS
 70
0
 71
3
 72
17
 73
13
 74
11
 42
0.0000001
 43
0.0000001
 44
0.0000000001
 12
-0.1332483214
 22
0.0013986369
 32
0.0
 13
-0.1332312361
 23
-0.0025512895
 33
0.0
 40
0.0
 40
0.0
 40
0.0
 40
0.0
 40
0.045508469
 40
0.0969628063
 40
0.2153692263
 40
0.2809513043
 40
0.3496908662
 40
0.49311522
 40
0.6375579156
 40
0.7747836464
 40
0.8974487285
 40
1.0
 40
1.0
 40
1.0
 40
1.0
 10
6.6493816761
 20
4.7708085237
 30
0.0
 10
6.647360367
 20
4.7708297403
 30
0.0
 10
6.6430535681
 20
4.7708666757
 30
0.0
 10
6.6334873157
 20
4.7709198015
 30
0.0
 10
6.6230292361
 20
4.7709329853
 30
0.0
 10
6.6118034433
 20
4.7709082139
 30
0.0
 10
6.5994664805
 20
4.7708529536
 30
0.0
 10
6.583626978
 20
4.7707271729
 30
0.0
 10
6.5647462377
 20
4.7705050821
 30
0.0
 10
6.5467883687
 20
4.7702324663
 30
0.0
 10
6.5306917346
 20
4.7699470258
 30
0.0
 10
6.5206898159
 20
4.7697537711
 30
0.0
 10
6.5161354717
 20
4.7696665584
 30
0.0
 11
6.6493816761
 21
4.7708085237
 31
0.0
 11
6.6433176467
 21
4.7708615433
 31
0.0
 11
6.6364611746
 21
4.7709003142
 31
0.0
 11
6.6206828668
 21
4.7709242074
 31
0.0
 11
6.6119437041
 21
4.7709052911
 31
0.0
 11
6.6027838596
 21
4.7708643885
 31
0.0
 11
6.5836723332
 21
4.7707154029
 31
0.0
 11
6.5644258453
 21
4.7704900688
 31
0.0
 11
6.5461418171
 21
4.7702144387
 31
0.0
 11
6.5297985372
 21
4.7699264726
 31
0.0
 11
6.5161354717
 21
4.7696665584
 31
0.0
  0
SPLINE
  5
425
100
AcDbEntity
  8
0
100
AcDbSpline
 62
9
  6
CONTINUOUS
 70
0
 71
3
 72
9
 73
5
 74
3
 42
0.0000001
 43
0.0000001
 44
0.0000000001
 12
0.0285520698
 22
-0.0379200405
 32
0.0
 13
0.0360675833
 23
-0.0308590277
 33
0.0
 40
0.0
 40
0.0
 40
0.0
 40
0.0
 40
0.5057672305
 40
1.0
 40
1.0
 40
1.0
 40
1.0
 10
6.4837570265
 20
4.8042808841
 30
0.0
 10
6.4885705936
 20
4.7978879795
 30
0.0
 10
6.4987545043
 20
4.7857351132
 30
0.0
 10
6.5101935445
 20
4.774750406
 30
0.0
 10
6.5161354717
 20
4.7696665584
 30
0.0
 11
6.4837570265
 21
4.8042808841
 31
0.0
 11
6.4991930329
 21
4.7858937521
 31
0.0
 11
6.5161354717
 21
4.7696665584
 31
0.0
  0
SPLINE
  5
426
100
AcDbEntity
  8
0
100
AcDbSpline
 62
9
  6
CONTINUOUS
 70
0
 71
3
 72
34
 73
30
 74
28
 42
0.0000001
 43
0.0000001
 44
0.0000000001
 12
-0.0174901786
 22
-0.0003349253
 32
0.0
 13
0.0141670509
 23
-0.0102622215
 33
0.0
 40
0.0
 40
0.0
 40
0.0
 40
0.0
 40
0.2446220089
 40
0.4531700093
 40
0.6265929567
 40
0.7004293673
 40
0.7658408446
 40
0.8229464422
 40
0.8484218338
 40
0.8718654322
 40
0.893289901
 40
0.9127059217
 40
0.9301241861
 40
0.9455555153
 40
0.9590109339
 40
0.9705018066
 40
0.9800401126
 40
0.9840811718
 40
0.9876392351
 40
0.9907164298
 40
0.9933153404
 40
0.9954394152
 40
0.9970939421
 40
0.9982888911
 40
0.9987214362
 40
0.9990526097
 40
0.9992991387
 40
0.9994998419
 40
1.0
 40
1.0
 40
1.0
 40
1.0
 10
6.5161354717
 20
4.7696665584
 30
0.0
 10
6.5147093108
 20
4.7696392484
 30
0.0
 10
6.5120673431
 20
4.7695864754
 30
0.0
 10
6.5084145023
 20
4.7695050901
 30
0.0
 10
6.5057574764
 20
4.7694377753
 30
0.0
 10
6.503935008
 20
4.7693852294
 30
0.0
 10
6.5027906162
 20
4.7693490372
 30
0.0
 10
6.501928182
 20
4.7693187505
 30
0.0
 10
6.501310401
 20
4.7692948384
 30
0.0
 10
6.5009005701
 20
4.7692778638
 30
0.0
 10
6.5005260929
 20
4.7692611604
 30
0.0
 10
6.5001867753
 20
4.7692447293
 30
0.0
 10
6.4998824348
 20
4.7692285749
 30
0.0
 10
6.4996128895
 20
4.7692127023
 30
0.0
 10
6.4993779552
 20
4.7691971243
 30
0.0
 10
6.4991774489
 20
4.7691818476
 30
0.0
 10
6.4990318377
 20
4.7691687838
 30
0.0
 10
6.4989324613
 20
4.7691582524
 30
0.0
 10
6.4988706431
 20
4.7691508744
 30
0.0
 10
6.4988172892
 20
4.7691435825
 30
0.0
 10
6.4987723761
 20
4.7691363797
 30
0.0
 10
6.4987358523
 20
4.7691293003
 30
0.0
 10
6.498707696
 20
4.7691223329
 30
0.0
 10
6.4986894859
 20
4.7691162493
 30
0.0
 10
6.4986792668
 20
4.7691110678
 30
0.0
 10
6.4986744767
 20
4.7691076105
 30
0.0
 10
6.498671502
 20
4.7691040142
 30
0.0
 10
6.498670691
 20
4.7690981818
 30
0.0
 10
6.4986742856
 20
4.7690949028
 30
0.0
 10
6.4986766476
 20
4.7690931919
 30
0.0
 11
6.5161354717
 21
4.7696665584
 31
0.0
 11
6.5118570701
 21
4.7695805007
 31
0.0
 11
6.5082097813
 21
4.7694985014
 31
0.0
 11
6.5051770275
 21
4.7694205901
 31
0.0
 11
6.5038859207
 21
4.7693831767
 31
0.0
 11
6.502742231
 21
4.7693467963
 31
0.0
 11
6.5017438862
 21
4.7693114527
 31
0.0
 11
6.5012985706
 21
4.7692941709
 31
0.0
 11
6.5008888161
 21
4.7692771496
 31
0.0
 11
6.5005144045
 21
4.769260389
 31
0.0
 11
6.5001751536
 21
4.7692438891
 31
0.0
 11
6.4998708823
 21
4.7692276495
 31
0.0
 11
6.4996014094
 21
4.7692116703
 31
0.0
 11
6.4993665541
 21
4.7691959513
 31
0.0
 11
6.4991661351
 21
4.7691804923
 31
0.0
 11
6.4989999716
 21
4.7691652933
 31
0.0
 11
6.498929679
 21
4.7691577911
 31
0.0
 11
6.4988678823
 21
4.769150354
 31
0.0
 11
6.498814559
 21
4.7691429817
 31
0.0
 11
6.4987696863
 21
4.7691356743
 31
0.0
 11
6.4987332417
 21
4.7691284318
 31
0.0
 11
6.4987052026
 21
4.7691212542
 31
0.0
 11
6.4986855462
 21
4.7691141414
 31
0.0
 11
6.4986788545
 21
4.7691106093
 31
0.0
 11
6.49867425
 21
4.7691070934
 31
0.0
 11
6.4986717299
 21
4.7691035937
 31
0.0
 11
6.4986712913
 21
4.7691001102
 31
0.0
 11
6.4986766476
 21
4.7690931919
 31
0.0
  0
SPLINE
  5
427
100
AcDbEntity
  8
0
100
AcDbSpline
 62
9
  6
CONTINUOUS
 70
0
 71
3
 72
15
 73
11
 74
9
 42
0.0000001
 43
0.0000001
 44
0.0000000001
 12
-0.0797468864
 22
-0.0654138921
 32
0.0
 13
-0.1029674598
 23
-0.0060204148
 33
0.0
 40
0.0
 40
0.0
 40
0.0
 40
0.0
 40
0.1251988682
 40
0.2501214117
 40
0.3749054057
 40
0.4996576529
 40
0.6244646058
 40
0.7494031687
 40
0.8745515417
 40
1.0
 40
1.0
 40
1.0
 40
1.0
 10
6.7080967448
 20
4.7708085237
 30
0.0
 10
6.7047686715
 20
4.7680786086
 30
0.0
 10
6.6978948186
 20
4.7628928889
 30
0.0
 10
6.6870052011
 20
4.7559724207
 30
0.0
 10
6.6756160359
 20
4.7499407428
 30
0.0
 10
6.663794217
 20
4.7448197232
 30
0.0
 10
6.6516055169
 20
4.7406304643
 30
0.0
 10
6.6391155628
 20
4.7373944441
 30
0.0
 10
6.6263911921
 20
4.7351333159
 30
0.0
 10
6.6178061063
 20
4.7342914617
 30
0.0
 10
6.6135004033
 20
4.7340397111
 30
0.0
 11
6.7080967448
 21
4.7708085237
 31
0.0
 11
6.6977891958
 21
4.7630296415
 31
0.0
 11
6.6869156388
 21
4.7561168234
 31
0.0
 11
6.6755423645
 21
4.7500917203
 31
0.0
 11
6.6637356634
 21
4.7449759832
 31
0.0
 11
6.6515618261
 21
4.7407912628
 31
0.0
 11
6.6390871432
 21
4.7375592101
 31
0.0
 11
6.6263779054
 21
4.7353014759
 31
0.0
 11
6.6135004033
 21
4.7340397111
 31
0.0
  0
SPLINE
  5
428
100
AcDbEntity
  8
0
100
AcDbSpline
 62
9
  6
CONTINUOUS
 70
0
 71
3
 72
16
 73
12
 74
10
 42
0.0000001
 43
0.0000001
 44
0.0000000001
 12
-0.0257751727
 22
-0.0454633369
 32
0.0
 13
-0.0501641618
 23
-0.014657128
 33
0.0
 40
0.0
 40
0.0
 40
0.0
 40
0.0
 40
0.1570142019
 40
0.303887897
 40
0.4408772138
 40
0.5683882502
 40
0.6870244573
 40
0.7976448951
 40
0.9014286701
 40
0.9512601261
 40
1.0
 40
1.0
 40
1.0
 40
1.0
 10
6.6493816761
 20
4.7708085237
 30
0.0
 10
6.6480326533
 20
4.7684290605
 30
0.0
 10
6.645307393
 20
4.7638869821
 30
0.0
 10
6.6409763191
 20
4.757538526
 30
0.0
 10
6.6365454705
 20
4.7518981281
 30
0.0
 10
6.6320206456
 20
4.7469809957
 30
0.0
 10
6.62740625
 20
4.7428023879
 30
0.0
 10
6.6227070809
 20
4.739379172
 30
0.0
 10
6.6186672524
 20
4.7371412327
 30
0.0
 10
6.6154159465
 20
4.7357722674
 30
0.0
 10
6.6137860846
 20
4.7352252444
 30
0.0
 10
6.6129710863
 20
4.7349871156
 30
0.0
 11
6.6493816761
 21
4.7708085237
 31
0.0
 11
6.645147026
 21
4.7637797894
 31
0.0
 11
6.6408072444
 21
4.7574485156
 31
0.0
 11
6.6363696579
 21
4.7518304088
 31
0.0
 11
6.6318415932
 21
4.7469411759
 31
0.0
 11
6.627230377
 21
4.7427965234
 31
0.0
 11
6.622543336
 21
4.7394121581
 31
0.0
 11
6.6177877969
 21
4.7368037866
 31
0.0
 11
6.6153866301
 21
4.7357955068
 31
0.0
 11
6.6129710863
 21
4.7349871156
 31
0.0
  0
SPLINE
  5
429
100
AcDbEntity
  8
0
100
AcDbSpline
 62
9
  6
CONTINUOUS
 70
0
 71
3
 72
8
 73
4
 74
2
 42
0.0000001
 43
0.0000001
 44
0.0000000001
 12
-0.0000495642
 22
-0.0000144388
 32
0.0
 13
-0.0000495642
 23
-0.0000144388
 33
0.0
 40
0.0
 40
0.0
 40
0.0
 40
0.0
 40
1.0
 40
1.0
 40
1.0
 40
1.0
 10
6.6129710863
 20
4.7349871156
 30
0.0
 10
6.6129545649
 20
4.7349823026
 30
0.0
 10
6.6129380435
 20
4.7349774897
 30
0.0
 10
6.612921522
 20
4.7349726768
 30
0.0
 11
6.6129710863
 21
4.7349871156
 31
0.0
 11
6.612921522
 21
4.7349726768
 31
0.0
  0
SPLINE
  5
42A
100
AcDbEntity
  8
0
100
AcDbSpline
 62
9
  6
CONTINUOUS
 70
0
 71
3
 72
9
 73
5
 74
3
 42
0.0000001
 43
0.0000001
 44
0.0000000001
 12
-0.0074182881
 22
-0.0021546068
 32
0.0
 13
-0.0077221864
 23
-0.0002028939
 33
0.0
 40
0.0
 40
0.0
 40
0.0
 40
0.0
 40
0.5031566166
 40
1.0
 40
1.0
 40
1.0
 40
1.0
 10
6.612921522
 20
4.7349726768
 30
0.0
 10
6.6116773351
 20
4.7346113086
 30
0.0
 10
6.6091582685
 20
4.7340421957
 30
0.0
 10
6.6065859517
 20
4.7338035736
 30
0.0
 10
6.6053070459
 20
4.7337699715
 30
0.0
 11
6.612921522
 21
4.7349726768
 31
0.0
 11
6.6091288839
 21
4.734122272
 31
0.0
 11
6.6053070459
 21
4.7337699715
 31
0.0
  0
SPLINE
  5
42B
100
AcDbEntity
  8
0
100
AcDbSpline
 62
9
  6
CONTINUOUS
 70
0
 71
3
 72
15
 73
11
 74
9
 42
0.0000001
 43
0.0000001
 44
0.0000000001
 12
0.0742756678
 22
-0.0635494447
 32
0.0
 13
0.0977482527
 23
-0.0008281525
 33
0.0
 40
0.0
 40
0.0
 40
0.0
 40
0.0
 40
0.1337371487
 40
0.2648379548
 40
0.393339955
 40
0.5192921596
 40
0.6427723788
 40
0.7639062019
 40
0.8828875014
 40
1.0
 40
1.0
 40
1.0
 40
1.0
 10
6.5161354717
 20
4.7696665584
 30
0.0
 10
6.5194466104
 20
4.7668335846
 30
0.0
 10
6.5262228397
 20
4.7614735245
 30
0.0
 10
6.5368814833
 20
4.7543328236
 30
0.0
 10
6.5478602559
 20
4.7481970223
 30
0.0
 10
6.5590837934
 20
4.7430941093
 30
0.0
 10
6.5704777117
 20
4.7390515244
 30
0.0
 10
6.5819680821
 20
4.7360972969
 30
0.0
 10
6.5934789689
 20
4.7342598757
 30
0.0
 10
6.601173241
 20
4.7337956858
 30
0.0
 10
6.6049890884
 20
4.7337633568
 30
0.0
 11
6.5161354717
 21
4.7696665584
 31
0.0
 11
6.5263923698
 21
4.7615609763
 31
0.0
 11
6.5370431017
 21
4.7544339353
 31
0.0
 11
6.5480121509
 21
4.7483129767
 31
0.0
 11
6.5592240014
 21
4.7432256414
 31
0.0
 11
6.5706031366
 21
4.7391994707
 31
0.0
 11
6.5820740404
 21
4.7362620056
 31
0.0
 11
6.5935611964
 21
4.7344407873
 31
0.0
 11
6.6049890884
 21
4.7337633568
 31
0.0
  0
SPLINE
  5
42C
100
AcDbEntity
  8
0
100
AcDbSpline
 62
9
  6
CONTINUOUS
 70
0
 71
3
 72
36
 73
32
 74
30
 42
0.0000001
 43
0.0000001
 44
0.0000000001
 12
0.1741565897
 22
-0.0782923042
 32
0.0
 13
0.0003933877
 23
-0.1909451436
 33
0.0
 40
0.0
 40
0.0
 40
0.0
 40
0.0
 40
0.0277454038
 40
0.0560396376
 40
0.0848018299
 40
0.1139493967
 40
0.1732455334
 40
0.203335712
 40
0.2336723233
 40
0.2642379281
 40
0.2950135707
 40
0.3259772878
 40
0.3571077183
 40
0.4198174394
 40
0.4513805029
 40
0.4830652311
 40
0.5467515489
 40
0.5787415537
 40
0.6108190208
 40
0.6429791604
 40
0.6752132357
 40
0.7075089229
 40
0.7398584284
 40
0.7722593938
 40
0.804710781
 40
0.8371984522
 40
0.869715645
 40
0.9022717405
 40
0.9348668967
 40
0.9674515826
 40
1.0
 40
1.0
 40
1.0
 40
1.0
 10
5.3356533063
 20
5.5280068917
 30
0.0
 10
5.337263988
 20
5.5272828078
 30
0.0
 10
5.3404764461
 20
5.5257281763
 30
0.0
 10
5.3452116178
 20
5.5231335487
 30
0.0
 10
5.3498984974
 20
5.5202772835
 30
0.0
 10
5.3561001862
 20
5.5161280488
 30
0.0
 10
5.3621179753
 20
5.5115642415
 30
0.0
 10
5.3679492635
 20
5.5066575257
 30
0.0
 10
5.3722601442
 20
5.5027883797
 30
0.0
 10
5.3764823824
 20
5.4987595383
 30
0.0
 10
5.3806135413
 20
5.4945811032
 30
0.0
 10
5.3846512503
 20
5.4902629785
 30
0.0
 10
5.3899201372
 20
5.4843173312
 30
0.0
 10
5.3949767656
 20
5.4781362118
 30
0.0
 10
5.3998137521
 20
5.471741943
 30
0.0
 10
5.4045253325
 20
5.4651780502
 30
0.0
 10
5.4090045763
 20
5.4584166311
 30
0.0
 10
5.4132289389
 20
5.4514678749
 30
0.0
 10
5.4162712626
 20
5.4461512795
 30
0.0
 10
5.4191765868
 20
5.4407409799
 30
0.0
 10
5.4219359817
 20
5.4352391605
 30
0.0
 10
5.4245358609
 20
5.4296467792
 30
0.0
 10
5.4269631813
 20
5.4239656872
 30
0.0
 10
5.4292044064
 20
5.4181978953
 30
0.0
 10
5.4312461691
 20
5.4123469958
 30
0.0
 10
5.4330633679
 20
5.4064144338
 30
0.0
 10
5.4346292225
 20
5.4004033847
 30
0.0
 10
5.4359169168
 20
5.3943193444
 30
0.0
 10
5.4368975994
 20
5.3881733312
 30
0.0
 10
5.4375272413
 20
5.3819814936
 30
0.0
 10
5.4376830651
 20
5.3778350302
 30
0.0
 10
5.4376873331
 20
5.3757633761
 30
0.0
 11
5.3356533063
 21
5.5280068917
 31
0.0
 11
5.3404245625
 21
5.5257041869
 31
0.0
 11
5.345164884
 21
5.5231122636
 31
0.0
 11
5.3498567328
 21
5.520257661
 31
0.0
 11
5.3544843443
 21
5.5171655589
 31
0.0
 11
5.3635196097
 21
5.5103421278
 31
0.0
 11
5.3679173284
 21
5.5066445848
 31
0.0
 11
5.3722293316
 21
5.5027765986
 31
0.0
 11
5.3764529154
 21
5.4987486326
 31
0.0
 11
5.3805855113
 21
5.4945707655
 31
0.0
 11
5.384624551
 21
5.490253076
 31
0.0
 11
5.3885673801
 21
5.4858047261
 31
0.0
 11
5.3961525487
 21
5.4765394524
 31
0.0
 11
5.3997888647
 21
5.4717332228
 31
0.0
 11
5.4033169748
 21
5.4668183842
 31
0.0
 11
5.4100301643
 21
5.4566786732
 31
0.0
 11
5.4132028773
 21
5.4514589203
 31
0.0
 11
5.4162446203
 21
5.4461425276
 31
0.0
 11
5.4191490275
 21
5.4407319565
 31
0.0
 11
5.4219068131
 21
5.4352294055
 31
0.0
 11
5.4245049832
 21
5.4296367389
 31
0.0
 11
5.4269303043
 21
5.4239557994
 31
0.0
 11
5.4291695429
 21
5.4181884297
 31
0.0
 11
5.4312076351
 21
5.4123367507
 31
0.0
 11
5.4330206628
 21
5.4064042296
 31
0.0
 11
5.4345820342
 21
5.40039474
 31
0.0
 11
5.4358651512
 21
5.3943121619
 31
0.0
 11
5.4368391669
 21
5.3881649492
 31
0.0
 11
5.4374614479
 21
5.3819742453
 31
0.0
 11
5.4376873331
 21
5.3757633761
 31
0.0
  0
SPLINE
  5
42D
100
AcDbEntity
  8
0
100
AcDbSpline
 62
9
  6
CONTINUOUS
 70
0
 71
3
 72
26
 73
22
 74
20
 42
0.0000001
 43
0.0000001
 44
0.0000000001
 12
0.1336660339
 22
0.0109330932
 32
0.0
 13
0.0373931931
 23
0.1287939837
 33
0.0
 40
0.0
 40
0.0
 40
0.0
 40
0.0
 40
0.046668933
 40
0.0709380311
 40
0.0958516528
 40
0.1214241512
 40
0.1476651529
 40
0.1745812769
 40
0.2021746209
 40
0.2593642709
 40
0.3191754834
 40
0.3814376714
 40
0.4459063253
 40
0.5122990337
 40
0.580275659
 40
0.6494670971
 40
0.719497828
 40
0.789990023
 40
0.8605563952
 40
0.9307317996
 40
1.0
 40
1.0
 40
1.0
 40
1.0
 10
5.3356533063
 20
5.5280068917
 30
0.0
 10
5.3377326567
 20
5.5281769703
 30
0.0
 10
5.3408792022
 20
5.5286539502
 30
0.0
 10
5.3450429113
 20
5.529671696
 30
0.0
 10
5.3482403489
 20
5.5306503137
 30
0.0
 10
5.3514620406
 20
5.5318320349
 30
0.0
 10
5.3547000286
 20
5.5332152672
 30
0.0
 10
5.3579467959
 20
5.5347964216
 30
0.0
 10
5.362330249
 20
5.5371911322
 30
0.0
 10
5.3677887133
 20
5.5406696214
 30
0.0
 10
5.3741817675
 20
5.5455145895
 30
0.0
 10
5.3804415162
 20
5.5510351706
 30
0.0
 10
5.3865133825
 20
5.5571816405
 30
0.0
 10
5.3923397184
 20
5.5639025769
 30
0.0
 10
5.3978723866
 20
5.5711343331
 30
0.0
 10
5.4030612383
 20
5.5788134585
 30
0.0
 10
5.4078591003
 20
5.5868736508
 30
0.0
 10
5.4122270656
 20
5.5952439663
 30
0.0
 10
5.4161218567
 20
5.6038518893
 30
0.0
 10
5.4195095142
 20
5.6126126848
 30
0.0
 10
5.4214263759
 20
5.6185486875
 30
0.0
 10
5.4222897623
 20
5.6215224633
 30
0.0
 11
5.3356533063
 21
5.5280068917
 31
0.0
 11
5.3418446157
 21
5.5289241217
 31
0.0
 11
5.3450069262
 21
5.5296944684
 31
0.0
 11
5.3482025392
 21
5.530670096
 31
0.0
 11
5.3514231039
 21
5.5318490992
 31
0.0
 11
5.3546603377
 21
5.5332294604
 31
0.0
 11
5.3579067541
 21
5.5348078581
 31
0.0
 11
5.3611553799
 21
5.5365801294
 31
0.0
 11
5.3676314015
 21
5.5406895851
 31
0.0
 11
5.3740326357
 21
5.5455235776
 31
0.0
 11
5.3803027341
 21
5.5510381565
 31
0.0
 11
5.3863849734
 21
5.5571831136
 31
0.0
 11
5.3922236784
 21
5.5639056343
 31
0.0
 11
5.3977673932
 21
5.5711428973
 31
0.0
 11
5.4029657792
 21
5.5788295498
 31
0.0
 11
5.4077722653
 21
5.5868984519
 31
0.0
 11
5.41214612
 21
5.5952796941
 31
0.0
 11
5.4160474289
 21
5.6039019797
 31
0.0
 11
5.4194399396
 21
5.6126806581
 31
0.0
 11
5.4222897623
 21
5.6215224633
 31
0.0
  0
LINE
  5
42E
100
AcDbEntity
  8
0
100
AcDbLine
 62
9
  6
CONTINUOUS
 10
5.4376873331
 20
5.3757633761
 11
5.5487472757
 21
5.3756055182
  0
SPLINE
  5
42F
100
AcDbEntity
  8
0
100
AcDbSpline
 62
9
  6
CONTINUOUS
 70
0
 71
3
 72
66
 73
62
 74
60
 42
0.0000001
 43
0.0000001
 44
0.0000000001
 12
-0.0014741194
 22
-0.2465065104
 32
0.0
 13
-0.1797312101
 23
0.1687137363
 33
0.0
 40
0.0
 40
0.0
 40
0.0
 40
0.0
 40
0.0378435266
 40
0.0753677694
 40
0.0939422086
 40
0.1123709213
 40
0.1306455815
 40
0.1487623793
 40
0.1667248241
 40
0.1845380158
 40
0.2022030634
 40
0.2197224072
 40
0.237099177
 40
0.2543366069
 40
0.2714352838
 40
0.2799334527
 40
0.2883976528
 40
0.305221909
 40
0.3219014168
 40
0.3547849611
 40
0.3870342016
 40
0.4029207257
 40
0.418647106
 40
0.4342120929
 40
0.4496135441
 40
0.4648509847
 40
0.4799257447
 40
0.4948393594
 40
0.5095933438
 40
0.5386200564
 40
0.552895352
 40
0.567012542
 40
0.594769382
 40
0.6084180335
 40
0.6219161576
 40
0.6352693525
 40
0.6484886236
 40
0.6615874095
 40
0.6745893992
 40
0.687526169
 40
0.700439194
 40
0.7133862332
 40
0.7198965387
 40
0.726445205
 40
0.7330423212
 40
0.7396969242
 40
0.7464186369
 40
0.7532160102
 40
0.7600914742
 40
0.7670443355
 40
0.7811700765
 40
0.7955818613
 40
0.8102590307
 40
0.8251807016
 40
0.8403231101
 40
0.8711758081
 40
0.9026700143
 40
0.9186229366
 40
0.934693899
 40
0.9671553215
 40
1.0
 40
1.0
 40
1.0
 40
1.0
 10
5.4376875378
 20
5.3757633758
 30
0.0
 10
5.4376689425
 20
5.3726538172
 30
0.0
 10
5.4376346691
 20
5.3664609155
 30
0.0
 10
5.4375008601
 20
5.3587423947
 30
0.0
 10
5.4372969611
 20
5.3526217057
 30
0.0
 10
5.4370838627
 20
5.348084341
 30
0.0
 10
5.436799404
 20
5.3435885166
 30
0.0
 10
5.4364335214
 20
5.3391369301
 30
0.0
 10
5.4359686922
 20
5.3347325616
 30
0.0
 10
5.435390389
 20
5.3303789893
 30
0.0
 10
5.4346918603
 20
5.3260798819
 30
0.0
 10
5.4338668123
 20
5.3218397149
 30
0.0
 10
5.4329135359
 20
5.3176625051
 30
0.0
 10
5.4318297341
 20
5.3135529493
 30
0.0
 10
5.4308135295
 20
5.3101822747
 30
0.0
 10
5.4299322274
 20
5.3075256945
 30
0.0
 10
5.4290093201
 20
5.3049071845
 30
0.0
 10
5.4277773184
 20
5.3016854493
 30
0.0
 10
5.4256659489
 20
5.2966547955
 30
0.0
 10
5.4228008052
 20
5.2905694433
 30
0.0
 10
5.4196603855
 20
5.2846962913
 30
0.0
 10
5.4170278355
 20
5.2801564254
 30
0.0
 10
5.4150093033
 20
5.2768464054
 30
0.0
 10
5.4129422571
 20
5.2736137367
 30
0.0
 10
5.4108323048
 20
5.2704571369
 30
0.0
 10
5.4086819847
 20
5.267376889
 30
0.0
 10
5.406491951
 20
5.2643742232
 30
0.0
 10
5.4042630871
 20
5.2614500138
 30
0.0
 10
5.4012576722
 20
5.2576776755
 30
0.0
 10
5.3981605364
 20
5.2540464914
 30
0.0
 10
5.3949653028
 20
5.2505743103
 30
0.0
 10
5.3917524378
 20
5.2472625179
 30
0.0
 10
5.3884347906
 20
5.2441254476
 30
0.0
 10
5.3850002792
 20
5.2411988718
 30
0.0
 10
5.3823859902
 20
5.2391381479
 30
0.0
 10
5.3797148281
 20
5.2372111546
 30
0.0
 10
5.3769834535
 20
5.2354293863
 30
0.0
 10
5.374185644
 20
5.2338100131
 30
0.0
 10
5.3713163583
 20
5.2323711422
 30
0.0
 10
5.3683709306
 20
5.2311328512
 30
0.0
 10
5.3653455055
 20
5.2301181065
 30
0.0
 10
5.3627595744
 20
5.2294801325
 30
0.0
 10
5.3606546767
 20
5.2291079037
 30
0.0
 10
5.3590522811
 20
5.2289005267
 30
0.0
 10
5.3574300965
 20
5.2287678334
 30
0.0
 10
5.3557892268
 20
5.2287114691
 30
0.0
 10
5.35413106
 20
5.2287333708
 30
0.0
 10
5.3524577253
 20
5.2288350162
 30
0.0
 10
5.3507717219
 20
5.229012836
 30
0.0
 10
5.3484988839
 20
5.2293488754
 30
0.0
 10
5.3456412698
 20
5.2299453128
 30
0.0
 10
5.3422212398
 20
5.2309094566
 30
0.0
 10
5.3388047017
 20
5.2321009971
 30
0.0
 10
5.3354022116
 20
5.233497678
 30
0.0
 10
5.3308663161
 20
5.2356182429
 30
0.0
 10
5.3252775537
 20
5.2386838978
 30
0.0
 10
5.3198614256
 20
5.2421648673
 30
0.0
 10
5.3156004501
 20
5.245180033
 30
0.0
 10
5.3113611169
 20
5.2483599057
 30
0.0
 10
5.3061729542
 20
5.2525831487
 30
0.0
 10
5.3021766935
 20
5.2561677969
 30
0.0
 10
5.3002089556
 20
5.258014913
 30
0.0
 11
5.4376875378
 21
5.3757633758
 31
0.0
 11
5.4376160991
 21
5.3664348068
 31
0.0
 11
5.4374409495
 21
5.3571863296
 31
0.0
 11
5.4372861276
 21
5.3526101458
 31
0.0
 11
5.4370709262
 21
5.348072367
 31
0.0
 11
5.4367844289
 21
5.3435765831
 31
0.0
 11
5.4364152556
 21
5.3391258793
 31
0.0
 11
5.4359475974
 21
5.3347227058
 31
0.0
 11
5.4353676876
 21
5.3303700204
 31
0.0
 11
5.4346676205
 21
5.3260720344
 31
0.0
 11
5.4338418085
 21
5.3218330149
 31
0.0
 11
5.4328876724
 21
5.3176570671
 31
0.0
 11
5.4318028901
 21
5.3135486522
 31
0.0
 11
5.430584932
 21
5.3095134457
 31
0.0
 11
5.4299252109
 21
5.3075251454
 31
0.0
 11
5.429231902
 21
5.3055571822
 31
0.0
 11
5.4277523869
 21
5.3016826946
 31
0.0
 11
5.4261632407
 21
5.2978905273
 31
0.0
 11
5.4227164931
 21
5.2905536586
 31
0.0
 11
5.4189729719
 21
5.283540442
 31
0.0
 11
5.4170087544
 21
5.2801524506
 31
0.0
 11
5.4149906729
 21
5.2768424145
 31
0.0
 11
5.4129240873
 21
5.2736095634
 31
0.0
 11
5.4108141871
 21
5.2704531905
 31
0.0
 11
5.4086637199
 21
5.2673734998
 31
0.0
 11
5.406473606
 21
5.2643713759
 31
0.0
 11
5.4042447217
 21
5.2614477202
 31
0.0
 11
5.4019778462
 21
5.2586035723
 31
0.0
 11
5.3973288328
 21
5.2531642299
 31
0.0
 11
5.394945218
 21
5.2505754357
 31
0.0
 11
5.3925208432
 21
5.2480788189
 31
0.0
 11
5.3875396412
 21
5.243387809
 31
0.0
 11
5.3849771722
 21
5.2412074667
 31
0.0
 11
5.3823623107
 21
5.2391497197
 31
0.0
 11
5.3796912131
 21
5.2372260302
 31
0.0
 11
5.376959856
 21
5.2354487346
 31
0.0
 11
5.3741633354
 21
5.2338344629
 31
0.0
 11
5.3712965015
 21
5.2324012368
 31
0.0
 11
5.3683550855
 21
5.231169107
 31
0.0
 11
5.3653358777
 21
5.2301605651
 31
0.0
 11
5.3622362982
 21
5.2293997552
 31
0.0
 11
5.3606558904
 21
5.2291206656
 31
0.0
 11
5.3590549085
 21
5.2289135934
 31
0.0
 11
5.357434065
 21
5.2287809602
 31
0.0
 11
5.3557946013
 21
5.2287245951
 31
0.0
 11
5.3541377681
 21
5.228746317
 31
0.0
 11
5.3524651641
 21
5.2288469185
 31
0.0
 11
5.3507795414
 21
5.2290237911
 31
0.0
 11
5.3490838909
 21
5.2292736222
 31
0.0
 11
5.3456739333
 21
5.2299789967
 31
0.0
 11
5.3422530283
 21
5.2309375469
 31
0.0
 11
5.3388351937
 21
5.2321245295
 31
0.0
 11
5.3354307565
 21
5.2335174046
 31
0.0
 11
5.3320477655
 21
5.235095041
 31
0.0
 11
5.3253688815
 21
5.2387332476
 31
0.0
 11
5.3188300756
 21
5.242918761
 31
0.0
 11
5.3156190319
 21
5.2451890697
 31
0.0
 11
5.3124492147
 21
5.2475654262
 31
0.0
 11
5.3062387251
 21
5.2526115478
 31
0.0
 11
5.3002089556
 21
5.258014913
 31
0.0
  0
SPLINE
  5
430
100
AcDbEntity
  8
0
100
AcDbSpline
 62
9
  6
CONTINUOUS
 70
0
 71
3
 72
26
 73
22
 74
20
 42
0.0000001
 43
0.0000001
 44
0.0000000001
 12
0.0373920015
 22
-0.1287935948
 32
0.0
 13
0.133665391
 23
-0.010932296
 33
0.0
 40
0.0
 40
0.0
 40
0.0
 40
0.0
 40
0.0692679679
 40
0.1394431685
 40
0.2100093792
 40
0.2805014663
 40
0.3505321459
 40
0.419723591
 40
0.487700275
 40
0.5540930832
 40
0.6185618684
 40
0.6808242006
 40
0.7406355512
 40
0.7978253188
 40
0.8254187095
 40
0.8523348703
 40
0.8785758979
 40
0.9041484109
 40
0.9290620353
 40
0.9533311238
 40
1.0
 40
1.0
 40
1.0
 40
1.0
 10
6.1251172698
 20
5.6215224632
 30
0.0
 10
6.1259806258
 20
5.6185487063
 30
0.0
 10
6.1278974244
 20
5.6126127383
 30
0.0
 10
6.131284983
 20
5.6038519862
 30
0.0
 10
6.1351796737
 20
5.5952440956
 30
0.0
 10
6.1395475392
 20
5.5868738003
 30
0.0
 10
6.1443453045
 20
5.5788136159
 30
0.0
 10
6.1495340645
 20
5.5711344865
 30
0.0
 10
6.1550666472
 20
5.5639027158
 30
0.0
 10
6.1608929057
 20
5.5571817571
 30
0.0
 10
6.1669647034
 20
5.5510352598
 30
0.0
 10
6.1732243923
 20
5.545514649
 30
0.0
 10
6.1796173952
 20
5.5406696532
 30
0.0
 10
6.1850758231
 20
5.5371911445
 30
0.0
 10
6.1894592505
 20
5.5347964227
 30
0.0
 10
6.1927059995
 20
5.533215263
 30
0.0
 10
6.1959439703
 20
5.5318320286
 30
0.0
 10
6.1991656455
 20
5.5306503088
 30
0.0
 10
6.2023630666
 20
5.5296716961
 30
0.0
 10
6.2065267524
 20
5.5286539619
 30
0.0
 10
6.2096732807
 20
5.528176996
 30
0.0
 10
6.2117526186
 20
5.52800693
 30
0.0
 11
6.1251172698
 21
5.6215224632
 31
0.0
 11
6.1279669981
 21
5.6126807117
 31
0.0
 11
6.1313594098
 21
5.6039020774
 31
0.0
 11
6.1352606178
 21
5.5952798246
 31
0.0
 11
6.1396343726
 21
5.5868986027
 31
0.0
 11
6.1444407619
 21
5.5788297084
 31
0.0
 11
6.1496390561
 21
5.5711430517
 31
0.0
 11
6.1551826857
 21
5.563905774
 31
0.0
 11
6.1610213137
 21
5.5571832306
 31
0.0
 11
6.167103485
 21
5.5510382456
 31
0.0
 11
6.1733735245
 21
5.5455236368
 31
0.0
 11
6.179774708
 21
5.5406896166
 31
0.0
 11
6.1862506863
 21
5.5365801386
 31
0.0
 11
6.1894992928
 21
5.5348078594
 31
0.0
 11
6.192745691
 21
5.5332294564
 31
0.0
 11
6.1959829076
 21
5.5318490932
 31
0.0
 11
6.1992034557
 21
5.5306700915
 31
0.0
 11
6.2023990522
 21
5.5296944689
 31
0.0
 11
6.2055613459
 21
5.5289241309
 31
0.0
 11
6.2117526186
 21
5.52800693
 31
0.0
  0
SPLINE
  5
431
100
AcDbEntity
  8
0
100
AcDbSpline
 62
9
  6
CONTINUOUS
 70
0
 71
3
 72
35
 73
31
 74
29
 42
0.0000001
 43
0.0000001
 44
0.0000000001
 12
-0.1741624077
 22
-0.0782759022
 32
0.0
 13
-0.0004362903
 23
-0.1909436325
 33
0.0
 40
0.0
 40
0.0
 40
0.0
 40
0.0
 40
0.0277456225
 40
0.0560404155
 40
0.0848010101
 40
0.1139455068
 40
0.1732363781
 40
0.2033228834
 40
0.2336582267
 40
0.2949940239
 40
0.3259564658
 40
0.3570856342
 40
0.3883706293
 40
0.4198004413
 40
0.4513632349
 40
0.4830466307
 40
0.5467301697
 40
0.610793226
 40
0.6429551401
 40
0.6751889528
 40
0.7074838566
 40
0.7398337867
 40
0.772237757
 40
0.8046912128
 40
0.8371795533
 40
0.8696996858
 40
0.9022640169
 40
0.9348649337
 40
0.9674512904
 40
1.0
 40
1.0
 40
1.0
 40
1.0
 10
6.2117526186
 20
5.52800693
 30
0.0
 10
6.2101418705
 20
5.5272829922
 30
0.0
 10
6.2069293633
 20
5.5257283883
 30
0.0
 10
6.20219444
 20
5.5231334924
 30
0.0
 10
6.1975080637
 20
5.5202769843
 30
0.0
 10
6.1913072675
 20
5.5161276435
 30
0.0
 10
6.1852903804
 20
5.511564087
 30
0.0
 10
6.1794592258
 20
5.5066582203
 30
0.0
 10
6.1736908337
 20
5.5014812991
 30
0.0
 10
6.1681233533
 20
5.4960032364
 30
0.0
 10
6.1627565988
 20
5.4902653358
 30
0.0
 10
6.1588140946
 20
5.4858169882
 30
0.0
 10
6.1549709827
 20
5.4812437019
 30
0.0
 10
6.1512300227
 20
5.4765511463
 30
0.0
 10
6.147594202
 20
5.4717448192
 30
0.0
 10
6.1428821668
 20
5.4651816393
 30
0.0
 10
6.1372764545
 20
5.45671758
 30
0.0
 10
6.1321013623
 20
5.4479477346
 30
0.0
 10
6.1282313283
 20
5.4407445175
 30
0.0
 10
6.1254717238
 20
5.4352427619
 30
0.0
 10
6.1228717743
 20
5.429650516
 30
0.0
 10
6.120444097
 20
5.4239694535
 30
0.0
 10
6.1182010349
 20
5.4182020612
 30
0.0
 10
6.1161577911
 20
5.4123513227
 30
0.0
 10
6.1143406162
 20
5.4064184033
 30
0.0
 10
6.1127754564
 20
5.4004064413
 30
0.0
 10
6.1114883149
 20
5.3943212217
 30
0.0
 10
6.1105092034
 20
5.3881739803
 30
0.0
 10
6.1098813017
 20
5.3819815294
 30
0.0
 10
6.1097256008
 20
5.3778350118
 30
0.0
 10
6.1097208673
 20
5.3757633556
 30
0.0
 11
6.2117526186
 21
5.52800693
 31
0.0
 11
6.2069813004
 21
5.5257043482
 31
0.0
 11
6.2022410655
 21
5.5231121277
 31
0.0
 11
6.1975497446
 21
5.5202573226
 31
0.0
 11
6.19292289
 21
5.5171652175
 31
0.0
 11
6.1838886761
 21
5.5103422018
 31
0.0
 11
6.1794913249
 21
5.5066453778
 31
0.0
 11
6.1751793547
 21
5.502777782
 31
0.0
 11
6.1668226119
 21
5.4945723562
 31
0.0
 11
6.1627832948
 21
5.4902553198
 31
0.0
 11
6.1588403822
 21
5.485807425
 31
0.0
 11
6.1549967627
 21
5.4812345139
 31
0.0
 11
6.1512553327
 21
5.4765422052
 31
0.0
 11
6.1476189886
 21
5.4717361175
 31
0.0
 11
6.1440907683
 21
5.4668217266
 31
0.0
 11
6.1373786315
 21
5.4566820633
 31
0.0
 11
6.1311643256
 21
5.4461456696
 31
0.0
 11
6.1282589719
 21
5.4407352738
 31
0.0
 11
6.1255008946
 21
5.4352329763
 31
0.0
 11
6.1229026493
 21
5.42964056
 31
0.0
 11
6.1204768019
 21
5.423959807
 31
0.0
 11
6.1182359398
 21
5.4181925016
 31
0.0
 11
6.1161965477
 21
5.4123409059
 31
0.0
 11
6.1143834886
 21
5.4064083089
 31
0.0
 11
6.1128227115
 21
5.4003981327
 31
0.0
 11
6.111540221
 21
5.3943138626
 31
0.0
 11
6.1105676195
 21
5.3881653591
 31
0.0
 11
6.1099468251
 21
5.3819742317
 31
0.0
 11
6.1097208673
 21
5.3757633556
 31
0.0
  0
LINE
  5
432
100
AcDbEntity
  8
0
100
AcDbLine
 62
9
  6
CONTINUOUS
 10
5.9986577259
 20
5.3756050867
 11
6.1097208673
 21
5.3757633556
  0
SPLINE
  5
433
100
AcDbEntity
  8
0
100
AcDbSpline
 62
9
  6
CONTINUOUS
 70
0
 71
3
 72
58
 73
54
 74
52
 42
0.0000001
 43
0.0000001
 44
0.0000000001
 12
0.0014714849
 22
-0.2465009578
 32
0.0
 13
0.1797050605
 23
0.1687334546
 33
0.0
 40
0.0
 40
0.0
 40
0.0
 40
0.0
 40
0.0378171277
 40
0.0753140193
 40
0.1122924228
 40
0.1305571841
 40
0.1486661964
 40
0.1666202366
 40
0.1844244034
 40
0.2020804577
 40
0.2195876301
 40
0.2369502137
 40
0.2541764734
 40
0.2712679641
 40
0.2882200704
 40
0.3216900306
 40
0.3382037723
 40
0.3545615562
 40
0.3868024687
 40
0.4183973633
 40
0.4493439225
 40
0.4796419551
 40
0.5093005047
 40
0.538325767
 40
0.5667102496
 40
0.5806663913
 40
0.5944676826
 40
0.6216082854
 40
0.6481945784
 40
0.6613212112
 40
0.6743481954
 40
0.687299772
 40
0.7002244259
 40
0.7131977738
 40
0.7263097426
 40
0.739615607
 40
0.753154418
 40
0.7669582501
 40
0.7739693313
 40
0.7810560812
 40
0.7954601603
 40
0.8101679389
 40
0.8251510046
 40
0.8403626323
 40
0.8480358862
 40
0.855744102
 40
0.8712625096
 40
0.8869193574
 40
0.9027137489
 40
0.9186418785
 40
0.9346973371
 40
0.9671527081
 40
1.0
 40
1.0
 40
1.0
 40
1.0
 10
6.1097180712
 20
5.3757633566
 30
0.0
 10
6.1097366203
 20
5.3726560372
 30
0.0
 10
6.1097649003
 20
5.3664676438
 30
0.0
 10
6.1099098305
 20
5.3572415444
 30
0.0
 10
6.1102024222
 20
5.3496256659
 30
0.0
 10
6.1105877012
 20
5.3436104339
 30
0.0
 10
6.110960574
 20
5.3391616734
 30
0.0
 10
6.111430066
 20
5.3347600036
 30
0.0
 10
6.112012283
 20
5.330409241
 30
0.0
 10
6.1127135212
 20
5.3261132276
 30
0.0
 10
6.113535429
 20
5.3218755624
 30
0.0
 10
6.1144838365
 20
5.3177004901
 30
0.0
 10
6.1155662909
 20
5.3135933892
 30
0.0
 10
6.1167829187
 20
5.3095591721
 30
0.0
 10
6.1185722699
 20
5.3043071435
 30
0.0
 10
6.1206196718
 20
5.2991973768
 30
0.0
 10
6.1228720123
 20
5.294232776
 30
0.0
 10
6.1252155977
 20
5.2894224896
 30
0.0
 10
6.1283281738
 20
5.2836114886
 30
0.0
 10
6.1323074448
 20
5.2769140204
 30
0.0
 10
6.136479535
 20
5.2705249104
 30
0.0
 10
6.14081576
 20
5.2644404898
 30
0.0
 10
6.1453081342
 20
5.2586690885
 30
0.0
 10
6.1499455218
 20
5.2532181137
 30
0.0
 10
6.1539678573
 20
5.2489466782
 30
0.0
 10
6.1572747172
 20
5.245729313
 30
0.0
 10
6.1606047335
 20
5.2426855403
 30
0.0
 10
6.1648924811
 20
5.2391551963
 30
0.0
 10
6.1694184143
 20
5.2360270606
 30
0.0
 10
6.173159464
 20
5.2338360289
 30
0.0
 10
6.1760252296
 20
5.2323778037
 30
0.0
 10
6.178969591
 20
5.231125865
 30
0.0
 10
6.1819992035
 20
5.230108629
 30
0.0
 10
6.1851195839
 20
5.2293557917
 30
0.0
 10
6.1883281069
 20
5.2288953454
 30
0.0
 10
6.1916110134
 20
5.2287230051
 30
0.0
 10
6.1949530303
 20
5.2288372027
 30
0.0
 10
6.1977597608
 20
5.2291680222
 30
0.0
 10
6.2000170916
 20
5.2295716342
 30
0.0
 10
6.2023049931
 20
5.2300744828
 30
0.0
 10
6.2051719974
 20
5.2308764582
 30
0.0
 10
6.2085930231
 20
5.2320761423
 30
0.0
 10
6.2120028763
 20
5.233489615
 30
0.0
 10
6.2148179388
 20
5.234817714
 30
0.0
 10
6.2170575331
 20
5.2359596256
 30
0.0
 10
6.2192972435
 20
5.2371558217
 30
0.0
 10
6.2220733316
 20
5.2387388831
 30
0.0
 10
6.2253585572
 20
5.2407656554
 30
0.0
 10
6.2286046855
 20
5.2429159416
 30
0.0
 10
6.231811205
 20
5.2451819747
 30
0.0
 10
6.2360482667
 20
5.24835828
 30
0.0
 10
6.2412347317
 20
5.2525810662
 30
0.0
 10
6.2452284932
 20
5.2561678583
 30
0.0
 10
6.2471961014
 20
5.2580153374
 30
0.0
 11
6.1097180712
 21
5.3757633566
 31
0.0
 11
6.1097823984
 21
5.3664414543
 31
0.0
 11
6.109945696
 21
5.3571997125
 31
0.0
 11
6.110313381
 21
5.3480917569
 31
0.0
 11
6.1106032939
 21
5.3435987391
 31
0.0
 11
6.1109784817
 21
5.3391505655
 31
0.0
 11
6.111451063
 21
5.3347501019
 31
0.0
 11
6.1120348066
 21
5.3304002737
 31
0.0
 11
6.1127368458
 21
5.3261049554
 31
0.0
 11
6.1135601698
 21
5.3218686078
 31
0.0
 11
6.1145102005
 21
5.3176954096
 31
0.0
 11
6.1155931928
 21
5.3135894694
 31
0.0
 11
6.1168100266
 21
5.3095558734
 31
0.0
 11
6.1181577636
 21
5.3056003901
 31
0.0
 11
6.1212136964
 21
5.2979366818
 31
0.0
 11
6.1228942493
 21
5.2942290478
 31
0.0
 11
6.1246594465
 21
5.2906036691
 31
0.0
 11
6.1284048663
 21
5.2835939973
 31
0.0
 11
6.1323818375
 21
5.276897619
 31
0.0
 11
6.136551882
 21
5.2705097693
 31
0.0
 11
6.1408889015
 21
5.2644294195
 31
0.0
 11
6.1453817032
 21
5.2586618096
 31
0.0
 11
6.1500251517
 21
5.2532183981
 31
0.0
 11
6.1548293953
 21
5.2481315299
 31
0.0
 11
6.1572961629
 21
5.2457335158
 31
0.0
 11
6.1598087957
 21
5.2434398491
 31
0.0
 11
6.1649853096
 21
5.2392014687
 31
0.0
 11
6.1703871959
 21
5.2354906562
 31
0.0
 11
6.1731820121
 21
5.2338599176
 31
0.0
 11
6.1760464385
 21
5.2324083655
 31
0.0
 11
6.1789865312
 21
5.2311638736
 31
0.0
 11
6.1820083462
 21
5.2301543159
 31
0.0
 11
6.1851179386
 21
5.2294075651
 31
0.0
 11
6.1883169269
 21
5.2289456132
 31
0.0
 11
6.1915922417
 21
5.2287709847
 31
0.0
 11
6.1949277781
 21
5.2288821807
 31
0.0
 11
6.1983074313
 21
5.2292777026
 31
0.0
 11
6.2000087689
 21
5.2295816173
 31
0.0
 11
6.2017151174
 21
5.2299559305
 31
0.0
 11
6.2051364064
 21
5.2309057348
 31
0.0
 11
6.2085596869
 21
5.2320997763
 31
0.0
 11
6.2119736225
 21
5.2335091344
 31
0.0
 11
6.2153668769
 21
5.2351048888
 31
0.0
 11
6.2170522059
 21
5.2359636269
 31
0.0
 11
6.2187283561
 21
5.2368585923
 31
0.0
 11
6.2220522353
 21
5.2387520776
 31
0.0
 11
6.2253377909
 21
5.2407771306
 31
0.0
 11
6.2285845083
 21
5.2429259454
 31
0.0
 11
6.2317918731
 21
5.245190716
 31
0.0
 11
6.2349592699
 21
5.2475637802
 31
0.0
 11
6.2411679558
 21
5.2526094695
 31
0.0
 11
6.2471961014
 21
5.2580153374
 31
0.0
  0
SPLINE
  5
434
100
AcDbEntity
  8
0
100
AcDbSpline
 62
9
  6
CONTINUOUS
 70
0
 71
3
 72
13
 73
9
 74
7
 42
0.0000001
 43
0.0000001
 44
0.0000000001
 12
0.0261175209
 22
-0.0000001888
 32
0.0
 13
0.0238224891
 23
-0.0107057886
 33
0.0
 40
0.0
 40
0.0
 40
0.0
 40
0.0
 40
0.2326349317
 40
0.3537420142
 40
0.477822851
 40
0.6046993967
 40
0.7341792885
 40
1.0
 40
1.0
 40
1.0
 40
1.0
 10
5.3104652216
 20
5.5341920798
 30
0.0
 10
5.3124905042
 20
5.5341920652
 30
0.0
 10
5.3155736156
 20
5.5339626362
 30
0.0
 10
5.3196782302
 20
5.5332803279
 30
0.0
 10
5.322840547
 20
5.5325707849
 30
0.0
 10
5.3260319202
 20
5.531680002
 30
0.0
 10
5.3303489892
 20
5.5302516104
 30
0.0
 10
5.3335424792
 20
5.5289555376
 30
0.0
 10
5.3356533162
 20
5.5280069309
 30
0.0
 11
5.3104652216
 21
5.5341920798
 31
0.0
 11
5.316526465
 21
5.5337710651
 31
0.0
 11
5.3196472495
 21
5.5332559155
 31
0.0
 11
5.322809995
 21
5.5325494646
 31
0.0
 11
5.3260024673
 21
5.5316613579
 31
0.0
 11
5.3292137921
 21
5.5306015249
 31
0.0
 11
5.3356533162
 21
5.5280069309
 31
0.0
  0
SPLINE
  5
435
100
AcDbEntity
  8
0
100
AcDbSpline
 62
9
  6
CONTINUOUS
 70
0
 71
3
 72
23
 73
19
 74
17
 42
0.0000001
 43
0.0000001
 44
0.0000000001
 12
0.1285248445
 22
0.0146109599
 32
0.0
 13
-0.0000001751
 23
0.12935268
 33
0.0
 40
0.0
 40
0.0
 40
0.0
 40
0.0
 40
0.051320937
 40
0.1034760482
 40
0.1299740683
 40
0.1567958422
 40
0.2115361208
 40
0.2679732019
 40
0.3262863481
 40
0.3865502113
 40
0.4487729242
 40
0.512902925
 40
0.5788131897
 40
0.7151884696
 40
0.7853331109
 40
0.8564324357
 40
0.9281284291
 40
1.0
 40
1.0
 40
1.0
 40
1.0
 10
5.3144253456
 20
5.5344839727
 30
0.0
 10
5.3166240174
 20
5.534733922
 30
0.0
 10
5.321028568
 20
5.5355309057
 30
0.0
 10
5.3263857666
 20
5.5372271096
 30
0.0
 10
5.3305784408
 20
5.5389953319
 30
0.0
 10
5.3347565394
 20
5.5410630886
 30
0.0
 10
5.3398471156
 20
5.5441710029
 30
0.0
 10
5.3456371733
 20
5.5486522566
 30
0.0
 10
5.3511018964
 20
5.553874765
 30
0.0
 10
5.3561990281
 20
5.5597881808
 30
0.0
 10
5.3608831684
 20
5.5663434747
 30
0.0
 10
5.3651121468
 20
5.5734850593
 30
0.0
 10
5.3701588679
 20
5.5838149891
 30
0.0
 10
5.3740763064
 20
5.5949427828
 30
0.0
 10
5.3768570811
 20
5.6065920308
 30
0.0
 10
5.3783713803
 20
5.6156556687
 30
0.0
 10
5.379285344
 20
5.6248725657
 30
0.0
 10
5.3794907816
 20
5.6310647888
 30
0.0
 10
5.3794907774
 20
5.6341637155
 30
0.0
 11
5.3144253456
 21
5.5344839727
 31
0.0
 11
5.3209587377
 21
5.5356606122
 31
0.0
 11
5.3273925513
 21
5.5376903909
 31
0.0
 11
5.3305512723
 21
5.5390211252
 31
0.0
 11
5.3336614157
 21
5.5405587268
 31
0.0
 11
5.3397110261
 21
5.5442383963
 31
0.0
 11
5.3454915592
 21
5.548697055
 31
0.0
 11
5.3509540284
 21
5.5538987568
 31
0.0
 11
5.3560521319
 21
5.5597958681
 31
0.0
 11
5.3607401663
 21
5.5663383063
 31
0.0
 11
5.3649764418
 21
5.5734704464
 31
0.0
 11
5.3687260445
 21
5.5811273073
 31
0.0
 11
5.3746357565
 21
5.5977484632
 31
0.0
 11
5.3767463181
 21
5.6065729784
 31
0.0
 11
5.3782661095
 21
5.6156434242
 31
0.0
 11
5.3791833909
 21
5.6248720183
 31
0.0
 11
5.3794907774
 21
5.6341637155
 31
0.0
  0
SPLINE
  5
436
100
AcDbEntity
  8
0
100
AcDbSpline
 62
9
  6
CONTINUOUS
 70
0
 71
3
 72
26
 73
22
 74
20
 42
0.0000001
 43
0.0000001
 44
0.0000000001
 12
-0.0220882658
 22
-0.0936977562
 32
0.0
 13
0.0827882379
 23
-0.0491250309
 33
0.0
 40
0.0
 40
0.0
 40
0.0
 40
0.0
 40
0.0720622454
 40
0.1431306782
 40
0.2130126554
 40
0.2815340469
 40
0.3485967019
 40
0.4141695847
 40
0.4782424406
 40
0.5408315775
 40
0.6019817347
 40
0.6617624076
 40
0.6911762188
 40
0.7202891936
 40
0.7491215924
 40
0.7776950773
 40
0.8341425996
 40
0.8898474039
 40
0.9175003903
 40
0.9450575469
 40
1.0
 40
1.0
 40
1.0
 40
1.0
 10
6.2065017224
 20
5.6215224633
 30
0.0
 10
6.2059711458
 20
5.619271773
 30
0.0
 10
6.2050447981
 20
5.6147701836
 30
0.0
 10
6.2040606769
 20
5.6080022395
 30
0.0
 10
6.2034959185
 20
5.6013000069
 30
0.0
 10
6.2033578797
 20
5.5947037386
 30
0.0
 10
6.2036483298
 20
5.5882505597
 30
0.0
 10
6.2043629703
 20
5.5819738581
 30
0.0
 10
6.2054987412
 20
5.5759051043
 30
0.0
 10
6.207052126
 20
5.57007587
 30
0.0
 10
6.2090124725
 20
5.5645163121
 30
0.0
 10
6.2109878917
 20
5.5601080133
 30
0.0
 10
6.2127632712
 20
5.5567512215
 30
0.0
 10
6.2141828406
 20
5.5543328854
 30
0.0
 10
6.2156951051
 20
5.5520034477
 30
0.0
 10
6.2178230289
 20
5.5490324158
 30
0.0
 10
6.2207052348
 20
5.5455469278
 30
0.0
 10
6.2238876668
 20
5.5423742664
 30
0.0
 10
6.2265885367
 20
5.5400543009
 30
0.0
 10
6.2293812524
 20
5.5378859608
 30
0.0
 10
6.2315922975
 20
5.5364196198
 30
0.0
 10
6.2331084938
 20
5.5355199366
 30
0.0
 11
6.2065017224
 21
5.6215224633
 31
0.0
 11
6.2051055601
 21
5.6147272595
 31
0.0
 11
6.2041241354
 21
5.6079565387
 31
0.0
 11
6.2035636757
 21
5.6012526607
 31
0.0
 11
6.2034301659
 21
5.5946577252
 31
0.0
 11
6.2037247086
 21
5.5882085879
 31
0.0
 11
6.2044438804
 21
5.5819372437
 31
0.0
 11
6.2055840867
 21
5.5758755037
 31
0.0
 11
6.2071403556
 21
5.5700547474
 31
0.0
 11
6.2091030857
 21
5.5645049031
 31
0.0
 11
6.2114617033
 21
5.5592555942
 31
0.0
 11
6.212786165
 21
5.5567528972
 31
0.0
 11
6.2142053796
 21
5.5543362148
 31
0.0
 11
6.2157171676
 21
5.5520084788
 31
0.0
 11
6.2173192607
 21
5.5497725414
 31
0.0
 11
6.2207852883
 21
5.5455874705
 31
0.0
 11
6.2245853146
 21
5.5418038169
 31
0.0
 11
6.226604753
 21
5.5400693567
 31
0.0
 11
6.228700273
 21
5.5384426271
 31
0.0
 11
6.2331084938
 21
5.5355199366
 31
0.0
  0
SPLINE
  5
437
100
AcDbEntity
  8
0
100
AcDbSpline
 62
9
  6
CONTINUOUS
 70
0
 71
3
 72
23
 73
19
 74
17
 42
0.0000001
 43
0.0000001
 44
0.0000000001
 12
-0.0000001486
 22
-0.12935257
 32
0.0
 13
0.1285247064
 23
-0.0146112022
 33
0.0
 40
0.0
 40
0.0
 40
0.0
 40
0.0
 40
0.0718715608
 40
0.1435675444
 40
0.2146668606
 40
0.284811495
 40
0.4211867681
 40
0.4870970333
 40
0.5512270374
 40
0.6134497561
 40
0.673713627
 40
0.7320267823
 40
0.7884638724
 40
0.8432041585
 40
0.870025935
 40
0.8965239567
 40
0.9486790681
 40
1.0
 40
1.0
 40
1.0
 40
1.0
 10
6.1679151567
 20
5.6341637155
 30
0.0
 10
6.1679151531
 20
5.6310647918
 30
0.0
 10
6.1681205915
 20
5.6248725749
 30
0.0
 10
6.1690345552
 20
5.6156556871
 30
0.0
 10
6.1705488532
 20
5.606592058
 30
0.0
 10
6.1733296247
 20
5.5949428208
 30
0.0
 10
6.1772470576
 20
5.5838150364
 30
0.0
 10
6.1822937708
 20
5.5734851138
 30
0.0
 10
6.1865227424
 20
5.566343533
 30
0.0
 10
6.1912068752
 20
5.5597882412
 30
0.0
 10
6.1963039987
 20
5.5538748259
 30
0.0
 10
6.2017687131
 20
5.5486523162
 30
0.0
 10
6.2075587617
 20
5.544171059
 30
0.0
 10
6.2126493301
 20
5.5410631403
 30
0.0
 10
6.2168274226
 20
5.538995379
 30
0.0
 10
6.2210200905
 20
5.5372271514
 30
0.0
 10
6.2263772814
 20
5.5355309398
 30
0.0
 10
6.2307818265
 20
5.5347339485
 30
0.0
 10
6.2329804958
 20
5.534483995
 30
0.0
 11
6.1679151567
 21
5.6341637155
 31
0.0
 11
6.1682225444
 21
5.6248720275
 31
0.0
 11
6.1691398259
 21
5.6156434427
 31
0.0
 11
6.170659616
 21
5.6065730057
 31
0.0
 11
6.172770175
 21
5.5977484987
 31
0.0
 11
6.1786798786
 21
5.5811273566
 31
0.0
 11
6.1824294754
 21
5.5734705009
 31
0.0
 11
6.1866657442
 21
5.5663383645
 31
0.0
 11
6.191353771
 21
5.5597959284
 31
0.0
 11
6.1964518664
 21
5.5538988175
 31
0.0
 11
6.201914327
 21
5.5486971142
 31
0.0
 11
6.2076948511
 21
5.544238452
 31
0.0
 11
6.2137444523
 21
5.5405587772
 31
0.0
 11
6.2168545911
 21
5.5390211722
 31
0.0
 11
6.2200133075
 21
5.5376904339
 31
0.0
 11
6.2264471122
 21
5.5356606458
 31
0.0
 11
6.2329804958
 21
5.534483995
 31
0.0
  0
SPLINE
  5
438
100
AcDbEntity
  8
0
100
AcDbSpline
 62
9
  6
CONTINUOUS
 70
0
 71
3
 72
12
 73
8
 74
6
 42
0.0000001
 43
0.0000001
 44
0.0000000001
 12
-0.0261156359
 22
-0.0000000057
 32
0.0
 13
-0.0238208128
 23
-0.0107049203
 33
0.0
 40
0.0
 40
0.0
 40
0.0
 40
0.0
 40
0.2326477906
 40
0.3537585322
 40
0.4778533908
 40
0.7341519167
 40
1.0
 40
1.0
 40
1.0
 40
1.0
 10
6.2369407132
 20
5.5341920911
 30
0.0
 10
6.2349154648
 20
5.5341920906
 30
0.0
 10
6.2318324542
 20
5.5339626062
 30
0.0
 10
6.2277278145
 20
5.5332803893
 30
0.0
 10
6.2234658657
 20
5.5323239311
 30
0.0
 10
6.218080339
 20
5.5306668507
 30
0.0
 10
6.2138635216
 20
5.5289555687
 30
0.0
 10
6.2117526158
 20
5.5280069412
 30
0.0
 11
6.2369407132
 21
5.5341920911
 31
0.0
 11
6.2308795731
 21
5.53377107
 31
0.0
 11
6.2277589156
 21
5.5332559662
 31
0.0
 11
6.2245960448
 21
5.5325494696
 31
0.0
 11
6.2181923398
 21
5.530601611
 31
0.0
 11
6.2117526158
 21
5.5280069412
 31
0.0
  0
SPLINE
  5
439
100
AcDbEntity
  8
0
100
AcDbSpline
 62
9
  6
CONTINUOUS
 70
0
 71
3
 72
26
 73
22
 74
20
 42
0.0000001
 43
0.0000001
 44
0.0000000001
 12
0.0827870181
 22
0.0491257503
 32
0.0
 13
-0.022088126
 23
0.0936970885
 33
0.0
 40
0.0
 40
0.0
 40
0.0
 40
0.0
 40
0.0549424132
 40
0.0824995612
 40
0.1101525458
 40
0.1658573637
 40
0.2223049153
 40
0.2508784188
 40
0.279710838
 40
0.3088238346
 40
0.338237668
 40
0.398018384
 40
0.4591685782
 40
0.5217577429
 40
0.5858306152
 40
0.651403501
 40
0.7184661446
 40
0.7869875099
 40
0.856869445
 40
0.9279378216
 40
1.0
 40
1.0
 40
1.0
 40
1.0
 10
5.3142980214
 20
5.5355202823
 30
0.0
 10
5.3158141943
 20
5.536419978
 30
0.0
 10
5.3180252039
 20
5.5378863354
 30
0.0
 10
5.3208178729
 20
5.5400546922
 30
0.0
 10
5.3235186973
 20
5.5423746721
 30
0.0
 10
5.3267010736
 20
5.5455473459
 30
0.0
 10
5.3295832268
 20
5.5490328383
 30
0.0
 10
5.3317111105
 20
5.5520038698
 30
0.0
 10
5.3332233458
 20
5.5543333053
 30
0.0
 10
5.3346428871
 20
5.5567516372
 30
0.0
 10
5.3364182305
 20
5.5601084208
 30
0.0
 10
5.3383936079
 20
5.5645167042
 30
0.0
 10
5.3403539101
 20
5.570076237
 30
0.0
 10
5.3419072564
 20
5.5759054399
 30
0.0
 10
5.3430429951
 20
5.5819741567
 30
0.0
 10
5.3437576101
 20
5.5882508163
 30
0.0
 10
5.3440480412
 20
5.594703949
 30
0.0
 10
5.3439099902
 20
5.6013001677
 30
0.0
 10
5.3433452267
 20
5.608002348
 30
0.0
 10
5.3423611072
 20
5.6147702379
 30
0.0
 10
5.3414347651
 20
5.6192717912
 30
0.0
 10
5.3409041922
 20
5.6215224633
 30
0.0
 11
5.3142980214
 21
5.5355202823
 31
0.0
 11
5.3187061713
 21
5.538443005
 31
0.0
 11
5.3208016565
 21
5.5400697474
 31
0.0
 11
5.3228210606
 21
5.5418042182
 31
0.0
 11
5.3266210206
 21
5.5455878865
 31
0.0
 11
5.3300869852
 21
5.5497729632
 31
0.0
 11
5.3316890482
 21
5.5520089005
 31
0.0
 11
5.3332008071
 21
5.5543366343
 31
0.0
 11
5.3346199936
 21
5.5567533126
 31
0.0
 11
5.3359444284
 21
5.5592560035
 31
0.0
 11
5.3383029963
 21
5.5645052946
 31
0.0
 11
5.3402656821
 21
5.5700551142
 31
0.0
 11
5.3418219126
 21
5.5758758394
 31
0.0
 11
5.3429620865
 21
5.5819375426
 31
0.0
 11
5.3436812326
 21
5.588208845
 31
0.0
 11
5.3439757563
 21
5.5946579363
 31
0.0
 11
5.3438422343
 21
5.6012528223
 31
0.0
 11
5.3432817693
 21
5.6079566479
 31
0.0
 11
5.3423003462
 21
5.6147273146
 31
0.0
 11
5.3409041922
 21
5.6215224633
 31
0.0
  0
SPLINE
  5
43A
100
AcDbEntity
  8
0
100
AcDbSpline
 62
9
  6
CONTINUOUS
 70
0
 71
3
 72
26
 73
22
 74
20
 42
0.0000001
 43
0.0000001
 44
0.0000000001
 12
0.0
 22
0.1755330844
 32
0.0
 13
-0.1549203886
 23
0.0825320357
 33
0.0
 40
0.0
 40
0.0
 40
0.0
 40
0.0
 40
0.0636153922
 40
0.1287238985
 40
0.1950376375
 40
0.2622239683
 40
0.3299182828
 40
0.3977343613
 40
0.4652731542
 40
0.532130739
 40
0.5979061502
 40
0.6622098069
 40
0.7246733842
 40
0.7849622069
 40
0.8142046538
 40
0.8428022574
 40
0.8707310172
 40
0.8979733133
 40
0.9245191187
 40
0.9503674097
 40
1.0
 40
1.0
 40
1.0
 40
1.0
 10
5.3968073866
 20
5.3757633568
 30
0.0
 10
5.3968073866
 20
5.3794855588
 30
0.0
 10
5.3965283664
 20
5.3870194352
 30
0.0
 10
5.3953538374
 20
5.3983777659
 30
0.0
 10
5.3934605626
 20
5.409850099
 30
0.0
 10
5.3908909147
 20
5.4213443015
 30
0.0
 10
5.3876871563
 20
5.4327690301
 30
0.0
 10
5.3838915148
 20
5.4440324692
 30
0.0
 10
5.3795462113
 20
5.45504279
 30
0.0
 10
5.3746934503
 20
5.4657081438
 30
0.0
 10
5.3693754211
 20
5.4759367154
 30
0.0
 10
5.3636341295
 20
5.4856369809
 30
0.0
 10
5.3575116765
 20
5.4947171109
 30
0.0
 10
5.352071817
 20
5.5017623863
 30
0.0
 10
5.3475555329
 20
5.5069965124
 30
0.0
 10
5.3441331275
 20
5.5106687202
 30
0.0
 10
5.3406465763
 20
5.5141157582
 30
0.0
 10
5.3371011186
 20
5.5173260348
 30
0.0
 10
5.3335014961
 20
5.5202882971
 30
0.0
 10
5.3287034554
 20
5.5238424008
 30
0.0
 10
5.3249402382
 20
5.5261804074
 30
0.0
 10
5.3223772048
 20
5.5275458336
 30
0.0
 11
5.3968073866
 21
5.3757633568
 31
0.0
 11
5.3964104229
 21
5.3869229047
 31
0.0
 11
5.3952478575
 21
5.3982923178
 31
0.0
 11
5.3933621787
 21
5.409778821
 31
0.0
 11
5.3907958746
 21
5.421289639
 31
0.0
 11
5.3875914337
 21
5.4327319965
 31
0.0
 11
5.3837913443
 21
5.4440131185
 31
0.0
 11
5.3794380945
 21
5.4550402296
 31
0.0
 11
5.3745741729
 21
5.4657205548
 31
0.0
 11
5.3692420675
 21
5.4759613187
 31
0.0
 11
5.3634842668
 21
5.4856697461
 31
0.0
 11
5.357343259
 21
5.4947530619
 31
0.0
 11
5.3508615325
 21
5.5031184908
 31
0.0
 11
5.3475061773
 21
5.5070030054
 31
0.0
 11
5.3440815755
 21
5.5106732576
 31
0.0
 11
5.3405930382
 21
5.5141176505
 31
0.0
 11
5.3370458764
 21
5.5173245872
 31
0.0
 11
5.3334454011
 21
5.5202824707
 31
0.0
 11
5.3297969234
 21
5.5229797042
 31
0.0
 11
5.3223772048
 21
5.5275458336
 31
0.0
  0
SPLINE
  5
43B
100
AcDbEntity
  8
0
100
AcDbSpline
 62
6
  6
CONTINUOUS
 70
0
 71
3
 72
22
 73
18
 74
16
 42
0.0000001
 43
0.0000001
 44
0.0000000001
 12
-0.1782178462
 22
-0.0007416386
 32
0.0
 13
-0.1117811746
 23
-0.1388060508
 33
0.0
 40
0.0
 40
0.0
 40
0.0
 40
0.0
 40
0.0627579631
 40
0.1247356133
 40
0.1554878011
 40
0.186105912
 40
0.2470381826
 40
0.3077541914
 40
0.3684365718
 40
0.4292534955
 40
0.4903544209
 40
0.5518535175
 40
0.6138473313
 40
0.6764279651
 40
0.7396669206
 40
0.8682892162
 40
1.0
 40
1.0
 40
1.0
 40
1.0
 10
5.3968073866
 20
5.3757633568
 30
0.0
 10
5.3930791903
 20
5.3757478422
 30
0.0
 10
5.3856675977
 20
5.3754541455
 30
0.0
 10
5.3764796788
 20
5.3744263858
 30
0.0
 10
5.3692506459
 20
5.3732195195
 30
0.0
 10
5.3621305561
 20
5.3717661401
 30
0.0
 10
5.353368795
 20
5.3694856104
 30
0.0
 10
5.3430914731
 20
5.3660396167
 30
0.0
 10
5.3330716513
 20
5.3619233113
 30
0.0
 10
5.3233117604
 20
5.357173235
 30
0.0
 10
5.3138103258
 20
5.3518271611
 30
0.0
 10
5.3045636112
 20
5.3459220855
 30
0.0
 10
5.295568051
 20
5.3394897019
 30
0.0
 10
5.2868222474
 20
5.3325545993
 30
0.0
 10
5.275427159
 20
5.3226161941
 30
0.0
 10
5.2617934122
 20
5.3090322838
 30
0.0
 10
5.2516955306
 20
5.2972994432
 30
0.0
 10
5.2467879352
 20
5.2912053586
 30
0.0
 11
5.3968073866
 21
5.3757633568
 31
0.0
 11
5.3856315732
 21
5.3753179443
 31
0.0
 11
5.3746545903
 21
5.3740884951
 31
0.0
 11
5.3692487952
 21
5.3731858592
 31
0.0
 11
5.3639022646
 21
5.3720946978
 31
0.0
 11
5.3533922403
 21
5.3693626568
 31
0.0
 11
5.3431314068
 21
5.3659269095
 31
0.0
 11
5.3331257056
 21
5.361822602
 31
0.0
 11
5.3233769098
 21
5.3570855575
 31
0.0
 11
5.3138830286
 21
5.3517522105
 31
0.0
 11
5.3046419308
 21
5.3458589113
 31
0.0
 11
5.2956512627
 21
5.339437289
 31
0.0
 11
5.2869083648
 21
5.3325124798
 31
0.0
 11
5.2784105551
 21
5.3251091476
 31
0.0
 11
5.2621362294
 21
5.3089657386
 31
0.0
 11
5.2467879352
 21
5.2912053586
 31
0.0
  0
SPLINE
  5
43C
100
AcDbEntity
  8
0
100
AcDbSpline
 62
9
  6
CONTINUOUS
 70
0
 71
3
 72
29
 73
25
 74
23
 42
0.0000001
 43
0.0000001
 44
0.0000000001
 12
-0.1338421613
 22
0.2324310648
 32
0.0
 13
-0.2439132377
 23
0.1115538277
 33
0.0
 40
0.0
 40
0.0
 40
0.0
 40
0.0
 40
0.0749665377
 40
0.1494226688
 40
0.2230944254
 40
0.29571198
 40
0.367010573
 40
0.4367317038
 40
0.5046246793
 40
0.5704486478
 40
0.6339747958
 40
0.69498827
 40
0.7244924156
 40
0.7532975214
 40
0.7813836036
 40
0.8087329507
 40
0.8353304956
 40
0.8611642586
 40
0.8862258712
 40
0.910511199
 40
0.9340210761
 40
0.9567621689
 40
0.9787479799
 40
1.0
 40
1.0
 40
1.0
 40
1.0
 10
5.2467879352
 20
5.2912053586
 30
0.0
 10
5.2434433741
 20
5.2970135427
 30
0.0
 10
5.2367025829
 20
5.3085477217
 30
0.0
 10
5.2263990447
 20
5.3256266495
 30
0.0
 10
5.2159479281
 20
5.342368801
 30
0.0
 10
5.2053720793
 20
5.3586972877
 30
0.0
 10
5.1946943155
 20
5.3745353239
 30
0.0
 10
5.1839374464
 20
5.3898061894
 30
0.0
 10
5.1731242638
 20
5.4044332369
 30
0.0
 10
5.1622775115
 20
5.4183399868
 30
0.0
 10
5.1514201172
 20
5.4314496332
 30
0.0
 10
5.1422838847
 20
5.4417594912
 30
0.0
 10
5.1349778082
 20
5.4495338059
 30
0.0
 10
5.1295717018
 20
5.4550515291
 30
0.0
 10
5.1241808672
 20
5.4603119418
 30
0.0
 10
5.1188082619
 20
5.4653054825
 30
0.0
 10
5.1134568763
 20
5.4700225973
 30
0.0
 10
5.1081296718
 20
5.4744537352
 30
0.0
 10
5.102829594
 20
5.4785893458
 30
0.0
 10
5.0975595553
 20
5.4824198789
 30
0.0
 10
5.092322459
 20
5.4859357669
 30
0.0
 10
5.0871210936
 20
5.4891274597
 30
0.0
 10
5.081958482
 20
5.4919852535
 30
0.0
 10
5.0784866365
 20
5.4936897614
 30
0.0
 10
5.0767587535
 20
5.4944800094
 30
0.0
 11
5.2467879352
 21
5.2912053586
 31
0.0
 11
5.2366392225
 21
5.3085631653
 31
0.0
 11
5.2263194053
 21
5.3256600877
 31
0.0
 11
5.2158512587
 21
5.3424190549
 31
0.0
 11
5.2052575576
 21
5.3587629962
 31
0.0
 11
5.1945610771
 21
5.3746148408
 31
0.0
 11
5.1837845921
 21
5.3898975177
 31
0.0
 11
5.1729508776
 21
5.4045339563
 31
0.0
 11
5.1620827086
 21
5.4184470856
 31
0.0
 11
5.1512031108
 21
5.4315598651
 31
0.0
 11
5.1403361163
 21
5.4437953755
 31
0.0
 11
5.1349149342
 21
5.449560127
 31
0.0
 11
5.1295060097
 21
5.4550767279
 31
0.0
 11
5.1241123782
 21
5.4603355671
 31
0.0
 11
5.1187370754
 21
5.4653270334
 31
0.0
 11
5.1133831369
 21
5.4700415158
 31
0.0
 11
5.1080535981
 21
5.4744694032
 31
0.0
 11
5.1027514948
 21
5.4786010844
 31
0.0
 11
5.0974798624
 21
5.4824269484
 31
0.0
 11
5.0922417365
 21
5.485937384
 31
0.0
 11
5.0870401526
 21
5.4891227801
 31
0.0
 11
5.0818781465
 21
5.4919735256
 31
0.0
 11
5.0767587535
 21
5.4944800094
 31
0.0
  0
SPLINE
  5
43D
100
AcDbEntity
  8
0
100
AcDbSpline
 62
9
  6
CONTINUOUS
 70
0
 71
3
 72
16
 73
12
 74
10
 42
0.0000001
 43
0.0000001
 44
0.0000000001
 12
-0.2480118762
 22
-0.0094947714
 32
0.0
 13
-0.2417978714
 23
-0.0559806289
 33
0.0
 40
0.0
 40
0.0
 40
0.0
 40
0.0
 40
0.106438163
 40
0.2210566262
 40
0.3424108072
 40
0.4690739774
 40
0.5339563882
 40
0.5996308762
 40
0.7326173137
 40
0.8665631821
 40
1.0
 40
1.0
 40
1.0
 40
1.0
 10
5.3223772048
 20
5.5275458336
 30
0.0
 10
5.3135778953
 20
5.5272089649
 30
0.0
 10
5.2953103638
 20
5.5263042937
 30
0.0
 10
5.2670511775
 20
5.5243002358
 30
0.0
 10
5.2371765179
 20
5.521519519
 30
0.0
 10
5.2114615731
 20
5.5185193188
 30
0.0
 10
5.1903744779
 20
5.5156559014
 30
0.0
 10
5.168806948
 20
5.5124553077
 30
0.0
 10
5.1416634491
 20
5.5079192611
 30
0.0
 10
5.1091312469
 20
5.5016753405
 30
0.0
 10
5.0875136664
 20
5.4969699684
 30
0.0
 10
5.0767587535
 20
5.4944800094
 30
0.0
 11
5.3223772048
 21
5.5275458336
 31
0.0
 11
5.2959918598
 21
5.5262475566
 31
0.0
 11
5.2676153206
 21
5.5242385957
 31
0.0
 11
5.2376257168
 21
5.5214462043
 31
0.0
 11
5.206401178
 21
5.5177976359
 31
0.0
 11
5.1904440563
 21
5.515632078
 31
0.0
 11
5.1743204975
 21
5.5132403523
 31
0.0
 11
5.1417651245
 21
5.5078026501
 31
0.0
 11
5.1091171722
 21
5.5015330341
 31
0.0
 11
5.0767587535
 21
5.4944800094
 31
0.0
  0
SPLINE
  5
43E
100
AcDbEntity
  8
0
100
AcDbSpline
 62
6
  6
CONTINUOUS
 70
0
 71
3
 72
11
 73
7
 74
5
 42
0.0000001
 43
0.0000001
 44
0.0000000001
 12
-0.0326451796
 22
-0.0404158434
 32
0.0
 13
-0.0272901655
 23
-0.0442085401
 33
0.0
 40
0.0
 40
0.0
 40
0.0
 40
0.0
 40
0.243883949
 40
0.4919658881
 40
0.7440717048
 40
1.0
 40
1.0
 40
1.0
 40
1.0
 10
5.2467754163
 20
5.2912240081
 30
0.0
 10
5.2441215378
 20
5.2879384163
 30
0.0
 10
5.2388852242
 20
5.2812152591
 30
0.0
 10
5.2313079544
 20
5.2707902753
 30
0.0
 10
5.2239449968
 20
5.259959832
 30
0.0
 10
5.2192173757
 20
5.2525382138
 30
0.0
 10
5.2168892672
 20
5.2487668084
 30
0.0
 11
5.2467754163
 21
5.2912240081
 31
0.0
 11
5.2389855366
 21
5.2812309388
 31
0.0
 11
5.2314037663
 21
5.2708081329
 31
0.0
 11
5.2240362837
 21
5.2599789647
 31
0.0
 11
5.2168892672
 21
5.2487668084
 31
0.0
  0
SPLINE
  5
43F
100
AcDbEntity
  8
0
100
AcDbSpline
 62
6
  6
CONTINUOUS
 70
0
 71
3
 72
13
 73
9
 74
7
 42
0.0000001
 43
0.0000001
 44
0.0000000001
 12
-0.0501899718
 22
-0.0813663503
 32
0.0
 13
-0.0363608944
 23
-0.0884160708
 33
0.0
 40
0.0
 40
0.0
 40
0.0
 40
0.0
 40
0.1205244167
 40
0.2421113312
 40
0.3648483986
 40
0.4888578208
 40
0.7411691865
 40
1.0
 40
1.0
 40
1.0
 40
1.0
 10
5.2168851281
 20
5.248772319
 30
0.0
 10
5.2148687558
 20
5.2455034417
 30
0.0
 10
5.2108978216
 20
5.238887456
 30
0.0
 10
5.2051414275
 20
5.228784881
 30
0.0
 10
5.1995501169
 20
5.2184634793
 30
0.0
 10
5.1922686368
 20
5.2043237803
 30
0.0
 10
5.1835533813
 20
5.1860497949
 30
0.0
 10
5.1770993151
 20
5.171090102
 30
0.0
 10
5.1739622085
 20
5.1634618341
 30
0.0
 11
5.2168851281
 21
5.248772319
 31
0.0
 11
5.2109526732
 21
5.2388946763
 31
0.0
 11
5.2051957253
 21
5.2287966333
 31
0.0
 11
5.1996054259
 21
5.2184801529
 31
0.0
 11
5.1941761285
 21
5.2079410216
 31
0.0
 11
5.1837791896
 21
5.1861755757
 31
0.0
 11
5.1739622085
 21
5.1634618341
 31
0.0
  0
SPLINE
  5
440
100
AcDbEntity
  8
0
100
AcDbSpline
 62
9
  6
CONTINUOUS
 70
0
 71
3
 72
23
 73
19
 74
17
 42
0.0000001
 43
0.0000001
 44
0.0000000001
 12
-0.2362599891
 22
0.2108720312
 32
0.0
 13
-0.3050583578
 23
0.085001143
 33
0.0
 40
0.0
 40
0.0
 40
0.0
 40
0.0
 40
0.0739524672
 40
0.1471096868
 40
0.2192995814
 40
0.2903530084
 40
0.3601043157
 40
0.4283920287
 40
0.4950597068
 40
0.5599570194
 40
0.6229395349
 40
0.6838654912
 40
0.7426023437
 40
0.7990310871
 40
0.8530499131
 40
0.9045790489
 40
0.9535671837
 40
1.0
 40
1.0
 40
1.0
 40
1.0
 10
5.1739563762
 20
5.1634675376
 30
0.0
 10
5.1681323731
 20
5.1686657066
 30
0.0
 10
5.156492301
 20
5.1789451012
 30
0.0
 10
5.13896318
 20
5.1940659986
 30
0.0
 10
5.1214764775
 20
5.2087649138
 30
0.0
 10
5.1040631589
 20
5.2229891234
 30
0.0
 10
5.0867541442
 20
5.2366859617
 30
0.0
 10
5.0695803406
 20
5.2498027889
 30
0.0
 10
5.0525726236
 20
5.2622870061
 30
0.0
 10
5.0357619602
 20
5.2740859714
 30
0.0
 10
5.0191799868
 20
5.2851466184
 30
0.0
 10
5.002860543
 20
5.2954175317
 30
0.0
 10
4.9868379888
 20
5.3048469195
 30
0.0
 10
4.9711466153
 20
5.3133829811
 30
0.0
 10
4.9558205669
 20
5.3209739539
 30
0.0
 10
4.9408932543
 20
5.327568212
 30
0.0
 10
4.9263988716
 20
5.3331136932
 30
0.0
 10
4.9167888665
 20
5.3361582872
 30
0.0
 10
4.9120672936
 20
5.3374739014
 30
0.0
 11
5.1739563762
 21
5.1634675376
 31
0.0
 11
5.156399369
 21
5.1789662876
 31
0.0
 11
5.1388536473
 21
5.1940949062
 31
0.0
 11
5.1213501671
 21
5.2088005399
 31
0.0
 11
5.1039198845
 21
5.2230303348
 31
0.0
 11
5.0865937556
 21
5.2367314374
 31
0.0
 11
5.0694027365
 21
5.2498509939
 31
0.0
 11
5.0523777833
 21
5.2623361508
 31
0.0
 11
5.0355498521
 21
5.2741340542
 31
0.0
 11
5.0189505503
 21
5.2851919291
 31
0.0
 11
5.0026140895
 21
5.2954573142
 31
0.0
 11
4.9865753323
 21
5.3048778267
 31
0.0
 11
4.9708691415
 21
5.3134010837
 31
0.0
 11
4.9555303796
 21
5.3209747025
 31
0.0
 11
4.9405939092
 21
5.3275463003
 31
0.0
 11
4.926094593
 21
5.3330634942
 31
0.0
 11
4.9120672936
 21
5.3374739014
 31
0.0
  0
SPLINE
  5
441
100
AcDbEntity
  8
0
100
AcDbSpline
 62
9
  6
CONTINUOUS
 70
0
 71
3
 72
22
 73
18
 74
16
 42
0.0000001
 43
0.0000001
 44
0.0000000001
 12
-0.2297891176
 22
-0.0532003828
 32
0.0
 13
-0.0933772778
 23
-0.2165964064
 33
0.0
 40
0.0
 40
0.0
 40
0.0
 40
0.0
 40
0.104632533
 40
0.1592111009
 40
0.2152812537
 40
0.2728496798
 40
0.3319295234
 40
0.3925431784
 40
0.4547247139
 40
0.5184993109
 40
0.583798772
 40
0.6505078446
 40
0.7184905722
 40
0.7875957702
 40
0.8576616972
 40
0.9285201272
 40
1.0
 40
1.0
 40
1.0
 40
1.0
 10
5.0767587535
 20
5.4944800094
 30
0.0
 10
5.0687442811
 20
5.4926245125
 30
0.0
 10
5.0567414557
 20
5.4888873868
 30
0.0
 10
5.041157041
 20
5.4822646854
 30
0.0
 10
5.0293430834
 20
5.4762959104
 30
0.0
 10
5.0176365276
 20
5.469396233
 30
0.0
 10
5.0060976413
 20
5.4615635932
 30
0.0
 10
4.9947890107
 20
5.4527967894
 30
0.0
 10
4.983774055
 20
5.4430951909
 30
0.0
 10
4.9731233575
 20
5.4324674495
 30
0.0
 10
4.9628705377
 20
5.4209752588
 30
0.0
 10
4.9530543967
 20
5.4086824042
 30
0.0
 10
4.9437150557
 20
5.3956542054
 30
0.0
 10
4.9348928099
 20
5.3819559158
 30
0.0
 10
4.926628009
 20
5.3676527051
 30
0.0
 10
4.9189613228
 20
5.3528103066
 30
0.0
 10
4.9142921589
 20
5.3426346626
 30
0.0
 10
4.9120672936
 20
5.3374739014
 30
0.0
 11
5.0767587535
 21
5.4944800094
 31
0.0
 11
5.0531741017
 21
5.4872111761
 31
0.0
 11
5.0413231833
 21
5.4821835144
 31
0.0
 11
5.029516147
 21
5.4762255471
 31
0.0
 11
5.0178152005
 21
5.4693361675
 31
0.0
 11
5.0062825515
 21
5.4615142689
 31
0.0
 11
4.9949804077
 21
5.4527587446
 31
0.0
 11
4.9839709769
 21
5.4430684879
 31
0.0
 11
4.9733128911
 21
5.4324535457
 31
0.0
 11
4.9630504786
 21
5.4209685792
 31
0.0
 11
4.9532244922
 21
5.4086794033
 31
0.0
 11
4.9438756844
 21
5.3956518327
 31
0.0
 11
4.9350448081
 21
5.3819516824
 31
0.0
 11
4.9267726157
 21
5.3676447672
 31
0.0
 11
4.91909986
 21
5.3527969019
 31
0.0
 11
4.9120672936
 21
5.3374739014
 31
0.0
  0
SPLINE
  5
442
100
AcDbEntity
  8
0
100
AcDbSpline
 62
6
  6
CONTINUOUS
 70
0
 71
3
 72
16
 73
12
 74
10
 42
0.0000001
 43
0.0000001
 44
0.0000000001
 12
-0.275292362
 22
0.0177133336
 32
0.0
 13
-0.2757905271
 23
0.0062635387
 33
0.0
 40
0.0
 40
0.0
 40
0.0
 40
0.0
 40
0.0509540317
 40
0.1046834582
 40
0.2194290028
 40
0.3421572471
 40
0.4707878475
 40
0.6031976866
 40
0.7370935635
 40
0.8701396068
 40
1.0
 40
1.0
 40
1.0
 40
1.0
 10
5.1181846249
 20
4.9516780345
 30
0.0
 10
5.113508873
 20
4.9519788897
 30
0.0
 10
5.103901368
 20
4.9525766018
 30
0.0
 10
5.0837585055
 20
4.9537563558
 30
0.0
 10
5.0570194522
 20
4.9551897482
 30
0.0
 10
5.023393546
 20
4.9568087244
 30
0.0
 10
4.9881372741
 20
4.9583318928
 30
0.0
 10
4.951848112
 20
4.95972913
 30
0.0
 10
4.9151473831
 20
4.9609806473
 30
0.0
 10
4.8786759009
 20
4.962065814
 30
0.0
 10
4.8545082224
 20
4.9626757934
 30
0.0
 10
4.8425701336
 20
4.962946922
 30
0.0
 11
5.1181846249
 21
4.9516780345
 31
0.0
 11
5.1041555888
 21
4.9525524903
 31
0.0
 11
5.0893591405
 21
4.9534205221
 31
0.0
 11
5.0577510474
 21
4.9551227251
 31
0.0
 11
5.0239344253
 21
4.9567554663
 31
0.0
 11
4.9884833541
 21
4.9582895684
 31
0.0
 11
4.951983694
 21
4.9596972745
 31
0.0
 11
4.9150684281
 21
4.960956507
 31
0.0
 11
4.8783823201
 21
4.9620466087
 31
0.0
 11
4.8425701336
 21
4.962946922
 31
0.0
  0
SPLINE
  5
443
100
AcDbEntity
  8
0
100
AcDbSpline
 62
9
  6
CONTINUOUS
 70
0
 71
3
 72
15
 73
11
 74
9
 42
0.0000001
 43
0.0000001
 44
0.0000000001
 12
-0.1519083821
 22
-0.3523641985
 32
0.0
 13
0.0079543772
 23
-0.3836318715
 33
0.0
 40
0.0
 40
0.0
 40
0.0
 40
0.0
 40
0.1193059327
 40
0.2407591601
 40
0.364128099
 40
0.4891510449
 40
0.6155456757
 40
0.7430175072
 40
0.8712676262
 40
1.0
 40
1.0
 40
1.0
 40
1.0
 10
4.9120672936
 20
5.3374739014
 30
0.0
 10
4.9060261032
 20
5.3234608549
 30
0.0
 10
4.8947090527
 20
5.294798097
 30
0.0
 10
4.8801407397
 20
5.2505368151
 30
0.0
 10
4.8678563432
 20
5.2048302397
 30
0.0
 10
4.8578977215
 20
5.1579165867
 30
0.0
 10
4.850305896
 20
5.1100315964
 30
0.0
 10
4.8451225013
 20
5.0614113194
 30
0.0
 10
4.8423892567
 20
5.0122938365
 30
0.0
 10
4.8422287893
 20
4.9794080755
 30
0.0
 10
4.8425701179
 20
4.9629461283
 30
0.0
 11
4.9120672936
 21
5.3374739014
 31
0.0
 11
4.8952236529
 21
5.2949057814
 31
0.0
 11
4.88062672
 21
5.2506474356
 31
0.0
 11
4.8683183545
 21
5.204937141
 31
0.0
 11
4.8583404157
 21
5.1580131744
 31
0.0
 11
4.8507347632
 21
5.1101138129
 31
0.0
 11
4.8455432564
 21
5.0614773334
 31
0.0
 11
4.8428077549
 21
5.0123420129
 31
0.0
 11
4.8425701179
 21
4.9629461283
 31
0.0
  0
SPLINE
  5
444
100
AcDbEntity
  8
0
100
AcDbSpline
 62
6
  6
CONTINUOUS
 70
0
 71
3
 72
14
 73
10
 74
8
 42
0.0000001
 43
0.0000001
 44
0.0000000001
 12
-0.049314086
 22
-0.152412964
 32
0.0
 13
-0.0219980629
 23
-0.1586747488
 33
0.0
 40
0.0
 40
0.0
 40
0.0
 40
0.0
 40
0.2404434721
 40
0.3632468959
 40
0.48767513
 40
0.6136691917
 40
0.7411708575
 40
0.8700343221
 40
1.0
 40
1.0
 40
1.0
 40
1.0
 10
5.1535706726
 20
5.1077121789
 30
0.0
 10
5.1496182559
 20
5.0954966115
 30
0.0
 10
5.1440820777
 20
5.0768978516
 30
0.0
 10
5.137478612
 20
5.0517071192
 30
0.0
 10
5.132843827
 20
5.0323224783
 30
0.0
 10
5.1285744987
 20
5.0125975484
 30
0.0
 10
5.1246832
 20
4.9925531782
 30
0.0
 10
5.1211856527
 20
4.9722212299
 30
0.0
 10
5.1191376098
 20
4.9585516848
 30
0.0
 10
5.1181846121
 20
4.9516775944
 30
0.0
 11
5.1535706726
 21
5.1077121789
 31
0.0
 11
5.1425597306
 21
5.0708023655
 31
0.0
 11
5.137569085
 21
5.0517737629
 31
0.0
 11
5.1329326018
 21
5.0323880553
 31
0.0
 11
5.128661649
 21
5.0126618297
 31
0.0
 11
5.1247683237
 21
4.9926115391
 31
0.0
 11
5.1212688042
 21
4.9722673897
 31
0.0
 11
5.1181846121
 21
4.9516775944
 31
0.0
  0
SPLINE
  5
445
100
AcDbEntity
  8
0
100
AcDbSpline
 62
9
  6
CONTINUOUS
 70
0
 71
3
 72
10
 73
6
 74
4
 42
0.0000001
 43
0.0000001
 44
0.0000000001
 12
-0.0129338067
 22
0.0068903352
 32
0.0
 13
-0.0143019335
 23
0.0031960558
 33
0.0
 40
0.0
 40
0.0
 40
0.0
 40
0.0
 40
0.5099168715
 40
0.7571079026
 40
1.0
 40
1.0
 40
1.0
 40
1.0
 10
5.3223772048
 20
5.5275458336
 30
0.0
 10
5.320178816
 20
5.5287169996
 30
0.0
 10
5.3168087995
 20
5.5302722283
 30
0.0
 10
5.3121851859
 20
5.5318572637
 30
0.0
 10
5.309867944
 20
5.5324695164
 30
0.0
 10
5.3087100018
 20
5.532728282
 30
0.0
 11
5.3223772048
 21
5.5275458336
 31
0.0
 11
5.3155801395
 21
5.5306507959
 31
0.0
 11
5.3121522617
 21
5.5318222162
 31
0.0
 11
5.3087100018
 21
5.532728282
 31
0.0
  0
SPLINE
  5
446
100
AcDbEntity
  8
0
100
AcDbSpline
 62
9
  6
CONTINUOUS
 70
0
 71
3
 72
9
 73
5
 74
3
 42
0.0000001
 43
0.0000001
 44
0.0000000001
 12
-0.0091856435
 22
0.0020527175
 32
0.0
 13
-0.0094122099
 23
0.0
 33
0.0
 40
0.0
 40
0.0
 40
0.0
 40
0.0
 40
0.5025922476
 40
1.0
 40
1.0
 40
1.0
 40
1.0
 10
5.3087100018
 20
5.532728282
 30
0.0
 10
5.3071711241
 20
5.5330721753
 30
0.0
 10
5.3040717798
 20
5.5336002181
 30
0.0
 10
5.3009319815
 20
5.5337828104
 30
0.0
 10
5.2993714128
 20
5.5337828104
 30
0.0
 11
5.3087100018
 21
5.532728282
 31
0.0
 11
5.3040454926
 21
5.5335156953
 31
0.0
 11
5.2993714128
 21
5.5337828104
 31
0.0
  0
LINE
  5
447
100
AcDbEntity
  8
0
100
AcDbLine
 62
9
  6
CONTINUOUS
 10
5.3104652211
 20
5.5341921105
 11
5.3091360526
 21
5.53414677
  0
SPLINE
  5
448
100
AcDbEntity
  8
0
100
AcDbSpline
 62
9
  6
CONTINUOUS
 70
0
 71
3
 72
11
 73
7
 74
5
 42
0.0000001
 43
0.0000001
 44
0.0000000001
 12
-0.0275266978
 22
0.0125893475
 32
0.0
 13
-0.0302689736
 23
0.0
 33
0.0
 40
0.0
 40
0.0
 40
0.0
 40
0.0
 40
0.2715449169
 40
0.527832589
 40
0.7700206389
 40
1.0
 40
1.0
 40
1.0
 40
1.0
 10
5.0767587535
 20
5.4944800094
 30
0.0
 10
5.0742671752
 20
5.4956195339
 30
0.0
 10
5.0693354202
 20
5.4976491307
 30
0.0
 10
5.061898874
 20
5.4999407465
 30
0.0
 10
5.0546713461
 20
5.5013548967
 30
0.0
 10
5.0499031373
 20
5.5016942114
 30
0.0
 10
5.0475827242
 20
5.5016942114
 30
0.0
 11
5.0767587535
 21
5.4944800094
 31
0.0
 11
5.0691489747
 21
5.4975863854
 31
0.0
 11
5.0617279019
 21
5.499846361
 31
0.0
 11
5.0545282476
 21
5.5012267113
 31
0.0
 11
5.0475827242
 21
5.5016942114
 31
0.0
  0
LINE
  5
449
100
AcDbEntity
  8
0
100
AcDbLine
 62
9
  6
CONTINUOUS
 10
5.2993714128
 20
5.5337828104
 11
5.2977549901
 21
5.5337173926
  0
SPLINE
  5
44A
100
AcDbEntity
  8
0
100
AcDbSpline
 62
9
  6
CONTINUOUS
 70
0
 71
3
 72
16
 73
12
 74
10
 42
0.0000001
 43
0.0000001
 44
0.0000000001
 12
-0.2523052701
 22
-0.0103599439
 32
0.0
 13
-0.2468262673
 23
-0.0533110826
 33
0.0
 40
0.0
 40
0.0
 40
0.0
 40
0.0
 40
0.1049087117
 40
0.218518404
 40
0.3393381384
 40
0.4658948502
 40
0.5308700736
 40
0.5967296109
 40
0.7303527491
 40
0.8652728604
 40
1.0
 40
1.0
 40
1.0
 40
1.0
 10
5.2977549901
 20
5.5337173926
 30
0.0
 10
5.2889319832
 20
5.5333551099
 30
0.0
 10
5.2705610416
 20
5.5324245815
 30
0.0
 10
5.2420649258
 20
5.5304468439
 30
0.0
 10
5.2117980985
 20
5.5277444664
 30
0.0
 10
5.18566428
 20
5.5248476101
 30
0.0
 10
5.1641752166
 20
5.522086302
 30
0.0
 10
5.1421299249
 20
5.5189982929
 30
0.0
 10
5.1143215623
 20
5.514625219
 30
0.0
 10
5.0809113189
 20
5.508613
 30
0.0
 10
5.0586674565
 20
5.5040883613
 30
0.0
 10
5.0475827242
 20
5.5016942114
 30
0.0
 11
5.2977549901
 21
5.5337173926
 31
0.0
 11
5.2712973156
 21
5.5323825658
 31
0.0
 11
5.2426775909
 21
5.5303975866
 31
0.0
 11
5.212289554
 21
5.5276818916
 31
0.0
 11
5.1805269425
 21
5.5241549181
 31
0.0
 11
5.164253162
 21
5.5220651762
 31
0.0
 11
5.1477831122
 21
5.5197590993
 31
0.0
 11
5.1144500307
 21
5.5145204128
 31
0.0
 11
5.0809193506
 21
5.5084838022
 31
0.0
 11
5.0475827242
 21
5.5016942114
 31
0.0
  0
SPLINE
  5
44B
100
AcDbEntity
  8
0
100
AcDbSpline
 62
9
  6
CONTINUOUS
 70
0
 71
3
 72
14
 73
10
 74
8
 42
0.0000001
 43
0.0000001
 44
0.0000000001
 12
-0.0366200691
 22
0.0102037779
 32
0.0
 13
-0.0380150832
 23
-0.0
 33
0.0
 40
0.0
 40
0.0
 40
0.0
 40
0.0
 40
0.276015026
 40
0.4078317234
 40
0.5353284383
 40
0.6583844464
 40
0.7768971905
 40
0.8907865207
 40
1.0
 40
1.0
 40
1.0
 40
1.0
 10
4.9120672936
 20
5.3374739014
 30
0.0
 10
4.9086980638
 20
5.3384127
 30
0.0
 10
4.9036846034
 20
5.3396801349
 30
0.0
 10
4.8970419142
 20
5.3410588934
 30
0.0
 10
4.8922691986
 20
5.3418991349
 30
0.0
 10
4.8876383559
 20
5.3425586848
 30
0.0
 10
4.8831582521
 20
5.3430346826
 30
0.0
 10
4.8788379852
 20
5.343324274
 30
0.0
 10
4.8760105743
 20
5.3433925863
 30
0.0
 10
4.8746266545
 20
5.3433925863
 30
0.0
 11
4.9120672936
 21
5.3374739014
 31
0.0
 11
4.9018903729
 21
5.3400288487
 31
0.0
 11
4.8969833959
 21
5.3410446861
 31
0.0
 11
4.8922095182
 21
5.3418822685
 31
0.0
 11
4.8875778225
 21
5.3425387229
 31
0.0
 11
4.8830973914
 21
5.343011176
 31
0.0
 11
4.8787773079
 21
5.3432967548
 31
0.0
 11
4.8746266545
 21
5.3433925863
 31
0.0
  0
SPLINE
  5
44C
100
AcDbEntity
  8
0
100
AcDbSpline
 62
9
  6
CONTINUOUS
 70
0
 71
3
 72
25
 73
21
 74
19
 42
0.0000001
 43
0.0000001
 44
0.0000000001
 12
-0.2253321168
 22
-0.0613229086
 32
0.0
 13
-0.0970280827
 23
-0.212416132
 33
0.0
 40
0.0
 40
0.0
 40
0.0
 40
0.0
 40
0.1064287742
 40
0.1617438333
 40
0.2184392951
 40
0.276518765
 40
0.3359926969
 40
0.3662616007
 40
0.3968872518
 40
0.427873806
 40
0.459225073
 40
0.4909361792
 40
0.522996734
 40
0.5881115197
 40
0.6544649182
 40
0.7219296709
 40
0.7903661982
 40
0.8596262697
 40
0.9295562433
 40
1.0
 40
1.0
 40
1.0
 40
1.0
 10
5.0384330893
 20
5.4994606322
 30
0.0
 10
5.030439149
 20
5.4972851248
 30
0.0
 10
5.0184997949
 20
5.4931462297
 30
0.0
 10
5.0030137142
 20
5.4861082753
 30
0.0
 10
4.9913113797
 20
5.4798951645
 30
0.0
 10
4.9797319738
 20
5.4728163919
 30
0.0
 10
4.9702853098
 20
5.4662330153
 30
0.0
 10
4.962842293
 20
5.460539605
 30
0.0
 10
4.957291996
 20
5.4560268822
 30
0.0
 10
4.9518138496
 20
5.4512969647
 30
0.0
 10
4.9464158374
 20
5.4463498652
 30
0.0
 10
4.9411024409
 20
5.4411912682
 30
0.0
 10
4.9341005468
 20
5.434004278
 30
0.0
 10
4.925591423
 20
5.424528058
 30
0.0
 10
4.9158427645
 20
5.4124883643
 30
0.0
 10
4.9065395046
 20
5.3997795688
 30
0.0
 10
4.8977179339
 20
5.386460043
 30
0.0
 10
4.8894140996
 20
5.3725877188
 30
0.0
 10
4.8816644028
 20
5.3582211137
 30
0.0
 10
4.8769049954
 20
5.348380383
 30
0.0
 10
4.8746266545
 20
5.3433925863
 30
0.0
 11
5.0384330893
 21
5.4994606322
 31
0.0
 11
5.0149314093
 21
5.4913739602
 31
0.0
 11
5.0031687606
 21
5.4860350404
 31
0.0
 11
4.9914723466
 21
5.4798310045
 31
0.0
 11
4.979897748
 21
5.472760807
 31
0.0
 11
4.9685005453
 21
5.4648234028
 31
0.0
 11
4.9628858362
 21
5.4605291715
 31
0.0
 11
4.9573363188
 21
5.4560177466
 31
0.0
 11
4.9518589406
 21
5.4512889973
 31
0.0
 11
4.9464604556
 21
5.4463433954
 31
0.0
 11
4.9411461203
 21
5.4411860719
 31
0.0
 11
4.9359204933
 21
5.43582433
 31
0.0
 11
4.9257535825
 21
5.4245168519
 31
0.0
 11
4.9159961599
 21
5.4124794839
 31
0.0
 11
4.9066846622
 21
5.3997707485
 31
0.0
 11
4.897855526
 21
5.3864491684
 31
0.0
 11
4.8895451882
 21
5.3725732663
 31
0.0
 11
4.8817900855
 21
5.3582015647
 31
0.0
 11
4.8746266545
 21
5.3433925863
 31
0.0
  0
SPLINE
  5
44D
100
AcDbEntity
  8
0
100
AcDbSpline
 62
9
  6
CONTINUOUS
 70
0
 71
3
 72
13
 73
9
 74
7
 42
0.0000001
 43
0.0000001
 44
0.0000000001
 12
-0.0471421776
 22
0.0010706372
 32
0.0
 13
-0.0471543335
 23
-0.0
 33
0.0
 40
0.0
 40
0.0
 40
0.0
 40
0.0
 40
0.1767626714
 40
0.3289958245
 40
0.4619486674
 40
0.5808698873
 40
0.7949593536
 40
1.0
 40
1.0
 40
1.0
 40
1.0
 10
4.8425701274
 20
4.9629464846
 30
0.0
 10
4.8397924683
 20
4.9630095675
 30
0.0
 10
4.8346224688
 20
4.9631209988
 30
0.0
 10
4.8273627736
 20
4.963257058
 30
0.0
 10
4.8210117534
 20
4.9633573671
 30
0.0
 10
4.8136883048
 20
4.9634527464
 30
0.0
 10
4.805231545
 20
4.963538019
 30
0.0
 10
4.7986435872
 20
4.9635606602
 30
0.0
 10
4.7954207355
 20
4.9635606602
 30
0.0
 11
4.8425701274
 21
4.9629464846
 31
0.0
 11
4.8342369157
 21
4.9631251123
 31
0.0
 11
4.827059711
 21
4.9632589735
 31
0.0
 11
4.8207911872
 21
4.9633577951
 31
0.0
 11
4.8151840182
 21
4.9634313038
 31
0.0
 11
4.8050892355
 21
4.9635280293
 31
0.0
 11
4.7954207355
 21
4.9635606602
 31
0.0
  0
SPLINE
  5
44E
100
AcDbEntity
  8
0
100
AcDbSpline
 62
9
  6
CONTINUOUS
 70
0
 71
3
 72
15
 73
11
 74
9
 42
0.0000001
 43
0.0000001
 44
0.0000000001
 12
-0.162397684
 22
-0.3555247811
 32
0.0
 13
0.0
 23
-0.3908591533
 33
0.0
 40
0.0
 40
0.0
 40
0.0
 40
0.0
 40
0.1197519177
 40
0.2415251265
 40
0.3650850999
 40
0.4901691267
 40
0.6164955804
 40
0.7437722371
 40
0.8717039542
 40
1.0
 40
1.0
 40
1.0
 40
1.0
 10
4.8746266545
 20
5.3433925863
 30
0.0
 10
4.8681441765
 20
5.3292009948
 30
0.0
 10
4.8559463936
 20
5.3001700421
 30
0.0
 10
4.8400744744
 20
5.2553054618
 30
0.0
 10
4.826508608
 20
5.2089659886
 30
0.0
 10
4.8152981637
 20
5.161392984
 30
0.0
 10
4.8064916081
 20
5.1128253368
 30
0.0
 10
4.8001380257
 20
5.0635021925
 30
0.0
 10
4.7962866313
 20
5.0136647987
 30
0.0
 10
4.7954207355
 20
4.9802755307
 30
0.0
 10
4.7954207355
 20
4.9635603027
 30
0.0
 11
4.8746266545
 21
5.3433925863
 31
0.0
 11
4.8564657967
 21
5.3002533078
 31
0.0
 11
4.8405662715
 21
5.2553912881
 31
0.0
 11
4.8269774295
 21
5.2090479326
 31
0.0
 11
4.8157486211
 21
5.1614646465
 31
0.0
 11
4.806929197
 21
5.1128828351
 31
0.0
 11
4.8005685076
 21
5.0635439038
 31
0.0
 11
4.7967159036
 21
5.0136892579
 31
0.0
 11
4.7954207355
 21
4.9635603027
 31
0.0
  0
SPLINE
  5
44F
100
AcDbEntity
  8
0
100
AcDbSpline
 62
9
  6
CONTINUOUS
 70
0
 71
3
 72
9
 73
5
 74
3
 42
0.0000001
 43
0.0000001
 44
0.0000000001
 12
-0.0084361391
 22
0.0
 32
0.0
 13
-0.0082979649
 23
-0.0015205986
 33
0.0
 40
0.0
 40
0.0
 40
0.0
 40
0.0
 40
0.5055298957
 40
1.0
 40
1.0
 40
1.0
 40
1.0
 10
5.0475827242
 20
5.5016942114
 30
0.0
 10
5.0461611507
 20
5.5016942114
 30
0.0
 10
5.0433475741
 20
5.5015716126
 30
0.0
 10
5.0405564668
 20
5.5011940473
 30
0.0
 10
5.0391887682
 20
5.5009434171
 30
0.0
 11
5.0475827242
 21
5.5016942114
 31
0.0
 11
5.0433221988
 21
5.5015050973
 31
0.0
 11
5.0391887682
 21
5.5009434171
 31
0.0
  0
SPLINE
  5
450
100
AcDbEntity
  8
0
100
AcDbSpline
 62
9
  6
CONTINUOUS
 70
0
 71
3
 72
14
 73
10
 74
8
 42
0.0000001
 43
0.0000001
 44
0.0000000001
 12
-0.0270417186
 22
0.0
 32
0.0
 13
-0.0230606041
 23
-0.01412314
 33
0.0
 40
0.0
 40
0.0
 40
0.0
 40
0.0
 40
0.1469211095
 40
0.2872605023
 40
0.4211079167
 40
0.5486010355
 40
0.6699376899
 40
0.7853905164
 40
1.0
 40
1.0
 40
1.0
 40
1.0
 10
4.8746266545
 20
5.3433925863
 30
0.0
 10
4.8733023214
 20
5.3433925863
 30
0.0
 10
4.8707124517
 20
5.3433326785
 30
0.0
 10
4.8669253658
 20
5.3430512318
 30
0.0
 10
4.8633329656
 20
5.3425830407
 30
0.0
 10
4.8599435634
 20
5.3419309453
 30
0.0
 10
4.8567642729
 20
5.3410972481
 30
0.0
 10
4.8529127344
 20
5.339780336
 30
0.0
 10
4.8502118308
 20
5.3384842213
 30
0.0
 10
4.848562156
 20
5.3374739014
 30
0.0
 11
4.8746266545
 21
5.3433925863
 31
0.0
 11
4.8706548111
 21
5.3432967548
 31
0.0
 11
4.8668705531
 21
5.343011176
 31
0.0
 11
4.8632820564
 21
5.3425387229
 31
0.0
 11
4.8598974971
 21
5.3418822685
 31
0.0
 11
4.8567250514
 21
5.3410446861
 31
0.0
 11
4.8537728953
 21
5.3400288487
 31
0.0
 11
4.848562156
 21
5.3374739014
 31
0.0
  0
SPLINE
  5
451
100
AcDbEntity
  8
0
100
AcDbSpline
 62
9
  6
CONTINUOUS
 70
0
 71
3
 72
17
 73
13
 74
11
 42
0.0000001
 43
0.0000001
 44
0.0000000001
 12
-0.1209755825
 22
-0.0909951067
 32
0.0
 13
-0.0647119438
 23
-0.1368486951
 33
0.0
 40
0.0
 40
0.0
 40
0.0
 40
0.0
 40
0.1157938615
 40
0.1748921542
 40
0.2347749864
 40
0.2954124813
 40
0.3567698992
 40
0.4814715714
 40
0.6085458804
 40
0.7376037154
 40
0.8682307857
 40
1.0
 40
1.0
 40
1.0
 40
1.0
 10
4.9409243598
 20
5.4556191257
 30
0.0
 10
4.9362549498
 20
5.4521069007
 30
0.0
 10
4.9293902729
 20
5.4465455539
 30
0.0
 10
4.9205915035
 20
5.4386108024
 30
0.0
 10
4.9140724078
 20
5.4323115164
 30
0.0
 10
4.9076861386
 20
5.4257183159
 30
0.0
 10
4.8993145021
 20
5.4165033659
 30
0.0
 10
4.8892398368
 20
5.4043177993
 30
0.0
 10
4.87787577
 20
5.388808994
 30
0.0
 10
4.8672356001
 20
5.3724371046
 30
0.0
 10
4.8573843565
 20
5.3553060849
 30
0.0
 10
4.8514045034
 20
5.3434847164
 30
0.0
 10
4.848562156
 20
5.3374739014
 30
0.0
 11
4.9409243598
 21
5.4556191257
 31
0.0
 11
4.9273008832
 21
5.444589488
 31
0.0
 11
4.9206556427
 21
5.4385999474
 31
0.0
 11
4.9141349405
 21
5.4323028615
 31
0.0
 11
4.9077469228
 21
5.42571118
 31
0.0
 11
4.9014997232
 21
5.4188378908
 31
0.0
 11
4.8894603136
 21
5.4042984406
 31
0.0
 11
4.878081782
 21
5.3887884137
 31
0.0
 11
4.8674291984
 21
5.372411713
 31
0.0
 11
4.8575676331
 21
5.3552722413
 31
0.0
 11
4.848562156
 21
5.3374739014
 31
0.0
  0
SPLINE
  5
452
100
AcDbEntity
  8
0
100
AcDbSpline
 62
9
  6
CONTINUOUS
 70
0
 71
3
 72
15
 73
11
 74
9
 42
0.0000001
 43
0.0000001
 44
0.0000000001
 12
-0.0288801534
 22
0.0
 32
0.0
 13
-0.0288094802
 23
-0.0020191848
 33
0.0
 40
0.0
 40
0.0
 40
0.0
 40
0.0
 40
0.1597617487
 40
0.3011532767
 40
0.4297259555
 40
0.5510312472
 40
0.6694531863
 40
0.7847110402
 40
0.8953670172
 40
1.0
 40
1.0
 40
1.0
 40
1.0
 10
4.7954207355
 20
4.9635606034
 30
0.0
 10
4.7938827542
 20
4.9635606034
 30
0.0
 10
4.7909836321
 20
4.9635561348
 30
0.0
 10
4.7868468364
 20
4.9635322504
 30
0.0
 10
4.7830803959
 20
4.9634916648
 30
0.0
 10
4.7795353232
 20
4.9634345397
 30
0.0
 10
4.7761187118
 20
4.9633630236
 30
0.0
 10
4.7728052219
 20
4.9632669845
 30
0.0
 10
4.7696257227
 20
4.9631366549
 30
0.0
 10
4.7675564884
 20
4.9630168524
 30
0.0
 10
4.7665516811
 20
4.9629464279
 30
0.0
 11
4.7954207355
 21
4.9635606034
 31
0.0
 11
4.790806799
 21
4.9635524092
 31
0.0
 11
4.7867234631
 21
4.9635279725
 31
0.0
 11
4.7830104849
 21
4.9634875121
 31
0.0
 11
4.7795076213
 21
4.9634312469
 31
0.0
 11
4.7760883676
 21
4.9633577382
 31
0.0
 11
4.7727611703
 21
4.9632589167
 31
0.0
 11
4.7695682135
 21
4.9631250555
 31
0.0
 11
4.7665516811
 21
4.9629464279
 31
0.0
  0
SPLINE
  5
453
100
AcDbEntity
  8
0
100
AcDbSpline
 62
9
  6
CONTINUOUS
 70
0
 71
3
 72
15
 73
11
 74
9
 42
0.0000001
 43
0.0000001
 44
0.0000000001
 12
-0.1651600325
 22
-0.3492699123
 32
0.0
 13
-0.0015378353
 23
-0.3863482148
 33
0.0
 40
0.0
 40
0.0
 40
0.0
 40
0.0
 40
0.1202169548
 40
0.2423069719
 40
0.3660392554
 40
0.4911579846
 40
0.6173915223
 40
0.7444607966
 40
0.87208716
 40
1.0
 40
1.0
 40
1.0
 40
1.0
 10
4.848562156
 20
5.3374739014
 30
0.0
 10
4.8419438107
 20
5.3234778463
 30
0.0
 10
4.8294707401
 20
5.2948498317
 30
0.0
 10
4.8131806723
 20
5.2505883741
 30
0.0
 10
4.7992078911
 20
5.2048806886
 30
0.0
 10
4.7876099989
 20
5.1579650408
 30
0.0
 10
4.778443657
 20
5.1100772262
 30
0.0
 10
4.7717661567
 20
5.0614532202
 30
0.0
 10
4.7676349435
 20
5.012331221
 30
0.0
 10
4.7666172472
 20
4.9794190941
 30
0.0
 10
4.7665516776
 20
4.9629461283
 30
0.0
 11
4.848562156
 21
5.3374739014
 31
0.0
 11
4.8299830375
 21
5.2949057814
 31
0.0
 11
4.8136682226
 21
5.2506474356
 31
0.0
 11
4.7996752466
 21
5.204937141
 31
0.0
 11
4.7880616445
 21
5.1580131744
 31
0.0
 11
4.7788849514
 21
5.1101138129
 31
0.0
 11
4.7722027025
 21
5.0614773334
 31
0.0
 11
4.7680724329
 21
5.0123420129
 31
0.0
 11
4.7665516776
 21
4.9629461283
 31
0.0
  0
SPLINE
  5
454
100
AcDbEntity
  8
0
100
AcDbSpline
 62
9
  6
CONTINUOUS
 70
0
 71
3
 72
15
 73
11
 74
9
 42
0.0000001
 43
0.0000001
 44
0.0000000001
 12
-0.0172303362
 22
-0.0105524751
 32
0.0
 13
-0.0087769668
 23
-0.0181990129
 33
0.0
 40
0.0
 40
0.0
 40
0.0
 40
0.0
 40
0.1249193015
 40
0.2488459578
 40
0.3722885936
 40
0.4957597854
 40
0.6197702598
 40
0.7448231719
 40
0.8714088086
 40
1.0
 40
1.0
 40
1.0
 40
1.0
 10
4.848562156
 20
5.3374739014
 30
0.0
 10
4.8478446889
 20
5.3370344988
 30
0.0
 10
4.8464459016
 20
5.3361082296
 30
0.0
 10
4.8444592785
 20
5.334575013
 30
0.0
 10
4.8425970384
 20
5.3329072706
 30
0.0
 10
4.8408614809
 20
5.3311073311
 30
0.0
 10
4.8392547076
 20
5.3291774498
 30
0.0
 10
4.8377788133
 20
5.327119882
 30
0.0
 10
4.8364359285
 20
5.3249370474
 30
0.0
 10
4.8356377519
 20
5.3234132709
 30
0.0
 10
4.8352615384
 20
5.3226331933
 30
0.0
 11
4.848562156
 21
5.3374739014
 31
0.0
 11
4.8464581846
 21
5.336079696
 31
0.0
 11
4.8444762256
 21
5.3345494995
 31
0.0
 11
4.8426183292
 21
5.3328854669
 31
0.0
 11
4.8408865454
 21
5.3310897534
 31
0.0
 11
4.8392829244
 21
5.3291645141
 31
0.0
 11
4.8378095161
 21
5.3271119042
 31
0.0
 11
4.8364683708
 21
5.3249340789
 31
0.0
 11
4.8352615384
 21
5.3226331933
 31
0.0
  0
SPLINE
  5
455
100
AcDbEntity
  8
0
100
AcDbSpline
 62
6
  6
CONTINUOUS
 70
0
 71
3
 72
25
 73
21
 74
19
 42
0.0000001
 43
0.0000001
 44
0.0000000001
 12
-0.0140196585
 22
-0.0009826198
 32
0.0
 13
-0.0006672314
 23
-0.0140382038
 33
0.0
 40
0.0
 40
0.0
 40
0.0
 40
0.0
 40
0.2261087819
 40
0.4227259754
 40
0.5099842355
 40
0.5898839632
 40
0.6624373056
 40
0.7276628261
 40
0.785588741
 40
0.836258448
 40
0.8797405608
 40
0.9161485232
 40
0.9317617463
 40
0.9456943535
 40
0.9580020042
 40
0.9687660377
 40
0.9781087096
 40
0.9862174153
 40
0.9933777727
 40
1.0
 40
1.0
 40
1.0
 40
1.0
 10
4.7665516702
 20
4.962946935
 30
0.0
 10
4.7654950143
 20
4.9628728754
 30
0.0
 10
4.7635203829
 20
4.9627216011
 30
0.0
 10
4.7611416356
 20
4.9624971959
 30
0.0
 10
4.759448203
 20
4.9623057669
 30
0.0
 10
4.7583341968
 20
4.9621637931
 30
0.0
 10
4.7573248929
 20
4.9620177639
 30
0.0
 10
4.7564203464
 20
4.9618677818
 30
0.0
 10
4.7556205989
 20
4.961713976
 30
0.0
 10
4.7549255925
 20
4.9615565304
 30
0.0
 10
4.7543353081
 20
4.9613955724
 30
0.0
 10
4.7539109282
 20
4.9612524015
 30
0.0
 10
4.75362559
 20
4.9611335618
 30
0.0
 10
4.7534489649
 20
4.9610481414
 30
0.0
 10
4.7532984332
 20
4.9609618045
 30
0.0
 10
4.7531738915
 20
4.9608744534
 30
0.0
 10
4.7530752148
 20
4.9607858935
 30
0.0
 10
4.7530023829
 20
4.9606956611
 30
0.0
 10
4.7529558468
 20
4.9606032152
 30
0.0
 10
4.7529430458
 20
4.9605388835
 30
0.0
 10
4.752941573
 20
4.9605078954
 30
0.0
 11
4.7665516702
 21
4.962946935
 31
0.0
 11
4.7633834484
 21
4.9627011097
 31
0.0
 11
4.7606327985
 21
4.9624373359
 31
0.0
 11
4.7594143068
 21
4.9622988865
 31
0.0
 11
4.7583005004
 21
4.9621561516
 31
0.0
 11
4.7572914769
 21
4.9620091986
 31
0.0
 11
4.7563873337
 21
4.9618580946
 31
0.0
 11
4.7555881682
 21
4.9617029068
 31
0.0
 11
4.7548940779
 21
4.9615437026
 31
0.0
 11
4.7543051603
 21
4.9613805491
 31
0.0
 11
4.7538215128
 21
4.9612135136
 31
0.0
 11
4.7536191958
 21
4.961128561
 31
0.0
 11
4.7534432328
 21
4.9610426632
 31
0.0
 11
4.7532936361
 21
4.9609558285
 31
0.0
 11
4.7531704179
 21
4.9608680652
 31
0.0
 11
4.7530735903
 21
4.9607793819
 31
0.0
 11
4.7530031655
 21
4.9606897869
 31
0.0
 11
4.7529591556
 21
4.9605992886
 31
0.0
 11
4.752941573
 21
4.9605078954
 31
0.0
  0
SPLINE
  5
456
100
AcDbEntity
  8
0
100
AcDbSpline
 62
9
  6
CONTINUOUS
 70
0
 71
3
 72
32
 73
28
 74
26
 42
0.0000001
 43
0.0000001
 44
0.0000000001
 12
0.0
 22
-0.1871656005
 32
0.0
 13
-0.1751900065
 23
0.0658743016
 33
0.0
 40
0.0
 40
0.0
 40
0.0
 40
0.0
 40
0.0344607993
 40
0.0684786136
 40
0.1021212897
 40
0.1354469185
 40
0.1685040748
 40
0.2013322228
 40
0.2663901653
 40
0.3308065049
 40
0.3946363617
 40
0.4578613218
 40
0.5204189098
 40
0.5822333202
 40
0.6432477121
 40
0.7034586549
 40
0.7333002094
 40
0.7629834809
 40
0.7925398415
 40
0.8220110652
 40
0.8367332085
 40
0.8514550004
 40
0.880923617
 40
0.9104752799
 40
0.940152245
 40
0.9699863178
 40
1.0
 40
1.0
 40
1.0
 40
1.0
 10
5.3968073866
 20
5.3757633568
 30
0.0
 10
5.3968073866
 20
5.373613398
 30
0.0
 10
5.3966715998
 20
5.3693398487
 30
0.0
 10
5.3960657186
 20
5.3629935006
 30
0.0
 10
5.3950749473
 20
5.3567673353
 30
0.0
 10
5.3937151666
 20
5.3506729062
 30
0.0
 10
5.392002081
 20
5.3447210046
 30
0.0
 10
5.3892771634
 20
5.3370152977
 30
0.0
 10
5.3850679834
 20
5.3277787678
 30
0.0
 10
5.3788443414
 20
5.3174202762
 30
0.0
 10
5.3715881279
 20
5.3079010011
 30
0.0
 10
5.3634247267
 20
5.2993077606
 30
0.0
 10
5.354478027
 20
5.2917265261
 30
0.0
 10
5.3448705312
 20
5.2852442418
 30
0.0
 10
5.3347253517
 20
5.2799491727
 30
0.0
 10
5.3258927806
 20
5.2765891675
 30
0.0
 10
5.3186895151
 20
5.2745945113
 30
0.0
 10
5.3132455687
 20
5.2734559658
 30
0.0
 10
5.3077613347
 20
5.2726822645
 30
0.0
 10
5.3031681238
 20
5.2723508367
 30
0.0
 10
5.2994925097
 20
5.2722796441
 30
0.0
 10
5.2958168519
 20
5.2723393771
 30
0.0
 10
5.291223127
 20
5.2726568169
 30
0.0
 10
5.2857374412
 20
5.2734142386
 30
0.0
 10
5.2802914792
 20
5.2745369569
 30
0.0
 10
5.274901223
 20
5.2760135616
 30
0.0
 10
5.2713657291
 20
5.2772227863
 30
0.0
 10
5.2696130301
 20
5.2778818298
 30
0.0
 11
5.3968073866
 21
5.3757633568
 31
0.0
 11
5.3966022202
 21
5.3693167445
 31
0.0
 11
5.3959971665
 21
5.3629785942
 31
0.0
 11
5.395007894
 21
5.3567600396
 31
0.0
 11
5.3936500709
 21
5.3506722144
 31
0.0
 11
5.3919393656
 21
5.3447262521
 31
0.0
 11
5.3898914465
 21
5.3389332865
 31
0.0
 11
5.3848466402
 21
5.32785088
 31
0.0
 11
5.3786409989
 21
5.3175140643
 31
0.0
 11
5.3713998694
 21
5.3080119086
 31
0.0
 11
5.3632485985
 21
5.2994334824
 31
0.0
 11
5.3543125332
 21
5.291867855
 31
0.0
 11
5.3447170202
 21
5.2854040958
 31
0.0
 11
5.3345874064
 21
5.2801312741
 31
0.0
 11
5.3240490386
 21
5.2761384593
 31
0.0
 11
5.3186657429
 21
5.2746498886
 31
0.0
 11
5.3132272637
 21
5.2735147207
 31
0.0
 11
5.3077492695
 21
5.2727440892
 31
0.0
 11
5.3022474286
 21
5.2723491277
 31
0.0
 11
5.299492462
 21
5.2722960025
 31
0.0
 11
5.2967374093
 21
5.2723405646
 31
0.0
 11
5.29123488
 21
5.2727187666
 31
0.0
 11
5.2857555091
 21
5.2734731277
 31
0.0
 11
5.2803149649
 21
5.2745925145
 31
0.0
 11
5.2749289158
 21
5.276065793
 31
0.0
 11
5.2696130301
 21
5.2778818298
 31
0.0
  0
SPLINE
  5
457
100
AcDbEntity
  8
0
100
AcDbSpline
 62
9
  6
CONTINUOUS
 70
0
 71
3
 72
15
 73
11
 74
9
 42
0.0000001
 43
0.0000001
 44
0.0000000001
 12
0.0071503822
 22
-0.032427882
 32
0.0
 13
-0.0155158865
 23
-0.029359032
 33
0.0
 40
0.0
 40
0.0
 40
0.0
 40
0.0
 40
0.1535125678
 40
0.29629535
 40
0.4297686526
 40
0.5552820486
 40
0.6740795247
 40
0.7872477985
 40
0.8956676577
 40
1.0
 40
1.0
 40
1.0
 40
1.0
 10
5.2168870261
 20
5.2487711158
 30
0.0
 10
5.2172529173
 20
5.2471117533
 30
0.0
 10
5.2178392423
 20
5.2438806569
 30
0.0
 10
5.2182962789
 20
5.2391399416
 30
0.0
 10
5.2183324421
 20
5.2346868862
 30
0.0
 10
5.2179841426
 20
5.2305137471
 30
0.0
 10
5.2172877347
 20
5.2266127401
 30
0.0
 10
5.2162827635
 20
5.2229759862
 30
0.0
 10
5.2150113487
 20
5.2195950681
 30
0.0
 10
5.213995346
 20
5.2174670682
 30
0.0
 10
5.2134557431
 20
5.216446036
 30
0.0
 11
5.2168870261
 21
5.2487711158
 31
0.0
 11
5.2177876674
 21
5.2437536377
 31
0.0
 11
5.2182343421
 21
5.239033357
 31
0.0
 11
5.2182635478
 21
5.2346012241
 31
0.0
 11
5.2179117825
 21
5.2304481892
 31
0.0
 11
5.2172156641
 21
5.2265652026
 31
0.0
 11
5.2162139211
 21
5.2229432147
 31
0.0
 11
5.2149470846
 21
5.2195731757
 31
0.0
 11
5.2134557431
 21
5.216446036
 31
0.0
  0
SPLINE
  5
458
100
AcDbEntity
  8
0
100
AcDbSpline
 62
9
  6
CONTINUOUS
 70
0
 71
3
 72
22
 73
18
 74
16
 42
0.0000001
 43
0.0000001
 44
0.0000000001
 12
0.0214787266
 22
-0.0219713747
 32
0.0
 13
-0.0052266889
 23
-0.0302780238
 33
0.0
 40
0.0
 40
0.0
 40
0.0
 40
0.0
 40
0.1021964512
 40
0.197560772
 40
0.2863958959
 40
0.3690110543
 40
0.445722687
 40
0.5168554316
 40
0.5827431582
 40
0.643732514
 40
0.700187593
 40
0.7524812072
 40
0.8009919018
 40
0.8461017105
 40
0.9275707808
 40
0.9647430804
 40
1.0
 40
1.0
 40
1.0
 40
1.0
 10
5.1535710889
 20
5.1077122544
 30
0.0
 10
5.1543027721
 20
5.1069637889
 30
0.0
 10
5.1556985409
 20
5.105498434
 30
0.0
 10
5.1576586608
 20
5.1033156616
 30
0.0
 10
5.1594184405
 20
5.1012243281
 30
0.0
 10
5.1609854757
 20
5.0992224817
 30
0.0
 10
5.1623673795
 20
5.0973081396
 30
0.0
 10
5.1635717505
 20
5.0954793191
 30
0.0
 10
5.1646061854
 20
5.0937339976
 30
0.0
 10
5.1654783077
 20
5.0920700942
 30
0.0
 10
5.1661963999
 20
5.0904857347
 30
0.0
 10
5.1667687713
 20
5.0889790591
 30
0.0
 10
5.1672037413
 20
5.0875478384
 30
0.0
 10
5.1675982578
 20
5.085797506
 30
0.0
 10
5.1677790363
 20
5.0841207421
 30
0.0
 10
5.1677350236
 20
5.0825433955
 30
0.0
 10
5.1676452643
 20
5.0818056394
 30
0.0
 10
5.1675838386
 20
5.0814498028
 30
0.0
 11
5.1535710889
 21
5.1077122544
 31
0.0
 11
5.1557351311
 21
5.1054369588
 31
0.0
 11
5.1576910744
 21
5.1032552036
 31
0.0
 11
5.1594465327
 21
5.1011650555
 31
0.0
 11
5.1610091198
 21
5.0991645814
 31
0.0
 11
5.1623864496
 21
5.0972518482
 31
0.0
 11
5.1635861361
 21
5.0954249227
 31
0.0
 11
5.1646157931
 21
5.0936818718
 31
0.0
 11
5.1654832031
 21
5.0920207623
 31
0.0
 11
5.1661966867
 21
5.0904396612
 31
0.0
 11
5.1667646716
 21
5.0889366353
 31
0.0
 11
5.1671955857
 21
5.0875097514
 31
0.0
 11
5.1674978568
 21
5.0861570764
 31
0.0
 11
5.1677501795
 21
5.0836666206
 31
0.0
 11
5.1677162894
 21
5.0825249735
 31
0.0
 11
5.1675838386
 21
5.0814498028
 31
0.0
  0
SPLINE
  5
459
100
AcDbEntity
  8
0
100
AcDbSpline
 62
6
  6
CONTINUOUS
 70
0
 71
3
 72
30
 73
26
 74
24
 42
0.0000001
 43
0.0000001
 44
0.0000000001
 12
0.0022566018
 22
0.0353255599
 32
0.0
 13
-0.0353245201
 23
0.0022728218
 33
0.0
 40
0.0
 40
0.0
 40
0.0
 40
0.0
 40
0.0015277616
 40
0.0031615449
 40
0.0050044942
 40
0.0071307653
 40
0.009590095
 40
0.0124156326
 40
0.0192465004
 40
0.0277438627
 40
0.0379747562
 40
0.0499845689
 40
0.0638076206
 40
0.0794720568
 40
0.0970023292
 40
0.1164205532
 40
0.1377482023
 40
0.1862257286
 40
0.2426224246
 40
0.3071188434
 40
0.379891646
 40
0.4611150618
 40
0.5509617242
 40
0.7572093912
 40
1.0
 40
1.0
 40
1.0
 40
1.0
 10
5.153125202
 20
4.9475348794
 30
0.0
 10
5.1531263512
 20
4.9475528691
 30
0.0
 10
5.1531231482
 20
4.9475906539
 30
0.0
 10
5.1531018531
 20
4.9476463784
 30
0.0
 10
5.1530647994
 20
4.947701646
 30
0.0
 10
5.1530122937
 20
4.9477567542
 30
0.0
 10
5.152944302
 20
4.947812022
 30
0.0
 10
5.152825056
 20
4.9478911664
 30
0.0
 10
5.1526336815
 20
4.9479886741
 30
0.0
 10
5.1523537185
 20
4.9481012886
 30
0.0
 10
5.1520093528
 20
4.948215689
 30
0.0
 10
5.1515998907
 20
4.9483318323
 30
0.0
 10
5.1511245587
 20
4.9484496148
 30
0.0
 10
5.1505827301
 20
4.9485689742
 30
0.0
 10
5.1499737853
 20
4.9486898527
 30
0.0
 10
5.1492971218
 20
4.9488122196
 30
0.0
 10
5.1482585672
 20
4.9489847766
 30
0.0
 10
5.146785215
 20
4.9492014782
 30
0.0
 10
5.1448031722
 20
4.9494574638
 30
0.0
 10
5.1425330196
 20
4.9497189315
 30
0.0
 10
5.1399687813
 20
4.9499856913
 30
0.0
 10
5.1371044723
 20
4.9502575425
 30
0.0
 10
5.1326692518
 20
4.9506445981
 30
0.0
 10
5.1263295959
 20
4.9511344466
 30
0.0
 10
5.1210433844
 20
4.9514928592
 30
0.0
 10
5.1181845638
 20
4.9516767991
 30
0.0
 11
5.153125202
 21
4.9475348794
 31
0.0
 11
5.1531208621
 21
4.947588784
 31
0.0
 11
5.1531009328
 21
4.9476430736
 31
0.0
 11
5.153065343
 21
4.9476977462
 31
0.0
 11
5.1530140215
 21
4.9477527998
 31
0.0
 11
5.1529468972
 21
4.9478082324
 31
0.0
 11
5.152863899
 21
4.9478640421
 31
0.0
 11
5.1526499962
 21
4.9479767849
 31
0.0
 11
5.1523717441
 21
4.9480910125
 31
0.0
 11
5.1520285737
 21
4.9482067091
 31
0.0
 11
5.1516199157
 21
4.9483238589
 31
0.0
 11
5.1511452013
 21
4.9484424463
 31
0.0
 11
5.1506038612
 21
4.9485624554
 31
0.0
 11
5.1499953265
 21
4.9486838705
 31
0.0
 11
5.1493190281
 21
4.948806676
 31
0.0
 11
5.1485743643
 21
4.9489308558
 31
0.0
 11
5.1468770442
 21
4.9491832705
 31
0.0
 11
5.1448974426
 21
4.9494409784
 31
0.0
 11
5.14262961
 21
4.9497038427
 31
0.0
 11
5.1400675971
 21
4.9499717269
 31
0.0
 11
5.1372054544
 21
4.9502444944
 31
0.0
 11
5.1340372325
 21
4.9505220085
 31
0.0
 11
5.1267587532
 21
4.9510907303
 31
0.0
 11
5.1181845638
 21
4.9516767991
 31
0.0
  0
SPLINE
  5
45A
100
AcDbEntity
  8
0
100
AcDbSpline
 62
9
  6
CONTINUOUS
 70
0
 71
3
 72
19
 73
15
 74
13
 42
0.0000001
 43
0.0000001
 44
0.0000000001
 12
-0.2449246141
 22
0.0086404227
 32
0.0
 13
-0.2450357443
 23
0.0044952756
 33
0.0
 40
0.0
 40
0.0
 40
0.0
 40
0.0
 40
0.0483271048
 40
0.1026242871
 40
0.2271890032
 40
0.3676283076
 40
0.4412015053
 40
0.5154924577
 40
0.6612487791
 40
0.7303373285
 40
0.795546788
 40
0.8559137204
 40
0.9105602271
 40
1.0
 40
1.0
 40
1.0
 40
1.0
 10
5.1034751059
 20
4.8807691234
 30
0.0
 10
5.0995296067
 20
4.8809083122
 30
0.0
 10
5.091151287
 20
4.8812062887
 30
0.0
 10
5.0726034358
 20
4.8818665027
 30
0.0
 10
5.0465350582
 20
4.8827823393
 30
0.0
 10
5.018891506
 20
4.8837120861
 30
0.0
 10
4.9953511341
 20
4.8844580379
 30
0.0
 10
4.9713755631
 20
4.8851834925
 30
0.0
 10
4.9477647037
 20
4.8858484561
 30
0.0
 10
4.9248939805
 20
4.8864370887
 30
0.0
 10
4.9089960295
 20
4.8868231209
 30
0.0
 10
4.8942770418
 20
4.8871595941
 30
0.0
 10
4.8775786175
 20
4.8875176052
 30
0.0
 10
4.8658101289
 20
4.8877487161
 30
0.0
 10
4.8585048151
 20
4.8878827349
 30
0.0
 11
5.1034751059
 21
4.8807691234
 31
0.0
 11
5.0916386904
 21
4.8811890098
 31
0.0
 11
5.0783400987
 21
4.881661682
 31
0.0
 11
5.0478308412
 21
4.8827296513
 31
0.0
 11
5.0134316667
 21
4.8838810815
 31
0.0
 11
4.9954096079
 21
4.88445191
 31
0.0
 11
4.9772109371
 21
4.8850026352
 31
0.0
 11
4.9415034907
 21
4.8860052018
 31
0.0
 11
4.9245770878
 21
4.8864410198
 31
0.0
 11
4.9086004559
 21
4.8868287933
 31
0.0
 11
4.8938097679
 21
4.8871666012
 31
0.0
 11
4.8804202435
 21
4.8874536314
 31
0.0
 11
4.8585048151
 21
4.8878827349
 31
0.0
  0
SPLINE
  5
45B
100
AcDbEntity
  8
0
100
AcDbSpline
 62
9
  6
CONTINUOUS
 70
0
 71
3
 72
11
 73
7
 74
5
 42
0.0000001
 43
0.0000001
 44
0.0000000001
 12
0.0146699076
 22
-0.0753253328
 32
0.0
 13
0.0175813934
 23
-0.0746994415
 33
0.0
 40
0.0
 40
0.0
 40
0.0
 40
0.0
 40
0.2532897066
 40
0.5053988597
 40
0.7548055163
 40
1.0
 40
1.0
 40
1.0
 40
1.0
 10
4.8425701179
 20
4.9629461283
 30
0.0
 10
4.8438086968
 20
4.9565864178
 30
0.0
 10
4.84632019
 20
4.9439043927
 30
0.0
 10
4.8502192675
 20
4.9249938716
 30
0.0
 10
4.8542542173
 20
4.9063236042
 30
0.0
 10
4.8570678615
 20
4.8939880319
 30
0.0
 10
4.8585048151
 20
4.8878827349
 30
0.0
 11
4.8425701179
 21
4.9629461283
 31
0.0
 11
4.8463509804
 21
4.9438797959
 31
0.0
 11
4.8502633857
 21
4.924932519
 31
0.0
 11
4.8543128314
 21
4.9062261985
 31
0.0
 11
4.8585048151
 21
4.8878827349
 31
0.0
  0
SPLINE
  5
45C
100
AcDbEntity
  8
0
100
AcDbSpline
 62
9
  6
CONTINUOUS
 70
0
 71
3
 72
12
 73
8
 74
6
 42
0.0000001
 43
0.0000001
 44
0.0000000001
 12
-0.0549249042
 22
0.0010076186
 32
0.0
 13
-0.054934146
 23
0.0
 33
0.0
 40
0.0
 40
0.0
 40
0.0
 40
0.0
 40
0.3104350958
 40
0.4434196994
 40
0.5658541993
 40
0.7901166503
 40
1.0
 40
1.0
 40
1.0
 40
1.0
 10
4.8585048151
 20
4.8878827349
 30
0.0
 10
4.8528212758
 20
4.8879870017
 30
0.0
 10
4.8447027733
 20
4.888123576
 30
0.0
 10
4.834342192
 20
4.8882672836
 30
0.0
 10
4.8255592001
 20
4.8883734791
 30
0.0
 10
4.8153679285
 20
4.8884752293
 30
0.0
 10
4.807418106
 20
4.8885079764
 30
0.0
 10
4.8035748518
 20
4.8885079764
 30
0.0
 11
4.8585048151
 21
4.8878827349
 31
0.0
 11
4.841453689
 21
4.8881664872
 31
0.0
 11
4.8341489947
 21
4.8882677073
 31
0.0
 11
4.8274236545
 21
4.8883492678
 31
0.0
 11
4.8151045358
 21
4.888465418
 31
0.0
 11
4.8035748518
 21
4.8885079764
 31
0.0
  0
SPLINE
  5
45D
100
AcDbEntity
  8
0
100
AcDbSpline
 62
9
  6
CONTINUOUS
 70
0
 71
3
 72
34
 73
30
 74
28
 42
0.0000001
 43
0.0000001
 44
0.0000000001
 12
0.0109191746
 22
0.0268343472
 32
0.0
 13
-0.0289528464
 23
0.0010213952
 33
0.0
 40
0.0
 40
0.0
 40
0.0
 40
0.0
 40
0.0003057792
 40
0.0006104006
 40
0.0013589178
 40
0.0024435571
 40
0.0039312391
 40
0.0058484016
 40
0.0082081417
 40
0.0110182645
 40
0.0142841164
 40
0.0180097595
 40
0.022198523
 40
0.0319764796
 40
0.0436383557
 40
0.0572019164
 40
0.0726837387
 40
0.0900997208
 40
0.1094653874
 40
0.1307977904
 40
0.1794400267
 40
0.2361810442
 40
0.3011743732
 40
0.3745729122
 40
0.4565291696
 40
0.5471954
 40
0.6467236853
 40
0.7552659867
 40
1.0
 40
1.0
 40
1.0
 40
1.0
 10
5.1323558785
 20
4.8791677379
 30
0.0
 10
5.1323569914
 20
4.879170473
 30
0.0
 10
5.1323583581
 20
4.8791763731
 30
0.0
 10
5.1323560011
 20
4.8791896142
 30
0.0
 10
5.1323419313
 20
4.8792060618
 30
0.0
 10
5.1323147831
 20
4.8792231229
 30
0.0
 10
5.1322749939
 20
4.879240746
 30
0.0
 10
5.1322222421
 20
4.879258582
 30
0.0
 10
5.1321562338
 20
4.8792767892
 30
0.0
 10
5.1320768814
 20
4.8792952684
 30
0.0
 10
5.1319840932
 20
4.879314024
 30
0.0
 10
5.1318778065
 20
4.8793330375
 30
0.0
 10
5.1317091087
 20
4.8793601417
 30
0.0
 10
5.1314639176
 20
4.8793940224
 30
0.0
 10
5.131128246
 20
4.8794339494
 30
0.0
 10
5.1307372659
 20
4.8794748976
 30
0.0
 10
5.1302905513
 20
4.8795168638
 30
0.0
 10
5.1297876729
 20
4.8795598315
 30
0.0
 10
5.1292281903
 20
4.8796038059
 30
0.0
 10
5.1283677171
 20
4.879666563
 30
0.0
 10
5.1271466404
 20
4.8797466845
 30
0.0
 10
5.1255041536
 20
4.8798433132
 30
0.0
 10
5.123622458
 20
4.8799441595
 30
0.0
 10
5.1214971603
 20
4.8800492833
 30
0.0
 10
5.1191238657
 20
4.8801587316
 30
0.0
 10
5.1164981824
 20
4.8802725674
 30
0.0
 10
5.1136157192
 20
4.8803908605
 30
0.0
 10
5.1092463373
 20
4.880561547
 30
0.0
 10
5.1058370213
 20
4.8806858
 30
0.0
 10
5.1034751059
 20
4.8807691234
 30
0.0
 11
5.1323558785
 21
4.8791677379
 31
0.0
 11
5.1323577521
 21
4.8791763962
 31
0.0
 11
5.1323563439
 21
4.8791851083
 31
0.0
 11
5.1323436564
 21
4.8792026945
 31
0.0
 11
5.1323177635
 21
4.8792204979
 31
0.0
 11
5.1322786129
 21
4.8792385197
 31
0.0
 11
5.1322261521
 21
4.8792567615
 31
0.0
 11
5.1321603288
 21
4.8792752244
 31
0.0
 11
5.1320810905
 21
4.87929391
 31
0.0
 11
5.1319883848
 21
4.8793128194
 31
0.0
 11
5.1318821593
 21
4.8793319541
 31
0.0
 11
5.1317623617
 21
4.8793513154
 31
0.0
 11
5.1314818405
 21
4.8793907233
 31
0.0
 11
5.1311464017
 21
4.8794310537
 31
0.0
 11
5.1307556263
 21
4.8794723177
 31
0.0
 11
5.1303090951
 21
4.8795145258
 31
0.0
 11
5.1298063888
 21
4.8795576889
 31
0.0
 11
5.129247087
 21
4.8796018179
 31
0.0
 11
5.1286307172
 21
4.879646923
 31
0.0
 11
5.1272245938
 21
4.879740101
 31
0.0
 11
5.1255836341
 21
4.8798373016
 31
0.0
 11
5.1237034487
 21
4.879938603
 31
0.0
 11
5.1215796479
 21
4.8800440837
 31
0.0
 11
5.1192078422
 21
4.8801538221
 31
0.0
 11
5.116583642
 21
4.8802678965
 31
0.0
 11
5.1137026579
 21
4.8803863855
 31
0.0
 11
5.1105605002
 21
4.8805093673
 31
0.0
 11
5.1034751059
 21
4.8807691234
 31
0.0
  0
SPLINE
  5
45E
100
AcDbEntity
  8
0
100
AcDbSpline
 62
9
  6
CONTINUOUS
 70
0
 71
3
 72
11
 73
7
 74
5
 42
0.0000001
 43
0.0000001
 44
0.0000000001
 12
0.0
 22
-0.0756344071
 32
0.0
 13
0.0164301359
 23
-0.0738282749
 33
0.0
 40
0.0
 40
0.0
 40
0.0
 40
0.0
 40
0.2518047309
 40
0.5028810236
 40
0.7525135779
 40
1.0
 40
1.0
 40
1.0
 40
1.0
 10
4.7954207355
 20
4.9635603027
 30
0.0
 10
4.7954207355
 20
4.9572119356
 30
0.0
 10
4.7957645914
 20
4.9445309484
 30
0.0
 10
4.7973009752
 20
4.9256123616
 30
0.0
 10
4.7998457067
 20
4.906912616
 30
0.0
 10
4.8022194399
 20
4.8945984749
 30
0.0
 10
4.8035748518
 20
4.8885079764
 30
0.0
 11
4.7954207355
 21
4.9635603027
 31
0.0
 11
4.7959362996
 21
4.9445221808
 31
0.0
 11
4.7974750829
 21
4.9255946217
 31
0.0
 11
4.8000252215
 21
4.9068868215
 31
0.0
 11
4.8035748518
 21
4.8885079764
 31
0.0
  0
SPLINE
  5
45F
100
AcDbEntity
  8
0
100
AcDbSpline
 62
9
  6
CONTINUOUS
 70
0
 71
3
 72
14
 73
10
 74
8
 42
0.0000001
 43
0.0000001
 44
0.0000000001
 12
-0.0323853681
 22
0.0
 32
0.0
 13
-0.0323244998
 23
-0.001984635
 33
0.0
 40
0.0
 40
0.0
 40
0.0
 40
0.0
 40
0.3149695262
 40
0.4500755024
 40
0.5752627879
 40
0.6934706543
 40
0.8043984743
 40
0.9069405101
 40
1.0
 40
1.0
 40
1.0
 40
1.0
 10
4.8035748518
 20
4.8885079764
 30
0.0
 10
4.8001747171
 20
4.8885079764
 30
0.0
 10
4.7953160364
 20
4.8884908264
 30
0.0
 10
4.7891063792
 20
4.8884204813
 30
0.0
 10
4.7850209446
 20
4.8883536494
 30
0.0
 10
4.7811968031
 20
4.8882737568
 30
0.0
 10
4.7776176213
 20
4.8881749953
 30
0.0
 10
4.774310838
 20
4.8880517566
 30
0.0
 10
4.7722019099
 20
4.887944298
 30
0.0
 10
4.7711992094
 20
4.8878827349
 30
0.0
 11
4.8035748518
 21
4.8885079764
 31
0.0
 11
4.7933745365
 21
4.888465418
 31
0.0
 11
4.788999365
 21
4.8884154615
 31
0.0
 11
4.7849456691
 21
4.8883492678
 31
0.0
 11
4.7811183327
 21
4.8882677073
 31
0.0
 11
4.7775273207
 21
4.8881664872
 31
0.0
 11
4.7742088679
 21
4.8880400242
 31
0.0
 11
4.7711992094
 21
4.8878827349
 31
0.0
  0
SPLINE
  5
460
100
AcDbEntity
  8
0
100
AcDbSpline
 62
9
  6
CONTINUOUS
 70
0
 71
3
 72
12
 73
8
 74
6
 42
0.0000001
 43
0.0000001
 44
0.0000000001
 12
-0.0062644182
 22
-0.0752033415
 32
0.0
 13
0.0158178123
 23
-0.073787413
 33
0.0
 40
0.0
 40
0.0
 40
0.0
 40
0.0
 40
0.2529344546
 40
0.3787748564
 40
0.5041351959
 40
0.7532312562
 40
1.0
 40
1.0
 40
1.0
 40
1.0
 10
4.7665516776
 20
4.9629461283
 30
0.0
 10
4.7660235152
 20
4.9566056229
 30
0.0
 10
4.7655746395
 20
4.9470773022
 30
0.0
 10
4.7656672618
 20
4.934394343
 30
0.0
 10
4.7662163448
 20
4.9218189886
 30
0.0
 10
4.767751655
 20
4.9062533786
 30
0.0
 10
4.7698980955
 20
4.8939522107
 30
0.0
 10
4.7711992094
 20
4.8878827349
 30
0.0
 11
4.7665516776
 21
4.9629461283
 31
0.0
 11
4.7656552165
 21
4.9438797959
 31
0.0
 11
4.7657249557
 21
4.9343836567
 31
0.0
 11
4.7661382034
 21
4.924932519
 31
0.0
 11
4.7679898103
 21
4.9062261985
 31
0.0
 11
4.7711992094
 21
4.8878827349
 31
0.0
  0
LINE
  5
461
100
AcDbEntity
  8
0
100
AcDbLine
 62
9
  6
CONTINUOUS
 10
5.086288251
 20
4.8036580342
 11
5.0636489081
 21
4.8042808841
  0
LINE
  5
462
100
AcDbEntity
  8
0
100
AcDbLine
 62
9
  6
CONTINUOUS
 10
5.0888620183
 20
4.8067111009
 11
5.06590043
 21
4.8073224462
  0
SPLINE
  5
463
100
AcDbEntity
  8
0
100
AcDbSpline
 62
9
  6
CONTINUOUS
 70
0
 71
3
 72
25
 73
21
 74
19
 42
0.0000001
 43
0.0000001
 44
0.0000000001
 12
-0.0113389235
 22
-0.0006961786
 32
0.0
 13
0.0027427001
 23
-0.0110242209
 33
0.0
 40
0.0
 40
0.0
 40
0.0
 40
0.0
 40
0.1732302608
 40
0.3477417371
 40
0.4329756324
 40
0.515530588
 40
0.594412736
 40
0.6686335461
 40
0.7372128396
 40
0.7992059898
 40
0.8537991179
 40
0.9002525822
 40
0.9202212767
 40
0.9379242652
 40
0.9533162014
 40
0.9663888683
 40
0.9772059359
 40
0.9859800637
 40
0.9932340683
 40
1.0
 40
1.0
 40
1.0
 40
1.0
 10
4.7711992094
 20
4.8878827349
 30
0.0
 10
4.7705444612
 20
4.8878425352
 30
0.0
 10
4.769230446
 20
4.8877564425
 30
0.0
 10
4.7675955722
 20
4.8876317045
 30
0.0
 10
4.7663043138
 20
4.8875183684
 30
0.0
 10
4.7653745804
 20
4.8874281591
 30
0.0
 10
4.7644873692
 20
4.8873320459
 30
0.0
 10
4.763654103
 20
4.8872299945
 30
0.0
 10
4.7628861061
 20
4.8871220048
 30
0.0
 10
4.7621941559
 20
4.8870080319
 30
0.0
 10
4.7615883722
 20
4.8868883233
 30
0.0
 10
4.7611429095
 20
4.8867795409
 30
0.0
 10
4.7608379851
 20
4.8866870406
 30
0.0
 10
4.7606485248
 20
4.8866198177
 30
0.0
 10
4.7604875436
 20
4.8865512576
 30
0.0
 10
4.7603559569
 20
4.886481347
 30
0.0
 10
4.7602544726
 20
4.8864098214
 30
0.0
 10
4.760183456
 20
4.8863357697
 30
0.0
 10
4.7601449188
 20
4.8862560425
 30
0.0
 10
4.7601460725
 20
4.8862006489
 30
0.0
 10
4.7601522581
 20
4.8861757858
 30
0.0
 11
4.7711992094
 21
4.8878827349
 31
0.0
 11
4.7692355296
 21
4.8877532632
 31
0.0
 11
4.7672588915
 21
4.8876009417
 31
0.0
 11
4.7662943455
 21
4.8875159831
 31
0.0
 11
4.7653609186
 21
4.8874250367
 31
0.0
 11
4.7644700638
 21
4.8873280111
 31
0.0
 11
4.763633234
 21
4.8872248143
 31
0.0
 11
4.7628618821
 21
4.8871153547
 31
0.0
 11
4.762167207
 21
4.8869995639
 31
0.0
 11
4.7615591468
 21
4.8868774895
 31
0.0
 11
4.7610472499
 21
4.8867492149
 31
0.0
 11
4.7608303465
 21
4.8866827787
 31
0.0
 11
4.7606410645
 21
4.8866148238
 31
0.0
 11
4.7604805973
 21
4.8865453606
 31
0.0
 11
4.7603501386
 21
4.8864743996
 31
0.0
 11
4.7602508818
 21
4.8864019512
 31
0.0
 11
4.7601840204
 21
4.8863280258
 31
0.0
 11
4.760150748
 21
4.8862526339
 31
0.0
 11
4.7601522581
 21
4.8861757858
 31
0.0
  0
SPLINE
  5
464
100
AcDbEntity
  8
0
100
AcDbSpline
 62
9
  6
CONTINUOUS
 70
0
 71
3
 72
34
 73
30
 74
28
 42
0.0000001
 43
0.0000001
 44
0.0000000001
 12
0.0141670509
 22
0.0102622215
 32
0.0
 13
-0.0174901786
 23
0.0003349253
 33
0.0
 40
0.0
 40
0.0
 40
0.0
 40
0.0
 40
0.0005001581
 40
0.0007008613
 40
0.0009473903
 40
0.0012785638
 40
0.0017111089
 40
0.0029060579
 40
0.0045605848
 40
0.0066846596
 40
0.0092835702
 40
0.0123607649
 40
0.0159188282
 40
0.0199598874
 40
0.0294981934
 40
0.0409890661
 40
0.0544444847
 40
0.0698758139
 40
0.0872940783
 40
0.106710099
 40
0.1281345678
 40
0.1515781662
 40
0.1770535578
 40
0.2341591554
 40
0.2995706327
 40
0.3734070433
 40
0.5468299907
 40
0.7553779911
 40
1.0
 40
1.0
 40
1.0
 40
1.0
 10
5.048729287
 20
4.7690931919
 30
0.0
 10
5.0487316489
 20
4.7690949028
 30
0.0
 10
5.0487352436
 20
4.7690981818
 30
0.0
 10
5.0487344325
 20
4.7691040142
 30
0.0
 10
5.0487314579
 20
4.7691076105
 30
0.0
 10
5.0487266677
 20
4.7691110678
 30
0.0
 10
5.0487164487
 20
4.7691162493
 30
0.0
 10
5.0486982385
 20
4.7691223329
 30
0.0
 10
5.0486700823
 20
4.7691293003
 30
0.0
 10
5.0486335585
 20
4.7691363797
 30
0.0
 10
5.0485886454
 20
4.7691435825
 30
0.0
 10
5.0485352915
 20
4.7691508744
 30
0.0
 10
5.0484734732
 20
4.7691582524
 30
0.0
 10
5.0483740968
 20
4.7691687838
 30
0.0
 10
5.0482284857
 20
4.7691818476
 30
0.0
 10
5.0480279793
 20
4.7691971243
 30
0.0
 10
5.0477930451
 20
4.7692127023
 30
0.0
 10
5.0475234998
 20
4.7692285749
 30
0.0
 10
5.0472191593
 20
4.7692447293
 30
0.0
 10
5.0468798417
 20
4.7692611604
 30
0.0
 10
5.0465053645
 20
4.7692778638
 30
0.0
 10
5.0460955336
 20
4.7692948384
 30
0.0
 10
5.0454777526
 20
4.7693187505
 30
0.0
 10
5.0446153184
 20
4.7693490372
 30
0.0
 10
5.0434709266
 20
4.7693852294
 30
0.0
 10
5.0416484582
 20
4.7694377753
 30
0.0
 10
5.0389914323
 20
4.7695050901
 30
0.0
 10
5.0353385915
 20
4.7695864754
 30
0.0
 10
5.0326966238
 20
4.7696392484
 30
0.0
 10
5.0312704629
 20
4.7696665584
 30
0.0
 11
5.048729287
 21
4.7690931919
 31
0.0
 11
5.0487346432
 21
4.7691001102
 31
0.0
 11
5.0487342047
 21
4.7691035937
 31
0.0
 11
5.0487316846
 21
4.7691070934
 31
0.0
 11
5.0487270801
 21
4.7691106093
 31
0.0
 11
5.0487203884
 21
4.7691141414
 31
0.0
 11
5.048700732
 21
4.7691212542
 31
0.0
 11
5.0486726928
 21
4.7691284318
 31
0.0
 11
5.0486362482
 21
4.7691356743
 31
0.0
 11
5.0485913756
 21
4.7691429817
 31
0.0
 11
5.0485380523
 21
4.769150354
 31
0.0
 11
5.0484762556
 21
4.7691577911
 31
0.0
 11
5.048405963
 21
4.7691652933
 31
0.0
 11
5.0482397994
 21
4.7691804923
 31
0.0
 11
5.0480393805
 21
4.7691959513
 31
0.0
 11
5.0478045251
 21
4.7692116703
 31
0.0
 11
5.0475350523
 21
4.7692276495
 31
0.0
 11
5.0472307809
 21
4.7692438891
 31
0.0
 11
5.04689153
 21
4.769260389
 31
0.0
 11
5.0465171185
 21
4.7692771496
 31
0.0
 11
5.046107364
 21
4.7692941709
 31
0.0
 11
5.0456620484
 21
4.7693114527
 31
0.0
 11
5.0446637036
 21
4.7693467963
 31
0.0
 11
5.0435200139
 21
4.7693831767
 31
0.0
 11
5.0422289071
 21
4.7694205901
 31
0.0
 11
5.0391961533
 21
4.7694985014
 31
0.0
 11
5.0355488645
 21
4.7695805007
 31
0.0
 11
5.0312704629
 21
4.7696665584
 31
0.0
  0
SPLINE
  5
465
100
AcDbEntity
  8
0
100
AcDbSpline
 62
9
  6
CONTINUOUS
 70
0
 71
3
 72
11
 73
7
 74
5
 42
0.0000001
 43
0.0000001
 44
0.0000000001
 12
-0.0261724579
 22
-0.0785506077
 32
0.0
 13
-0.0487187543
 23
-0.0669453397
 33
0.0
 40
0.0
 40
0.0
 40
0.0
 40
0.0
 40
0.2536994214
 40
0.4427156241
 40
0.630319687
 40
1.0
 40
1.0
 40
1.0
 40
1.0
 10
5.1034751059
 20
4.8807691234
 30
0.0
 10
5.1012617934
 20
4.8741263755
 30
0.0
 10
5.0969575904
 20
4.8626758606
 30
0.0
 10
5.0897693052
 20
4.8468246397
 30
0.0
 10
5.080207087
 20
4.8285736296
 30
0.0
 10
5.0719038847
 20
4.8155719043
 30
0.0
 10
5.06590043
 20
4.8073224462
 30
0.0
 11
5.1034751059
 21
4.8807691234
 31
0.0
 11
5.0960842003
 21
4.8611070232
 31
0.0
 11
5.0896195743
 21
4.8468548291
 31
0.0
 11
5.0824082204
 21
4.8330973972
 31
0.0
 11
5.06590043
 21
4.8073224462
 31
0.0
  0
SPLINE
  5
466
100
AcDbEntity
  8
0
100
AcDbSpline
 62
9
  6
CONTINUOUS
 70
0
 71
3
 72
19
 73
15
 74
13
 42
0.0000001
 43
0.0000001
 44
0.0000000001
 12
-0.1853194374
 22
0.0035907787
 32
0.0
 13
-0.1853531171
 23
0.0006399438
 33
0.0
 40
0.0
 40
0.0
 40
0.0
 40
0.0
 40
0.0480282072
 40
0.1017639727
 40
0.2244650859
 40
0.3624259339
 40
0.5079212574
 40
0.6522708737
 40
0.7212853858
 40
0.7869550056
 40
0.8483963991
 40
0.9048019285
 40
0.9555390785
 40
1.0
 40
1.0
 40
1.0
 40
1.0
 10
5.06590043
 20
4.8073224462
 30
0.0
 10
5.0629335765
 20
4.8073799324
 30
0.0
 10
5.0566474069
 20
4.8075074599
 30
0.0
 10
5.0427820207
 20
4.807802166
 30
0.0
 10
5.0233617154
 20
4.8082283734
 30
0.0
 10
4.9982730852
 20
4.808763236
 30
0.0
 10
4.9718460616
 20
4.8092706584
 30
0.0
 10
4.9496770123
 20
4.8096370737
 30
0.0
 10
4.9324386564
 20
4.8098777079
 30
0.0
 10
4.9203220034
 20
4.8100268154
 30
0.0
 10
4.9089841087
 20
4.8101466662
 30
0.0
 10
4.8985685731
 20
4.8102372719
 30
0.0
 10
4.8892019942
 20
4.8103008444
 30
0.0
 10
4.8833202662
 20
4.8103286924
 30
0.0
 10
4.8805732761
 20
4.8103381765
 30
0.0
 11
5.06590043
 21
4.8073224462
 31
0.0
 11
5.0570000031
 21
4.8075016619
 31
0.0
 11
5.04704208
 21
4.8077123185
 31
0.0
 11
5.0243042575
 21
4.8082054489
 31
0.0
 11
4.9987383148
 21
4.8087445324
 31
0.0
 11
4.9717750684
 21
4.8092599629
 31
0.0
 11
4.9450228517
 21
4.8096984994
 31
0.0
 11
4.9322319657
 21
4.8098769811
 31
0.0
 11
4.9200607414
 21
4.8100263935
 31
0.0
 11
4.9086729505
 21
4.8101462511
 31
0.0
 11
4.8982183397
 21
4.8102368109
 31
0.0
 11
4.8888142074
 21
4.8103000472
 31
0.0
 11
4.8805732761
 21
4.8103381765
 31
0.0
  0
SPLINE
  5
467
100
AcDbEntity
  8
0
100
AcDbSpline
 62
9
  6
CONTINUOUS
 70
0
 71
3
 72
13
 73
9
 74
7
 42
0.0000001
 43
0.0000001
 44
0.0000000001
 12
0.0184793925
 22
-0.0785148403
 32
0.0
 13
0.0268068618
 23
-0.076075359
 33
0.0
 40
0.0
 40
0.0
 40
0.0
 40
0.0
 40
0.2647550334
 40
0.5208518134
 40
0.6450949134
 40
0.7665080308
 40
0.8848785775
 40
1.0
 40
1.0
 40
1.0
 40
1.0
 10
4.8585048151
 20
4.8878827349
 30
0.0
 10
4.8601356525
 20
4.8809536686
 30
0.0
 10
4.863470986
 20
4.8673515666
 30
0.0
 10
4.8679712617
 20
4.8505991893
 30
0.0
 10
4.8717272574
 20
4.8376417089
 30
0.0
 10
4.8745859908
 20
4.8282806199
 30
0.0
 10
4.8775151594
 20
4.8191986704
 30
0.0
 10
4.8795445947
 20
4.8132574777
 30
0.0
 10
4.8805732761
 20
4.8103381765
 30
0.0
 11
4.8585048151
 21
4.8878827349
 31
0.0
 11
4.8636034803
 21
4.8671451378
 31
0.0
 11
4.8689789674
 21
4.8472000064
 31
0.0
 11
4.8717715245
 21
4.8375754776
 31
0.0
 11
4.8746344935
 21
4.8282100998
 31
0.0
 11
4.8775682767
 21
4.8191242178
 31
0.0
 11
4.8805732761
 21
4.8103381765
 31
0.0
  0
LINE
  5
468
100
AcDbEntity
  8
0
100
AcDbLine
 62
9
  6
CONTINUOUS
 10
4.8805732761
 20
4.8103381765
 11
4.8325017242
 21
4.8103603709
  0
SPLINE
  5
469
100
AcDbEntity
  8
0
100
AcDbSpline
 62
9
  6
CONTINUOUS
 70
0
 71
3
 72
11
 73
7
 74
5
 42
0.0000001
 43
0.0000001
 44
0.0000000001
 12
0.0181576822
 22
-0.0815909472
 32
0.0
 13
0.0401883808
 23
-0.0732917331
 33
0.0
 40
0.0
 40
0.0
 40
0.0
 40
0.0
 40
0.257223579
 40
0.5101306951
 40
0.7579536004
 40
1.0
 40
1.0
 40
1.0
 40
1.0
 10
4.8035748518
 20
4.8885079764
 30
0.0
 10
4.8051317131
 20
4.8815122712
 30
0.0
 10
4.8086766856
 20
4.867735208
 30
0.0
 10
4.8153109578
 20
4.8476691153
 30
0.0
 10
4.8231666036
 20
4.8285045177
 30
0.0
 10
4.8292592399
 20
4.8162737043
 30
0.0
 10
4.8325017242
 20
4.8103603709
 30
0.0
 11
4.8035748518
 21
4.8885079764
 31
0.0
 11
4.8089406249
 21
4.8676877495
 31
0.0
 11
4.8155883481
 21
4.8476204496
 31
0.0
 11
4.8234610413
 21
4.8284600117
 31
0.0
 11
4.8325017242
 21
4.8103603709
 31
0.0
  0
LINE
  5
46A
100
AcDbEntity
  8
0
100
AcDbLine
 62
9
  6
CONTINUOUS
 10
4.8325017242
 20
4.8103603709
 11
4.8036699148
 21
4.8103381765
  0
SPLINE
  5
46B
100
AcDbEntity
  8
0
100
AcDbSpline
 62
9
  6
CONTINUOUS
 70
0
 71
3
 72
11
 73
7
 74
5
 42
0.0000001
 43
0.0000001
 44
0.0000000001
 12
0.0177193361
 22
-0.0826576991
 32
0.0
 13
0.0469235079
 23
-0.0703168152
 33
0.0
 40
0.0
 40
0.0
 40
0.0
 40
0.0
 40
0.253660027
 40
0.5048242029
 40
0.7535652806
 40
1.0
 40
1.0
 40
1.0
 40
1.0
 10
4.7711992094
 20
4.8878827349
 30
0.0
 10
4.7726974385
 20
4.8808937502
 30
0.0
 10
4.7763196781
 20
4.8671128217
 30
0.0
 10
4.7836043152
 20
4.8471355274
 30
0.0
 10
4.7926392287
 20
4.8281110554
 30
0.0
 10
4.7998153876
 20
4.8161143447
 30
0.0
 10
4.8036699148
 20
4.8103381765
 30
0.0
 11
4.7711992094
 21
4.8878827349
 31
0.0
 11
4.7766551644
 21
4.8671451378
 31
0.0
 11
4.7839354845
 21
4.8472000064
 31
0.0
 11
4.7929653434
 21
4.8282100998
 31
0.0
 11
4.8036699148
 21
4.8103381765
 31
0.0
  0
SPLINE
  5
46C
100
AcDbEntity
  8
0
100
AcDbSpline
 62
9
  6
CONTINUOUS
 70
0
 71
3
 72
29
 73
25
 74
23
 42
0.0000001
 43
0.0000001
 44
0.0000000001
 12
-0.0082795089
 22
-0.0000942791
 32
0.0
 13
0.0048684092
 23
-0.0066975927
 33
0.0
 40
0.0
 40
0.0
 40
0.0
 40
0.0
 40
0.1886734354
 40
0.3722580728
 40
0.460006472
 40
0.5439208526
 40
0.6231490096
 40
0.6968403435
 40
0.764146797
 40
0.8242290994
 40
0.8513202381
 40
0.8763284748
 40
0.8991685365
 40
0.9197569051
 40
0.9380128474
 40
0.9538603199
 40
0.967231807
 40
0.9780769715
 40
0.9863853355
 40
0.9896166207
 40
0.9922750426
 40
0.9962196476
 40
0.9979887933
 40
1.0
 40
1.0
 40
1.0
 40
1.0
 10
4.8036699148
 20
4.8103381765
 30
0.0
 10
4.803149207
 20
4.8103322472
 30
0.0
 10
4.8021218705
 20
4.8103171974
 30
0.0
 10
4.8008525407
 20
4.8102890407
 30
0.0
 10
4.7998724756
 20
4.8102600928
 30
0.0
 10
4.7991804378
 20
4.8102357062
 30
0.0
 10
4.7985273435
 20
4.8102082559
 30
0.0
 10
4.7979202768
 20
4.8101776821
 30
0.0
 10
4.7973663081
 20
4.8101439369
 30
0.0
 10
4.7969411054
 20
4.8101121516
 30
0.0
 10
4.7966327133
 20
4.8100845076
 30
0.0
 10
4.7964269264
 20
4.8100636681
 30
0.0
 10
4.7962392777
 20
4.8100420147
 30
0.0
 10
4.7960705049
 20
4.8100195592
 30
0.0
 10
4.7959213354
 20
4.8099963295
 30
0.0
 10
4.795792496
 20
4.809972343
 30
0.0
 10
4.7956846456
 20
4.8099477029
 30
0.0
 10
4.7955984655
 20
4.8099223567
 30
0.0
 10
4.7955408905
 20
4.8098994661
 30
0.0
 10
4.7955069036
 20
4.8098795463
 30
0.0
 10
4.7954856828
 20
4.8098629748
 30
0.0
 10
4.79547135
 20
4.8098421085
 30
0.0
 10
4.7954735832
 20
4.8098201305
 30
0.0
 10
4.7954787976
 20
4.8098108349
 30
0.0
 10
4.7954820614
 20
4.8098063448
 30
0.0
 11
4.8036699148
 21
4.8103381765
 31
0.0
 11
4.802107862
 21
4.8103150045
 31
0.0
 11
4.800588161
 21
4.8102806559
 31
0.0
 11
4.7998619208
 21
4.8102590756
 31
0.0
 11
4.7991675426
 21
4.8102344433
 31
0.0
 11
4.7985121179
 21
4.8102066732
 31
0.0
 11
4.797902738
 21
4.8101756792
 31
0.0
 11
4.7973464942
 21
4.8101413754
 31
0.0
 11
4.7968504403
 21
4.8101036795
 31
0.0
 11
4.7966270296
 21
4.8100835483
 31
0.0
 11
4.7964210262
 21
4.8100625643
 31
0.0
 11
4.7962331741
 21
4.81004073
 31
0.0
 11
4.7960642172
 21
4.8100180477
 31
0.0
 11
4.7959148995
 21
4.8099945197
 31
0.0
 11
4.7957859648
 21
4.8099701485
 31
0.0
 11
4.7956781571
 21
4.8099449363
 31
0.0
 11
4.7955922203
 21
4.8099188856
 31
0.0
 11
4.7955288985
 21
4.8098919988
 31
0.0
 11
4.7955059506
 21
4.8098782425
 31
0.0
 11
4.7954889354
 21
4.8098642781
 31
0.0
 11
4.795473075
 21
4.809835726
 31
0.0
 11
4.7954744159
 21
4.8098211389
 31
0.0
 11
4.7954820614
 21
4.8098063448
 31
0.0
  0
LINE
  5
46D
100
AcDbEntity
  8
0
100
AcDbLine
 62
9
  6
CONTINUOUS
 10
4.9420644612
 20
4.7337660152
 11
4.9424168462
 21
4.7337633568
  0
SPLINE
  5
46E
100
AcDbEntity
  8
0
100
AcDbSpline
 62
9
  6
CONTINUOUS
 70
0
 71
3
 72
19
 73
15
 74
13
 42
0.0000001
 43
0.0000001
 44
0.0000000001
 12
-0.1819183606
 22
0.0035483898
 32
0.0
 13
-0.1819525533
 23
0.0003864314
 33
0.0
 40
0.0
 40
0.0
 40
0.0
 40
0.0
 40
0.0480604317
 40
0.101812695
 40
0.2244976039
 40
0.3623893506
 40
0.5077943829
 40
0.652069619
 40
0.7210645819
 40
0.7867315467
 40
0.8481908041
 40
0.9046379656
 40
0.955442895
 40
1.0
 40
1.0
 40
1.0
 40
1.0
 10
5.0636489081
 20
4.8042808841
 30
0.0
 10
5.0607345498
 20
4.8043377298
 30
0.0
 10
5.0545607829
 20
4.8044632314
 30
0.0
 10
5.0409478269
 20
4.8047512162
 30
0.0
 10
5.0218879312
 20
4.8051637095
 30
0.0
 10
4.9972700602
 20
4.8056760155
 30
0.0
 10
4.9713418317
 20
4.8061571526
 30
0.0
 10
4.9495904861
 20
4.8065000637
 30
0.0
 10
4.932674116
 20
4.8067217422
 30
0.0
 10
4.9207799375
 20
4.8068571885
 30
0.0
 10
4.9096465351
 20
4.8069638861
 30
0.0
 10
4.8994143165
 20
4.8070420002
 30
0.0
 10
4.890207079
 20
4.8070938773
 30
0.0
 10
4.884423306
 20
4.8071139901
 30
0.0
 10
4.8817208797
 20
4.8071197295
 30
0.0
 11
5.0636489081
 21
4.8042808841
 31
0.0
 11
5.0549059509
 21
4.8044573524
 31
0.0
 11
5.0451277353
 21
4.8046632727
 31
0.0
 11
5.0228099616
 21
4.8051408421
 31
0.0
 11
4.997725467
 21
4.8056573651
 31
0.0
 11
4.9712731044
 21
4.8061460726
 31
0.0
 11
4.945025003
 21
4.80655629
 31
0.0
 11
4.9324722417
 21
4.8067207071
 31
0.0
 11
4.9205247132
 21
4.8068563836
 31
0.0
 11
4.9093425276
 21
4.8069630119
 31
0.0
 11
4.8990720954
 21
4.8070410096
 31
0.0
 11
4.8898281312
 21
4.8070924716
 31
0.0
 11
4.8817208797
 21
4.8071197295
 31
0.0
  0
LINE
  5
46F
100
AcDbEntity
  8
0
100
AcDbLine
 62
9
  6
CONTINUOUS
 10
4.8817208797
 20
4.8071197295
 11
4.8343243538
 21
4.8070929602
  0
SPLINE
  5
470
100
AcDbEntity
  8
0
100
AcDbSpline
 62
9
  6
CONTINUOUS
 70
0
 71
3
 72
15
 73
11
 74
9
 42
0.0000001
 43
0.0000001
 44
0.0000000001
 12
-0.0087769668
 22
0.0181990129
 32
0.0
 13
-0.0172303362
 23
0.0105524751
 33
0.0
 40
0.0
 40
0.0
 40
0.0
 40
0.0
 40
0.1285911914
 40
0.2551768281
 40
0.3802297402
 40
0.5042402146
 40
0.6277114064
 40
0.7511540422
 40
0.8750806985
 40
1.0
 40
1.0
 40
1.0
 40
1.0
 10
6.7121443962
 20
5.3226331933
 30
0.0
 10
6.7117681826
 20
5.3234132709
 30
0.0
 10
6.7109700061
 20
5.3249370474
 30
0.0
 10
6.7096271213
 20
5.327119882
 30
0.0
 10
6.708151227
 20
5.3291774498
 30
0.0
 10
6.7065444536
 20
5.3311073311
 30
0.0
 10
6.7048088962
 20
5.3329072706
 30
0.0
 10
6.7029466561
 20
5.334575013
 30
0.0
 10
6.7009600329
 20
5.3361082296
 30
0.0
 10
6.6995612457
 20
5.3370344988
 30
0.0
 10
6.6988437785
 20
5.3374739014
 30
0.0
 11
6.7121443962
 21
5.3226331933
 31
0.0
 11
6.7109375638
 21
5.3249340789
 31
0.0
 11
6.7095964185
 21
5.3271119042
 31
0.0
 11
6.7081230102
 21
5.3291645141
 31
0.0
 11
6.7065193892
 21
5.3310897534
 31
0.0
 11
6.7047876054
 21
5.3328854669
 31
0.0
 11
6.7029297089
 21
5.3345494995
 31
0.0
 11
6.70094775
 21
5.336079696
 31
0.0
 11
6.6988437785
 21
5.3374739014
 31
0.0
  0
LINE
  5
471
100
AcDbEntity
  8
0
100
AcDbLine
 62
9
  6
CONTINUOUS
 10
4.8343243538
 20
4.8070929602
 11
4.8058607028
 21
4.8071197295
  0
SPLINE
  5
472
100
AcDbEntity
  8
0
100
AcDbSpline
 62
9
  6
CONTINUOUS
 70
0
 71
3
 72
29
 73
25
 74
23
 42
0.0000001
 43
0.0000001
 44
0.0000000001
 12
-0.0081192003
 22
-0.0000567741
 32
0.0
 13
0.0049006143
 23
-0.0064736864
 33
0.0
 40
0.0
 40
0.0
 40
0.0
 40
0.0
 40
0.1891405997
 40
0.3729760901
 40
0.4607871165
 40
0.5447318895
 40
0.6239652551
 40
0.6976434553
 40
0.7649249437
 40
0.8249758802
 40
0.8520495228
 40
0.8770394573
 40
0.8998605822
 40
0.9204293214
 40
0.9386645197
 40
0.954489102
 40
0.9678334213
 40
0.9786428353
 40
0.9868977334
 40
0.9900893033
 40
0.9926936458
 40
0.9964614229
 40
0.9981096323
 40
1.0
 40
1.0
 40
1.0
 40
1.0
 10
4.8058607028
 20
4.8071197295
 30
0.0
 10
4.8053488126
 20
4.8071161501
 30
0.0
 10
4.8043394095
 20
4.8071058866
 30
0.0
 10
4.8030924782
 20
4.8070841771
 30
0.0
 10
4.8021303653
 20
4.8070606926
 30
0.0
 10
4.8014513693
 20
4.8070404505
 30
0.0
 10
4.8008107406
 20
4.8070172438
 30
0.0
 10
4.8002153654
 20
4.8069910066
 30
0.0
 10
4.7996721179
 20
4.8069616839
 30
0.0
 10
4.7992551372
 20
4.8069337708
 30
0.0
 10
4.7989526857
 20
4.8069093127
 30
0.0
 10
4.7987508554
 20
4.8068907986
 30
0.0
 10
4.7985667916
 20
4.8068714874
 30
0.0
 10
4.7984012118
 20
4.8068513892
 30
0.0
 10
4.7982548259
 20
4.80683053
 30
0.0
 10
4.7981283406
 20
4.8068089236
 30
0.0
 10
4.7980224117
 20
4.8067866731
 30
0.0
 10
4.7979376914
 20
4.8067637185
 30
0.0
 10
4.7978810083
 20
4.8067429695
 30
0.0
 10
4.797847344
 20
4.8067248146
 30
0.0
 10
4.7978265373
 20
4.8067098939
 30
0.0
 10
4.7978118693
 20
4.8066909656
 30
0.0
 10
4.7978136552
 20
4.8066704501
 30
0.0
 10
4.7978186161
 20
4.8066619833
 30
0.0
 10
4.7978217041
 20
4.8066579041
 30
0.0
 11
4.8058607028
 21
4.8071197295
 31
0.0
 11
4.8043250768
 21
4.807103861
 31
0.0
 11
4.8028326795
 21
4.807077298
 31
0.0
 11
4.802119922
 21
4.8070597816
 31
0.0
 11
4.801438648
 21
4.8070393222
 31
0.0
 11
4.8007957498
 21
4.80701583
 31
0.0
 11
4.8001981195
 21
4.8069892153
 31
0.0
 11
4.7996526491
 21
4.8069593884
 31
0.0
 11
4.7991661982
 21
4.8069262623
 31
0.0
 11
4.7989470995
 21
4.8069084487
 31
0.0
 11
4.7987450548
 21
4.8068898029
 31
0.0
 11
4.7985607874
 21
4.8068703265
 31
0.0
 11
4.7983950206
 21
4.8068500209
 31
0.0
 11
4.7982484778
 21
4.8068288875
 31
0.0
 11
4.7981218822
 21
4.806806928
 31
0.0
 11
4.798015957
 21
4.8067841437
 31
0.0
 11
4.7979314257
 21
4.8067605362
 31
0.0
 11
4.7978690114
 21
4.806736107
 31
0.0
 11
4.7978463242
 21
4.8067235848
 31
0.0
 11
4.7978294375
 21
4.8067108576
 31
0.0
 11
4.7978134273
 21
4.8066847894
 31
0.0
 11
4.7978144846
 21
4.8066714488
 31
0.0
 11
4.7978217041
 21
4.8066579041
 31
0.0
  0
SPLINE
  5
473
100
AcDbEntity
  8
0
100
AcDbSpline
 62
9
  6
CONTINUOUS
 70
0
 71
3
 72
17
 73
13
 74
11
 42
0.0000001
 43
0.0000001
 44
0.0000000001
 12
0.1209048594
 22
-0.0909888618
 32
0.0
 13
0.0646861797
 23
-0.136794211
 33
0.0
 40
0.0
 40
0.0
 40
0.0
 40
0.0
 40
0.1157998338
 40
0.1749005909
 40
0.2347853686
 40
0.2954242823
 40
0.3567826014
 40
0.4814846183
 40
0.6085575022
 40
0.7376124462
 40
0.868235515
 40
1.0
 40
1.0
 40
1.0
 40
1.0
 10
6.6065297547
 20
5.4555828765
 30
0.0
 10
6.6111966756
 20
5.4520707115
 30
0.0
 10
6.6180576542
 20
5.4465097248
 30
0.0
 10
6.626851663
 20
5.4385759594
 30
0.0
 10
6.6333672201
 20
5.432277786
 30
0.0
 10
6.6397500219
 20
5.4256860181
 30
0.0
 10
6.6481170914
 20
5.4164734371
 30
0.0
 10
6.6581863073
 20
5.4042915596
 30
0.0
 10
6.6695443819
 20
5.3887881143
 30
0.0
 10
6.6801791046
 20
5.372422468
 30
0.0
 10
6.6900255303
 20
5.3552984395
 30
0.0
 10
6.6960026648
 20
5.3434821076
 30
0.0
 10
6.6988437785
 20
5.3374739014
 30
0.0
 11
6.6065297547
 21
5.4555828765
 31
0.0
 11
6.6201459525
 21
5.4445539038
 31
0.0
 11
6.6267875898
 21
5.4385651287
 31
0.0
 11
6.6333047504
 21
5.4322691473
 31
0.0
 11
6.6396892996
 21
5.4256788948
 31
0.0
 11
6.6459331145
 21
5.4188073421
 31
0.0
 11
6.6579660483
 21
5.4042722199
 31
0.0
 11
6.6693385667
 21
5.3887675476
 31
0.0
 11
6.6799856847
 21
5.3723970924
 31
0.0
 11
6.689842417
 21
5.3552646213
 31
0.0
 11
6.6988437785
 21
5.3374739014
 31
0.0
  0
SPLINE
  5
474
100
AcDbEntity
  8
0
100
AcDbSpline
 62
9
  6
CONTINUOUS
 70
0
 71
3
 72
9
 73
5
 74
3
 42
0.0000001
 43
0.0000001
 44
0.0000000001
 12
-0.0082645586
 22
0.0015077378
 32
0.0
 13
-0.0084009643
 23
0.0
 33
0.0
 40
0.0
 40
0.0
 40
0.0
 40
0.0
 40
0.4944883824
 40
1.0
 40
1.0
 40
1.0
 40
1.0
 10
6.5081825288
 20
5.5009497503
 30
0.0
 10
6.5068202861
 20
5.5011982699
 30
0.0
 10
6.504040637
 20
5.5015726389
 30
0.0
 10
6.5012388054
 20
5.5016942114
 30
0.0
 10
6.4998232104
 20
5.5016942114
 30
0.0
 11
6.5081825288
 21
5.5009497503
 31
0.0
 11
6.5040658537
 21
5.5015066986
 31
0.0
 11
6.4998232104
 21
5.5016942114
 31
0.0
  0
SPLINE
  5
475
100
AcDbEntity
  8
0
100
AcDbSpline
 62
9
  6
CONTINUOUS
 70
0
 71
3
 72
9
 73
5
 74
3
 42
0.0000001
 43
0.0000001
 44
0.0000000001
 12
-0.0285520698
 22
-0.0379200405
 32
0.0
 13
-0.0360675833
 23
-0.0308590277
 33
0.0
 40
0.0
 40
0.0
 40
0.0
 40
0.0
 40
0.5057672305
 40
1.0
 40
1.0
 40
1.0
 40
1.0
 10
5.0636489081
 20
4.8042808841
 30
0.0
 10
5.058835341
 20
4.7978879795
 30
0.0
 10
5.0486514303
 20
4.7857351132
 30
0.0
 10
5.0372123901
 20
4.774750406
 30
0.0
 10
5.0312704629
 20
4.7696665584
 30
0.0
 11
5.0636489081
 21
4.8042808841
 31
0.0
 11
5.0482129016
 21
4.7858937521
 31
0.0
 11
5.0312704629
 21
4.7696665584
 31
0.0
  0
SPLINE
  5
476
100
AcDbEntity
  8
0
100
AcDbSpline
 62
9
  6
CONTINUOUS
 70
0
 71
3
 72
17
 73
13
 74
11
 42
0.0000001
 43
0.0000001
 44
0.0000000001
 12
-0.1332312361
 22
0.0025512895
 32
0.0
 13
-0.1332483214
 23
-0.0013986369
 33
0.0
 40
0.0
 40
0.0
 40
0.0
 40
0.0
 40
0.1025512715
 40
0.2252163536
 40
0.3624420844
 40
0.50688478
 40
0.6503091338
 40
0.7190486957
 40
0.7846307737
 40
0.9030371937
 40
0.954491531
 40
1.0
 40
1.0
 40
1.0
 40
1.0
 10
5.0312704629
 20
4.7696665584
 30
0.0
 10
5.0267161187
 20
4.7697537711
 30
0.0
 10
5.0167141999
 20
4.7699470258
 30
0.0
 10
5.0006175659
 20
4.7702324663
 30
0.0
 10
4.9826596969
 20
4.7705050821
 30
0.0
 10
4.9637789566
 20
4.7707271729
 30
0.0
 10
4.947939454
 20
4.7708529536
 30
0.0
 10
4.9356024912
 20
4.7709082139
 30
0.0
 10
4.9243766985
 20
4.7709329853
 30
0.0
 10
4.9139186189
 20
4.7709198015
 30
0.0
 10
4.9043523665
 20
4.7708666757
 30
0.0
 10
4.9000455675
 20
4.7708297403
 30
0.0
 10
4.8980242585
 20
4.7708085237
 30
0.0
 11
5.0312704629
 21
4.7696665584
 31
0.0
 11
5.0176073973
 21
4.7699264726
 31
0.0
 11
5.0012641174
 21
4.7702144387
 31
0.0
 11
4.9829800893
 21
4.7704900688
 31
0.0
 11
4.9637336014
 21
4.7707154029
 31
0.0
 11
4.9446220749
 21
4.7708643885
 31
0.0
 11
4.9354622305
 21
4.7709052911
 31
0.0
 11
4.9267230678
 21
4.7709242074
 31
0.0
 11
4.91094476
 21
4.7709003142
 31
0.0
 11
4.9040882879
 21
4.7708615433
 31
0.0
 11
4.8980242585
 21
4.7708085237
 31
0.0
  0
SPLINE
  5
477
100
AcDbEntity
  8
0
100
AcDbSpline
 62
9
  6
CONTINUOUS
 70
0
 71
3
 72
11
 73
7
 74
5
 42
0.0000001
 43
0.0000001
 44
0.0000000001
 12
0.0135248332
 22
-0.0374815504
 32
0.0
 13
0.0196523788
 23
-0.0346636948
 33
0.0
 40
0.0
 40
0.0
 40
0.0
 40
0.0
 40
0.2682182049
 40
0.5246533819
 40
0.7687418299
 40
1.0
 40
1.0
 40
1.0
 40
1.0
 10
4.8817208797
 20
4.8071197295
 30
0.0
 10
4.8829300818
 20
4.8037686514
 30
0.0
 10
4.8854052277
 20
4.7972525646
 30
0.0
 10
4.8893865879
 20
4.7878472352
 30
0.0
 10
4.8935448057
 20
4.7790586208
 30
0.0
 10
4.8965093341
 20
4.7734806112
 30
0.0
 10
4.8980242585
 20
4.7708085237
 30
0.0
 11
4.8817208797
 21
4.8071197295
 31
0.0
 11
4.8855240814
 21
4.7971316014
 31
0.0
 11
4.8895166507
 21
4.7877257137
 31
0.0
 11
4.8936871792
 21
4.7789390324
 31
0.0
 11
4.8980242585
 21
4.7708085237
 31
0.0
  0
SPLINE
  5
478
100
AcDbEntity
  8
0
100
AcDbSpline
 62
9
  6
CONTINUOUS
 70
0
 71
3
 72
32
 73
28
 74
26
 42
0.0000001
 43
0.0000001
 44
0.0000000001
 12
-0.1751904049
 22
-0.0658781878
 32
0.0
 13
0.0
 23
0.1871673412
 33
0.0
 40
0.0
 40
0.0
 40
0.0
 40
0.0
 40
0.0300137502
 40
0.0598478838
 40
0.0895249002
 40
0.1190766029
 40
0.1485452456
 40
0.1632670447
 40
0.1779891911
 40
0.2074604105
 40
0.2370167562
 40
0.2667000056
 40
0.2965415337
 40
0.3567524186
 40
0.4177667573
 40
0.4795811255
 40
0.5421386843
 40
0.605363627
 40
0.6691934751
 40
0.7336098113
 40
0.7986677531
 40
0.8314959017
 40
0.8645530591
 40
0.8978786901
 40
0.9315213699
 40
0.9655391906
 40
1.0
 40
1.0
 40
1.0
 40
1.0
 10
6.2777945356
 20
5.2778824431
 30
0.0
 10
6.2760418286
 20
5.2772233593
 30
0.0
 10
6.2725063168
 20
5.2760140548
 30
0.0
 10
6.2671160271
 20
5.2745373331
 30
0.0
 10
6.261670026
 20
5.2734145014
 30
0.0
 10
6.2561842959
 20
5.2726569701
 30
0.0
 10
6.2515905295
 20
5.2723394426
 30
0.0
 10
6.2479148365
 20
5.2722796416
 30
0.0
 10
6.2442391865
 20
5.2723507688
 30
0.0
 10
6.2396459281
 20
5.2726821215
 30
0.0
 10
6.2341616332
 20
5.2734557425
 30
0.0
 10
6.2287176231
 20
5.2745942176
 30
0.0
 10
6.2215142696
 20
5.2765887919
 30
0.0
 10
6.2126815827
 20
5.2799487178
 30
0.0
 10
6.202536261
 20
5.2852437254
 30
0.0
 10
6.1929286231
 20
5.2917259787
 30
0.0
 10
6.1839817845
 20
5.2993072103
 30
0.0
 10
6.1758182512
 20
5.3079004732
 30
0.0
 10
6.1685619159
 20
5.3174197935
 30
0.0
 10
6.1623381659
 20
5.3277783509
 30
0.0
 10
6.1581289107
 20
5.3370149504
 30
0.0
 10
6.1554039434
 20
5.3447207206
 30
0.0
 10
6.1536908262
 20
5.3506726733
 30
0.0
 10
6.1523310201
 20
5.3567671568
 30
0.0
 10
6.1513402301
 20
5.3629933794
 30
0.0
 10
6.1507343374
 20
5.3693397872
 30
0.0
 10
6.150598548
 20
5.3736133774
 30
0.0
 10
6.150598548
 20
5.3757633568
 30
0.0
 11
6.2777945356
 21
5.2778824431
 31
0.0
 11
6.2724786223
 21
5.2760662862
 31
0.0
 11
6.2670925395
 21
5.2745928908
 31
0.0
 11
6.2616519561
 21
5.2734733908
 31
0.0
 11
6.2561725408
 21
5.2727189203
 31
0.0
 11
6.2506699624
 21
5.2723406132
 31
0.0
 11
6.2479148836
 21
5.2722960003
 31
0.0
 11
6.2451598898
 21
5.2723490766
 31
0.0
 11
6.2396579918
 21
5.2727439479
 31
0.0
 11
6.2341799372
 21
5.2735144993
 31
0.0
 11
6.2287413947
 21
5.2746495967
 31
0.0
 11
6.2233580333
 21
5.2761381061
 31
0.0
 11
6.2128195287
 21
5.280130825
 31
0.0
 11
6.2026897739
 21
5.2854035842
 31
0.0
 11
6.1930941192
 21
5.2918673117
 31
0.0
 11
6.1841579153
 21
5.2994329355
 31
0.0
 11
6.1760065126
 21
5.3080113837
 31
0.0
 11
6.1687652615
 21
5.3175135843
 31
0.0
 11
6.1625595126
 21
5.3278504655
 31
0.0
 11
6.1575146163
 21
5.3389329553
 31
0.0
 11
6.1554666599
 21
5.3447259684
 31
0.0
 11
6.1537559231
 21
5.3506719817
 31
0.0
 11
6.1523980747
 21
5.3567598612
 31
0.0
 11
6.1514087835
 21
5.3629784729
 31
0.0
 11
6.1508037183
 21
5.3693166827
 31
0.0
 11
6.150598548
 21
5.3757633568
 31
0.0
  0
LINE
  5
479
100
AcDbEntity
  8
0
100
AcDbLine
 62
9
  6
CONTINUOUS
 10
4.8980242585
 20
4.7708085237
 11
4.8616911092
 21
4.7704438326
  0
SPLINE
  5
47A
100
AcDbEntity
  8
0
100
AcDbSpline
 62
9
  6
CONTINUOUS
 70
0
 71
3
 72
11
 73
7
 74
5
 42
0.0000001
 43
0.0000001
 44
0.0000000001
 12
0.0226337334
 22
-0.0398879717
 32
0.0
 13
0.0322131842
 23
-0.0326442481
 33
0.0
 40
0.0
 40
0.0
 40
0.0
 40
0.0
 40
0.2585595146
 40
0.511485138
 40
0.7586496696
 40
1.0
 40
1.0
 40
1.0
 40
1.0
 10
4.8343243538
 20
4.8070929602
 30
0.0
 10
4.8362750762
 20
4.8036551554
 30
0.0
 10
4.8403380118
 20
4.7969676039
 30
0.0
 10
4.8469714034
 20
4.7874447978
 30
0.0
 10
4.8540472009
 20
4.7785797004
 30
0.0
 10
4.859099555
 20
4.773070066
 30
0.0
 10
4.8616911092
 20
4.7704438326
 30
0.0
 11
4.8343243538
 21
4.8070929602
 31
0.0
 11
4.8404873628
 21
4.7969622297
 31
0.0
 11
4.8471240649
 21
4.7874486876
 31
0.0
 11
4.8542026002
 21
4.7785949999
 31
0.0
 11
4.8616911092
 21
4.7704438326
 31
0.0
  0
SPLINE
  5
47B
100
AcDbEntity
  8
0
100
AcDbSpline
 62
9
  6
CONTINUOUS
 70
0
 71
3
 72
15
 73
11
 74
9
 42
0.0000001
 43
0.0000001
 44
0.0000000001
 12
-0.0155315738
 22
0.0294033606
 32
0.0
 13
0.0071603998
 23
0.0324733133
 33
0.0
 40
0.0
 40
0.0
 40
0.0
 40
0.0
 40
0.1042549605
 40
0.2126185234
 40
0.3257649352
 40
0.4445746562
 40
0.5701159231
 40
0.7036166484
 40
0.8464302627
 40
1.0
 40
1.0
 40
1.0
 40
1.0
 10
6.333978778
 20
5.2163997242
 30
0.0
 10
6.3334390302
 20
5.2174215396
 30
0.0
 10
6.332423137
 20
5.2195516276
 30
0.0
 10
6.3311519207
 20
5.2229361565
 30
0.0
 10
6.3301456286
 20
5.2265771848
 30
0.0
 10
6.329444409
 20
5.230483048
 30
0.0
 10
6.3290879895
 20
5.2346620796
 30
0.0
 10
6.3291158111
 20
5.2391224236
 30
0.0
 10
6.3295668142
 20
5.2438717926
 30
0.0
 10
6.3301523682
 20
5.2471088098
 30
0.0
 10
6.3305189085
 20
5.2487711158
 30
0.0
 11
6.333978778
 21
5.2163997242
 31
0.0
 11
6.3324875369
 21
5.2195294382
 31
0.0
 11
6.3312206992
 21
5.2229028652
 31
0.0
 11
6.3302173145
 21
5.2265291073
 31
0.0
 11
6.3295164318
 21
5.2304172665
 31
0.0
 11
6.3291571006
 21
5.2345764448
 31
0.0
 11
6.3291783701
 21
5.2390157445
 31
0.0
 11
6.3296192896
 21
5.2437442674
 31
0.0
 11
6.3305189085
 21
5.2487711158
 31
0.0
  0
SPLINE
  5
47C
100
AcDbEntity
  8
0
100
AcDbSpline
 62
9
  6
CONTINUOUS
 70
0
 71
3
 72
11
 73
7
 74
5
 42
0.0000001
 43
0.0000001
 44
0.0000000001
 12
-0.0223860211
 22
0.0
 32
0.0
 13
-0.02237378
 23
0.00074021
 33
0.0
 40
0.0
 40
0.0
 40
0.0
 40
0.0
 40
0.3145930361
 40
0.580691758
 40
0.8107187382
 40
1.0
 40
1.0
 40
1.0
 40
1.0
 10
4.8616911092
 20
4.7704438326
 30
0.0
 10
4.8593436137
 20
4.7704438326
 30
0.0
 10
4.8550104499
 20
4.7704592801
 30
0.0
 10
4.8489612924
 20
4.7705404258
 30
0.0
 10
4.843848185
 20
4.7706635299
 30
0.0
 10
4.8407208356
 20
4.770761821
 30
0.0
 10
4.8393091898
 20
4.7708085237
 30
0.0
 11
4.8616911092
 21
4.7704438326
 31
0.0
 11
4.8546486836
 21
4.7704730951
 31
0.0
 11
4.8486923605
 21
4.7705553851
 31
0.0
 11
4.843544426
 21
4.770677764
 31
0.0
 11
4.8393091898
 21
4.7708085237
 31
0.0
  0
SPLINE
  5
47D
100
AcDbEntity
  8
0
100
AcDbSpline
 62
9
  6
CONTINUOUS
 70
0
 71
3
 72
22
 73
18
 74
16
 42
0.0000001
 43
0.0000001
 44
0.0000000001
 12
-0.0052263789
 22
0.0302752824
 32
0.0
 13
0.0214768013
 23
0.0219694053
 33
0.0
 40
0.0
 40
0.0
 40
0.0
 40
0.0
 40
0.0352591763
 40
0.0724346358
 40
0.1539285436
 40
0.1990643163
 40
0.2476073557
 40
0.2999347761
 40
0.3564183089
 40
0.4174225045
 40
0.4833039017
 40
0.5544108669
 40
0.6310838604
 40
0.7136559477
 40
0.8024534316
 40
0.8977965231
 40
1.0
 40
1.0
 40
1.0
 40
1.0
 10
6.3798204733
 20
5.0814472958
 30
0.0
 10
6.3797590474
 20
5.081803123
 30
0.0
 10
6.3796694821
 20
5.0825409069
 30
0.0
 10
6.3796268737
 20
5.0841184967
 30
0.0
 10
6.3798110032
 20
5.0857953894
 30
0.0
 10
6.3802090846
 20
5.0875456024
 30
0.0
 10
6.3806467365
 20
5.0889768432
 30
0.0
 10
6.3812213229
 20
5.0904835386
 30
0.0
 10
6.381940822
 20
5.0920679343
 30
0.0
 10
6.3828132086
 20
5.0937319106
 30
0.0
 10
6.3838464917
 20
5.0954774765
 30
0.0
 10
6.3850487
 20
5.0973066093
 30
0.0
 10
6.3864278804
 20
5.0992212958
 30
0.0
 10
6.3879920921
 20
5.101223514
 30
0.0
 10
6.3897494096
 20
5.103315243
 30
0.0
 10
6.3917078895
 20
5.1054984323
 30
0.0
 10
6.3931031778
 20
5.1069638045
 30
0.0
 10
6.3938348457
 20
5.1077122544
 30
0.0
 11
6.3798204733
 21
5.0814472958
 31
0.0
 11
6.379688323
 21
5.0825224756
 31
0.0
 11
6.3796554559
 21
5.0836641472
 31
0.0
 11
6.3799121035
 21
5.0861547026
 31
0.0
 11
6.3802171078
 21
5.0875074543
 31
0.0
 11
6.3806506724
 21
5.088934434
 31
0.0
 11
6.3812208779
 21
5.0904375758
 31
0.0
 11
6.3819358048
 21
5.0920188136
 31
0.0
 11
6.3828035335
 21
5.0936800814
 31
0.0
 11
6.3838321446
 21
5.0954233133
 31
0.0
 11
6.3850297184
 21
5.0972504433
 31
0.0
 11
6.3864043354
 21
5.0991634053
 31
0.0
 11
6.3879640762
 21
5.1011641334
 31
0.0
 11
6.3897170212
 21
5.1032545616
 31
0.0
 11
6.3916712509
 21
5.1054366239
 31
0.0
 11
6.3938348457
 21
5.1077122544
 31
0.0
  0
LINE
  5
47E
100
AcDbEntity
  8
0
100
AcDbLine
 62
9
  6
CONTINUOUS
 10
4.8393091898
 20
4.7708085237
 11
4.8331909513
 21
4.7708953301
  0
SPLINE
  5
47F
100
AcDbEntity
  8
0
100
AcDbSpline
 62
9
  6
CONTINUOUS
 70
0
 71
3
 72
25
 73
21
 74
19
 42
0.0000001
 43
0.0000001
 44
0.0000000001
 12
0.0027427001
 22
0.0110242209
 32
0.0
 13
-0.0113389235
 23
0.0006961786
 33
0.0
 40
0.0
 40
0.0
 40
0.0
 40
0.0
 40
0.0067659317
 40
0.0140199363
 40
0.0227940641
 40
0.0336111317
 40
0.0466837986
 40
0.0620757348
 40
0.0797787233
 40
0.0997474178
 40
0.1462008821
 40
0.2007940102
 40
0.2627871604
 40
0.3313664539
 40
0.405587264
 40
0.484469412
 40
0.5670243676
 40
0.652258263
 40
0.8267697392
 40
1.0
 40
1.0
 40
1.0
 40
1.0
 10
6.7872536765
 20
4.8861757858
 30
0.0
 10
6.7872598621
 20
4.8862006489
 30
0.0
 10
6.7872610157
 20
4.8862560425
 30
0.0
 10
6.7872224786
 20
4.8863357697
 30
0.0
 10
6.7871514619
 20
4.8864098214
 30
0.0
 10
6.7870499777
 20
4.886481347
 30
0.0
 10
6.786918391
 20
4.8865512576
 30
0.0
 10
6.7867574098
 20
4.8866198177
 30
0.0
 10
6.7865679495
 20
4.8866870406
 30
0.0
 10
6.7862630251
 20
4.8867795409
 30
0.0
 10
6.7858175623
 20
4.8868883233
 30
0.0
 10
6.7852117786
 20
4.8870080319
 30
0.0
 10
6.7845198285
 20
4.8871220048
 30
0.0
 10
6.7837518316
 20
4.8872299945
 30
0.0
 10
6.7829185653
 20
4.8873320459
 30
0.0
 10
6.7820313541
 20
4.8874281591
 30
0.0
 10
6.7811016208
 20
4.8875183684
 30
0.0
 10
6.7798103624
 20
4.8876317045
 30
0.0
 10
6.7781754886
 20
4.8877564425
 30
0.0
 10
6.7768614734
 20
4.8878425352
 30
0.0
 10
6.7762067252
 20
4.8878827349
 30
0.0
 11
6.7872536765
 21
4.8861757858
 31
0.0
 11
6.7872551865
 21
4.8862526339
 31
0.0
 11
6.7872219142
 21
4.8863280258
 31
0.0
 11
6.7871550528
 21
4.8864019512
 31
0.0
 11
6.787055796
 21
4.8864743996
 31
0.0
 11
6.7869253372
 21
4.8865453606
 31
0.0
 11
6.7867648701
 21
4.8866148238
 31
0.0
 11
6.786575588
 21
4.8866827787
 31
0.0
 11
6.7863586846
 21
4.8867492149
 31
0.0
 11
6.7858467878
 21
4.8868774895
 31
0.0
 11
6.7852387276
 21
4.8869995639
 31
0.0
 11
6.7845440525
 21
4.8871153547
 31
0.0
 11
6.7837727006
 21
4.8872248143
 31
0.0
 11
6.7829358708
 21
4.8873280111
 31
0.0
 11
6.782045016
 21
4.8874250367
 31
0.0
 11
6.7811115891
 21
4.8875159831
 31
0.0
 11
6.780147043
 21
4.8876009417
 31
0.0
 11
6.778170405
 21
4.8877532632
 31
0.0
 11
6.7762067252
 21
4.8878827349
 31
0.0
  0
SPLINE
  5
480
100
AcDbEntity
  8
0
100
AcDbSpline
 62
6
  6
CONTINUOUS
 70
0
 71
3
 72
25
 73
21
 74
19
 42
0.0000001
 43
0.0000001
 44
0.0000000001
 12
-0.0006342975
 22
0.0140404767
 32
0.0
 13
-0.0140204022
 23
0.0009826706
 33
0.0
 40
0.0
 40
0.0
 40
0.0
 40
0.0
 40
0.0066212136
 40
0.0137770685
 40
0.0218790527
 40
0.0312138576
 40
0.0419696009
 40
0.0542689869
 40
0.0681936305
 40
0.0837993631
 40
0.1201941545
 40
0.1636659176
 40
0.2143283399
 40
0.2722501641
 40
0.3374748608
 40
0.410030689
 40
0.4899362385
 40
0.5772036724
 40
0.7738493019
 40
1.0
 40
1.0
 40
1.0
 40
1.0
 10
6.794464396
 20
4.9605070946
 30
0.0
 10
6.7944629961
 20
4.960538083
 30
0.0
 10
6.7944503493
 20
4.960602424
 30
0.0
 10
6.7944040088
 20
4.9606949143
 30
0.0
 10
6.7943313524
 20
4.9607851845
 30
0.0
 10
6.7942328373
 20
4.9608737769
 30
0.0
 10
6.7941084451
 20
4.9609611575
 30
0.0
 10
6.7939580506
 20
4.9610475224
 30
0.0
 10
6.7937815501
 20
4.9611329702
 30
0.0
 10
6.7934963569
 20
4.9612518525
 30
0.0
 10
6.79307212
 20
4.9613950708
 30
0.0
 10
6.7924819645
 20
4.9615560776
 30
0.0
 10
6.7917870341
 20
4.9617135708
 30
0.0
 10
6.7909873096
 20
4.9618674229
 30
0.0
 10
6.7900827327
 20
4.9620174499
 30
0.0
 10
6.7890733449
 20
4.9621635223
 30
0.0
 10
6.7879592013
 20
4.9623055374
 30
0.0
 10
6.7862654794
 20
4.9624970239
 30
0.0
 10
6.7838862363
 20
4.9627214921
 30
0.0
 10
6.7819111718
 20
4.9628728023
 30
0.0
 10
6.7808542638
 20
4.9629468795
 30
0.0
 11
6.794464396
 21
4.9605070946
 31
0.0
 11
6.7944470213
 21
4.9605985181
 31
0.0
 11
6.7944032059
 21
4.9606890463
 31
0.0
 11
6.7943329619
 21
4.9607786708
 31
0.0
 11
6.7942363015
 21
4.9608673832
 31
0.0
 11
6.7941132369
 21
4.9609551751
 31
0.0
 11
6.7939637804
 21
4.9610420381
 31
0.0
 11
6.7937879441
 21
4.9611279639
 31
0.0
 11
6.7935857402
 21
4.9612129438
 31
0.0
 11
6.7931022783
 21
4.961380033
 31
0.0
 11
6.7925134924
 21
4.9615432383
 31
0.0
 11
6.7918194798
 21
4.9617024925
 31
0.0
 11
6.7910203383
 21
4.9618577283
 31
0.0
 11
6.7901161652
 21
4.9620088784
 31
0.0
 11
6.7891070581
 21
4.9621558756
 31
0.0
 11
6.7879931146
 21
4.9622986526
 31
0.0
 11
6.7867744322
 21
4.9624371421
 31
0.0
 11
6.7840232407
 21
4.9627009895
 31
0.0
 11
6.7808542638
 21
4.9629468795
 31
0.0
  0
SPLINE
  5
481
100
AcDbEntity
  8
0
100
AcDbSpline
 62
9
  6
CONTINUOUS
 70
0
 71
3
 72
15
 73
11
 74
9
 42
0.0000001
 43
0.0000001
 44
0.0000000001
 12
-0.0742756678
 22
-0.0635494447
 32
0.0
 13
-0.0977482527
 23
-0.0008281525
 33
0.0
 40
0.0
 40
0.0
 40
0.0
 40
0.0
 40
0.1337371487
 40
0.2648379548
 40
0.393339955
 40
0.5192921596
 40
0.6427723788
 40
0.7639062019
 40
0.8828875014
 40
1.0
 40
1.0
 40
1.0
 40
1.0
 10
5.0312704629
 20
4.7696665584
 30
0.0
 10
5.0279593242
 20
4.7668335846
 30
0.0
 10
5.0211830949
 20
4.7614735245
 30
0.0
 10
5.0105244513
 20
4.7543328236
 30
0.0
 10
4.9995456786
 20
4.7481970223
 30
0.0
 10
4.9883221412
 20
4.7430941093
 30
0.0
 10
4.9769282229
 20
4.7390515244
 30
0.0
 10
4.9654378524
 20
4.7360972969
 30
0.0
 10
4.9539269657
 20
4.7342598757
 30
0.0
 10
4.9462326935
 20
4.7337956858
 30
0.0
 10
4.9424168462
 20
4.7337633568
 30
0.0
 11
5.0312704629
 21
4.7696665584
 31
0.0
 11
5.0210135648
 21
4.7615609763
 31
0.0
 11
5.0103628329
 21
4.7544339353
 31
0.0
 11
4.9993937836
 21
4.7483129767
 31
0.0
 11
4.9881819332
 21
4.7432256414
 31
0.0
 11
4.976802798
 21
4.7391994707
 31
0.0
 11
4.9653318942
 21
4.7362620056
 31
0.0
 11
4.9538447381
 21
4.7344407873
 31
0.0
 11
4.9424168462
 21
4.7337633568
 31
0.0
  0
SPLINE
  5
482
100
AcDbEntity
  8
0
100
AcDbSpline
 62
9
  6
CONTINUOUS
 70
0
 71
3
 72
16
 73
12
 74
10
 42
0.0000001
 43
0.0000001
 44
0.0000000001
 12
0.0256625611
 22
-0.0452647078
 32
0.0
 13
0.0498405234
 23
-0.014946004
 33
0.0
 40
0.0
 40
0.0
 40
0.0
 40
0.0
 40
0.1568397582
 40
0.3036083246
 40
0.4405574856
 40
0.5680857951
 40
0.6867846779
 40
0.797495123
 40
0.9013705857
 40
0.9512375634
 40
1.0
 40
1.0
 40
1.0
 40
1.0
 10
4.8980242585
 20
4.7708085237
 30
0.0
 10
4.8993658951
 20
4.7684420884
 30
0.0
 10
4.902076131
 20
4.7639236837
 30
0.0
 10
4.9063819277
 20
4.7576054256
 30
0.0
 10
4.9107864184
 20
4.7519871232
 30
0.0
 10
4.9152838735
 20
4.7470837331
 30
0.0
 10
4.9198699122
 20
4.7429102439
 30
0.0
 10
4.9245397685
 20
4.7394831965
 30
0.0
 10
4.9285541806
 20
4.7372339775
 30
0.0
 10
4.931785464
 20
4.7358507761
 30
0.0
 10
4.9334054358
 20
4.7352949685
 30
0.0
 10
4.9342155509
 20
4.735052034
 30
0.0
 11
4.8980242585
 21
4.7708085237
 31
0.0
 11
4.9022346402
 21
4.7638176203
 31
0.0
 11
4.9065490078
 21
4.7575162175
 31
0.0
 11
4.9109601584
 21
4.7519197565
 31
0.0
 11
4.9154608889
 21
4.7470436791
 31
0.0
 11
4.9200439964
 21
4.7429034266
 31
0.0
 11
4.924702278
 21
4.7395144406
 31
0.0
 11
4.9294285305
 21
4.7368921625
 31
0.0
 11
4.9318148949
 21
4.7358733645
 31
0.0
 11
4.9342155509
 21
4.735052034
 31
0.0
  0
SPLINE
  5
483
100
AcDbEntity
  8
0
100
AcDbSpline
 62
9
  6
CONTINUOUS
 70
0
 71
3
 72
9
 73
5
 74
3
 42
0.0000001
 43
0.0000001
 44
0.0000000001
 12
0.0076477868
 22
-0.0022933919
 32
0.0
 13
0.0079813491
 23
-0.0002153056
 33
0.0
 40
0.0
 40
0.0
 40
0.0
 40
0.0
 40
0.5034087678
 40
1.0
 40
1.0
 40
1.0
 40
1.0
 10
4.9342155509
 20
4.735052034
 30
0.0
 10
4.9354988719
 20
4.7346671962
 30
0.0
 10
4.9380987909
 20
4.734060574
 30
0.0
 10
4.9407573364
 20
4.7338061542
 30
0.0
 10
4.9420784924
 20
4.7337705145
 30
0.0
 11
4.9342155509
 21
4.735052034
 31
0.0
 11
4.9381313731
 21
4.7341456936
 31
0.0
 11
4.9420784924
 21
4.7337705145
 31
0.0
  0
SPLINE
  5
484
100
AcDbEntity
  8
0
100
AcDbSpline
 62
9
  6
CONTINUOUS
 70
0
 71
3
 72
29
 73
25
 74
23
 42
0.0000001
 43
0.0000001
 44
0.0000000001
 12
0.0048684092
 22
0.0066975927
 32
0.0
 13
-0.0082795089
 23
0.0000942791
 33
0.0
 40
0.0
 40
0.0
 40
0.0
 40
0.0
 40
0.0020112067
 40
0.0037803524
 40
0.0077249574
 40
0.0103833793
 40
0.0136146645
 40
0.0219230285
 40
0.032768193
 40
0.0461396801
 40
0.0619871526
 40
0.0802430949
 40
0.1008314635
 40
0.1236715252
 40
0.1486797619
 40
0.1757709006
 40
0.235853203
 40
0.3031596565
 40
0.3768509904
 40
0.4560791474
 40
0.539993528
 40
0.6277419272
 40
0.8113265646
 40
1.0
 40
1.0
 40
1.0
 40
1.0
 10
6.7519238732
 20
4.8098063448
 30
0.0
 10
6.751927137
 20
4.8098108349
 30
0.0
 10
6.7519323514
 20
4.8098201305
 30
0.0
 10
6.7519345846
 20
4.8098421085
 30
0.0
 10
6.7519202518
 20
4.8098629748
 30
0.0
 10
6.7518990309
 20
4.8098795463
 30
0.0
 10
6.7518650441
 20
4.8098994661
 30
0.0
 10
6.7518074691
 20
4.8099223567
 30
0.0
 10
6.751721289
 20
4.8099477029
 30
0.0
 10
6.7516134386
 20
4.809972343
 30
0.0
 10
6.7514845992
 20
4.8099963295
 30
0.0
 10
6.7513354297
 20
4.8100195592
 30
0.0
 10
6.7511666569
 20
4.8100420147
 30
0.0
 10
6.7509790082
 20
4.8100636681
 30
0.0
 10
6.7507732213
 20
4.8100845076
 30
0.0
 10
6.7504648292
 20
4.8101121516
 30
0.0
 10
6.7500396264
 20
4.8101439369
 30
0.0
 10
6.7494856578
 20
4.8101776821
 30
0.0
 10
6.7488785911
 20
4.8102082559
 30
0.0
 10
6.7482254967
 20
4.8102357062
 30
0.0
 10
6.747533459
 20
4.8102600928
 30
0.0
 10
6.7465533939
 20
4.8102890407
 30
0.0
 10
6.745284064
 20
4.8103171974
 30
0.0
 10
6.7442567276
 20
4.8103322472
 30
0.0
 10
6.7437360198
 20
4.8103381765
 30
0.0
 11
6.7519238732
 21
4.8098063448
 31
0.0
 11
6.7519315187
 21
4.8098211389
 31
0.0
 11
6.7519328595
 21
4.809835726
 31
0.0
 11
6.7519169992
 21
4.8098642781
 31
0.0
 11
6.751899984
 21
4.8098782425
 31
0.0
 11
6.7518770361
 21
4.8098919988
 31
0.0
 11
6.7518137142
 21
4.8099188856
 31
0.0
 11
6.7517277775
 21
4.8099449363
 31
0.0
 11
6.7516199698
 21
4.8099701485
 31
0.0
 11
6.7514910351
 21
4.8099945197
 31
0.0
 11
6.7513417174
 21
4.8100180477
 31
0.0
 11
6.7511727605
 21
4.81004073
 31
0.0
 11
6.7509849084
 21
4.8100625643
 31
0.0
 11
6.750778905
 21
4.8100835483
 31
0.0
 11
6.7505554943
 21
4.8101036795
 31
0.0
 11
6.7500594403
 21
4.8101413754
 31
0.0
 11
6.7495031966
 21
4.8101756792
 31
0.0
 11
6.7488938167
 21
4.8102066732
 31
0.0
 11
6.7482383919
 21
4.8102344433
 31
0.0
 11
6.7475440138
 21
4.8102590756
 31
0.0
 11
6.7468177736
 21
4.8102806559
 31
0.0
 11
6.7452980726
 21
4.8103150045
 31
0.0
 11
6.7437360198
 21
4.8103381765
 31
0.0
  0
SPLINE
  5
485
100
AcDbEntity
  8
0
100
AcDbSpline
 62
9
  6
CONTINUOUS
 70
0
 71
3
 72
15
 73
11
 74
9
 42
0.0000001
 43
0.0000001
 44
0.0000000001
 12
0.0797480515
 22
-0.0654148478
 32
0.0
 13
0.1029690194
 23
-0.0060195582
 33
0.0
 40
0.0
 40
0.0
 40
0.0
 40
0.0
 40
0.1251988565
 40
0.2501213866
 40
0.3749053685
 40
0.4996576073
 40
0.6244645573
 40
0.7494031247
 40
0.8745515124
 40
1.0
 40
1.0
 40
1.0
 40
1.0
 10
4.8393091898
 20
4.7708085237
 30
0.0
 10
4.8426373114
 20
4.7680785689
 30
0.0
 10
4.8495112673
 20
4.7628927779
 30
0.0
 10
4.8604010552
 20
4.755972228
 30
0.0
 10
4.8717904034
 20
4.749940495
 30
0.0
 10
4.8836124149
 20
4.7448194476
 30
0.0
 10
4.8958013145
 20
4.7406301894
 30
0.0
 10
4.9082914721
 20
4.7373941992
 30
0.0
 10
4.9210160473
 20
4.7351331312
 30
0.0
 10
4.9296012676
 20
4.7342913379
 30
0.0
 10
4.9339070368
 20
4.7340396231
 30
0.0
 11
4.8393091898
 21
4.7708085237
 31
0.0
 11
4.849616893
 21
4.7630295346
 31
0.0
 11
4.8604906196
 21
4.7561166351
 31
0.0
 11
4.8718640763
 21
4.7500914771
 31
0.0
 11
4.8836709694
 21
4.7449757124
 31
0.0
 11
4.8958450055
 21
4.7407909929
 31
0.0
 11
4.9083198911
 21
4.7375589702
 31
0.0
 11
4.9210293327
 21
4.7353012964
 31
0.0
 11
4.9339070368
 21
4.7340396231
 31
0.0
  0
SPLINE
  5
486
100
AcDbEntity
  8
0
100
AcDbSpline
 62
9
  6
CONTINUOUS
 70
0
 71
3
 72
29
 73
25
 74
23
 42
0.0000001
 43
0.0000001
 44
0.0000000001
 12
0.0049006143
 22
0.0064736864
 32
0.0
 13
-0.0081192003
 23
0.0000567741
 33
0.0
 40
0.0
 40
0.0
 40
0.0
 40
0.0
 40
0.0018903677
 40
0.0035385771
 40
0.0073063542
 40
0.0099106967
 40
0.0131022666
 40
0.0213571647
 40
0.0321665787
 40
0.045510898
 40
0.0613354803
 40
0.0795706786
 40
0.1001394178
 40
0.1229605427
 40
0.1479504772
 40
0.1750241198
 40
0.2350750563
 40
0.3023565447
 40
0.3760347449
 40
0.4552681105
 40
0.5392128835
 40
0.6270239099
 40
0.8108594003
 40
1.0
 40
1.0
 40
1.0
 40
1.0
 10
6.7495842305
 20
4.8066579041
 30
0.0
 10
6.7495873185
 20
4.8066619833
 30
0.0
 10
6.7495922794
 20
4.8066704501
 30
0.0
 10
6.7495940652
 20
4.8066909656
 30
0.0
 10
6.7495793973
 20
4.8067098939
 30
0.0
 10
6.7495585906
 20
4.8067248146
 30
0.0
 10
6.7495249263
 20
4.8067429695
 30
0.0
 10
6.7494682432
 20
4.8067637185
 30
0.0
 10
6.7493835228
 20
4.8067866731
 30
0.0
 10
6.749277594
 20
4.8068089236
 30
0.0
 10
6.7491511087
 20
4.80683053
 30
0.0
 10
6.7490047228
 20
4.8068513892
 30
0.0
 10
6.748839143
 20
4.8068714874
 30
0.0
 10
6.7486550792
 20
4.8068907986
 30
0.0
 10
6.7484532489
 20
4.8069093127
 30
0.0
 10
6.7481507974
 20
4.8069337708
 30
0.0
 10
6.7477338167
 20
4.8069616839
 30
0.0
 10
6.7471905691
 20
4.8069910066
 30
0.0
 10
6.7465951939
 20
4.8070172438
 30
0.0
 10
6.7459545653
 20
4.8070404505
 30
0.0
 10
6.7452755693
 20
4.8070606926
 30
0.0
 10
6.7443134564
 20
4.8070841771
 30
0.0
 10
6.7430665251
 20
4.8071058866
 30
0.0
 10
6.742057122
 20
4.8071161501
 30
0.0
 10
6.7415452318
 20
4.8071197295
 30
0.0
 11
6.7495842305
 21
4.8066579041
 31
0.0
 11
6.7495914499
 21
4.8066714488
 31
0.0
 11
6.7495925072
 21
4.8066847894
 31
0.0
 11
6.749576497
 21
4.8067108576
 31
0.0
 11
6.7495596103
 21
4.8067235848
 31
0.0
 11
6.7495369232
 21
4.806736107
 31
0.0
 11
6.7494745089
 21
4.8067605362
 31
0.0
 11
6.7493899776
 21
4.8067841437
 31
0.0
 11
6.7492840524
 21
4.806806928
 31
0.0
 11
6.7491574568
 21
4.8068288875
 31
0.0
 11
6.7490109139
 21
4.8068500209
 31
0.0
 11
6.7488451472
 21
4.8068703265
 31
0.0
 11
6.7486608798
 21
4.8068898029
 31
0.0
 11
6.7484588351
 21
4.8069084487
 31
0.0
 11
6.7482397364
 21
4.8069262623
 31
0.0
 11
6.7477532855
 21
4.8069593884
 31
0.0
 11
6.7472078151
 21
4.8069892153
 31
0.0
 11
6.7466101848
 21
4.80701583
 31
0.0
 11
6.7459672865
 21
4.8070393222
 31
0.0
 11
6.7452860126
 21
4.8070597816
 31
0.0
 11
6.7445732551
 21
4.807077298
 31
0.0
 11
6.7430808578
 21
4.807103861
 31
0.0
 11
6.7415452318
 21
4.8071197295
 31
0.0
  0
SPLINE
  5
487
100
AcDbEntity
  8
0
100
AcDbSpline
 62
9
  6
CONTINUOUS
 70
0
 71
3
 72
15
 73
11
 74
9
 42
0.0000001
 43
0.0000001
 44
0.0000000001
 12
0.1651600325
 22
-0.3492699123
 32
0.0
 13
0.0015378353
 23
-0.3863482148
 33
0.0
 40
0.0
 40
0.0
 40
0.0
 40
0.0
 40
0.1202169548
 40
0.2423069719
 40
0.3660392554
 40
0.4911579846
 40
0.6173915223
 40
0.7444607966
 40
0.87208716
 40
1.0
 40
1.0
 40
1.0
 40
1.0
 10
6.6988437785
 20
5.3374739014
 30
0.0
 10
6.7054621239
 20
5.3234778463
 30
0.0
 10
6.7179351945
 20
5.2948498317
 30
0.0
 10
6.7342252623
 20
5.2505883741
 30
0.0
 10
6.7481980434
 20
5.2048806886
 30
0.0
 10
6.7597959357
 20
5.1579650408
 30
0.0
 10
6.7689622775
 20
5.1100772262
 30
0.0
 10
6.7756397779
 20
5.0614532202
 30
0.0
 10
6.7797709911
 20
5.012331221
 30
0.0
 10
6.7807886874
 20
4.9794190941
 30
0.0
 10
6.780854257
 20
4.9629461283
 30
0.0
 11
6.6988437785
 21
5.3374739014
 31
0.0
 11
6.7174228971
 21
5.2949057814
 31
0.0
 11
6.7337377119
 21
5.2506474356
 31
0.0
 11
6.747730688
 21
5.204937141
 31
0.0
 11
6.7593442901
 21
5.1580131744
 31
0.0
 11
6.7685209832
 21
5.1101138129
 31
0.0
 11
6.7752032321
 21
5.0614773334
 31
0.0
 11
6.7793335017
 21
5.0123420129
 31
0.0
 11
6.780854257
 21
4.9629461283
 31
0.0
  0
LINE
  5
488
100
AcDbEntity
  8
0
100
AcDbLine
 62
9
  6
CONTINUOUS
 10
6.6053308194
 20
4.7337659236
 11
6.6049890884
 21
4.7337633568
  0
LINE
  5
489
100
AcDbEntity
  8
0
100
AcDbLine
 62
9
  6
CONTINUOUS
 10
6.7142149833
 20
4.7708953301
 11
6.7080967448
 21
4.7708085237
  0
LINE
  5
48A
100
AcDbEntity
  8
0
100
AcDbLine
 62
9
  6
CONTINUOUS
 10
6.2369407135
 20
5.5341921105
 11
6.2382719865
 21
5.5341466974
  0
LINE
  5
48B
100
AcDbEntity
  8
0
100
AcDbLine
 62
9
  6
CONTINUOUS
 10
6.2480345218
 20
5.5337828104
 11
6.249650948
 21
5.5337173925
  0
SPLINE
  5
48C
100
AcDbEntity
  8
0
100
AcDbSpline
 62
9
  6
CONTINUOUS
 70
0
 71
3
 72
16
 73
12
 74
10
 42
0.0000001
 43
0.0000001
 44
0.0000000001
 12
0.2523052665
 22
-0.0103599444
 32
0.0
 13
0.2468262638
 23
-0.0533110818
 33
0.0
 40
0.0
 40
0.0
 40
0.0
 40
0.0
 40
0.1049087125
 40
0.2185184053
 40
0.33933814
 40
0.4658948518
 40
0.530870075
 40
0.5967296122
 40
0.7303527501
 40
0.8652728608
 40
1.0
 40
1.0
 40
1.0
 40
1.0
 10
6.249650948
 20
5.5337173925
 30
0.0
 10
6.2584739549
 20
5.5333551097
 30
0.0
 10
6.2768448963
 20
5.5324245813
 30
0.0
 10
6.3053410119
 20
5.5304468436
 30
0.0
 10
6.3356078388
 20
5.5277444661
 30
0.0
 10
6.3617416569
 20
5.5248476098
 30
0.0
 10
6.38323072
 20
5.5220863017
 30
0.0
 10
6.4052760113
 20
5.5189982926
 30
0.0
 10
6.4330843735
 20
5.5146252188
 30
0.0
 10
6.4664946163
 20
5.5086129999
 30
0.0
 10
6.4887384783
 20
5.5040883613
 30
0.0
 10
6.4998232104
 20
5.5016942114
 30
0.0
 11
6.249650948
 21
5.5337173925
 31
0.0
 11
6.2761086224
 21
5.5323825656
 31
0.0
 11
6.3047283467
 21
5.5303975863
 31
0.0
 11
6.3351163833
 21
5.5276818914
 31
0.0
 11
6.3668789944
 21
5.5241549178
 31
0.0
 11
6.3831527746
 21
5.5220651759
 31
0.0
 11
6.3996228241
 21
5.5197590991
 31
0.0
 11
6.432955905
 21
5.5145204126
 31
0.0
 11
6.4664865846
 21
5.5084838021
 31
0.0
 11
6.4998232104
 21
5.5016942114
 31
0.0
  0
SPLINE
  5
48D
100
AcDbEntity
  8
0
100
AcDbSpline
 62
9
  6
CONTINUOUS
 70
0
 71
3
 72
14
 73
10
 74
8
 42
0.0000001
 43
0.0000001
 44
0.0000000001
 12
-0.0230606041
 22
0.01412314
 32
0.0
 13
-0.0270417186
 23
0.0
 33
0.0
 40
0.0
 40
0.0
 40
0.0
 40
0.0
 40
0.2146094836
 40
0.3300623101
 40
0.4513989645
 40
0.5788920833
 40
0.7127394977
 40
0.8530788905
 40
1.0
 40
1.0
 40
1.0
 40
1.0
 10
6.6988437785
 20
5.3374739014
 30
0.0
 10
6.6971941038
 20
5.3384842213
 30
0.0
 10
6.6944932002
 20
5.339780336
 30
0.0
 10
6.6906416617
 20
5.3410972481
 30
0.0
 10
6.6874623712
 20
5.3419309453
 30
0.0
 10
6.684072969
 20
5.3425830407
 30
0.0
 10
6.6804805688
 20
5.3430512318
 30
0.0
 10
6.6766934829
 20
5.3433326785
 30
0.0
 10
6.6741036132
 20
5.3433925863
 30
0.0
 10
6.6727792801
 20
5.3433925863
 30
0.0
 11
6.6988437785
 21
5.3374739014
 31
0.0
 11
6.6936330393
 21
5.3400288487
 31
0.0
 11
6.6906808832
 21
5.3410446861
 31
0.0
 11
6.6875084374
 21
5.3418822685
 31
0.0
 11
6.6841238782
 21
5.3425387229
 31
0.0
 11
6.6805353815
 21
5.343011176
 31
0.0
 11
6.6767511234
 21
5.3432967548
 31
0.0
 11
6.6727792801
 21
5.3433925863
 31
0.0
  0
SPLINE
  5
48E
100
AcDbEntity
  8
0
100
AcDbSpline
 62
9
  6
CONTINUOUS
 70
0
 71
3
 72
25
 73
21
 74
19
 42
0.0000001
 43
0.0000001
 44
0.0000000001
 12
0.2253321606
 22
-0.0613228758
 32
0.0
 13
0.0970280967
 23
-0.2124161626
 33
0.0
 40
0.0
 40
0.0
 40
0.0
 40
0.0
 40
0.1064287701
 40
0.1617438276
 40
0.2184392881
 40
0.2765187569
 40
0.3359926881
 40
0.3662615915
 40
0.3968872424
 40
0.4278737964
 40
0.4592250633
 40
0.4909361694
 40
0.5229967243
 40
0.5881115105
 40
0.6544649099
 40
0.7219296638
 40
0.7903661925
 40
0.8596262658
 40
0.9295562412
 40
1.0
 40
1.0
 40
1.0
 40
1.0
 10
6.5089728127
 20
5.499460641
 30
0.0
 10
6.5169667543
 20
5.4972851349
 30
0.0
 10
6.5289061104
 20
5.4931462414
 30
0.0
 10
6.5443921939
 20
5.4861082884
 30
0.0
 10
6.5560945306
 20
5.4798951784
 30
0.0
 10
6.5676739388
 20
5.4728164063
 30
0.0
 10
6.5771206047
 20
5.4662330299
 30
0.0
 10
6.5845636231
 20
5.4605396195
 30
0.0
 10
6.5901139213
 20
5.4560268967
 30
0.0
 10
6.595592069
 20
5.451296979
 30
0.0
 10
6.6009900823
 20
5.4463498793
 30
0.0
 10
6.6063034799
 20
5.441191282
 30
0.0
 10
6.6133053756
 20
5.4340042911
 30
0.0
 10
6.6218145013
 20
5.4245280702
 30
0.0
 10
6.6315631619
 20
5.4124883751
 30
0.0
 10
6.6408664237
 20
5.3997795779
 30
0.0
 10
6.6496879962
 20
5.3864600501
 30
0.0
 10
6.6579918322
 20
5.3725877237
 30
0.0
 10
6.6657415305
 20
5.3582211163
 30
0.0
 10
6.6705009388
 20
5.3483803839
 30
0.0
 10
6.6727792801
 20
5.3433925863
 30
0.0
 11
6.5089728127
 21
5.499460641
 31
0.0
 11
6.5324744966
 21
5.4913739721
 31
0.0
 11
6.5442371475
 21
5.4860350535
 31
0.0
 11
6.5559335636
 21
5.4798310183
 31
0.0
 11
6.5675081645
 21
5.4727608214
 31
0.0
 11
6.5789053697
 21
5.4648234174
 31
0.0
 11
6.5845200799
 21
5.4605291861
 31
0.0
 11
6.5900695985
 21
5.456017761
 31
0.0
 11
6.5955469779
 21
5.4512890116
 31
0.0
 11
6.6009454641
 21
5.4463434095
 31
0.0
 11
6.6062598005
 21
5.4411860857
 31
0.0
 11
6.6114854286
 21
5.4358243433
 31
0.0
 11
6.6216523416
 21
5.4245168641
 31
0.0
 11
6.6314097664
 21
5.4124794946
 31
0.0
 11
6.6407212661
 21
5.3997707575
 31
0.0
 11
6.6495504041
 21
5.3864491755
 31
0.0
 11
6.6578607436
 21
5.3725732712
 31
0.0
 11
6.6656158478
 21
5.3582015672
 31
0.0
 11
6.6727792801
 21
5.3433925863
 31
0.0
  0
SPLINE
  5
48F
100
AcDbEntity
  8
0
100
AcDbSpline
 62
9
  6
CONTINUOUS
 70
0
 71
3
 72
15
 73
11
 74
9
 42
0.0000001
 43
0.0000001
 44
0.0000000001
 12
-0.0288094796
 22
0.0020191857
 32
0.0
 13
-0.0288801528
 23
-0.0
 33
0.0
 40
0.0
 40
0.0
 40
0.0
 40
0.0
 40
0.1046329904
 40
0.2152889742
 40
0.330546833
 40
0.4489687746
 40
0.5702740639
 40
0.698846736
 40
0.8402382564
 40
1.0
 40
1.0
 40
1.0
 40
1.0
 10
6.7808542529
 20
4.9629464761
 30
0.0
 10
6.7798494456
 20
4.9630169006
 30
0.0
 10
6.7777802111
 20
4.9631367032
 30
0.0
 10
6.7746007118
 20
4.9632670329
 30
0.0
 10
6.7712872218
 20
4.963363072
 30
0.0
 10
6.7678706104
 20
4.9634345881
 30
0.0
 10
6.7643255379
 20
4.9634917132
 30
0.0
 10
6.7605590977
 20
4.9635322988
 30
0.0
 10
6.7564223022
 20
4.9635561832
 30
0.0
 10
6.7535231802
 20
4.9635606518
 30
0.0
 10
6.7519851991
 20
4.9635606518
 30
0.0
 11
6.7808542529
 21
4.9629464761
 31
0.0
 11
6.7778377204
 21
4.9631251038
 31
0.0
 11
6.7746447634
 21
4.9632589651
 31
0.0
 11
6.7713175661
 21
4.9633577866
 31
0.0
 11
6.7678983124
 21
4.9634312953
 31
0.0
 11
6.7643954489
 21
4.9634875605
 31
0.0
 11
6.7606824709
 21
4.9635280209
 31
0.0
 11
6.7565991354
 21
4.9635524576
 31
0.0
 11
6.7519851991
 21
4.9635606518
 31
0.0
  0
SPLINE
  5
490
100
AcDbEntity
  8
0
100
AcDbSpline
 62
9
  6
CONTINUOUS
 70
0
 71
3
 72
15
 73
11
 74
9
 42
0.0000001
 43
0.0000001
 44
0.0000000001
 12
0.162397684
 22
-0.3555247811
 32
0.0
 13
0.0
 23
-0.3908591533
 33
0.0
 40
0.0
 40
0.0
 40
0.0
 40
0.0
 40
0.1197519177
 40
0.2415251265
 40
0.3650850999
 40
0.4901691267
 40
0.6164955804
 40
0.7437722371
 40
0.8717039542
 40
1.0
 40
1.0
 40
1.0
 40
1.0
 10
6.6727792801
 20
5.3433925863
 30
0.0
 10
6.6792617581
 20
5.3292009948
 30
0.0
 10
6.691459541
 20
5.3001700421
 30
0.0
 10
6.7073314602
 20
5.2553054618
 30
0.0
 10
6.7208973265
 20
5.2089659886
 30
0.0
 10
6.7321077709
 20
5.161392984
 30
0.0
 10
6.7409143265
 20
5.1128253368
 30
0.0
 10
6.7472679089
 20
5.0635021925
 30
0.0
 10
6.7511193032
 20
5.0136647987
 30
0.0
 10
6.7519851991
 20
4.9802755307
 30
0.0
 10
6.7519851991
 20
4.9635603027
 30
0.0
 11
6.6727792801
 21
5.3433925863
 31
0.0
 11
6.6909401379
 21
5.3002533078
 31
0.0
 11
6.7068396631
 21
5.2553912881
 31
0.0
 11
6.7204285051
 21
5.2090479326
 31
0.0
 11
6.7316573135
 21
5.1614646465
 31
0.0
 11
6.7404767376
 21
5.1128828351
 31
0.0
 11
6.7468374269
 21
5.0635439038
 31
0.0
 11
6.7506900309
 21
5.0136892579
 31
0.0
 11
6.7519851991
 21
4.9635603027
 31
0.0
  0
SPLINE
  5
491
100
AcDbEntity
  8
0
100
AcDbSpline
 62
9
  6
CONTINUOUS
 70
0
 71
3
 72
9
 73
5
 74
3
 42
0.0000001
 43
0.0000001
 44
0.0000000001
 12
-0.0094114832
 22
0.0
 32
0.0
 13
-0.0091849666
 23
-0.0020524147
 33
0.0
 40
0.0
 40
0.0
 40
0.0
 40
0.0
 40
0.4974081272
 40
1.0
 40
1.0
 40
1.0
 40
1.0
 10
6.2480345218
 20
5.5337828104
 30
0.0
 10
6.2464740724
 20
5.5337828104
 30
0.0
 10
6.2433345168
 20
5.5336002463
 30
0.0
 10
6.2402354062
 20
5.533072283
 30
0.0
 10
6.238696643
 20
5.5327284407
 30
0.0
 11
6.2480345218
 21
5.5337828104
 31
0.0
 11
6.2433607981
 21
5.5335157358
 31
0.0
 11
6.238696643
 21
5.5327284407
 31
0.0
  0
SPLINE
  5
492
100
AcDbEntity
  8
0
100
AcDbSpline
 62
9
  6
CONTINUOUS
 70
0
 71
3
 72
10
 73
6
 74
4
 42
0.0000001
 43
0.0000001
 44
0.0000000001
 12
-0.0143026929
 22
-0.0031959896
 32
0.0
 13
-0.0129344481
 23
-0.0068906768
 33
0.0
 40
0.0
 40
0.0
 40
0.0
 40
0.0
 40
0.2428918626
 40
0.4900827569
 40
1.0
 40
1.0
 40
1.0
 40
1.0
 10
6.238696643
 20
5.5327284407
 30
0.0
 10
6.2375386404
 20
5.5324696807
 30
0.0
 10
6.2352212769
 20
5.5318574288
 30
0.0
 10
6.2305974196
 20
5.5302723558
 30
0.0
 10
6.2272272292
 20
5.5287170586
 30
0.0
 10
6.2250287298
 20
5.5275458336
 30
0.0
 11
6.238696643
 21
5.5327284407
 31
0.0
 11
6.2352542036
 21
5.5318223769
 31
0.0
 11
6.2318261472
 21
5.5306509299
 31
0.0
 11
6.2250287298
 21
5.5275458336
 31
0.0
  0
SPLINE
  5
493
100
AcDbEntity
  8
0
100
AcDbSpline
 62
9
  6
CONTINUOUS
 70
0
 71
3
 72
11
 73
7
 74
5
 42
0.0000001
 43
0.0000001
 44
0.0000000001
 12
-0.0302689736
 22
0.0
 32
0.0
 13
-0.0275266978
 23
-0.0125893475
 33
0.0
 40
0.0
 40
0.0
 40
0.0
 40
0.0
 40
0.2299793611
 40
0.472167411
 40
0.7284550831
 40
1.0
 40
1.0
 40
1.0
 40
1.0
 10
6.4998232104
 20
5.5016942114
 30
0.0
 10
6.4975027973
 20
5.5016942114
 30
0.0
 10
6.4927345885
 20
5.5013548967
 30
0.0
 10
6.4855070606
 20
5.4999407465
 30
0.0
 10
6.4780705144
 20
5.4976491307
 30
0.0
 10
6.4731387593
 20
5.4956195339
 30
0.0
 10
6.470647181
 20
5.4944800094
 30
0.0
 11
6.4998232104
 21
5.5016942114
 31
0.0
 11
6.492877687
 21
5.5012267113
 31
0.0
 11
6.4856780327
 21
5.499846361
 31
0.0
 11
6.4782569599
 21
5.4975863854
 31
0.0
 11
6.470647181
 21
5.4944800094
 31
0.0
  0
SPLINE
  5
494
100
AcDbEntity
  8
0
100
AcDbSpline
 62
9
  6
CONTINUOUS
 70
0
 71
3
 72
16
 73
12
 74
10
 42
0.0000001
 43
0.0000001
 44
0.0000000001
 12
0.2480118762
 22
-0.0094947714
 32
0.0
 13
0.2417978714
 23
-0.0559806289
 33
0.0
 40
0.0
 40
0.0
 40
0.0
 40
0.0
 40
0.106438163
 40
0.2210566262
 40
0.3424108072
 40
0.4690739774
 40
0.5339563882
 40
0.5996308762
 40
0.7326173137
 40
0.8665631821
 40
1.0
 40
1.0
 40
1.0
 40
1.0
 10
6.2250287298
 20
5.5275458336
 30
0.0
 10
6.2338280393
 20
5.5272089649
 30
0.0
 10
6.2520955708
 20
5.5263042937
 30
0.0
 10
6.2803547571
 20
5.5243002358
 30
0.0
 10
6.3102294167
 20
5.521519519
 30
0.0
 10
6.3359443615
 20
5.5185193188
 30
0.0
 10
6.3570314567
 20
5.5156559014
 30
0.0
 10
6.3785989865
 20
5.5124553077
 30
0.0
 10
6.4057424854
 20
5.5079192611
 30
0.0
 10
6.4382746877
 20
5.5016753405
 30
0.0
 10
6.4598922682
 20
5.4969699684
 30
0.0
 10
6.470647181
 20
5.4944800094
 30
0.0
 11
6.2250287298
 21
5.5275458336
 31
0.0
 11
6.2514140748
 21
5.5262475566
 31
0.0
 11
6.2797906139
 21
5.5242385957
 31
0.0
 11
6.3097802177
 21
5.5214462043
 31
0.0
 11
6.3410047566
 21
5.5177976359
 31
0.0
 11
6.3569618782
 21
5.515632078
 31
0.0
 11
6.3730854371
 21
5.5132403523
 31
0.0
 11
6.4056408101
 21
5.5078026501
 31
0.0
 11
6.4382887624
 21
5.5015330341
 31
0.0
 11
6.470647181
 21
5.4944800094
 31
0.0
  0
SPLINE
  5
495
100
AcDbEntity
  8
0
100
AcDbSpline
 62
9
  6
CONTINUOUS
 70
0
 71
3
 72
14
 73
10
 74
8
 42
0.0000001
 43
0.0000001
 44
0.0000000001
 12
-0.0380150832
 22
0.0
 32
0.0
 13
-0.0366200691
 23
-0.0102037779
 33
0.0
 40
0.0
 40
0.0
 40
0.0
 40
0.0
 40
0.1092134793
 40
0.2231028095
 40
0.3416155536
 40
0.4646715617
 40
0.5921682766
 40
0.723984974
 40
1.0
 40
1.0
 40
1.0
 40
1.0
 10
6.6727792801
 20
5.3433925863
 30
0.0
 10
6.6713953602
 20
5.3433925863
 30
0.0
 10
6.6685679494
 20
5.343324274
 30
0.0
 10
6.6642476825
 20
5.3430346826
 30
0.0
 10
6.6597675787
 20
5.3425586848
 30
0.0
 10
6.655136736
 20
5.3418991349
 30
0.0
 10
6.6503640203
 20
5.3410588934
 30
0.0
 10
6.6437213311
 20
5.3396801349
 30
0.0
 10
6.6387078708
 20
5.3384127
 30
0.0
 10
6.635338641
 20
5.3374739014
 30
0.0
 11
6.6727792801
 21
5.3433925863
 31
0.0
 11
6.6686286267
 21
5.3432967548
 31
0.0
 11
6.6643085431
 21
5.343011176
 31
0.0
 11
6.6598281121
 21
5.3425387229
 31
0.0
 11
6.6551964164
 21
5.3418822685
 31
0.0
 11
6.6504225386
 21
5.3410446861
 31
0.0
 11
6.6455155617
 21
5.3400288487
 31
0.0
 11
6.635338641
 21
5.3374739014
 31
0.0
  0
SPLINE
  5
496
100
AcDbEntity
  8
0
100
AcDbSpline
 62
9
  6
CONTINUOUS
 70
0
 71
3
 72
22
 73
18
 74
16
 42
0.0000001
 43
0.0000001
 44
0.0000000001
 12
0.2297891176
 22
-0.0532003828
 32
0.0
 13
0.0933772778
 23
-0.2165964064
 33
0.0
 40
0.0
 40
0.0
 40
0.0
 40
0.0
 40
0.104632533
 40
0.1592111009
 40
0.2152812537
 40
0.2728496798
 40
0.3319295234
 40
0.3925431784
 40
0.4547247139
 40
0.5184993109
 40
0.583798772
 40
0.6505078446
 40
0.7184905722
 40
0.7875957702
 40
0.8576616972
 40
0.9285201272
 40
1.0
 40
1.0
 40
1.0
 40
1.0
 10
6.470647181
 20
5.4944800094
 30
0.0
 10
6.4786616535
 20
5.4926245125
 30
0.0
 10
6.4906644789
 20
5.4888873868
 30
0.0
 10
6.5062488936
 20
5.4822646854
 30
0.0
 10
6.5180628512
 20
5.4762959104
 30
0.0
 10
6.529769407
 20
5.469396233
 30
0.0
 10
6.5413082932
 20
5.4615635932
 30
0.0
 10
6.5526169239
 20
5.4527967894
 30
0.0
 10
6.5636318796
 20
5.4430951909
 30
0.0
 10
6.5742825771
 20
5.4324674495
 30
0.0
 10
6.5845353968
 20
5.4209752588
 30
0.0
 10
6.5943515379
 20
5.4086824042
 30
0.0
 10
6.6036908789
 20
5.3956542054
 30
0.0
 10
6.6125131247
 20
5.3819559158
 30
0.0
 10
6.6207779256
 20
5.3676527051
 30
0.0
 10
6.6284446118
 20
5.3528103066
 30
0.0
 10
6.6331137757
 20
5.3426346626
 30
0.0
 10
6.635338641
 20
5.3374739014
 30
0.0
 11
6.470647181
 21
5.4944800094
 31
0.0
 11
6.4942318329
 21
5.4872111761
 31
0.0
 11
6.5060827513
 21
5.4821835144
 31
0.0
 11
6.5178897876
 21
5.4762255471
 31
0.0
 11
6.5295907341
 21
5.4693361675
 31
0.0
 11
6.5411233831
 21
5.4615142689
 31
0.0
 11
6.5524255269
 21
5.4527587446
 31
0.0
 11
6.5634349576
 21
5.4430684879
 31
0.0
 11
6.5740930435
 21
5.4324535457
 31
0.0
 11
6.584355456
 21
5.4209685792
 31
0.0
 11
6.5941814424
 21
5.4086794033
 31
0.0
 11
6.6035302501
 21
5.3956518327
 31
0.0
 11
6.6123611265
 21
5.3819516824
 31
0.0
 11
6.6206333189
 21
5.3676447672
 31
0.0
 11
6.6283060746
 21
5.3527969019
 31
0.0
 11
6.635338641
 21
5.3374739014
 31
0.0
  0
SPLINE
  5
497
100
AcDbEntity
  8
0
100
AcDbSpline
 62
9
  6
CONTINUOUS
 70
0
 71
3
 72
13
 73
9
 74
7
 42
0.0000001
 43
0.0000001
 44
0.0000000001
 12
-0.0471543318
 22
0.0
 32
0.0
 13
-0.0471421758
 23
-0.0010706368
 33
0.0
 40
0.0
 40
0.0
 40
0.0
 40
0.0
 40
0.2050406737
 40
0.4191301699
 40
0.5380513973
 40
0.6710042361
 40
0.8232373692
 40
1.0
 40
1.0
 40
1.0
 40
1.0
 10
6.7519851991
 20
4.9635605939
 30
0.0
 10
6.7487623471
 20
4.9635605939
 30
0.0
 10
6.7421743886
 20
4.9635379527
 30
0.0
 10
6.7337176281
 20
4.9634526801
 30
0.0
 10
6.7263941792
 20
4.9633573007
 30
0.0
 10
6.7200431595
 20
4.9632569917
 30
0.0
 10
6.7127834657
 20
4.9631209326
 30
0.0
 10
6.7076134673
 20
4.9630095013
 30
0.0
 10
6.704835809
 20
4.9629464184
 30
0.0
 11
6.7519851991
 21
4.9635605939
 31
0.0
 11
6.7423166982
 21
4.963527963
 31
0.0
 11
6.7322219144
 21
4.9634312374
 31
0.0
 11
6.7266147452
 21
4.9633577287
 31
0.0
 11
6.7203462219
 21
4.9632589072
 31
0.0
 11
6.7131690184
 21
4.9631250461
 31
0.0
 11
6.704835809
 21
4.9629464184
 31
0.0
  0
SPLINE
  5
498
100
AcDbEntity
  8
0
100
AcDbSpline
 62
9
  6
CONTINUOUS
 70
0
 71
3
 72
15
 73
11
 74
9
 42
0.0000001
 43
0.0000001
 44
0.0000000001
 12
0.1519083821
 22
-0.3523641985
 32
0.0
 13
-0.0079543772
 23
-0.3836318715
 33
0.0
 40
0.0
 40
0.0
 40
0.0
 40
0.0
 40
0.1193059327
 40
0.2407591601
 40
0.364128099
 40
0.4891510449
 40
0.6155456757
 40
0.7430175072
 40
0.8712676262
 40
1.0
 40
1.0
 40
1.0
 40
1.0
 10
6.635338641
 20
5.3374739014
 30
0.0
 10
6.6413798314
 20
5.3234608549
 30
0.0
 10
6.6526968819
 20
5.294798097
 30
0.0
 10
6.6672651949
 20
5.2505368151
 30
0.0
 10
6.6795495914
 20
5.2048302397
 30
0.0
 10
6.6895082131
 20
5.1579165867
 30
0.0
 10
6.6971000386
 20
5.1100315964
 30
0.0
 10
6.7022834333
 20
5.0614113194
 30
0.0
 10
6.7050166778
 20
5.0122938365
 30
0.0
 10
6.7051771453
 20
4.9794080755
 30
0.0
 10
6.7048358166
 20
4.9629461283
 30
0.0
 11
6.635338641
 21
5.3374739014
 31
0.0
 11
6.6521822817
 21
5.2949057814
 31
0.0
 11
6.6667792146
 21
5.2506474356
 31
0.0
 11
6.6790875801
 21
5.204937141
 31
0.0
 11
6.6890655189
 21
5.1580131744
 31
0.0
 11
6.6966711714
 21
5.1101138129
 31
0.0
 11
6.7018626781
 21
5.0614773334
 31
0.0
 11
6.7045981797
 21
5.0123420129
 31
0.0
 11
6.7048358166
 21
4.9629461283
 31
0.0
  0
SPLINE
  5
499
100
AcDbEntity
  8
0
100
AcDbSpline
 62
9
  6
CONTINUOUS
 70
0
 71
3
 72
26
 73
22
 74
20
 42
0.0000001
 43
0.0000001
 44
0.0000000001
 12
-0.1549203886
 22
-0.0825320357
 32
0.0
 13
0.0
 23
-0.1755330844
 33
0.0
 40
0.0
 40
0.0
 40
0.0
 40
0.0
 40
0.0496325903
 40
0.0754808813
 40
0.1020266867
 40
0.1292689828
 40
0.1571977426
 40
0.1857953462
 40
0.2150377931
 40
0.2753266158
 40
0.3377901931
 40
0.4020938498
 40
0.467869261
 40
0.5347268458
 40
0.6022656387
 40
0.6700817172
 40
0.7377760317
 40
0.8049623625
 40
0.8712761015
 40
0.9363846078
 40
1.0
 40
1.0
 40
1.0
 40
1.0
 10
6.2250287298
 20
5.5275458336
 30
0.0
 10
6.2224656964
 20
5.5261804074
 30
0.0
 10
6.2187024792
 20
5.5238424008
 30
0.0
 10
6.2139044385
 20
5.5202882971
 30
0.0
 10
6.210304816
 20
5.5173260348
 30
0.0
 10
6.2067593583
 20
5.5141157582
 30
0.0
 10
6.203272807
 20
5.5106687202
 30
0.0
 10
6.1998504016
 20
5.5069965124
 30
0.0
 10
6.1953341175
 20
5.5017623863
 30
0.0
 10
6.1898942581
 20
5.4947171109
 30
0.0
 10
6.1837718051
 20
5.4856369809
 30
0.0
 10
6.1780305134
 20
5.4759367154
 30
0.0
 10
6.1727124843
 20
5.4657081438
 30
0.0
 10
6.1678597233
 20
5.45504279
 30
0.0
 10
6.1635144198
 20
5.4440324692
 30
0.0
 10
6.1597187783
 20
5.4327690301
 30
0.0
 10
6.1565150199
 20
5.4213443015
 30
0.0
 10
6.153945372
 20
5.409850099
 30
0.0
 10
6.1520520971
 20
5.3983777659
 30
0.0
 10
6.1508775682
 20
5.3870194352
 30
0.0
 10
6.150598548
 20
5.3794855588
 30
0.0
 10
6.150598548
 20
5.3757633568
 30
0.0
 11
6.2250287298
 21
5.5275458336
 31
0.0
 11
6.2176090112
 21
5.5229797042
 31
0.0
 11
6.2139605335
 21
5.5202824707
 31
0.0
 11
6.2103600582
 21
5.5173245872
 31
0.0
 11
6.2068128964
 21
5.5141176505
 31
0.0
 11
6.2033243591
 21
5.5106732576
 31
0.0
 11
6.1998997573
 21
5.5070030054
 31
0.0
 11
6.1965444021
 21
5.5031184908
 31
0.0
 11
6.1900626755
 21
5.4947530619
 31
0.0
 11
6.1839216678
 21
5.4856697461
 31
0.0
 11
6.1781638671
 21
5.4759613187
 31
0.0
 11
6.1728317617
 21
5.4657205548
 31
0.0
 11
6.16796784
 21
5.4550402296
 31
0.0
 11
6.1636145903
 21
5.4440131185
 31
0.0
 11
6.1598145009
 21
5.4327319965
 31
0.0
 11
6.15661006
 21
5.421289639
 31
0.0
 11
6.1540437559
 21
5.409778821
 31
0.0
 11
6.152158077
 21
5.3982923178
 31
0.0
 11
6.1509955116
 21
5.3869229047
 31
0.0
 11
6.150598548
 21
5.3757633568
 31
0.0
  0
SPLINE
  5
49A
100
AcDbEntity
  8
0
100
AcDbSpline
 62
9
  6
CONTINUOUS
 70
0
 71
3
 72
29
 73
25
 74
23
 42
0.0000001
 43
0.0000001
 44
0.0000000001
 12
-0.2438983023
 22
-0.111546997
 32
0.0
 13
-0.1338364076
 23
-0.2324154264
 33
0.0
 40
0.0
 40
0.0
 40
0.0
 40
0.0
 40
0.0212522206
 40
0.043238201
 40
0.0659794308
 40
0.0894894122
 40
0.1137748119
 40
0.1388364655
 40
0.1646702399
 40
0.1912677691
 40
0.2186170752
 40
0.2467030942
 40
0.2755081172
 40
0.3050121633
 40
0.3660254011
 40
0.4295512841
 40
0.4953749849
 40
0.5632677164
 40
0.6329886544
 40
0.7042871333
 40
0.7769046803
 40
0.8505765636
 40
0.9250329835
 40
1.0
 40
1.0
 40
1.0
 40
1.0
 10
6.470647181
 20
5.4944800094
 30
0.0
 10
6.4689193875
 20
5.4936898023
 30
0.0
 10
6.4654477227
 20
5.4919853893
 30
0.0
 10
6.4602853772
 20
5.4891277676
 30
0.0
 10
6.4550842815
 20
5.4859362798
 30
0.0
 10
6.449847458
 20
5.4824206285
 30
0.0
 10
6.4445776948
 20
5.4785903619
 30
0.0
 10
6.4392778947
 20
5.4744550465
 30
0.0
 10
6.4339509699
 20
5.4700242309
 30
0.0
 10
6.4285998653
 20
5.465307464
 30
0.0
 10
6.4232275419
 20
5.4603142955
 30
0.0
 10
6.4178369897
 20
5.4550542777
 30
0.0
 10
6.4124311658
 20
5.4495369707
 30
0.0
 10
6.4051254708
 20
5.4417632454
 30
0.0
 10
6.3959897101
 20
5.431454168
 30
0.0
 10
6.385132867
 20
5.4183455079
 30
0.0
 10
6.3742866554
 20
5.4044397939
 30
0.0
 10
6.3634739997
 20
5.3898138202
 30
0.0
 10
6.3527176402
 20
5.374544055
 30
0.0
 10
6.3420403653
 20
5.3587071337
 30
0.0
 10
6.3314649812
 20
5.3423797647
 30
0.0
 10
6.3210143015
 20
5.3256387221
 30
0.0
 10
6.3107111691
 20
5.3085608825
 30
0.0
 10
6.303970634
 20
5.2970274219
 30
0.0
 10
6.3006261953
 20
5.2912195915
 30
0.0
 11
6.470647181
 21
5.4944800094
 31
0.0
 11
6.46552805
 21
5.4919736621
 31
0.0
 11
6.4603663099
 21
5.4891230877
 31
0.0
 11
6.4551649959
 21
5.4859378959
 31
0.0
 11
6.4499271431
 21
5.4824276961
 31
0.0
 11
6.4446557865
 21
5.4786020982
 31
0.0
 11
6.4393539613
 21
5.4744707118
 31
0.0
 11
6.4340247027
 21
5.4700431464
 31
0.0
 11
6.4286710456
 21
5.4653290118
 31
0.0
 11
6.4232960252
 21
5.4603379175
 31
0.0
 11
6.4179026766
 21
5.4550794732
 31
0.0
 11
6.412494035
 21
5.4495632886
 31
0.0
 11
6.4070731353
 21
5.4437989733
 31
0.0
 11
6.3962067025
 21
5.4315643891
 31
0.0
 11
6.385327659
 21
5.4184525977
 31
0.0
 11
6.3744600336
 21
5.4045405066
 31
0.0
 11
6.3636268487
 21
5.3899051447
 31
0.0
 11
6.3528508758
 21
5.374623571
 31
0.0
 11
6.3421548865
 21
5.3587728445
 31
0.0
 11
6.3315616523
 21
5.3424300242
 31
0.0
 11
6.3210939447
 21
5.3256721693
 31
0.0
 11
6.3107745352
 21
5.3085763387
 31
0.0
 11
6.3006261953
 21
5.2912195915
 31
0.0
  0
SPLINE
  5
49B
100
AcDbEntity
  8
0
100
AcDbSpline
 62
9
  6
CONTINUOUS
 70
0
 71
3
 72
23
 73
19
 74
17
 42
0.0000001
 43
0.0000001
 44
0.0000000001
 12
-0.3050583567
 22
-0.0850011427
 32
0.0
 13
-0.2362599884
 23
-0.2108720303
 33
0.0
 40
0.0
 40
0.0
 40
0.0
 40
0.0
 40
0.0464328163
 40
0.0954209511
 40
0.1469500869
 40
0.2009689129
 40
0.2573976563
 40
0.3161345088
 40
0.3770604652
 40
0.4400429806
 40
0.5049402933
 40
0.5716079713
 40
0.6398956843
 40
0.7096469916
 40
0.7807004186
 40
0.8528903132
 40
0.9260475328
 40
1.0
 40
1.0
 40
1.0
 40
1.0
 10
6.635338641
 20
5.3374739014
 30
0.0
 10
6.6306170681
 20
5.3361582872
 30
0.0
 10
6.621007063
 20
5.3331136932
 30
0.0
 10
6.6065126804
 20
5.327568212
 30
0.0
 10
6.5915853678
 20
5.3209739539
 30
0.0
 10
6.5762593195
 20
5.3133829812
 30
0.0
 10
6.560567946
 20
5.3048469196
 30
0.0
 10
6.5445453919
 20
5.2954175319
 30
0.0
 10
6.5282259481
 20
5.2851466186
 30
0.0
 10
6.5116439747
 20
5.2740859717
 30
0.0
 10
6.4948333115
 20
5.2622870064
 30
0.0
 10
6.4778255945
 20
5.2498027893
 30
0.0
 10
6.4606517909
 20
5.2366859621
 30
0.0
 10
6.4433427763
 20
5.222989124
 30
0.0
 10
6.4259294578
 20
5.2087649144
 30
0.0
 10
6.4084427553
 20
5.1940659993
 30
0.0
 10
6.3909136344
 20
5.1789451018
 30
0.0
 10
6.3792735623
 20
5.1686657073
 30
0.0
 10
6.3734495593
 20
5.1634675384
 30
0.0
 11
6.635338641
 21
5.3374739014
 31
0.0
 11
6.6213113416
 21
5.3330634942
 31
0.0
 11
6.6068120254
 21
5.3275463003
 31
0.0
 11
6.5918755551
 21
5.3209747026
 31
0.0
 11
6.5765367933
 21
5.3134010838
 31
0.0
 11
6.5608306025
 21
5.3048778268
 31
0.0
 11
6.5447918454
 21
5.2954573144
 31
0.0
 11
6.5284553847
 21
5.2851919294
 31
0.0
 11
6.5118560829
 21
5.2741340545
 31
0.0
 11
6.4950281517
 21
5.2623361511
 31
0.0
 11
6.4780031986
 21
5.2498509943
 31
0.0
 11
6.4608121795
 21
5.2367314378
 31
0.0
 11
6.4434860507
 21
5.2230303353
 31
0.0
 11
6.4260557681
 21
5.2088005404
 31
0.0
 11
6.408552288
 21
5.1940949069
 31
0.0
 11
6.3910065663
 21
5.1789662883
 31
0.0
 11
6.3734495593
 21
5.1634675384
 31
0.0
  0
SPLINE
  5
49C
100
AcDbEntity
  8
0
100
AcDbSpline
 62
6
  6
CONTINUOUS
 70
0
 71
3
 72
16
 73
12
 74
10
 42
0.0000001
 43
0.0000001
 44
0.0000000001
 12
-0.2757905271
 22
-0.0062635391
 32
0.0
 13
-0.2752923619
 23
-0.0177133355
 33
0.0
 40
0.0
 40
0.0
 40
0.0
 40
0.0
 40
0.1298603929
 40
0.262906436
 40
0.3968023127
 40
0.5292121518
 40
0.6578427522
 40
0.7805709966
 40
0.8953165414
 40
0.949045968
 40
1.0
 40
1.0
 40
1.0
 40
1.0
 10
6.7048358009
 20
4.9629469245
 30
0.0
 10
6.6928977122
 20
4.9626757959
 30
0.0
 10
6.6687300337
 20
4.9620658164
 30
0.0
 10
6.6322585515
 20
4.9609806496
 30
0.0
 10
6.5955578226
 20
4.9597291322
 30
0.0
 10
6.5592686606
 20
4.9583318949
 30
0.0
 10
6.5240123887
 20
4.9568087264
 30
0.0
 10
6.4903864825
 20
4.95518975
 30
0.0
 10
6.4636474292
 20
4.9537563574
 30
0.0
 10
6.4435045666
 20
4.9525766033
 30
0.0
 10
6.4338970615
 20
4.9519788911
 30
0.0
 10
6.4292213096
 20
4.9516780358
 30
0.0
 11
6.7048358009
 21
4.9629469245
 31
0.0
 11
6.6690236145
 21
4.9620466111
 31
0.0
 11
6.6323375065
 21
4.9609565094
 31
0.0
 11
6.5954222407
 21
4.9596972767
 31
0.0
 11
6.5589225806
 21
4.9582895705
 31
0.0
 11
6.5234715094
 21
4.9567554682
 31
0.0
 11
6.4896548873
 21
4.9551227269
 31
0.0
 11
6.4580467942
 21
4.9534205237
 31
0.0
 11
6.4432503458
 21
4.9525524918
 31
0.0
 11
6.4292213096
 21
4.9516780358
 31
0.0
  0
SPLINE
  5
49D
100
AcDbEntity
  8
0
100
AcDbSpline
 62
6
  6
CONTINUOUS
 70
0
 71
3
 72
21
 73
17
 74
15
 42
0.0000001
 43
0.0000001
 44
0.0000000001
 12
0.1782079974
 22
-0.0000851764
 32
0.0
 13
0.1119867366
 23
-0.1386256412
 33
0.0
 40
0.0
 40
0.0
 40
0.0
 40
0.0
 40
0.06273545
 40
0.124672732
 40
0.1860037496
 40
0.2469245753
 40
0.3076473342
 40
0.3683521103
 40
0.429197543
 40
0.490324876
 40
0.5518482292
 40
0.6138683486
 40
0.7397041059
 40
0.8036606102
 40
0.8683500389
 40
1.0
 40
1.0
 40
1.0
 40
1.0
 10
6.150598548
 20
5.3757633568
 30
0.0
 10
6.154325201
 20
5.3757615756
 30
0.0
 10
6.1617339824
 20
5.3754799302
 30
0.0
 10
6.1727228154
 20
5.3742399024
 30
0.0
 10
6.1834867184
 20
5.3722251343
 30
0.0
 10
6.1940108816
 20
5.3694736649
 30
0.0
 10
6.2042872785
 20
5.3660237827
 30
0.0
 10
6.214312242
 20
5.3619136085
 30
0.0
 10
6.2240826344
 20
5.3571763541
 30
0.0
 10
6.2335952018
 20
5.3518417851
 30
0.0
 10
6.2428483952
 20
5.3459388408
 30
0.0
 10
6.2548969334
 20
5.3373105012
 30
0.0
 10
6.2663873673
 20
5.3276929104
 30
0.0
 10
6.277332991
 20
5.3172621804
 30
0.0
 10
6.288088832
 20
5.3061490491
 30
0.0
 10
6.2957174614
 20
5.297309873
 30
0.0
 10
6.3006318112
 20
5.2912265195
 30
0.0
 11
6.150598548
 21
5.3757633568
 31
0.0
 11
6.1617704511
 21
5.3753389854
 31
0.0
 11
6.1727387416
 21
5.374102915
 31
0.0
 11
6.183482311
 21
5.3720945321
 31
0.0
 11
6.1939868449
 21
5.3693522544
 31
0.0
 11
6.2042471121
 21
5.3659132031
 31
0.0
 11
6.2142585643
 21
5.3618142237
 31
0.0
 11
6.224017668
 21
5.3570883729
 31
0.0
 11
6.2335218371
 21
5.3517651675
 31
0.0
 11
6.2427685915
 21
5.3458740014
 31
0.0
 11
6.2517587966
 21
5.3394448815
 31
0.0
 11
6.2689924273
 21
5.3250963643
 31
0.0
 11
6.2772477364
 21
5.3172379747
 31
0.0
 11
6.2852693289
 21
5.3089583087
 31
0.0
 11
6.3006318112
 21
5.2912265195
 31
0.0
  0
SPLINE
  5
49E
100
AcDbEntity
  8
0
100
AcDbSpline
 62
6
  6
CONTINUOUS
 70
0
 71
3
 72
11
 73
7
 74
5
 42
0.0000001
 43
0.0000001
 44
0.0000000001
 12
0.0326449593
 22
-0.0404156397
 32
0.0
 13
0.0272900089
 23
-0.0442082878
 33
0.0
 40
0.0
 40
0.0
 40
0.0
 40
0.0
 40
0.2438839901
 40
0.4919659417
 40
0.744071744
 40
1.0
 40
1.0
 40
1.0
 40
1.0
 10
6.3006307009
 20
5.291223769
 30
0.0
 10
6.3032845618
 20
5.2879381932
 30
0.0
 10
6.3085208414
 20
5.2812150701
 30
0.0
 10
6.3160980632
 20
5.2707901416
 30
0.0
 10
6.3234609753
 20
5.2599597588
 30
0.0
 10
6.3281885682
 20
5.2525381834
 30
0.0
 10
6.330516663
 20
5.2487668001
 30
0.0
 11
6.3006307009
 21
5.291223769
 31
0.0
 11
6.3084205302
 21
5.2812307496
 31
0.0
 11
6.3160022525
 21
5.270807999
 31
0.0
 11
6.3233696896
 21
5.2599788913
 31
0.0
 11
6.330516663
 21
5.2487668001
 31
0.0
  0
SPLINE
  5
49F
100
AcDbEntity
  8
0
100
AcDbSpline
 62
6
  6
CONTINUOUS
 70
0
 71
3
 72
13
 73
9
 74
7
 42
0.0000001
 43
0.0000001
 44
0.0000000001
 12
0.0501898642
 22
-0.0813661757
 32
0.0
 13
0.0363608416
 23
-0.0884158708
 33
0.0
 40
0.0
 40
0.0
 40
0.0
 40
0.0
 40
0.1205244279
 40
0.2421113513
 40
0.3648484249
 40
0.48885785
 40
0.7411692103
 40
1.0
 40
1.0
 40
1.0
 40
1.0
 10
6.3305208066
 20
5.2487723192
 30
0.0
 10
6.3325371748
 20
5.2455034486
 30
0.0
 10
6.3365081009
 20
5.2388874767
 30
0.0
 10
6.3422644839
 20
5.228784923
 30
0.0
 10
6.3478557838
 20
5.2184635436
 30
0.0
 10
6.3551372504
 20
5.2043238759
 30
0.0
 10
6.3638524906
 20
5.1860499322
 30
0.0
 10
6.3703065465
 20
5.171090274
 30
0.0
 10
6.3734436483
 20
5.1634620241
 30
0.0
 11
6.3305208066
 21
5.2487723192
 31
0.0
 11
6.3364532496
 21
5.238894697
 31
0.0
 11
6.3422101863
 21
5.2287966753
 31
0.0
 11
6.347800475
 21
5.2184802171
 31
0.0
 11
6.3532297624
 21
5.2079411089
 31
0.0
 11
6.3636266832
 21
5.1861757123
 31
0.0
 11
6.3734436483
 21
5.1634620241
 31
0.0
  0
SPLINE
  5
4A0
100
AcDbEntity
  8
0
100
AcDbSpline
 62
6
  6
CONTINUOUS
 70
0
 71
3
 72
14
 73
10
 74
8
 42
0.0000001
 43
0.0000001
 44
0.0000000001
 12
0.0493141438
 22
-0.1524131428
 32
0.0
 13
0.0219980887
 23
-0.1586749349
 33
0.0
 40
0.0
 40
0.0
 40
0.0
 40
0.0
 40
0.2404435368
 40
0.3632468326
 40
0.4876747179
 40
0.613668616
 40
0.7411706376
 40
0.8700343467
 40
1.0
 40
1.0
 40
1.0
 40
1.0
 10
6.3938348457
 20
5.1077122544
 30
0.0
 10
6.3977872681
 20
5.0954966693
 30
0.0
 10
6.4033236306
 20
5.0768979477
 30
0.0
 10
6.4099273121
 20
5.0517072614
 30
0.0
 10
6.4145621304
 20
5.0323226388
 30
0.0
 10
6.4188314248
 20
5.0125976857
 30
0.0
 10
6.4227227087
 20
4.9925532648
 30
0.0
 10
6.4262202719
 20
4.9722212637
 30
0.0
 10
6.4282683239
 20
4.9585516916
 30
0.0
 10
6.4292213225
 20
4.9516775944
 30
0.0
 11
6.3938348457
 21
5.1077122544
 31
0.0
 11
6.4048460315
 21
5.0708024558
 31
0.0
 11
6.4098368204
 21
5.0517738882
 31
0.0
 11
6.4144733413
 21
5.0323882229
 31
0.0
 11
6.4187442712
 21
5.012661995
 31
0.0
 11
6.4226375909
 21
4.9926116208
 31
0.0
 11
6.4261371226
 21
4.9722674093
 31
0.0
 11
6.4292213225
 21
4.9516775944
 31
0.0
  0
SPLINE
  5
4A1
100
AcDbEntity
  8
0
100
AcDbSpline
 62
6
  6
CONTINUOUS
 70
0
 71
3
 72
30
 73
26
 74
24
 42
0.0000001
 43
0.0000001
 44
0.0000000001
 12
-0.0353245313
 22
-0.0022728225
 32
0.0
 13
0.0022587541
 23
-0.0353254336
 33
0.0
 40
0.0
 40
0.0
 40
0.0
 40
0.0
 40
0.2427912718
 40
0.4490393767
 40
0.5388861777
 40
0.6201096808
 40
0.6928825209
 40
0.7573789294
 40
0.8137755688
 40
0.8622529942
 40
0.8835805768
 40
0.902998724
 40
0.9205289092
 40
0.9361932483
 40
0.9500161934
 40
0.9620258905
 40
0.9722566607
 40
0.9807538934
 40
0.9875846291
 40
0.990410102
 40
0.9928693698
 40
0.994995585
 40
0.9968384888
 40
0.9984722435
 40
1.0
 40
1.0
 40
1.0
 40
1.0
 10
6.4292213708
 20
4.9516767985
 30
0.0
 10
6.4263625415
 20
4.951492858
 30
0.0
 10
6.4210763153
 20
4.9511344444
 30
0.0
 10
6.4147366429
 20
4.9506445942
 30
0.0
 10
6.4103014133
 20
4.9502575374
 30
0.0
 10
6.4074371002
 20
4.9499856855
 30
0.0
 10
6.4048728599
 20
4.9497189248
 30
0.0
 10
6.402602707
 20
4.9494574564
 30
0.0
 10
6.4006206656
 20
4.9492014701
 30
0.0
 10
6.3991473157
 20
4.9489847679
 30
0.0
 10
6.3981087637
 20
4.9488122105
 30
0.0
 10
6.3974321029
 20
4.9486898433
 30
0.0
 10
6.3968231611
 20
4.9485689645
 30
0.0
 10
6.3962813359
 20
4.9484496049
 30
0.0
 10
6.3958060077
 20
4.9483318221
 30
0.0
 10
6.3953965496
 20
4.9482156786
 30
0.0
 10
6.3950521885
 20
4.9481012779
 30
0.0
 10
6.3947722304
 20
4.9479886633
 30
0.0
 10
6.3945808602
 20
4.9478911553
 30
0.0
 10
6.3944616179
 20
4.9478120106
 30
0.0
 10
6.3943936291
 20
4.9477567427
 30
0.0
 10
6.3943411262
 20
4.9477016343
 30
0.0
 10
6.3943040756
 20
4.9476463665
 30
0.0
 10
6.3942827837
 20
4.9475906417
 30
0.0
 10
6.3942795832
 20
4.947552857
 30
0.0
 10
6.3942807334
 20
4.9475348675
 30
0.0
 11
6.4292213708
 21
4.9516767985
 31
0.0
 11
6.4206471553
 21
4.9510907277
 31
0.0
 11
6.4133686583
 21
4.9505220042
 31
0.0
 11
6.4102004305
 21
4.9502444892
 31
0.0
 11
6.4073382838
 21
4.949971721
 31
0.0
 11
6.4047762689
 21
4.9497038359
 31
0.0
 11
6.402508436
 21
4.9494409709
 31
0.0
 11
6.4005288359
 21
4.9491832623
 31
0.0
 11
6.3988315189
 21
4.9489308469
 31
0.0
 11
6.3980868574
 21
4.9488066668
 31
0.0
 11
6.3974105615
 21
4.948683861
 31
0.0
 11
6.3968020298
 21
4.9485624456
 31
0.0
 11
6.3962606932
 21
4.9484424362
 31
0.0
 11
6.3957859825
 21
4.9483238486
 31
0.0
 11
6.3953773288
 21
4.9482066985
 31
0.0
 11
6.3950341629
 21
4.9480910016
 31
0.0
 11
6.3947559157
 21
4.9479767738
 31
0.0
 11
6.3945420183
 21
4.9478640308
 31
0.0
 11
6.3944590229
 21
4.9478082209
 31
0.0
 11
6.3943919015
 21
4.9477527882
 31
0.0
 11
6.394340583
 21
4.9476977345
 31
0.0
 11
6.3943049962
 21
4.9476430618
 31
0.0
 11
6.3942850701
 21
4.9475887722
 31
0.0
 11
6.3942807334
 21
4.9475348675
 31
0.0
  0
SPLINE
  5
4A2
100
AcDbEntity
  8
0
100
AcDbSpline
 62
9
  6
CONTINUOUS
 70
0
 71
3
 72
12
 73
8
 74
6
 42
0.0000001
 43
0.0000001
 44
0.0000000001
 12
0.0062644182
 22
-0.0752033415
 32
0.0
 13
-0.0158178123
 23
-0.073787413
 33
0.0
 40
0.0
 40
0.0
 40
0.0
 40
0.0
 40
0.2529344546
 40
0.3787748564
 40
0.5041351959
 40
0.7532312562
 40
1.0
 40
1.0
 40
1.0
 40
1.0
 10
6.780854257
 20
4.9629461283
 30
0.0
 10
6.7813824194
 20
4.9566056229
 30
0.0
 10
6.781831295
 20
4.9470773022
 30
0.0
 10
6.7817386728
 20
4.934394343
 30
0.0
 10
6.7811895897
 20
4.9218189886
 30
0.0
 10
6.7796542796
 20
4.9062533786
 30
0.0
 10
6.7775078391
 20
4.8939522107
 30
0.0
 10
6.7762067252
 20
4.8878827349
 30
0.0
 11
6.780854257
 21
4.9629461283
 31
0.0
 11
6.781750718
 21
4.9438797959
 31
0.0
 11
6.7816809789
 21
4.9343836567
 31
0.0
 11
6.7812677312
 21
4.924932519
 31
0.0
 11
6.7794161243
 21
4.9062261985
 31
0.0
 11
6.7762067252
 21
4.8878827349
 31
0.0
  0
SPLINE
  5
4A3
100
AcDbEntity
  8
0
100
AcDbSpline
 62
9
  6
CONTINUOUS
 70
0
 71
3
 72
14
 73
10
 74
8
 42
0.0000001
 43
0.0000001
 44
0.0000000001
 12
-0.0323244998
 22
0.001984635
 32
0.0
 13
-0.0323853681
 23
-0.0
 33
0.0
 40
0.0
 40
0.0
 40
0.0
 40
0.0
 40
0.0930594899
 40
0.1956015257
 40
0.3065293457
 40
0.4247372121
 40
0.5499244976
 40
0.6850304738
 40
1.0
 40
1.0
 40
1.0
 40
1.0
 10
6.7762067252
 20
4.8878827349
 30
0.0
 10
6.7752040247
 20
4.887944298
 30
0.0
 10
6.7730950965
 20
4.8880517566
 30
0.0
 10
6.7697883132
 20
4.8881749953
 30
0.0
 10
6.7662091315
 20
4.8882737568
 30
0.0
 10
6.7623849899
 20
4.8883536494
 30
0.0
 10
6.7582995553
 20
4.8884204813
 30
0.0
 10
6.7520898982
 20
4.8884908264
 30
0.0
 10
6.7472312175
 20
4.8885079764
 30
0.0
 10
6.7438310828
 20
4.8885079764
 30
0.0
 11
6.7762067252
 21
4.8878827349
 31
0.0
 11
6.7731970666
 21
4.8880400242
 31
0.0
 11
6.7698786139
 21
4.8881664872
 31
0.0
 11
6.7662876019
 21
4.8882677073
 31
0.0
 11
6.7624602655
 21
4.8883492678
 31
0.0
 11
6.7584065696
 21
4.8884154615
 31
0.0
 11
6.754031398
 21
4.888465418
 31
0.0
 11
6.7438310828
 21
4.8885079764
 31
0.0
  0
SPLINE
  5
4A4
100
AcDbEntity
  8
0
100
AcDbSpline
 62
9
  6
CONTINUOUS
 70
0
 71
3
 72
11
 73
7
 74
5
 42
0.0000001
 43
0.0000001
 44
0.0000000001
 12
0.0
 22
-0.0756344071
 32
0.0
 13
-0.0164301359
 23
-0.0738282749
 33
0.0
 40
0.0
 40
0.0
 40
0.0
 40
0.0
 40
0.2518047309
 40
0.5028810236
 40
0.7525135779
 40
1.0
 40
1.0
 40
1.0
 40
1.0
 10
6.7519851991
 20
4.9635603027
 30
0.0
 10
6.7519851991
 20
4.9572119356
 30
0.0
 10
6.7516413432
 20
4.9445309484
 30
0.0
 10
6.7501049594
 20
4.9256123616
 30
0.0
 10
6.7475602279
 20
4.906912616
 30
0.0
 10
6.7451864946
 20
4.8945984749
 30
0.0
 10
6.7438310828
 20
4.8885079764
 30
0.0
 11
6.7519851991
 21
4.9635603027
 31
0.0
 11
6.7514696349
 21
4.9445221808
 31
0.0
 11
6.7499308517
 21
4.9255946217
 31
0.0
 11
6.7473807131
 21
4.9068868215
 31
0.0
 11
6.7438310828
 21
4.8885079764
 31
0.0
  0
SPLINE
  5
4A5
100
AcDbEntity
  8
0
100
AcDbSpline
 62
9
  6
CONTINUOUS
 70
0
 71
3
 72
12
 73
8
 74
6
 42
0.0000001
 43
0.0000001
 44
0.0000000001
 12
-0.054934146
 22
0.0
 32
0.0
 13
-0.0549249042
 23
-0.0010076186
 33
0.0
 40
0.0
 40
0.0
 40
0.0
 40
0.0
 40
0.2098833497
 40
0.4341458007
 40
0.5565803006
 40
0.6895649042
 40
1.0
 40
1.0
 40
1.0
 40
1.0
 10
6.7438310828
 20
4.8885079764
 30
0.0
 10
6.7399878286
 20
4.8885079764
 30
0.0
 10
6.732038006
 20
4.8884752293
 30
0.0
 10
6.7218467345
 20
4.8883734791
 30
0.0
 10
6.7130637425
 20
4.8882672836
 30
0.0
 10
6.7027031613
 20
4.888123576
 30
0.0
 10
6.6945846588
 20
4.8879870017
 30
0.0
 10
6.6889011195
 20
4.8878827349
 30
0.0
 11
6.7438310828
 21
4.8885079764
 31
0.0
 11
6.7323013987
 21
4.888465418
 31
0.0
 11
6.7199822801
 21
4.8883492678
 31
0.0
 11
6.7132569399
 21
4.8882677073
 31
0.0
 11
6.7059522455
 21
4.8881664872
 31
0.0
 11
6.6889011195
 21
4.8878827349
 31
0.0
  0
SPLINE
  5
4A6
100
AcDbEntity
  8
0
100
AcDbSpline
 62
9
  6
CONTINUOUS
 70
0
 71
3
 72
11
 73
7
 74
5
 42
0.0000001
 43
0.0000001
 44
0.0000000001
 12
-0.0146699076
 22
-0.0753253328
 32
0.0
 13
-0.0175813934
 23
-0.0746994415
 33
0.0
 40
0.0
 40
0.0
 40
0.0
 40
0.0
 40
0.2532897066
 40
0.5053988597
 40
0.7548055163
 40
1.0
 40
1.0
 40
1.0
 40
1.0
 10
6.7048358166
 20
4.9629461283
 30
0.0
 10
6.7035972378
 20
4.9565864178
 30
0.0
 10
6.7010857446
 20
4.9439043927
 30
0.0
 10
6.6971866671
 20
4.9249938716
 30
0.0
 10
6.6931517173
 20
4.9063236042
 30
0.0
 10
6.690338073
 20
4.8939880319
 30
0.0
 10
6.6889011195
 20
4.8878827349
 30
0.0
 11
6.7048358166
 21
4.9629461283
 31
0.0
 11
6.7010549541
 21
4.9438797959
 31
0.0
 11
6.6971425489
 21
4.924932519
 31
0.0
 11
6.6930931032
 21
4.9062261985
 31
0.0
 11
6.6889011195
 21
4.8878827349
 31
0.0
  0
SPLINE
  5
4A7
100
AcDbEntity
  8
0
100
AcDbSpline
 62
9
  6
CONTINUOUS
 70
0
 71
3
 72
19
 73
15
 74
13
 42
0.0000001
 43
0.0000001
 44
0.0000000001
 12
-0.2450357443
 22
-0.0044952756
 32
0.0
 13
-0.2449246141
 23
-0.0086404227
 33
0.0
 40
0.0
 40
0.0
 40
0.0
 40
0.0
 40
0.0894397729
 40
0.1440862796
 40
0.204453212
 40
0.2696626715
 40
0.3387512209
 40
0.4845075423
 40
0.5587984947
 40
0.6323716924
 40
0.7728109968
 40
0.8973757129
 40
0.9516728952
 40
1.0
 40
1.0
 40
1.0
 40
1.0
 10
6.6889011195
 20
4.8878827349
 30
0.0
 10
6.6815958057
 20
4.8877487161
 30
0.0
 10
6.6698273171
 20
4.8875176052
 30
0.0
 10
6.6531288928
 20
4.8871595941
 30
0.0
 10
6.6384099051
 20
4.8868231209
 30
0.0
 10
6.6225119541
 20
4.8864370887
 30
0.0
 10
6.5996412309
 20
4.8858484561
 30
0.0
 10
6.5760303715
 20
4.8851834925
 30
0.0
 10
6.5520548005
 20
4.8844580379
 30
0.0
 10
6.5285144286
 20
4.8837120861
 30
0.0
 10
6.5008708764
 20
4.8827823393
 30
0.0
 10
6.4748024988
 20
4.8818665027
 30
0.0
 10
6.4562546475
 20
4.8812062887
 30
0.0
 10
6.4478763279
 20
4.8809083122
 30
0.0
 10
6.4439308287
 20
4.8807691234
 30
0.0
 11
6.6889011195
 21
4.8878827349
 31
0.0
 11
6.666985691
 21
4.8874536314
 31
0.0
 11
6.6535961667
 21
4.8871666012
 31
0.0
 11
6.6388054787
 21
4.8868287933
 31
0.0
 11
6.6228288468
 21
4.8864410198
 31
0.0
 11
6.6059024439
 21
4.8860052018
 31
0.0
 11
6.5701949975
 21
4.8850026352
 31
0.0
 11
6.5519963267
 21
4.88445191
 31
0.0
 11
6.5339742679
 21
4.8838810815
 31
0.0
 11
6.4995750933
 21
4.8827296513
 31
0.0
 11
6.4690658359
 21
4.881661682
 31
0.0
 11
6.4557672441
 21
4.8811890098
 31
0.0
 11
6.4439308287
 21
4.8807691234
 31
0.0
  0
SPLINE
  5
4A8
100
AcDbEntity
  8
0
100
AcDbSpline
 62
9
  6
CONTINUOUS
 70
0
 71
3
 72
34
 73
30
 74
28
 42
0.0000001
 43
0.0000001
 44
0.0000000001
 12
-0.0289528464
 22
-0.0010213952
 32
0.0
 13
0.0109191746
 23
-0.0268343472
 33
0.0
 40
0.0
 40
0.0
 40
0.0
 40
0.0
 40
0.2447340133
 40
0.3532763147
 40
0.4528046
 40
0.5434708304
 40
0.6254270878
 40
0.6988256268
 40
0.7638189558
 40
0.8205599733
 40
0.8692022096
 40
0.8905346126
 40
0.9099002792
 40
0.9273162613
 40
0.9427980836
 40
0.9563616443
 40
0.9680235204
 40
0.977801477
 40
0.9819902405
 40
0.9857158836
 40
0.9889817355
 40
0.9917918583
 40
0.9941515984
 40
0.9960687609
 40
0.9975564429
 40
0.9986410822
 40
0.9993895994
 40
0.9996942208
 40
1.0
 40
1.0
 40
1.0
 40
1.0
 10
6.4439308287
 20
4.8807691234
 30
0.0
 10
6.4415689133
 20
4.8806858
 30
0.0
 10
6.4381595973
 20
4.880561547
 30
0.0
 10
6.4337902153
 20
4.8803908605
 30
0.0
 10
6.4309077522
 20
4.8802725674
 30
0.0
 10
6.4282820689
 20
4.8801587316
 30
0.0
 10
6.4259087743
 20
4.8800492833
 30
0.0
 10
6.4237834766
 20
4.8799441595
 30
0.0
 10
6.4219017809
 20
4.8798433132
 30
0.0
 10
6.4202592941
 20
4.8797466845
 30
0.0
 10
6.4190382175
 20
4.879666563
 30
0.0
 10
6.4181777443
 20
4.8796038059
 30
0.0
 10
6.4176182616
 20
4.8795598315
 30
0.0
 10
6.4171153833
 20
4.8795168638
 30
0.0
 10
6.4166686687
 20
4.8794748976
 30
0.0
 10
6.4162776886
 20
4.8794339494
 30
0.0
 10
6.415942017
 20
4.8793940224
 30
0.0
 10
6.4156968259
 20
4.8793601417
 30
0.0
 10
6.4155281281
 20
4.8793330375
 30
0.0
 10
6.4154218414
 20
4.879314024
 30
0.0
 10
6.4153290532
 20
4.8792952684
 30
0.0
 10
6.4152497007
 20
4.8792767892
 30
0.0
 10
6.4151836924
 20
4.879258582
 30
0.0
 10
6.4151309407
 20
4.879240746
 30
0.0
 10
6.4150911514
 20
4.8792231229
 30
0.0
 10
6.4150640033
 20
4.8792060618
 30
0.0
 10
6.4150499335
 20
4.8791896142
 30
0.0
 10
6.4150475765
 20
4.8791763731
 30
0.0
 10
6.4150489431
 20
4.879170473
 30
0.0
 10
6.4150500561
 20
4.8791677379
 30
0.0
 11
6.4439308287
 21
4.8807691234
 31
0.0
 11
6.4368454344
 21
4.8805093673
 31
0.0
 11
6.4337032767
 21
4.8803863855
 31
0.0
 11
6.4308222925
 21
4.8802678965
 31
0.0
 11
6.4281980924
 21
4.8801538221
 31
0.0
 11
6.4258262867
 21
4.8800440837
 31
0.0
 11
6.4237024859
 21
4.879938603
 31
0.0
 11
6.4218223004
 21
4.8798373016
 31
0.0
 11
6.4201813408
 21
4.879740101
 31
0.0
 11
6.4187752174
 21
4.879646923
 31
0.0
 11
6.4181588476
 21
4.8796018179
 31
0.0
 11
6.4175995458
 21
4.8795576889
 31
0.0
 11
6.4170968395
 21
4.8795145258
 31
0.0
 11
6.4166503082
 21
4.8794723177
 31
0.0
 11
6.4162595329
 21
4.8794310537
 31
0.0
 11
6.4159240941
 21
4.8793907233
 31
0.0
 11
6.4156435728
 21
4.8793513154
 31
0.0
 11
6.4155237752
 21
4.8793319541
 31
0.0
 11
6.4154175498
 21
4.8793128194
 31
0.0
 11
6.4153248441
 21
4.87929391
 31
0.0
 11
6.4152456058
 21
4.8792752244
 31
0.0
 11
6.4151797825
 21
4.8792567615
 31
0.0
 11
6.4151273217
 21
4.8792385197
 31
0.0
 11
6.415088171
 21
4.8792204979
 31
0.0
 11
6.4150622782
 21
4.8792026945
 31
0.0
 11
6.4150495906
 21
4.8791851083
 31
0.0
 11
6.4150481825
 21
4.8791763962
 31
0.0
 11
6.4150500561
 21
4.8791677379
 31
0.0
  0
SPLINE
  5
4A9
100
AcDbEntity
  8
0
100
AcDbSpline
 62
9
  6
CONTINUOUS
 70
0
 71
3
 72
11
 73
7
 74
5
 42
0.0000001
 43
0.0000001
 44
0.0000000001
 12
-0.0177193361
 22
-0.0826576991
 32
0.0
 13
-0.0469235079
 23
-0.0703168152
 33
0.0
 40
0.0
 40
0.0
 40
0.0
 40
0.0
 40
0.253660027
 40
0.5048242029
 40
0.7535652806
 40
1.0
 40
1.0
 40
1.0
 40
1.0
 10
6.7762067252
 20
4.8878827349
 30
0.0
 10
6.7747084961
 20
4.8808937502
 30
0.0
 10
6.7710862565
 20
4.8671128217
 30
0.0
 10
6.7638016194
 20
4.8471355274
 30
0.0
 10
6.7547667059
 20
4.8281110554
 30
0.0
 10
6.7475905469
 20
4.8161143447
 30
0.0
 10
6.7437360198
 20
4.8103381765
 30
0.0
 11
6.7762067252
 21
4.8878827349
 31
0.0
 11
6.7707507702
 21
4.8671451378
 31
0.0
 11
6.7634704501
 21
4.8472000064
 31
0.0
 11
6.7544405912
 21
4.8282100998
 31
0.0
 11
6.7437360198
 21
4.8103381765
 31
0.0
  0
LINE
  5
4AA
100
AcDbEntity
  8
0
100
AcDbLine
 62
9
  6
CONTINUOUS
 10
6.7437360198
 20
4.8103381765
 11
6.7149042104
 21
4.8103603709
  0
SPLINE
  5
4AB
100
AcDbEntity
  8
0
100
AcDbSpline
 62
9
  6
CONTINUOUS
 70
0
 71
3
 72
11
 73
7
 74
5
 42
0.0000001
 43
0.0000001
 44
0.0000000001
 12
-0.0181576822
 22
-0.0815909472
 32
0.0
 13
-0.0401883808
 23
-0.0732917331
 33
0.0
 40
0.0
 40
0.0
 40
0.0
 40
0.0
 40
0.257223579
 40
0.5101306951
 40
0.7579536004
 40
1.0
 40
1.0
 40
1.0
 40
1.0
 10
6.7438310828
 20
4.8885079764
 30
0.0
 10
6.7422742214
 20
4.8815122712
 30
0.0
 10
6.738729249
 20
4.867735208
 30
0.0
 10
6.7320949768
 20
4.8476691153
 30
0.0
 10
6.724239331
 20
4.8285045177
 30
0.0
 10
6.7181466947
 20
4.8162737043
 30
0.0
 10
6.7149042104
 20
4.8103603709
 30
0.0
 11
6.7438310828
 21
4.8885079764
 31
0.0
 11
6.7384653096
 21
4.8676877495
 31
0.0
 11
6.7318175864
 21
4.8476204496
 31
0.0
 11
6.7239448933
 21
4.8284600117
 31
0.0
 11
6.7149042104
 21
4.8103603709
 31
0.0
  0
LINE
  5
4AC
100
AcDbEntity
  8
0
100
AcDbLine
 62
9
  6
CONTINUOUS
 10
6.7149042104
 20
4.8103603709
 11
6.6668326585
 21
4.8103381765
  0
SPLINE
  5
4AD
100
AcDbEntity
  8
0
100
AcDbSpline
 62
9
  6
CONTINUOUS
 70
0
 71
3
 72
13
 73
9
 74
7
 42
0.0000001
 43
0.0000001
 44
0.0000000001
 12
-0.0184793925
 22
-0.0785148403
 32
0.0
 13
-0.0268068618
 23
-0.076075359
 33
0.0
 40
0.0
 40
0.0
 40
0.0
 40
0.0
 40
0.2647550334
 40
0.5208518134
 40
0.6450949134
 40
0.7665080308
 40
0.8848785775
 40
1.0
 40
1.0
 40
1.0
 40
1.0
 10
6.6889011195
 20
4.8878827349
 30
0.0
 10
6.6872702821
 20
4.8809536686
 30
0.0
 10
6.6839349486
 20
4.8673515666
 30
0.0
 10
6.6794346729
 20
4.8505991893
 30
0.0
 10
6.6756786772
 20
4.8376417089
 30
0.0
 10
6.6728199438
 20
4.8282806199
 30
0.0
 10
6.6698907751
 20
4.8191986704
 30
0.0
 10
6.6678613399
 20
4.8132574777
 30
0.0
 10
6.6668326585
 20
4.8103381765
 30
0.0
 11
6.6889011195
 21
4.8878827349
 31
0.0
 11
6.6838024542
 21
4.8671451378
 31
0.0
 11
6.6784269672
 21
4.8472000064
 31
0.0
 11
6.6756344101
 21
4.8375754776
 31
0.0
 11
6.672771441
 21
4.8282100998
 31
0.0
 11
6.6698376579
 21
4.8191242178
 31
0.0
 11
6.6668326585
 21
4.8103381765
 31
0.0
  0
SPLINE
  5
4AE
100
AcDbEntity
  8
0
100
AcDbSpline
 62
9
  6
CONTINUOUS
 70
0
 71
3
 72
19
 73
15
 74
13
 42
0.0000001
 43
0.0000001
 44
0.0000000001
 12
-0.1853531171
 22
-0.0006399438
 32
0.0
 13
-0.1853194374
 23
-0.0035907787
 33
0.0
 40
0.0
 40
0.0
 40
0.0
 40
0.0
 40
0.0444609215
 40
0.0951980715
 40
0.1516036009
 40
0.2130449944
 40
0.2787146142
 40
0.3477291263
 40
0.4920787426
 40
0.6375740661
 40
0.7755349141
 40
0.8982360273
 40
0.9519717928
 40
1.0
 40
1.0
 40
1.0
 40
1.0
 10
6.6668326585
 20
4.8103381765
 30
0.0
 10
6.6640856684
 20
4.8103286924
 30
0.0
 10
6.6582039403
 20
4.8103008444
 30
0.0
 10
6.6488373615
 20
4.8102372719
 30
0.0
 10
6.6384218259
 20
4.8101466662
 30
0.0
 10
6.6270839312
 20
4.8100268154
 30
0.0
 10
6.6149672781
 20
4.8098777079
 30
0.0
 10
6.5977289222
 20
4.8096370737
 30
0.0
 10
6.575559873
 20
4.8092706584
 30
0.0
 10
6.5491328494
 20
4.808763236
 30
0.0
 10
6.5240442192
 20
4.8082283734
 30
0.0
 10
6.5046239139
 20
4.807802166
 30
0.0
 10
6.4907585277
 20
4.8075074599
 30
0.0
 10
6.4844723581
 20
4.8073799324
 30
0.0
 10
6.4815055046
 20
4.8073224462
 30
0.0
 11
6.6668326585
 21
4.8103381765
 31
0.0
 11
6.6585917272
 21
4.8103000472
 31
0.0
 11
6.6491875949
 21
4.8102368109
 31
0.0
 11
6.6387329841
 21
4.8101462511
 31
0.0
 11
6.6273451931
 21
4.8100263935
 31
0.0
 11
6.6151739689
 21
4.8098769811
 31
0.0
 11
6.6023830829
 21
4.8096984994
 31
0.0
 11
6.5756308662
 21
4.8092599629
 31
0.0
 11
6.5486676198
 21
4.8087445324
 31
0.0
 11
6.5231016771
 21
4.8082054489
 31
0.0
 11
6.5003638545
 21
4.8077123185
 31
0.0
 11
6.4904059315
 21
4.8075016619
 31
0.0
 11
6.4815055046
 21
4.8073224462
 31
0.0
  0
SPLINE
  5
4AF
100
AcDbEntity
  8
0
100
AcDbSpline
 62
9
  6
CONTINUOUS
 70
0
 71
3
 72
11
 73
7
 74
5
 42
0.0000001
 43
0.0000001
 44
0.0000000001
 12
0.0261724579
 22
-0.0785506077
 32
0.0
 13
0.0487187543
 23
-0.0669453397
 33
0.0
 40
0.0
 40
0.0
 40
0.0
 40
0.0
 40
0.2536994214
 40
0.4427156241
 40
0.630319687
 40
1.0
 40
1.0
 40
1.0
 40
1.0
 10
6.4439308287
 20
4.8807691234
 30
0.0
 10
6.4461441412
 20
4.8741263755
 30
0.0
 10
6.4504483441
 20
4.8626758606
 30
0.0
 10
6.4576366294
 20
4.8468246397
 30
0.0
 10
6.4671988476
 20
4.8285736296
 30
0.0
 10
6.4755020498
 20
4.8155719043
 30
0.0
 10
6.4815055046
 20
4.8073224462
 30
0.0
 11
6.4439308287
 21
4.8807691234
 31
0.0
 11
6.4513217343
 21
4.8611070232
 31
0.0
 11
6.4577863603
 21
4.8468548291
 31
0.0
 11
6.4649977142
 21
4.8330973972
 31
0.0
 11
6.4815055046
 21
4.8073224462
 31
0.0
  0
LINE
  5
4B0
100
AcDbEntity
  8
0
100
AcDbLine
 62
9
  6
CONTINUOUS
 10
6.4815055046
 20
4.8073224462
 11
6.4585439163
 21
4.8067111009
  0
ENDSEC
  0
SECTION
  2
OBJECTS
  0
DICTIONARY
  5
C
100
AcDbDictionary
280
0
281
1
  3
ACAD_GROUP
350
D
  3
ACAD_MLINESTYLE
350
17
  3
ACAD_LAYOUT
350
1A
  3
ACAD_PLOTSETTINGS
350
19
  3
ACAD_PLOTSTYLENAME
350
E
  0
DICTIONARY
  5
D
102
{ACAD_REACTORS
330
C
102
}
100
AcDbDictionary
280
0
281
1
  0
ACDBDICTIONARYWDFLT
  5
E
102
{ACAD_REACTORS
330
C
102
}
100
AcDbDictionary
281
1
  3
Normal
350
F
100
AcDbDictionaryWithDefault
340
F
  0
DICTIONARY
  5
17
102
{ACAD_REACTORS
330
C
102
}
100
AcDbDictionary
280
0
281
1
  3
Standard
350
18
  0
DICTIONARY
  5
19
102
{ACAD_REACTORS
330
C
102
}
100
AcDbDictionary
281
1
  0
DICTIONARY
  5
1A
102
{ACAD_REACTORS
330
C
102
}
100
AcDbDictionary
281
1
  3
Model
350
4B1
  3
Layout1
350
4B2
  0
ACDBPLACEHOLDER
  5
F
102
{ACAD_REACTORS
330
E
102
}
  0
MLINESTYLE
  5
18
102
{ACAD_REACTORS
330
17
102
}
100
AcDbMlineStyle
  2
STANDARD
 70
0
  3

 62
256
 51
90.0
 52
90.0
 71
2
 49
0.5
 62
256
  6
BYLAYER
 49
-0.5
 62
256
  6
BYLAYER
  0
LAYOUT
  5
4B1
102
{ACAD_REACTORS
330
1A
102
}
100
AcDbPlotSettings
  1

  2
none_device
  4
ISO_A4_(297.00_x_210.00_MM)
  6

 40
0.0
 41
0.0
 42
0.0
 43
0.0
 44
297.0
 45
210.0
 46
0.0
 47
0.0
 48
0.0
 49
0.0
140
0.0
141
0.0
142
1.0
143
1.0
 70
1024
 72
0
 73
0
 74
0
  7

 75
0
147
1.0
148
0.0
149
0.0
100
AcDbLayout
  1
Model
 70
0
 71
0
 10
0.0
 20
0.0
 11
11.6929133858
 21
8.2677165354
 12
0.0
 22
0.0
 32
0.0
 14
0.0
 24
0.0
 34
0.0
 15
0.0
 25
0.0
 35
0.0
146
0.0
 13
0.0
 23
0.0
 33
0.0
 16
1.0
 26
0.0
 36
0.0
 17
0.0
 27
1.0
 37
0.0
 76
0
330
203
345
0
346
0
  0
LAYOUT
  5
4B2
102
{ACAD_REACTORS
330
1A
102
}
100
AcDbPlotSettings
  1

  2
none_device
  4
ISO_A4_(297.00_x_210.00_MM)
  6

 40
0.0
 41
0.0
 42
0.0
 43
0.0
 44
297.0
 45
210.0
 46
0.0
 47
0.0
 48
0.0
 49
0.0
140
0.0
141
0.0
142
1.0
143
1.0
 70
0
 72
0
 73
0
 74
0
  7

 75
0
147
1.0
148
0.0
149
0.0
100
AcDbLayout
  1
Layout1
 70
0
 71
1
 10
0.0
 20
0.0
 11
11.6929133858
 21
8.2677165354
 12
0.0
 22
0.0
 32
0.0
 14
0.0
 24
0.0
 34
0.0
 15
0.0
 25
0.0
 35
0.0
146
0.0
 13
0.0
 23
0.0
 33
0.0
 16
1.0
 26
0.0
 36
0.0
 17
0.0
 27
1.0
 37
0.0
 76
0
330
204
345
0
346
0
  0
ENDSEC
  0
EOF
