  0
SECTION
  2
HEADER
  9
$ACADVER
  1
AC1015
  9
$DWGCODEPAGE
  3
ANSI_1252
  9
$EXTMAX
 10
11.6929133858
 20
8.2677165354
 30
0.0
  9
$EXTMIN
 10
0.0
 20
0.0
 30
0.0
  9
$LIMMIN
 10
0.0
 20
0.0
  9
$LIMMAX
 10
11.6929133858
 20
8.2677165354
  9
$VIEWCTR
 10
5.8464566929
 20
4.1338582677
  9
$VIEWSIZE
 40
8.2677165354
  9
$CLAYER
  8
0
  9
$LTSCALE
 40
0.6431102362
  9
$CELTYPE
  6
BYLAYER
  9
$DIMSCALE
 40
1.0
  9
$DIMASZ
 40
0.1
  9
$DIMEXO
 40
0.0730807087
  9
$DIMDLI
 40
0.4443307087
  9
$DIMEXE
 40
0.2104724409
  9
$DIMCEN
 40
0.1052362205
  9
$DIMLFAC
 40
1.0
  9
$DIMBLK
  1
_FILLED
  9
$DIMTXT
 40
0.08
  9
$DIMTOL
 70
1
  9
$DIMLIM
 70
0
  9
$DIMTFAC
 40
1.0
  9
$DIMTP
 40
0.01
  9
$DIMTM
 40
0.01
  9
$PDMODE
 70
3
  9
$PDSIZE
 40
0.06
  9
$HANDSEED
  5
53B
  9
$TILEMODE
 70
1
  9
$MEASUREMENT
 70
0
  9
$INSUNITS
 70
1
  0
ENDSEC
  0
SECTION
  2
CLASSES
  0
CLASS
  1
ACDBDICTIONARYWDFLT
  2
AcDbDictionaryWithDefault
  3
AutoCAD 2000
 90
0
280
0
281
0
  0
CLASS
  1
ACDBPLACEHOLDER
  2
AcDbPlaceHolder
  3
AutoCAD 2000
 90
0
280
0
281
0
  0
CLASS
  1
LAYOUT
  2
AcDbLayout
  3
AutoCAD 2000
 90
0
280
0
281
0
  0
ENDSEC
  0
SECTION
  2
TABLES
  0
TABLE
  2
VPORT
  5
8
100
AcDbSymbolTable
 70
2
  0
VPORT
  5
1F4
100
AcDbSymbolTableRecord
100
AcDbViewportTableRecord
  2
*ACTIVE
 70
0
 10
0.0
 20
0.0
 11
1.0
 21
1.0
 12
5.8464566929
 22
4.1338582677
 13
0.0
 23
0.0
 14
1.0
 24
1.0
 15
0.0
 25
0.0
 16
0.0
 26
0.0
 36
1.0
 17
0.0
 27
0.0
 37
0.0
 40
8.2677165354
 41
1.4142857143
 42
50.0
 43
0.0
 44
0.0
 50
0.0
 51
0.0
 71
0
 72
100
 73
1
 74
1
 75
0
 76
0
 77
0
 78
0
  0
ENDTAB
  0
TABLE
  2
LTYPE
  5
5
100
AcDbSymbolTable
 70
6
  0
LTYPE
  5
14
100
AcDbSymbolTableRecord
100
AcDbLinetypeTableRecord
  2
BYBLOCK
 70
0
  3

 72
65
 73
0
 40
0.0
  0
LTYPE
  5
15
100
AcDbSymbolTableRecord
100
AcDbLinetypeTableRecord
  2
BYLAYER
 70
0
  3

 72
65
 73
0
 40
0.0
  0
LTYPE
  5
16
100
AcDbSymbolTableRecord
100
AcDbLinetypeTableRecord
  2
CONTINUOUS
 70
64
  3
Solid line
 72
65
 73
0
 40
0.0
  0
LTYPE
  5
1F5
100
AcDbSymbolTableRecord
100
AcDbLinetypeTableRecord
  2
CENTER
 70
64
  3
____ _ ____ _ ____ _ ____ _ ____ _ ____ _ ____
 72
65
 73
4
 40
0.6
 49
0.375
 74
0
 49
-0.075
 74
0
 49
0.075
 74
0
 49
-0.075
 74
0
  0
LTYPE
  5
1F6
100
AcDbSymbolTableRecord
100
AcDbLinetypeTableRecord
  2
HIDDEN
 70
64
  3
- - - - - - - - - - - - - - - - - - - -
 72
65
 73
2
 40
0.2
 49
0.1
 74
0
 49
-0.1
 74
0
  0
LTYPE
  5
1F7
100
AcDbSymbolTableRecord
100
AcDbLinetypeTableRecord
  2
PHANTOM
 70
64
  3
_____ _ _ _____ _ _ _____ _ _ _____
 72
65
 73
6
 40
0.8
 49
0.45
 74
0
 49
-0.05
 74
0
 49
0.1
 74
0
 49
-0.05
 74
0
 49
0.1
 74
0
 49
-0.05
 74
0
  0
LTYPE
  5
1F8
100
AcDbSymbolTableRecord
100
AcDbLinetypeTableRecord
  2
DOT
 70
64
  3
. . . . . . . . . . . . . . . . . . . .
 72
65
 73
2
 40
0.2
 49
0.1
 74
0
 49
-0.1
 74
0
  0
LTYPE
  5
1F9
100
AcDbSymbolTableRecord
100
AcDbLinetypeTableRecord
  2
DASHED
 70
64
  3
- - - - - - - - - - - - - - - - - - - -
 72
65
 73
2
 40
0.2
 49
0.1
 74
0
 49
-0.1
 74
0
  0
ENDTAB
  0
TABLE
  2
LAYER
  5
2
100
AcDbSymbolTable
 70
36
  0
LAYER
  5
10
100
AcDbSymbolTableRecord
100
AcDbLayerTableRecord
  2
0
 70
0
 62
7
  6
CONTINUOUS
370
-3
390
F
  0
LAYER
  5
1FA
100
AcDbSymbolTableRecord
100
AcDbLayerTableRecord
  2
DEFAULT_1
 70
0
 62
7
  6
CENTER
370
-3
390
F
  0
LAYER
  5
1FB
100
AcDbSymbolTableRecord
100
AcDbLayerTableRecord
  2
DEFAULT_2
 70
0
 62
8
  6
HIDDEN
370
-3
390
F
  0
LAYER
  5
1FC
100
AcDbSymbolTableRecord
100
AcDbLayerTableRecord
  2
DEFAULT_3
 70
0
 62
7
  6
PHANTOM
370
-3
390
F
  0
LAYER
  5
1FD
100
AcDbSymbolTableRecord
100
AcDbLayerTableRecord
  2
DEFAULT_COORDINATE_SYSTEM
 70
0
 62
7
  6
CONTINUOUS
370
-3
390
F
  0
LAYER
  5
1FE
100
AcDbSymbolTableRecord
100
AcDbLayerTableRecord
  2
DEFAULT_DATUM_AXES
 70
0
 62
7
  6
CONTINUOUS
370
-3
390
F
  0
LAYER
  5
1FF
100
AcDbSymbolTableRecord
100
AcDbLayerTableRecord
  2
DEFAULT_DATUM_CURVES
 70
0
 62
7
  6
CONTINUOUS
370
-3
390
F
  0
LAYER
  5
200
100
AcDbSymbolTableRecord
100
AcDbLayerTableRecord
  2
DEFAULT_DATUM_PLANES
 70
0
 62
7
  6
CONTINUOUS
370
-3
390
F
  0
ENDTAB
  0
TABLE
  2
STYLE
  5
3
100
AcDbSymbolTable
 70
1
  0
STYLE
  5
11
100
AcDbSymbolTableRecord
100
AcDbTextStyleTableRecord
  2
STANDARD
 70
0
 40
0.0
 41
0.8
 50
0.0
 71
0
 42
0.2
  3
txt
  4

  0
STYLE
  5
201
100
AcDbSymbolTableRecord
100
AcDbTextStyleTableRecord
  2
TEXTSTYLE_1
 70
0
 40
0.0
 41
0.8
 50
0.0
 71
0
 42
0.2
  3
gdt
  4

  0
ENDTAB
  0
TABLE
  2
VIEW
  5
6
100
AcDbSymbolTable
 70
0
  0
ENDTAB
  0
TABLE
  2
UCS
  5
7
100
AcDbSymbolTable
 70
0
  0
ENDTAB
  0
TABLE
  2
APPID
  5
9
100
AcDbSymbolTable
 70
1
  0
APPID
  5
202
100
AcDbSymbolTableRecord
100
AcDbRegAppTableRecord
  2
ACAD
 70
0
  0
ENDTAB
  0
TABLE
  2
BLOCK_RECORD
  5
1
100
AcDbSymbolTable
 70
0
  0
BLOCK_RECORD
  5
203
100
AcDbSymbolTableRecord
100
AcDbBlockTableRecord
  2
*Model_Space
  0
BLOCK_RECORD
  5
204
100
AcDbSymbolTableRecord
100
AcDbBlockTableRecord
  2
*Paper_Space
  0
ENDTAB
  0
TABLE
  2
DIMSTYLE
  5
A
100
AcDbSymbolTable
 70
1
100
AcDbDimStyleTable
 71
0
  0
DIMSTYLE
105
205
100
AcDbSymbolTableRecord
100
AcDbDimStyleTableRecord
  2
STANDARD
 70
0
  3

  4

 40
1.0
 41
0.1
 42
0.0625
 43
0.38
 44
0.18
 45
0.0
 46
0.0
 47
0.01
 48
0.01
140
0.08
141
0.09
142
0.0
143
25.4
144
1.0
145
0.0
146
1.0
147
0.09
 71
1.0
 72
0.0
 73
1
 74
1
 75
0
 76
0
 77
0
 78
4
170
0
171
2
172
0
173
0
174
0
175
0
176
0
177
0
178
0
270
2
271
2
272
2
273
2
274
2
275
0
280
0
281
0
282
0
283
1
284
4
285
0
286
0
287
3
288
0
340
11
  0
ENDTAB
  0
ENDSEC
  0
SECTION
  2
BLOCKS
  0
BLOCK
  5
20
100
AcDbEntity
  8
0
100
AcDbBlockBegin
  2
*Model_Space
 70
0
 10
0.0
 20
0.0
 30
0.0
  3
*Model_Space
  1

  0
ENDBLK
  5
21
100
AcDbEntity
  8
0
100
AcDbBlockEnd
  0
BLOCK
  5
1C
100
AcDbEntity
  8
0
100
AcDbBlockBegin
  2
*Paper_Space
 70
0
 10
0.0
 20
0.0
 30
0.0
  3
*Paper_Space
  1

  0
ENDBLK
  5
1D
100
AcDbEntity
  8
0
100
AcDbBlockEnd
  0
ENDSEC
  0
SECTION
  2
ENTITIES
  0
LINE
  5
206
100
AcDbEntity
  8
0
100
AcDbLine
 62
6
  6
CONTINUOUS
 10
5.3197968821
 20
5.7695651899
 11
5.2617968821
 21
5.7507198475
  0
LINE
  5
207
100
AcDbEntity
  8
0
100
AcDbLine
 62
6
  6
CONTINUOUS
 10
6.8242968821
 20
2.0395651899
 11
4.7242968821
 21
2.0395651899
  0
LINE
  5
208
100
AcDbEntity
  8
0
100
AcDbLine
 62
6
  6
CONTINUOUS
 10
5.2617968821
 20
5.7507198475
 11
5.2467968821
 21
5.7357198475
  0
LWPOLYLINE
  5
209
100
AcDbEntity
  8
0
100
AcDbPolyline
 62
6
  6
CONTINUOUS
 90
5
 70
0
 10
4.9473823667
 20
5.3686956614
 10
4.9295102059
 20
5.3549800074
 10
4.9072235418
 20
5.3344384943
 10
4.8859929565
 20
5.3107103347
 10
4.8664361838
 20
5.2844813687
  0
LINE
  5
20A
100
AcDbEntity
  8
0
100
AcDbLine
 62
9
  6
CONTINUOUS
 10
4.9473823667
 20
5.3686956614
 11
4.9473620209
 21
5.3686812927
  0
LINE
  5
20B
100
AcDbEntity
  8
0
100
AcDbLine
 62
6
  6
CONTINUOUS
 10
4.964822033
 20
5.3800376946
 11
4.9473620209
 21
5.3686812927
  0
LINE
  5
20C
100
AcDbEntity
  8
0
100
AcDbLine
 62
6
  6
CONTINUOUS
 10
4.9894557832
 20
5.3930176254
 11
4.9643584477
 21
5.3797604173
  0
LINE
  5
20D
100
AcDbEntity
  8
0
100
AcDbLine
 62
6
  6
CONTINUOUS
 10
5.0145661391
 20
5.4029441707
 11
4.9891329925
 21
5.3928689416
  0
LINE
  5
20E
100
AcDbEntity
  8
0
100
AcDbLine
 62
9
  6
CONTINUOUS
 10
6.8808085885
 20
2.2760614995
 11
4.6677851757
 21
2.2760614995
  0
LINE
  5
20F
100
AcDbEntity
  8
0
100
AcDbLine
 62
6
  6
CONTINUOUS
 10
4.8665327658
 20
5.2846230306
 11
4.8493491493
 21
5.2571094072
  0
LINE
  5
210
100
AcDbEntity
  8
0
100
AcDbLine
 62
6
  6
CONTINUOUS
 10
4.8859172861
 20
5.310608895
 11
4.8858364288
 21
5.3105183753
  0
LINE
  5
211
100
AcDbEntity
  8
0
100
AcDbLine
 62
6
  6
CONTINUOUS
 10
5.2624218821
 20
5.6441901899
 11
5.2467968821
 21
5.6285651899
  0
LINE
  5
212
100
AcDbEntity
  8
0
100
AcDbLine
 62
9
  6
CONTINUOUS
 10
5.3148961206
 20
5.4443235999
 11
5.3148860472
 21
5.4443176236
  0
LWPOLYLINE
  5
213
100
AcDbEntity
  8
0
100
AcDbPolyline
 62
6
  6
CONTINUOUS
 90
3
 70
0
 10
5.3148855954
 20
5.4443183882
 10
5.3141044307
 20
5.4439367253
 10
5.3119623365
 20
5.4432636634
  0
LWPOLYLINE
  5
214
100
AcDbEntity
  8
0
100
AcDbPolyline
 62
6
  6
CONTINUOUS
 90
5
 70
0
 10
4.835855453
 20
5.231435026
 10
4.8161278967
 20
5.187158694
 10
4.7979126766
 20
5.1384698648
 10
4.7824248658
 20
5.0875993949
 10
4.7699331134
 20
5.0347855023
  0
LINE
  5
215
100
AcDbEntity
  8
0
100
AcDbLine
 62
6
  6
CONTINUOUS
 10
4.8493932093
 20
5.2571865904
 11
4.835855018
 21
5.2314341241
  0
LINE
  5
216
100
AcDbEntity
  8
0
100
AcDbLine
 62
7
  6
CONTINUOUS
 10
6.5242968821
 20
2.6645651899
 11
5.0242968821
 21
2.6645651899
  0
LINE
  5
217
100
AcDbEntity
  8
0
100
AcDbLine
 62
6
  6
CONTINUOUS
 10
4.753535443
 20
4.8693107702
 11
4.7535351211
 21
4.8692946843
  0
LINE
  5
218
100
AcDbEntity
  8
0
100
AcDbLine
 62
6
  6
CONTINUOUS
 10
4.7551584872
 20
4.9243649942
 11
4.753535118
 21
4.8692951925
  0
LINE
  5
219
100
AcDbEntity
  8
0
100
AcDbLine
 62
6
  6
CONTINUOUS
 10
4.7607317065
 20
4.98025612
 11
4.7551584828
 21
4.9243649505
  0
LINE
  5
21A
100
AcDbEntity
  8
0
100
AcDbLine
 62
6
  6
CONTINUOUS
 10
4.7699331201
 20
5.0347855306
 11
4.7607317004
 21
4.9802560837
  0
LINE
  5
21B
100
AcDbEntity
  8
0
100
AcDbLine
 62
6
  6
CONTINUOUS
 10
5.2467968821
 20
5.6285651899
 11
5.2167968821
 21
5.5485651899
  0
LINE
  5
21C
100
AcDbEntity
  8
0
100
AcDbLine
 62
9
  6
CONTINUOUS
 10
5.2140499728
 20
5.1252483219
 11
5.2140491256
 21
5.1252467189
  0
LWPOLYLINE
  5
21D
100
AcDbEntity
  8
0
100
AcDbPolyline
 62
6
  6
CONTINUOUS
 90
10
 70
0
 10
5.2140491256
 20
5.1252467189
 10
5.2227285131
 20
5.1406285565
 10
5.2311711366
 20
5.1537984339
 10
5.2387449778
 20
5.1642691616
 10
5.2456411842
 20
5.1727470856
 10
5.2518397579
 20
5.179487013
 10
5.2568769987
 20
5.1842667906
 10
5.2612587161
 20
5.1877948273
 10
5.2648441315
 20
5.1901723346
 10
5.2658874825
 20
5.190750363
  0
LWPOLYLINE
  5
21E
100
AcDbEntity
  8
0
100
AcDbPolyline
 62
6
  6
CONTINUOUS
 90
3
 70
0
 10
6.2783868508
 20
5.1866836748
 10
6.2844307681
 20
5.1885731484
 10
6.2857727392
 20
5.1888315889
  0
LINE
  5
21F
100
AcDbEntity
  8
0
100
AcDbLine
 62
6
  6
CONTINUOUS
 10
6.5217968821
 20
2.7945651899
 11
5.0267968821
 21
2.7945651899
  0
LINE
  5
220
100
AcDbEntity
  8
0
100
AcDbLine
 62
6
  6
CONTINUOUS
 10
4.7535446402
 20
4.8443566536
 11
4.7561200775
 21
4.8182859312
  0
LINE
  5
221
100
AcDbEntity
  8
0
100
AcDbLine
 62
6
  6
CONTINUOUS
 10
4.7534837057
 20
4.8693115913
 11
4.7535446405
 21
4.8443565453
  0
LWPOLYLINE
  5
222
100
AcDbEntity
  8
0
100
AcDbPolyline
 62
6
  6
CONTINUOUS
 90
5
 70
0
 10
5.178137675
 20
5.0343846033
 10
5.1853680454
 20
5.0579507293
 10
5.1939329158
 20
5.0814051457
 10
5.2038024315
 20
5.1044922425
 10
5.2140499728
 20
5.1252483219
  0
LINE
  5
223
100
AcDbEntity
  8
0
100
AcDbLine
 62
6
  6
CONTINUOUS
 10
5.1329497609
 20
4.7879694918
 11
5.1410641132
 21
4.8096629829
  0
LWPOLYLINE
  5
224
100
AcDbEntity
  8
0
100
AcDbPolyline
 62
6
  6
CONTINUOUS
 90
5
 70
0
 10
5.0894559069
 20
4.7155129026
 10
5.1019226122
 20
4.7317356907
 10
5.1140745346
 20
4.7502930412
 10
5.1246841955
 20
4.7696761415
 10
5.1329497933
 20
4.7879695711
  0
LWPOLYLINE
  5
225
100
AcDbEntity
  8
0
100
AcDbPolyline
 62
6
  6
CONTINUOUS
 90
4
 70
0
 10
5.0868821657
 20
4.7124598673
 10
5.087394354
 20
4.7130585611
 10
5.0890485009
 20
4.7150221104
 10
5.0894559331
 20
4.7155129341
  0
LWPOLYLINE
  5
226
100
AcDbEntity
  8
0
100
AcDbPolyline
 62
6
  6
CONTINUOUS
 90
4
 70
0
 10
5.0493232018
 20
4.677895025
 10
5.0620300385
 20
4.6878156226
 10
5.0754973768
 20
4.7001825185
 10
5.0868821592
 20
4.7124598597
  0
LINE
  5
227
100
AcDbEntity
  8
0
100
AcDbLine
 62
9
  6
CONTINUOUS
 10
6.2783893588
 20
5.1866846179
 11
6.2783868508
 21
5.1866836748
  0
LINE
  5
228
100
AcDbEntity
  8
0
100
AcDbLine
 62
6
  6
CONTINUOUS
 10
5.1537183447
 20
4.8563117454
 11
5.1537216643
 21
4.8563374464
  0
LINE
  5
229
100
AcDbEntity
  8
0
100
AcDbLine
 62
6
  6
CONTINUOUS
 10
5.1628199448
 20
4.9548860426
 11
5.1681789368
 21
4.9902465862
  0
LINE
  5
22A
100
AcDbEntity
  8
0
100
AcDbLine
 62
9
  6
CONTINUOUS
 10
5.1681777122
 20
4.9902523695
 11
5.1681772625
 21
4.9902497662
  0
LINE
  5
22B
100
AcDbEntity
  8
0
100
AcDbLine
 62
6
  6
CONTINUOUS
 10
5.1681777122
 20
4.9902523695
 11
5.172373941
 21
5.0114119547
  0
LINE
  5
22C
100
AcDbEntity
  8
0
100
AcDbLine
 62
6
  6
CONTINUOUS
 10
5.1722906389
 20
5.011046071
 11
5.178217818
 21
5.0346458154
  0
LWPOLYLINE
  5
22D
100
AcDbEntity
  8
0
100
AcDbPolyline
 62
6
  6
CONTINUOUS
 90
3
 70
0
 10
5.1410641137
 20
4.8096629847
 10
5.1483828853
 20
4.8337011991
 10
5.1537159538
 20
4.8563123064
  0
LINE
  5
22E
100
AcDbEntity
  8
0
100
AcDbLine
 62
6
  6
CONTINUOUS
 10
6.3017968821
 20
5.6598151899
 11
6.2861718821
 21
5.6441901899
  0
LINE
  5
22F
100
AcDbEntity
  8
0
100
AcDbLine
 62
6
  6
CONTINUOUS
 10
6.3317968821
 20
4.9795651899
 11
6.1177968821
 21
4.9100323749
  0
LWPOLYLINE
  5
230
100
AcDbEntity
  8
0
100
AcDbPolyline
 62
6
  6
CONTINUOUS
 90
5
 70
0
 10
4.7607461915
 20
4.7949775442
 10
4.7667066966
 20
4.7749756772
 10
4.775101029
 20
4.7542802601
 10
4.7852946921
 20
4.7349677679
 10
4.7960759761
 20
4.718608178
  0
LINE
  5
231
100
AcDbEntity
  8
0
100
AcDbLine
 62
6
  6
CONTINUOUS
 10
4.7561200726
 20
4.8182859811
 11
4.7607461729
 21
4.794977619
  0
LINE
  5
232
100
AcDbEntity
  8
0
100
AcDbLine
 62
6
  6
CONTINUOUS
 10
5.1537216643
 20
4.8563374464
 11
5.1561077331
 21
4.8903692915
  0
LINE
  5
233
100
AcDbEntity
  8
0
100
AcDbLine
 62
6
  6
CONTINUOUS
 10
5.156102465
 20
4.8902941539
 11
5.1590233948
 21
4.9223748823
  0
LINE
  5
234
100
AcDbEntity
  8
0
100
AcDbLine
 62
6
  6
CONTINUOUS
 10
5.1590073744
 20
4.9222141856
 11
5.1628311795
 21
4.9549827116
  0
LWPOLYLINE
  5
235
100
AcDbEntity
  8
0
100
AcDbPolyline
 62
6
  6
CONTINUOUS
 90
5
 70
0
 10
6.2477896362
 20
5.1668159314
 10
6.2525455726
 20
5.171047525
 10
6.2631625265
 20
5.1788716366
 10
6.2725982083
 20
5.18418414
 10
6.2783893588
 20
5.1866846179
  0
LINE
  5
236
100
AcDbEntity
  8
0
100
AcDbLine
 62
6
  6
CONTINUOUS
 10
5.2167968821
 20
5.5485651899
 11
5.2167968821
 21
5.4369217549
  0
LINE
  5
237
100
AcDbEntity
  8
0
100
AcDbLine
 62
6
  6
CONTINUOUS
 10
5.2167968821
 20
5.1301163648
 11
5.2167968821
 21
4.9795651899
  0
LINE
  5
238
100
AcDbEntity
  8
0
100
AcDbLine
 62
6
  6
CONTINUOUS
 10
5.2467968821
 20
5.7357198475
 11
5.2467968821
 21
5.6598151899
  0
LINE
  5
239
100
AcDbEntity
  8
0
100
AcDbLine
 62
6
  6
CONTINUOUS
 10
5.1902382093
 20
3.7580088031
 11
5.0267968821
 21
2.7945651899
  0
LINE
  5
23A
100
AcDbEntity
  8
0
100
AcDbLine
 62
9
  6
CONTINUOUS
 10
6.247856316
 20
5.1668785501
 11
6.2477908562
 21
5.1668170718
  0
LINE
  5
23B
100
AcDbEntity
  8
0
100
AcDbLine
 62
6
  6
CONTINUOUS
 10
6.655691868
 20
4.6498870946
 11
6.6570348781
 21
4.6502801455
  0
LINE
  5
23C
100
AcDbEntity
  8
0
100
AcDbLine
 62
6
  6
CONTINUOUS
 10
6.654794848
 20
4.6496307122
 11
6.6561303761
 21
4.6500142143
  0
LINE
  5
23D
100
AcDbEntity
  8
0
100
AcDbLine
 62
7
  6
CONTINUOUS
 10
5.4757968821
 20
5.8192652685
 11
5.4757961178
 21
5.8195445261
  0
LINE
  5
23E
100
AcDbEntity
  8
0
100
AcDbLine
 62
6
  6
CONTINUOUS
 10
5.4307968821
 20
4.9100323749
 11
5.4307968821
 21
4.5695651899
  0
LINE
  5
23F
100
AcDbEntity
  8
0
100
AcDbLine
 62
7
  6
CONTINUOUS
 10
5.4572968821
 20
5.815202695
 11
5.4572968821
 21
5.8159938848
  0
LINE
  5
240
100
AcDbEntity
  8
0
100
AcDbLine
 62
7
  6
CONTINUOUS
 10
5.4607968821
 20
5.8165480487
 11
5.4607968821
 21
5.8159301928
  0
LINE
  5
241
100
AcDbEntity
  8
0
100
AcDbLine
 62
7
  6
CONTINUOUS
 10
5.4757968821
 20
5.8201640376
 11
5.4757968821
 21
5.8205637477
  0
LWPOLYLINE
  5
242
100
AcDbEntity
  8
0
100
AcDbPolyline
 62
6
  6
CONTINUOUS
 90
3
 70
0
 10
6.6791539668
 20
4.6584327986
 10
6.680335662
 20
4.6589634368
 10
6.6818309579
 20
4.6596497789
  0
LINE
  5
243
100
AcDbEntity
  8
0
100
AcDbLine
 62
6
  6
CONTINUOUS
 10
6.6779753102
 20
4.6579137356
 11
6.679484167
 21
4.6585800374
  0
LINE
  5
244
100
AcDbEntity
  8
0
100
AcDbLine
 62
6
  6
CONTINUOUS
 10
6.6767995424
 20
4.6574059887
 11
6.6783153506
 21
4.6580624447
  0
LINE
  5
245
100
AcDbEntity
  8
0
100
AcDbLine
 62
6
  6
CONTINUOUS
 10
6.6756265071
 20
4.6569093069
 11
6.6771493978
 21
4.6575560296
  0
LINE
  5
246
100
AcDbEntity
  8
0
100
AcDbLine
 62
6
  6
CONTINUOUS
 10
6.6744564852
 20
4.6564236299
 11
6.6759861591
 21
4.6570605463
  0
LINE
  5
247
100
AcDbEntity
  8
0
100
AcDbLine
 62
6
  6
CONTINUOUS
 10
6.6732911696
 20
4.6559494619
 11
6.6748255939
 21
4.6565758044
  0
LINE
  5
248
100
AcDbEntity
  8
0
100
AcDbLine
 62
6
  6
CONTINUOUS
 10
6.6721325489
 20
4.6554873749
 11
6.6736688958
 21
4.6561021205
  0
LINE
  5
249
100
AcDbEntity
  8
0
100
AcDbLine
 62
6
  6
CONTINUOUS
 10
6.6709826285
 20
4.6550378907
 11
6.6725180236
 21
4.655640082
  0
LINE
  5
24A
100
AcDbEntity
  8
0
100
AcDbLine
 62
6
  6
CONTINUOUS
 10
6.6698434292
 20
4.6546014819
 11
6.6713749639
 21
4.6551902309
  0
LINE
  5
24B
100
AcDbEntity
  8
0
100
AcDbLine
 62
6
  6
CONTINUOUS
 10
6.6687169859
 20
4.6541785733
 11
6.6702417191
 21
4.6547530602
  0
LINE
  5
24C
100
AcDbEntity
  8
0
100
AcDbLine
 62
6
  6
CONTINUOUS
 10
6.6676053462
 20
4.6537695433
 11
6.6691203057
 21
4.6543290151
  0
LINE
  5
24D
100
AcDbEntity
  8
0
100
AcDbLine
 62
6
  6
CONTINUOUS
 10
6.6665105687
 20
4.653374726
 11
6.6680127538
 21
4.6539184948
  0
LINE
  5
24E
100
AcDbEntity
  8
0
100
AcDbLine
 62
6
  6
CONTINUOUS
 10
6.6654347222
 20
4.6529944129
 11
6.6669211049
 21
4.6535218536
  0
LINE
  5
24F
100
AcDbEntity
  8
0
100
AcDbLine
 62
6
  6
CONTINUOUS
 10
6.6643798458
 20
4.652628842
 11
6.6658474108
 21
4.6531394031
  0
LINE
  5
250
100
AcDbEntity
  8
0
100
AcDbLine
 62
6
  6
CONTINUOUS
 10
6.6633465246
 20
4.652277723
 11
6.6647937326
 21
4.6527714144
  0
LINE
  5
251
100
AcDbEntity
  8
0
100
AcDbLine
 62
6
  6
CONTINUOUS
 10
6.6623334454
 20
4.6519401405
 11
6.6637615467
 21
4.6524179192
  0
LINE
  5
252
100
AcDbEntity
  8
0
100
AcDbLine
 62
6
  6
CONTINUOUS
 10
6.6613391492
 20
4.6516151815
 11
6.662750008
 21
4.6520781542
  0
LINE
  5
253
100
AcDbEntity
  8
0
100
AcDbLine
 62
6
  6
CONTINUOUS
 10
6.6603621576
 20
4.6513019774
 11
6.6617576848
 21
4.651751203
  0
LINE
  5
254
100
AcDbEntity
  8
0
100
AcDbLine
 62
6
  6
CONTINUOUS
 10
6.6594009741
 20
4.6509997024
 11
6.660783126
 21
4.6514361928
  0
LINE
  5
255
100
AcDbEntity
  8
0
100
AcDbLine
 62
6
  6
CONTINUOUS
 10
6.6584541662
 20
4.650707596
 11
6.6598248623
 21
4.6511322935
  0
LINE
  5
256
100
AcDbEntity
  8
0
100
AcDbLine
 62
6
  6
CONTINUOUS
 10
6.6575208344
 20
4.6504250998
 11
6.6588814185
 21
4.6508387189
  0
LINE
  5
257
100
AcDbEntity
  8
0
100
AcDbLine
 62
6
  6
CONTINUOUS
 10
6.6566002979
 20
4.6501517481
 11
6.6579516609
 21
4.6505548296
  0
LWPOLYLINE
  5
258
100
AcDbEntity
  8
0
100
AcDbPolyline
 62
6
  6
CONTINUOUS
 90
4
 70
0
 10
4.7960760184
 20
4.7186081199
 10
4.7964378617
 20
4.7181129774
 10
4.7979506238
 20
4.7160756401
 10
4.7984156395
 20
4.7154597099
  0
LINE
  5
259
100
AcDbEntity
  8
0
100
AcDbLine
 62
7
  6
CONTINUOUS
 10
5.6127968821
 20
5.8398660438
 11
5.6127929188
 21
5.8401263793
  0
LINE
  5
25A
100
AcDbEntity
  8
0
100
AcDbLine
 62
6
  6
CONTINUOUS
 10
5.4977968821
 20
4.5395651899
 11
5.4977968821
 21
3.9145651899
  0
LINE
  5
25B
100
AcDbEntity
  8
0
100
AcDbLine
 62
7
  6
CONTINUOUS
 10
5.5037968821
 20
5.8246680628
 11
5.5037968821
 21
5.8244957849
  0
LINE
  5
25C
100
AcDbEntity
  8
0
100
AcDbLine
 62
7
  6
CONTINUOUS
 10
5.5037968821
 20
5.825265787
 11
5.5037968821
 21
5.8256837148
  0
LINE
  5
25D
100
AcDbEntity
  8
0
100
AcDbLine
 62
7
  6
CONTINUOUS
 10
5.5222968821
 20
5.8281346903
 11
5.5222968821
 21
5.8273497851
  0
LINE
  5
25E
100
AcDbEntity
  8
0
100
AcDbLine
 62
7
  6
CONTINUOUS
 10
5.5322968821
 20
5.830361301
 11
5.5322968821
 21
5.8304595697
  0
LINE
  5
25F
100
AcDbEntity
  8
0
100
AcDbLine
 62
7
  6
CONTINUOUS
 10
5.5452968821
 20
5.8325628362
 11
5.5452968821
 21
5.8323590628
  0
LINE
  5
260
100
AcDbEntity
  8
0
100
AcDbLine
 62
7
  6
CONTINUOUS
 10
5.6002968821
 20
5.8381812092
 11
5.6002968821
 21
5.8389605941
  0
LINE
  5
261
100
AcDbEntity
  8
0
100
AcDbLine
 62
7
  6
CONTINUOUS
 10
5.6127968821
 20
5.8407716503
 11
5.6127968821
 21
5.8411322661
  0
LINE
  5
262
100
AcDbEntity
  8
0
100
AcDbLine
 62
7
  6
CONTINUOUS
 10
5.6427968821
 20
5.8428708565
 11
5.6427968821
 21
5.8427155074
  0
LINE
  5
263
100
AcDbEntity
  8
0
100
AcDbLine
 62
7
  6
CONTINUOUS
 10
5.6427968821
 20
5.8431041133
 11
5.6427968821
 21
5.8439742167
  0
LINE
  5
264
100
AcDbEntity
  8
0
100
AcDbLine
 62
7
  6
CONTINUOUS
 10
5.9367997612
 20
5.8400213766
 11
5.9367968821
 21
5.8400055337
  0
LINE
  5
265
100
AcDbEntity
  8
0
100
AcDbLine
 62
6
  6
CONTINUOUS
 10
6.6985050273
 20
4.6685146133
 11
6.6999030103
 21
4.6693673454
  0
LINE
  5
266
100
AcDbEntity
  8
0
100
AcDbLine
 62
6
  6
CONTINUOUS
 10
6.6972649431
 20
4.6677733612
 11
6.6986696758
 21
4.6686140967
  0
LINE
  5
267
100
AcDbEntity
  8
0
100
AcDbLine
 62
6
  6
CONTINUOUS
 10
6.6960291872
 20
4.6670486201
 11
6.6974405731
 21
4.6678774863
  0
LINE
  5
268
100
AcDbEntity
  8
0
100
AcDbLine
 62
6
  6
CONTINUOUS
 10
6.6947977413
 20
4.6663399975
 11
6.6962156974
 21
4.6671571228
  0
LINE
  5
269
100
AcDbEntity
  8
0
100
AcDbLine
 62
6
  6
CONTINUOUS
 10
6.6935705757
 20
4.6656471099
 11
6.694995033
 21
4.6664526237
  0
LINE
  5
26A
100
AcDbEntity
  8
0
100
AcDbLine
 62
6
  6
CONTINUOUS
 10
6.6923476499
 20
4.6649695834
 11
6.6937785529
 21
4.6657636158
  0
LINE
  5
26B
100
AcDbEntity
  8
0
100
AcDbLine
 62
6
  6
CONTINUOUS
 10
6.691128913
 20
4.6643070532
 11
6.6925662199
 21
4.6650897349
  0
LINE
  5
26C
100
AcDbEntity
  8
0
100
AcDbLine
 62
6
  6
CONTINUOUS
 10
6.6899143038
 20
4.6636591639
 11
6.6913579866
 21
4.6644306256
  0
LINE
  5
26D
100
AcDbEntity
  8
0
100
AcDbLine
 62
6
  6
CONTINUOUS
 10
6.6887037518
 20
4.663025569
 11
6.6901537957
 21
4.6637859415
  0
LINE
  5
26E
100
AcDbEntity
  8
0
100
AcDbLine
 62
6
  6
CONTINUOUS
 10
6.6874971766
 20
4.6624059313
 11
6.6889535807
 21
4.6631553448
  0
LINE
  5
26F
100
AcDbEntity
  8
0
100
AcDbLine
 62
6
  6
CONTINUOUS
 10
6.6862944893
 20
4.6617999224
 11
6.6877572661
 21
4.6625385066
  0
LINE
  5
270
100
AcDbEntity
  8
0
100
AcDbLine
 62
6
  6
CONTINUOUS
 10
6.685095592
 20
4.6612072229
 11
6.6865647674
 21
4.6619351066
  0
LINE
  5
271
100
AcDbEntity
  8
0
100
AcDbLine
 62
6
  6
CONTINUOUS
 10
6.6839003787
 20
4.6606275222
 11
6.685375992
 21
4.6613448329
  0
LINE
  5
272
100
AcDbEntity
  8
0
100
AcDbLine
 62
6
  6
CONTINUOUS
 10
6.6827087351
 20
4.6600605183
 11
6.6841908389
 21
4.6607673822
  0
LINE
  5
273
100
AcDbEntity
  8
0
100
AcDbLine
 62
6
  6
CONTINUOUS
 10
6.6815205393
 20
4.6595059181
 11
6.6830091996
 21
4.6602024598
  0
LINE
  5
274
100
AcDbEntity
  8
0
100
AcDbLine
 62
6
  6
CONTINUOUS
 10
6.679484167
 20
4.6585800374
 11
6.6806559905
 21
4.6591090615
  0
LINE
  5
275
100
AcDbEntity
  8
0
100
AcDbLine
 62
9
  6
CONTINUOUS
 10
5.1902382093
 20
3.7580088031
 11
6.3583555548
 21
3.7580088031
  0
LWPOLYLINE
  5
276
100
AcDbEntity
  8
0
100
AcDbPolyline
 62
6
  6
CONTINUOUS
 90
4
 70
0
 10
4.7984156189
 20
4.7154597372
 10
4.8087061174
 20
4.7030107652
 10
4.8213915836
 20
4.6901819043
 10
4.8337848962
 20
4.67969714
  0
LINE
  5
277
100
AcDbEntity
  8
0
100
AcDbLine
 62
7
  6
CONTINUOUS
 10
5.6552968821
 20
5.8441836578
 11
5.6552968821
 21
5.8434069086
  0
LINE
  5
278
100
AcDbEntity
  8
0
100
AcDbLine
 62
7
  6
CONTINUOUS
 10
5.7402968821
 20
5.8483858962
 11
5.7402968821
 21
5.8476112546
  0
LWPOLYLINE
  5
279
100
AcDbEntity
  8
0
100
AcDbPolyline
 62
6
  6
CONTINUOUS
 90
3
 70
0
 10
6.7124239255
 20
4.6778798505
 10
6.7137124271
 20
4.6788532114
 10
6.7148088981
 20
4.6796971633
  0
LINE
  5
27A
100
AcDbEntity
  8
0
100
AcDbLine
 62
6
  6
CONTINUOUS
 10
6.7111388546
 20
4.6769284137
 11
6.7124608371
 21
4.677907462
  0
LINE
  5
27B
100
AcDbEntity
  8
0
100
AcDbLine
 62
6
  6
CONTINUOUS
 10
6.7098573798
 20
4.6759984017
 11
6.7111878925
 21
4.6769643715
  0
LINE
  5
27C
100
AcDbEntity
  8
0
100
AcDbLine
 62
6
  6
CONTINUOUS
 10
6.7085796492
 20
4.6750893249
 11
6.7099184476
 21
4.6760423022
  0
LINE
  5
27D
100
AcDbEntity
  8
0
100
AcDbLine
 62
6
  6
CONTINUOUS
 10
6.7073057937
 20
4.6742007024
 11
6.7086526472
 21
4.6751407787
  0
LINE
  5
27E
100
AcDbEntity
  8
0
100
AcDbLine
 62
6
  6
CONTINUOUS
 10
6.7060359331
 20
4.673332066
 11
6.7073906194
 21
4.6742593343
  0
LINE
  5
27F
100
AcDbEntity
  8
0
100
AcDbLine
 62
6
  6
CONTINUOUS
 10
6.7047701766
 20
4.67248296
 11
6.7061324817
 21
4.6733975144
  0
LINE
  5
280
100
AcDbEntity
  8
0
100
AcDbLine
 62
6
  6
CONTINUOUS
 10
6.7035085983
 20
4.6716529244
 11
6.704878342
 21
4.6725548769
  0
LINE
  5
281
100
AcDbEntity
  8
0
100
AcDbLine
 62
6
  6
CONTINUOUS
 10
6.7022512565
 20
4.6708415081
 11
6.7036282736
 21
4.6717309747
  0
LINE
  5
282
100
AcDbEntity
  8
0
100
AcDbLine
 62
6
  6
CONTINUOUS
 10
6.7009981957
 20
4.6700482701
 11
6.7023823346
 21
4.6709253697
  0
LINE
  5
283
100
AcDbEntity
  8
0
100
AcDbLine
 62
6
  6
CONTINUOUS
 10
6.6997494466
 20
4.669272779
 11
6.7011405696
 21
4.6701376331
  0
LINE
  5
284
100
AcDbEntity
  8
0
100
AcDbLine
 62
6
  6
CONTINUOUS
 10
5.3755900347
 20
3.9145651899
 11
6.1730037294
 21
3.9145651899
  0
LWPOLYLINE
  5
285
100
AcDbEntity
  8
0
100
AcDbPolyline
 62
6
  6
CONTINUOUS
 90
3
 70
0
 10
4.833784866
 20
4.6796971633
 10
4.8350604669
 20
4.6787167133
 10
4.8364365285
 20
4.6776808277
  0
LINE
  5
286
100
AcDbEntity
  8
0
100
AcDbLine
 62
7
  6
CONTINUOUS
 10
5.8892968821
 20
5.8437098872
 11
5.8892968821
 21
5.8444864842
  0
LINE
  5
287
100
AcDbEntity
  8
0
100
AcDbLine
 62
7
  6
CONTINUOUS
 10
5.9067968821
 20
5.8435798768
 11
5.9067968821
 21
5.8438939598
  0
LINE
  5
288
100
AcDbEntity
  8
0
100
AcDbLine
 62
7
  6
CONTINUOUS
 10
5.9367968821
 20
5.8400055337
 11
5.9367968821
 21
5.8397997805
  0
LINE
  5
289
100
AcDbEntity
  8
0
100
AcDbLine
 62
7
  6
CONTINUOUS
 10
5.9367968821
 20
5.8407125533
 11
5.9367968821
 21
5.8410272203
  0
LINE
  5
28A
100
AcDbEntity
  8
0
100
AcDbLine
 62
7
  6
CONTINUOUS
 10
5.9067968821
 20
5.8426687993
 11
5.9068019568
 21
5.8428898513
  0
LWPOLYLINE
  5
28B
100
AcDbEntity
  8
0
100
AcDbPolyline
 62
6
  6
CONTINUOUS
 90
4
 70
0
 10
6.714808868
 20
4.67969714
 10
6.7272021805
 20
4.6901819043
 10
6.7398876467
 20
4.7030107652
 10
6.7501781453
 20
4.7154597372
  0
LINE
  5
28C
100
AcDbEntity
  8
0
100
AcDbLine
 62
6
  6
CONTINUOUS
 10
4.8525302861
 20
4.6670685455
 11
4.8538702888
 21
4.6662976907
  0
LINE
  5
28D
100
AcDbEntity
  8
0
100
AcDbLine
 62
6
  6
CONTINUOUS
 10
4.8391739569
 20
4.6756850518
 11
4.8405349389
 21
4.6747238931
  0
LWPOLYLINE
  5
28E
100
AcDbEntity
  8
0
100
AcDbPolyline
 62
6
  6
CONTINUOUS
 90
13
 70
0
 10
4.8364460506
 20
4.677673737
 10
4.837820192
 20
4.6766614255
 10
4.8391891623
 20
4.6756742011
 10
4.8405527789
 20
4.6747114278
 10
4.8419108825
 20
4.6737724827
 10
4.8432633364
 20
4.6728567558
 10
4.8446100255
 20
4.6719636503
 10
4.8459508535
 20
4.6710925834
 10
4.8472857468
 20
4.6702429838
 10
4.8486146616
 20
4.6694142865
 10
4.8499375726
 20
4.6686059399
 10
4.851254472
 20
4.667817406
 10
4.8525653689
 20
4.6670481601
  0
LINE
  5
28F
100
AcDbEntity
  8
0
100
AcDbLine
 62
7
  6
CONTINUOUS
 10
5.9542968821
 20
5.8382708586
 11
5.9542968821
 21
5.8374911243
  0
LINE
  5
290
100
AcDbEntity
  8
0
100
AcDbLine
 62
7
  6
CONTINUOUS
 10
5.9642968821
 20
5.8362882591
 11
5.9642968821
 21
5.8370686032
  0
LINE
  5
291
100
AcDbEntity
  8
0
100
AcDbLine
 62
7
  6
CONTINUOUS
 10
5.9722968821
 20
5.8363059236
 11
5.9722968821
 21
5.8368722539
  0
LINE
  5
292
100
AcDbEntity
  8
0
100
AcDbLine
 62
7
  6
CONTINUOUS
 10
6.0092968821
 20
5.8309942237
 11
6.0092968821
 21
5.8308391998
  0
LINE
  5
293
100
AcDbEntity
  8
0
100
AcDbLine
 62
7
  6
CONTINUOUS
 10
6.0342968821
 20
5.8260092818
 11
6.0342968821
 21
5.8267948756
  0
LINE
  5
294
100
AcDbEntity
  8
0
100
AcDbLine
 62
6
  6
CONTINUOUS
 10
6.0507968821
 20
4.5395651899
 11
6.0507968821
 21
3.9145651899
  0
LINE
  5
295
100
AcDbEntity
  8
0
100
AcDbLine
 62
7
  6
CONTINUOUS
 10
6.0722935925
 20
5.8194769274
 11
6.0722935925
 21
5.8204960444
  0
LINE
  5
296
100
AcDbEntity
  8
0
100
AcDbLine
 62
7
  6
CONTINUOUS
 10
6.0092968821
 20
5.8309942237
 11
6.0093045971
 21
5.8316537565
  0
LINE
  5
297
100
AcDbEntity
  8
0
100
AcDbLine
 62
7
  6
CONTINUOUS
 10
5.9722968821
 20
5.8354249681
 11
5.9723027553
 21
5.8358632389
  0
LWPOLYLINE
  5
298
100
AcDbEntity
  8
0
100
AcDbPolyline
 62
6
  6
CONTINUOUS
 90
4
 70
0
 10
6.7501781246
 20
4.7154597099
 10
6.7506431403
 20
4.7160756401
 10
6.7521559024
 20
4.7181129774
 10
6.7525177457
 20
4.7186081199
  0
LWPOLYLINE
  5
299
100
AcDbEntity
  8
0
100
AcDbPolyline
 62
6
  6
CONTINUOUS
 90
18
 70
0
 10
4.8727825094
 20
4.6569868814
 10
4.8739997757
 20
4.6564802071
 10
4.8752089636
 20
4.6559872104
 10
4.8764091033
 20
4.6555079594
 10
4.8775992211
 20
4.6550425016
 10
4.8787783402
 20
4.6545908642
 10
4.8799454813
 20
4.6541530549
 10
4.8810996631
 20
4.6537290626
 10
4.8822399027
 20
4.6533188578
 10
4.8833652163
 20
4.6529223937
 10
4.8844746679
 20
4.6525395905
 10
4.8855679999
 20
4.652170127
 10
4.8866454605
 20
4.6518135215
 10
4.8877073198
 20
4.6514693041
 10
4.8887538573
 20
4.6511370201
 10
4.8897853617
 20
4.6508162299
 10
4.8908021304
 20
4.6505065084
 10
4.8918044748
 20
4.6502074431
  0
LINE
  5
29A
100
AcDbEntity
  8
0
100
AcDbLine
 62
6
  6
CONTINUOUS
 10
4.8715204682
 20
4.6575233172
 11
4.8727463445
 21
4.6570020952
  0
LINE
  5
29B
100
AcDbEntity
  8
0
100
AcDbLine
 62
6
  6
CONTINUOUS
 10
4.8702888113
 20
4.658057885
 11
4.8715581305
 21
4.6575071435
  0
LINE
  5
29C
100
AcDbEntity
  8
0
100
AcDbLine
 62
6
  6
CONTINUOUS
 10
4.8690523998
 20
4.6586056236
 11
4.8703276
 21
4.6580408821
  0
LINE
  5
29D
100
AcDbEntity
  8
0
100
AcDbLine
 62
6
  6
CONTINUOUS
 10
4.8678116563
 20
4.6591666054
 11
4.8690918725
 21
4.6585879636
  0
LINE
  5
29E
100
AcDbEntity
  8
0
100
AcDbLine
 62
6
  6
CONTINUOUS
 10
4.8665664222
 20
4.6597411666
 11
4.8678516014
 21
4.6591483667
  0
LINE
  5
29F
100
AcDbEntity
  8
0
100
AcDbLine
 62
6
  6
CONTINUOUS
 10
4.8653165234
 20
4.660329666
 11
4.8666067119
 21
4.659722394
  0
LINE
  5
2A0
100
AcDbEntity
  8
0
100
AcDbLine
 62
6
  6
CONTINUOUS
 10
4.8640617958
 20
4.6609324735
 11
4.8653570279
 21
4.6603104082
  0
LINE
  5
2A1
100
AcDbEntity
  8
0
100
AcDbLine
 62
6
  6
CONTINUOUS
 10
4.8628020855
 20
4.6615499709
 11
4.8641023828
 21
4.6609127839
  0
LINE
  5
2A2
100
AcDbEntity
  8
0
100
AcDbLine
 62
6
  6
CONTINUOUS
 10
4.8615372492
 20
4.6621825517
 11
4.8628426208
 21
4.6615299072
  0
LINE
  5
2A3
100
AcDbEntity
  8
0
100
AcDbLine
 62
6
  6
CONTINUOUS
 10
4.8602671547
 20
4.6628306215
 11
4.8615775966
 21
4.6621621765
  0
LINE
  5
2A4
100
AcDbEntity
  8
0
100
AcDbLine
 62
6
  6
CONTINUOUS
 10
4.8589916814
 20
4.6634945977
 11
4.8603071761
 21
4.6628100019
  0
LINE
  5
2A5
100
AcDbEntity
  8
0
100
AcDbLine
 62
6
  6
CONTINUOUS
 10
4.8577107208
 20
4.66417491
 11
4.8590312371
 21
4.6634738059
  0
LINE
  5
2A6
100
AcDbEntity
  8
0
100
AcDbLine
 62
6
  6
CONTINUOUS
 10
4.856424177
 20
4.6648720002
 11
4.8577496695
 21
4.6641540233
  0
LINE
  5
2A7
100
AcDbEntity
  8
0
100
AcDbLine
 62
6
  6
CONTINUOUS
 10
4.855131967
 20
4.6655863229
 11
4.8564623761
 21
4.6648511012
  0
LINE
  5
2A8
100
AcDbEntity
  8
0
100
AcDbLine
 62
6
  6
CONTINUOUS
 10
4.8538340218
 20
4.6663183448
 11
4.8551692726
 21
4.6655654995
  0
LINE
  5
2A9
100
AcDbEntity
  8
0
100
AcDbLine
 62
6
  6
CONTINUOUS
 10
6.1177968821
 20
4.9100323749
 11
6.1177968821
 21
4.5695651899
  0
LWPOLYLINE
  5
2AA
100
AcDbEntity
  8
0
100
AcDbPolyline
 62
6
  6
CONTINUOUS
 90
5
 70
0
 10
6.752517788
 20
4.718608178
 10
6.763299072
 20
4.7349677679
 10
6.7734927352
 20
4.7542802601
 10
6.7818870676
 20
4.7749756772
 10
6.7878475726
 20
4.7949775442
  0
LINE
  5
2AB
100
AcDbEntity
  8
0
100
AcDbLine
 62
6
  6
CONTINUOUS
 10
6.6539085336
 20
4.6493821922
 11
6.6552374526
 21
4.6497566028
  0
LINE
  5
2AC
100
AcDbEntity
  8
0
100
AcDbLine
 62
6
  6
CONTINUOUS
 10
6.6530322135
 20
4.6491411437
 11
6.6543553976
 21
4.6495068964
  0
LINE
  5
2AD
100
AcDbEntity
  8
0
100
AcDbLine
 62
6
  6
CONTINUOUS
 10
6.6521651695
 20
4.6489071935
 11
6.6534834941
 21
4.6492646986
  0
LINE
  5
2AE
100
AcDbEntity
  8
0
100
AcDbLine
 62
6
  6
CONTINUOUS
 10
6.6513066773
 20
4.648679985
 11
6.6526210182
 21
4.6490296305
  0
LINE
  5
2AF
100
AcDbEntity
  8
0
100
AcDbLine
 62
6
  6
CONTINUOUS
 10
6.6504560067
 20
4.6484591786
 11
6.6517672395
 21
4.6488013301
  0
LINE
  5
2B0
100
AcDbEntity
  8
0
100
AcDbLine
 62
6
  6
CONTINUOUS
 10
6.6496124218
 20
4.6482444504
 11
6.6509214219
 21
4.6485794522
  0
LINE
  5
2B1
100
AcDbEntity
  8
0
100
AcDbLine
 62
6
  6
CONTINUOUS
 10
4.8974926161
 20
4.648626242
 11
4.8984580664
 21
4.6483771502
  0
LINE
  5
2B2
100
AcDbEntity
  8
0
100
AcDbLine
 62
6
  6
CONTINUOUS
 10
4.8965680579
 20
4.6488699835
 11
4.8975426913
 21
4.6486131862
  0
LINE
  5
2B3
100
AcDbEntity
  8
0
100
AcDbLine
 62
6
  6
CONTINUOUS
 10
4.895632304
 20
4.6491218836
 11
4.896616511
 21
4.6488570831
  0
LINE
  5
2B4
100
AcDbEntity
  8
0
100
AcDbLine
 62
6
  6
CONTINUOUS
 10
4.8946848059
 20
4.6493823101
 11
4.8956789745
 21
4.6491091956
  0
LINE
  5
2B5
100
AcDbEntity
  8
0
100
AcDbLine
 62
6
  6
CONTINUOUS
 10
4.8937250221
 20
4.6496516471
 11
4.894729537
 21
4.6493698936
  0
LINE
  5
2B6
100
AcDbEntity
  8
0
100
AcDbLine
 62
6
  6
CONTINUOUS
 10
4.8927524181
 20
4.6499302948
 11
4.8937676604
 21
4.6496395632
  0
LINE
  5
2B7
100
AcDbEntity
  8
0
100
AcDbLine
 62
6
  6
CONTINUOUS
 10
4.8917664673
 20
4.6502186703
 11
4.892792814
 21
4.6499186066
  0
LINE
  5
2B8
100
AcDbEntity
  8
0
100
AcDbLine
 62
6
  6
CONTINUOUS
 10
4.8855437465
 20
4.6521782395
 11
4.8866195656
 21
4.6518220051
  0
LINE
  5
2B9
100
AcDbEntity
  8
0
100
AcDbLine
 62
6
  6
CONTINUOUS
 10
6.3017968821
 20
5.7357198475
 11
6.3017968821
 21
5.6598151899
  0
LINE
  5
2BA
100
AcDbEntity
  8
0
100
AcDbLine
 62
6
  6
CONTINUOUS
 10
6.3317968821
 20
4.9795651899
 11
6.3317968821
 21
5.1301158759
  0
LINE
  5
2BB
100
AcDbEntity
  8
0
100
AcDbLine
 62
6
  6
CONTINUOUS
 10
6.3317968821
 20
5.4369217549
 11
6.3317968821
 21
5.5485651899
  0
LINE
  5
2BC
100
AcDbEntity
  8
0
100
AcDbLine
 62
6
  6
CONTINUOUS
 10
6.6487751814
 20
4.6480354927
 11
6.6500828233
 21
4.648363668
  0
LINE
  5
2BD
100
AcDbEntity
  8
0
100
AcDbLine
 62
6
  6
CONTINUOUS
 10
6.6479435396
 20
4.6478320133
 11
6.6492506964
 21
4.6481536644
  0
LINE
  5
2BE
100
AcDbEntity
  8
0
100
AcDbLine
 62
6
  6
CONTINUOUS
 10
6.6471169138
 20
4.6476337749
 11
6.6484242889
 21
4.6479491441
  0
LINE
  5
2BF
100
AcDbEntity
  8
0
100
AcDbLine
 62
6
  6
CONTINUOUS
 10
6.6462953245
 20
4.6474406936
 11
6.6476028809
 21
4.6477498339
  0
LINE
  5
2C0
100
AcDbEntity
  8
0
100
AcDbLine
 62
6
  6
CONTINUOUS
 10
6.6454789283
 20
4.6472527173
 11
6.6467862507
 21
4.6475555934
  0
LINE
  5
2C1
100
AcDbEntity
  8
0
100
AcDbLine
 62
6
  6
CONTINUOUS
 10
6.6446678808
 20
4.6470697923
 11
6.6459745363
 21
4.6473663707
  0
LINE
  5
2C2
100
AcDbEntity
  8
0
100
AcDbLine
 62
6
  6
CONTINUOUS
 10
6.6438623376
 20
4.6468918631
 11
6.6451678829
 21
4.6471821143
  0
LINE
  5
2C3
100
AcDbEntity
  8
0
100
AcDbLine
 62
6
  6
CONTINUOUS
 10
6.6427797339
 20
4.6466586064
 11
6.6443664353
 21
4.6470027713
  0
LINE
  5
2C4
100
AcDbEntity
  8
0
100
AcDbLine
 62
6
  6
CONTINUOUS
 10
6.6414802785
 20
4.6463874747
 11
6.6430624533
 21
4.646718873
  0
LINE
  5
2C5
100
AcDbEntity
  8
0
100
AcDbLine
 62
6
  6
CONTINUOUS
 10
6.6404423148
 20
4.6461778049
 11
6.641994767
 21
4.6464936716
  0
LINE
  5
2C6
100
AcDbEntity
  8
0
100
AcDbLine
 62
6
  6
CONTINUOUS
 10
6.6391533004
 20
4.645925913
 11
6.6406982951
 21
4.6462289454
  0
LINE
  5
2C7
100
AcDbEntity
  8
0
100
AcDbLine
 62
6
  6
CONTINUOUS
 10
6.6381594673
 20
4.645738098
 11
6.6396751136
 21
4.6460267523
  0
LINE
  5
2C8
100
AcDbEntity
  8
0
100
AcDbLine
 62
6
  6
CONTINUOUS
 10
6.636885517
 20
4.6455054521
 11
6.6383905933
 21
4.6457812808
  0
LINE
  5
2C9
100
AcDbEntity
  8
0
100
AcDbLine
 62
6
  6
CONTINUOUS
 10
6.6359349965
 20
4.6453377792
 11
6.6374113038
 21
4.6456003688
  0
LINE
  5
2CA
100
AcDbEntity
  8
0
100
AcDbLine
 62
6
  6
CONTINUOUS
 10
6.6346810081
 20
4.645124268
 11
6.6361434496
 21
4.6453741193
  0
LINE
  5
2CB
100
AcDbEntity
  8
0
100
AcDbLine
 62
6
  6
CONTINUOUS
 10
6.6337726796
 20
4.6449750579
 11
6.635207132
 21
4.6452127851
  0
LINE
  5
2CC
100
AcDbEntity
  8
0
100
AcDbLine
 62
6
  6
CONTINUOUS
 10
6.6325443449
 20
4.6447805322
 11
6.633960937
 21
4.6450056076
  0
LINE
  5
2CD
100
AcDbEntity
  8
0
100
AcDbLine
 62
6
  6
CONTINUOUS
 10
6.6316778691
 20
4.6446483115
 11
6.6330664717
 21
4.644862202
  0
LINE
  5
2CE
100
AcDbEntity
  8
0
100
AcDbLine
 62
6
  6
CONTINUOUS
 10
6.6304837508
 20
4.6444728478
 11
6.6318485443
 21
4.6446740294
  0
LINE
  5
2CF
100
AcDbEntity
  8
0
100
AcDbLine
 62
6
  6
CONTINUOUS
 10
6.6296603947
 20
4.6443564104
 11
6.6309962604
 21
4.6445471986
  0
LINE
  5
2D0
100
AcDbEntity
  8
0
100
AcDbLine
 62
6
  6
CONTINUOUS
 10
6.6283636235
 20
4.6441805245
 11
6.6298154849
 21
4.6443780598
  0
LINE
  5
2D1
100
AcDbEntity
  8
0
100
AcDbLine
 62
6
  6
CONTINUOUS
 10
6.6271082313
 20
4.6440189653
 11
6.6285090345
 21
4.6441997912
  0
LINE
  5
2D2
100
AcDbEntity
  8
0
100
AcDbLine
 62
6
  6
CONTINUOUS
 10
6.6258924486
 20
4.6438706476
 11
6.6272441712
 21
4.6440360467
  0
LINE
  5
2D3
100
AcDbEntity
  8
0
100
AcDbLine
 62
6
  6
CONTINUOUS
 10
6.6247133122
 20
4.6437344312
 11
6.6260189836
 21
4.6438857112
  0
LINE
  5
2D4
100
AcDbEntity
  8
0
100
AcDbLine
 62
6
  6
CONTINUOUS
 10
6.6235678499
 20
4.6436092788
 11
6.6248305571
 21
4.6437476398
  0
LINE
  5
2D5
100
AcDbEntity
  8
0
100
AcDbLine
 62
6
  6
CONTINUOUS
 10
6.622453104
 20
4.6434942511
 11
6.6236759688
 21
4.6436207902
  0
LINE
  5
2D6
100
AcDbEntity
  8
0
100
AcDbLine
 62
6
  6
CONTINUOUS
 10
6.6213662772
 20
4.6433885141
 11
6.6225523073
 21
4.6435042174
  0
LINE
  5
2D7
100
AcDbEntity
  8
0
100
AcDbLine
 62
6
  6
CONTINUOUS
 10
6.0507968821
 20
4.5395651899
 11
5.4977968821
 21
4.5395651899
  0
LINE
  5
2D8
100
AcDbEntity
  8
0
100
AcDbLine
 62
6
  6
CONTINUOUS
 10
4.9262836207
 20
4.6434799814
 11
4.9275806903
 21
4.6433555106
  0
LINE
  5
2D9
100
AcDbEntity
  8
0
100
AcDbLine
 62
6
  6
CONTINUOUS
 10
4.9249575536
 20
4.6436165498
 11
4.9262836207
 21
4.6434799814
  0
LINE
  5
2DA
100
AcDbEntity
  8
0
100
AcDbLine
 62
6
  6
CONTINUOUS
 10
4.9236075486
 20
4.6437652905
 11
4.9249395929
 21
4.6436184644
  0
LINE
  5
2DB
100
AcDbEntity
  8
0
100
AcDbLine
 62
6
  6
CONTINUOUS
 10
4.9222359045
 20
4.6439264797
 11
4.9236075486
 21
4.6437652905
  0
LINE
  5
2DC
100
AcDbEntity
  8
0
100
AcDbLine
 62
6
  6
CONTINUOUS
 10
4.9208417741
 20
4.644100743
 11
4.9222359045
 21
4.6439264797
  0
LINE
  5
2DD
100
AcDbEntity
  8
0
100
AcDbLine
 62
6
  6
CONTINUOUS
 10
4.9194241698
 20
4.6442887634
 11
4.9208417741
 21
4.644100743
  0
LINE
  5
2DE
100
AcDbEntity
  8
0
100
AcDbLine
 62
6
  6
CONTINUOUS
 10
4.9179820864
 20
4.6444912718
 11
4.9194241698
 21
4.6442887634
  0
LINE
  5
2DF
100
AcDbEntity
  8
0
100
AcDbLine
 62
6
  6
CONTINUOUS
 10
4.9164734164
 20
4.6447153162
 11
4.9179820864
 21
4.6444912718
  0
LINE
  5
2E0
100
AcDbEntity
  8
0
100
AcDbLine
 62
6
  6
CONTINUOUS
 10
4.9149756705
 20
4.6449501188
 11
4.9165145222
 21
4.6447090462
  0
LINE
  5
2E1
100
AcDbEntity
  8
0
100
AcDbLine
 62
6
  6
CONTINUOUS
 10
4.9134508274
 20
4.6452019024
 11
4.9150204901
 21
4.6449429128
  0
LINE
  5
2E2
100
AcDbEntity
  8
0
100
AcDbLine
 62
6
  6
CONTINUOUS
 10
4.9119491999
 20
4.6454624708
 11
4.9134990231
 21
4.645193747
  0
LINE
  5
2E3
100
AcDbEntity
  8
0
100
AcDbLine
 62
6
  6
CONTINUOUS
 10
4.911111069
 20
4.6456133758
 11
4.9126779863
 21
4.6453344409
  0
LINE
  5
2E4
100
AcDbEntity
  8
0
100
AcDbLine
 62
6
  6
CONTINUOUS
 10
4.9095698613
 20
4.6459011447
 11
4.9111634347
 21
4.6456038323
  0
LINE
  5
2E5
100
AcDbEntity
  8
0
100
AcDbLine
 62
6
  6
CONTINUOUS
 10
4.9087619228
 20
4.6460573396
 11
4.9103168677
 21
4.6457600006
  0
LINE
  5
2E6
100
AcDbEntity
  8
0
100
AcDbLine
 62
6
  6
CONTINUOUS
 10
4.9079464651
 20
4.6462187276
 11
4.9095154229
 21
4.6459115534
  0
LINE
  5
2E7
100
AcDbEntity
  8
0
100
AcDbLine
 62
6
  6
CONTINUOUS
 10
4.9071234264
 20
4.6463854376
 11
4.908706675
 21
4.646068155
  0
LINE
  5
2E8
100
AcDbEntity
  8
0
100
AcDbLine
 62
6
  6
CONTINUOUS
 10
4.9062927466
 20
4.6465576016
 11
4.9078905655
 21
4.6462299286
  0
LINE
  5
2E9
100
AcDbEntity
  8
0
100
AcDbLine
 62
6
  6
CONTINUOUS
 10
4.905454367
 20
4.6467353541
 11
4.9070670374
 21
4.6463970003
  0
LINE
  5
2EA
100
AcDbEntity
  8
0
100
AcDbLine
 62
6
  6
CONTINUOUS
 10
4.9046082309
 20
4.6469188329
 11
4.9062360352
 21
4.6465694988
  0
LINE
  5
2EB
100
AcDbEntity
  8
0
100
AcDbLine
 62
6
  6
CONTINUOUS
 10
4.9037542833
 20
4.6471081784
 11
4.905397505
 21
4.6467475556
  0
LINE
  5
2EC
100
AcDbEntity
  8
0
100
AcDbLine
 62
6
  6
CONTINUOUS
 10
4.9036976533
 20
4.6471208835
 11
4.9045513945
 21
4.6469313048
  0
LINE
  5
2ED
100
AcDbEntity
  8
0
100
AcDbLine
 62
6
  6
CONTINUOUS
 10
4.9028362329
 20
4.6473164317
 11
4.9037542833
 21
4.6471081784
  0
LINE
  5
2EE
100
AcDbEntity
  8
0
100
AcDbLine
 62
6
  6
CONTINUOUS
 10
4.9019670865
 20
4.647518092
 11
4.9028924711
 21
4.6473035342
  0
LINE
  5
2EF
100
AcDbEntity
  8
0
100
AcDbLine
 62
6
  6
CONTINUOUS
 10
4.9010900723
 20
4.6477260335
 11
4.9020227432
 21
4.647505047
  0
LINE
  5
2F0
100
AcDbEntity
  8
0
100
AcDbLine
 62
6
  6
CONTINUOUS
 10
4.9002046923
 20
4.6479405178
 11
4.9011449613
 21
4.6477128876
  0
LINE
  5
2F1
100
AcDbEntity
  8
0
100
AcDbLine
 62
6
  6
CONTINUOUS
 10
4.8993103698
 20
4.6481618392
 11
4.9002586359
 21
4.6479273184
  0
LINE
  5
2F2
100
AcDbEntity
  8
0
100
AcDbLine
 62
6
  6
CONTINUOUS
 10
4.8984065331
 20
4.6483903064
 11
4.8993631937
 21
4.6481486359
  0
LINE
  5
2F3
100
AcDbEntity
  8
0
100
AcDbLine
 62
6
  6
CONTINUOUS
 10
5.2960764444
 20
5.1710222871
 11
5.3007936686
 21
5.1668233644
  0
LINE
  5
2F4
100
AcDbEntity
  8
0
100
AcDbLine
 62
9
  6
CONTINUOUS
 10
5.3007286842
 20
5.1668845652
 11
5.3007931185
 21
5.1668240435
  0
LINE
  5
2F5
100
AcDbEntity
  8
0
100
AcDbLine
 62
6
  6
CONTINUOUS
 10
6.3583555548
 20
3.7580088031
 11
6.5217968821
 21
2.7945651899
  0
LINE
  5
2F6
100
AcDbEntity
  8
0
100
AcDbLine
 62
6
  6
CONTINUOUS
 10
6.389568864
 20
4.9223884591
 11
6.3924911423
 21
4.8902930508
  0
LINE
  5
2F7
100
AcDbEntity
  8
0
100
AcDbLine
 62
6
  6
CONTINUOUS
 10
6.3924842038
 20
4.8903920026
 11
6.3948720996
 21
4.8563374504
  0
LINE
  5
2F8
100
AcDbEntity
  8
0
100
AcDbLine
 62
6
  6
CONTINUOUS
 10
6.6203063168
 20
4.6432914693
 11
6.6214568603
 21
4.6433970856
  0
LINE
  5
2F9
100
AcDbEntity
  8
0
100
AcDbLine
 62
6
  6
CONTINUOUS
 10
4.9566009914
 20
4.643151274
 11
4.9573914895
 21
4.6432191694
  0
LINE
  5
2FA
100
AcDbEntity
  8
0
100
AcDbLine
 62
6
  6
CONTINUOUS
 10
6.619272562
 20
4.6432025874
 11
6.6203885245
 21
4.6432987815
  0
LINE
  5
2FB
100
AcDbEntity
  8
0
100
AcDbLine
 62
6
  6
CONTINUOUS
 10
4.9558108857
 20
4.643087088
 11
4.9565888407
 21
4.6431502591
  0
LINE
  5
2FC
100
AcDbEntity
  8
0
100
AcDbLine
 62
6
  6
CONTINUOUS
 10
6.6182640481
 20
4.6431213407
 11
6.6193464698
 21
4.6432087535
  0
LINE
  5
2FD
100
AcDbEntity
  8
0
100
AcDbLine
 62
6
  6
CONTINUOUS
 10
4.9550573316
 20
4.6430292981
 11
4.9558226127
 21
4.6430880138
  0
LINE
  5
2FE
100
AcDbEntity
  8
0
100
AcDbLine
 62
6
  6
CONTINUOUS
 10
6.6172798508
 20
4.643047232
 11
6.6183295925
 21
4.6431264575
  0
LINE
  5
2FF
100
AcDbEntity
  8
0
100
AcDbLine
 62
6
  6
CONTINUOUS
 10
6.6163183589
 20
4.6429797373
 11
6.6173368803
 21
4.6430513872
  0
LINE
  5
300
100
AcDbEntity
  8
0
100
AcDbLine
 62
6
  6
CONTINUOUS
 10
4.953561674
 20
4.6429245198
 11
4.9550461152
 21
4.6430284632
  0
LINE
  5
301
100
AcDbEntity
  8
0
100
AcDbLine
 62
6
  6
CONTINUOUS
 10
6.6154105753
 20
4.6429204
 11
6.616366479
 21
4.6429830009
  0
LINE
  5
302
100
AcDbEntity
  8
0
100
AcDbLine
 62
6
  6
CONTINUOUS
 10
4.9521550715
 20
4.6428380444
 11
4.9535716001
 21
4.6429251716
  0
LINE
  5
303
100
AcDbEntity
  8
0
100
AcDbLine
 62
6
  6
CONTINUOUS
 10
6.6143425391
 20
4.6428558106
 11
6.6154506832
 21
4.6429229331
  0
LINE
  5
304
100
AcDbEntity
  8
0
100
AcDbLine
 62
9
  6
CONTINUOUS
 10
6.6140943294
 20
4.6428415449
 11
6.6140740693
 21
4.6428403616
  0
LINE
  5
305
100
AcDbEntity
  8
0
100
AcDbLine
 62
6
  6
CONTINUOUS
 10
6.6140417703
 20
4.6428384856
 11
6.6143210729
 21
4.642854565
  0
LINE
  5
306
100
AcDbEntity
  8
0
100
AcDbLine
 62
6
  6
CONTINUOUS
 10
4.9508126435
 20
4.6427664469
 11
4.9521467802
 21
4.6428375694
  0
LINE
  5
307
100
AcDbEntity
  8
0
100
AcDbLine
 62
6
  6
CONTINUOUS
 10
4.9495343263
 20
4.6427082212
 11
4.9508058854
 21
4.6427661135
  0
LINE
  5
308
100
AcDbEntity
  8
0
100
AcDbLine
 62
6
  6
CONTINUOUS
 10
4.948304805
 20
4.6426614089
 11
4.9495288339
 21
4.642707992
  0
LINE
  5
309
100
AcDbEntity
  8
0
100
AcDbLine
 62
6
  6
CONTINUOUS
 10
4.9471335422
 20
4.6426252325
 11
4.948304805
 21
4.6426614089
  0
LWPOLYLINE
  5
30A
100
AcDbEntity
  8
0
100
AcDbPolyline
 62
6
  6
CONTINUOUS
 90
4
 70
0
 10
6.6075044574
 20
4.6425825552
 10
6.6097253811
 20
4.6426391877
 10
6.6122421183
 20
4.6427424538
 10
6.6140943294
 20
4.6428415449
  0
LINE
  5
30B
100
AcDbEntity
  8
0
100
AcDbLine
 62
6
  6
CONTINUOUS
 10
4.9460011523
 20
4.6425981158
 11
4.9471301587
 21
4.6426251399
  0
LINE
  5
30C
100
AcDbEntity
  8
0
100
AcDbLine
 62
6
  6
CONTINUOUS
 10
4.9449230088
 20
4.6425795624
 11
4.9460011523
 21
4.6425981158
  0
LINE
  5
30D
100
AcDbEntity
  8
0
100
AcDbLine
 62
6
  6
CONTINUOUS
 10
6.6056220764
 20
4.6425656119
 11
6.6075027968
 21
4.6425825398
  0
LINE
  5
30E
100
AcDbEntity
  8
0
100
AcDbLine
 62
6
  6
CONTINUOUS
 10
4.9439209137
 20
4.6425688537
 11
4.9449230088
 21
4.6425795624
  0
LINE
  5
30F
100
AcDbEntity
  8
0
100
AcDbLine
 62
6
  6
CONTINUOUS
 10
4.9430518963
 20
4.6425652
 11
4.9439209137
 21
4.6425688537
  0
LINE
  5
310
100
AcDbEntity
  8
0
100
AcDbLine
 62
6
  6
CONTINUOUS
 10
6.6056249468
 20
4.6425651992
 11
6.6055830032
 21
4.6425651899
  0
LINE
  5
311
100
AcDbEntity
  8
0
100
AcDbLine
 62
9
  6
CONTINUOUS
 10
4.9430505467
 20
4.6425651997
 11
4.943010761
 21
4.6425651899
  0
LINE
  5
312
100
AcDbEntity
  8
0
100
AcDbLine
 62
6
  6
CONTINUOUS
 10
6.1177968821
 20
4.5695651899
 11
5.4307968821
 21
4.5695651899
  0
LINE
  5
313
100
AcDbEntity
  8
0
100
AcDbLine
 62
6
  6
CONTINUOUS
 10
4.9429688174
 20
4.6425651992
 11
4.943010761
 21
4.6425651899
  0
LINE
  5
314
100
AcDbEntity
  8
0
100
AcDbLine
 62
9
  6
CONTINUOUS
 10
6.6055432175
 20
4.6425651997
 11
6.6055830032
 21
4.6425651899
  0
LINE
  5
315
100
AcDbEntity
  8
0
100
AcDbLine
 62
6
  6
CONTINUOUS
 10
6.6046729613
 20
4.6425688527
 11
6.6055418679
 21
4.6425652
  0
LINE
  5
316
100
AcDbEntity
  8
0
100
AcDbLine
 62
6
  6
CONTINUOUS
 10
4.9410909673
 20
4.6425825398
 11
4.9429686856
 21
4.6425651992
  0
LINE
  5
317
100
AcDbEntity
  8
0
100
AcDbLine
 62
9
  6
CONTINUOUS
 10
4.9429754437
 20
4.6425655729
 11
4.943010761
 21
4.6425651899
  0
LINE
  5
318
100
AcDbEntity
  8
0
100
AcDbLine
 62
6
  6
CONTINUOUS
 10
6.6036707553
 20
4.6425795624
 11
6.6046729613
 21
4.6425688527
  0
LINE
  5
319
100
AcDbEntity
  8
0
100
AcDbLine
 62
6
  6
CONTINUOUS
 10
6.6025926118
 20
4.6425981158
 11
6.6036707553
 21
4.6425795624
  0
LINE
  5
31A
100
AcDbEntity
  8
0
100
AcDbLine
 62
6
  6
CONTINUOUS
 10
4.938876618
 20
4.6426389777
 11
4.941092598
 21
4.6425824983
  0
LINE
  5
31B
100
AcDbEntity
  8
0
100
AcDbLine
 62
6
  6
CONTINUOUS
 10
6.6014636054
 20
4.6426251399
 11
6.6025926118
 21
4.6425981158
  0
LINE
  5
31C
100
AcDbEntity
  8
0
100
AcDbLine
 62
6
  6
CONTINUOUS
 10
6.6002889592
 20
4.6426614089
 11
6.6014636054
 21
4.6426251399
  0
LINE
  5
31D
100
AcDbEntity
  8
0
100
AcDbLine
 62
6
  6
CONTINUOUS
 10
6.5990649302
 20
4.642707992
 11
6.6002889592
 21
4.6426614089
  0
LINE
  5
31E
100
AcDbEntity
  8
0
100
AcDbLine
 62
6
  6
CONTINUOUS
 10
4.9363927962
 20
4.6427404655
 11
4.9388848508
 21
4.6426386413
  0
LINE
  5
31F
100
AcDbEntity
  8
0
100
AcDbLine
 62
6
  6
CONTINUOUS
 10
6.5977878787
 20
4.6427661135
 11
6.5990649302
 21
4.642707992
  0
LINE
  5
320
100
AcDbEntity
  8
0
100
AcDbLine
 62
6
  6
CONTINUOUS
 10
6.5964469839
 20
4.6428375694
 11
6.5977878787
 21
4.6427661135
  0
LINE
  5
321
100
AcDbEntity
  8
0
100
AcDbLine
 62
9
  6
CONTINUOUS
 10
4.9344994347
 20
4.6428415449
 11
4.9345246594
 21
4.642840072
  0
LINE
  5
322
100
AcDbEntity
  8
0
100
AcDbLine
 62
6
  6
CONTINUOUS
 10
4.9338772004
 20
4.6428778225
 11
4.9363685191
 21
4.6427417615
  0
LINE
  5
323
100
AcDbEntity
  8
0
100
AcDbLine
 62
6
  6
CONTINUOUS
 10
4.9329267618
 20
4.6429367353
 11
4.9342627235
 21
4.6428551432
  0
LINE
  5
324
100
AcDbEntity
  8
0
100
AcDbLine
 62
6
  6
CONTINUOUS
 10
6.5950320901
 20
4.6429245198
 11
6.5964469839
 21
4.6428375694
  0
LINE
  5
325
100
AcDbEntity
  8
0
100
AcDbLine
 62
6
  6
CONTINUOUS
 10
4.9318318088
 20
4.6430102778
 11
4.9329267618
 21
4.6429367353
  0
LINE
  5
326
100
AcDbEntity
  8
0
100
AcDbLine
 62
6
  6
CONTINUOUS
 10
6.5935364325
 20
4.6430292981
 11
6.5942872378
 21
4.6429750496
  0
LINE
  5
327
100
AcDbEntity
  8
0
100
AcDbLine
 62
6
  6
CONTINUOUS
 10
4.9306658416
 20
4.6430954572
 11
4.9318244258
 21
4.6430107948
  0
LINE
  5
328
100
AcDbEntity
  8
0
100
AcDbLine
 62
6
  6
CONTINUOUS
 10
4.9294600475
 20
4.643191082
 11
4.9306658416
 21
4.6430954572
  0
LWPOLYLINE
  5
329
100
AcDbEntity
  8
0
100
AcDbPolyline
 62
6
  6
CONTINUOUS
 90
3
 70
0
 10
4.927571847
 20
4.6433563288
 10
4.9282104836
 20
4.643298314
 10
4.9294600475
 20
4.643191082
  0
LINE
  5
32A
100
AcDbEntity
  8
0
100
AcDbLine
 62
6
  6
CONTINUOUS
 10
6.3804148297
 20
4.9902465725
 11
6.3857732057
 21
4.9548902492
  0
LINE
  5
32B
100
AcDbEntity
  8
0
100
AcDbLine
 62
6
  6
CONTINUOUS
 10
6.3948720996
 20
4.8563374504
 11
6.3948754199
 21
4.8563117428
  0
LINE
  5
32C
100
AcDbEntity
  8
0
100
AcDbLine
 62
6
  6
CONTINUOUS
 10
6.3857627296
 20
4.954979955
 11
6.3895879485
 21
4.922199002
  0
LINE
  5
32D
100
AcDbEntity
  8
0
100
AcDbLine
 62
6
  6
CONTINUOUS
 10
6.7878475912
 20
4.794977619
 11
6.7924736827
 21
4.8182859053
  0
LWPOLYLINE
  5
32E
100
AcDbEntity
  8
0
100
AcDbPolyline
 62
6
  6
CONTINUOUS
 90
38
 70
0
 10
4.9896344982
 20
4.6491210984
 10
4.9908438906
 20
4.6494628874
 10
4.9920801712
 20
4.6498215035
 10
4.9933478566
 20
4.650198958
 10
4.9946514078
 20
4.6505974108
 10
4.9959952688
 20
4.6510191919
 10
4.9973864527
 20
4.6514676598
 10
4.9988359527
 20
4.6519478069
 10
5.0003533422
 20
4.6524646138
 10
5.0019322875
 20
4.653017882
 10
5.0035575623
 20
4.6536040155
 10
5.00521399
 20
4.6542188856
 10
5.0068865796
 20
4.6548578392
 10
5.0085643671
 20
4.6555172045
 10
5.0102463055
 20
4.6561969054
 10
5.0119328877
 20
4.656897481
 10
5.0136245876
 20
4.6576194994
 10
5.0153218598
 20
4.6583635572
 10
5.0170251378
 20
4.6591302803
 10
5.0187348334
 20
4.6599203236
 10
5.0204513357
 20
4.660734371
 10
5.0221750096
 20
4.6615731362
 10
5.0239061947
 20
4.662437362
 10
5.0256452042
 20
4.6633278214
 10
5.0273923235
 20
4.664245317
 10
5.0291478091
 20
4.6651906818
 10
5.0309118868
 20
4.6661647792
 10
5.0326847504
 20
4.6671685033
 10
5.0344665604
 20
4.6682027792
 10
5.0362574421
 20
4.6692685633
 10
5.0380574841
 20
4.6703668436
 10
5.0398667366
 20
4.6714986399
 10
5.0416852097
 20
4.6726650044
 10
5.0435128712
 20
4.6738670218
 10
5.0453496401
 20
4.6751058063
 10
5.0471953507
 20
4.6763824784
 10
5.0490498045
 20
4.6776981999
 10
5.0493231554
 20
4.6778949915
  0
LWPOLYLINE
  5
32F
100
AcDbEntity
  8
0
100
AcDbPolyline
 62
6
  6
CONTINUOUS
 90
3
 70
0
 10
4.9872634634
 20
4.6484767941
 10
4.9884327694
 20
4.6487902844
 10
4.9896199453
 20
4.6491170398
  0
LINE
  5
330
100
AcDbEntity
  8
0
100
AcDbLine
 62
6
  6
CONTINUOUS
 10
4.986124984
 20
4.6481795005
 11
4.9872782568
 21
4.6484807086
  0
LINE
  5
331
100
AcDbEntity
  8
0
100
AcDbLine
 62
6
  6
CONTINUOUS
 10
4.9849722726
 20
4.6478864388
 11
4.9861100682
 21
4.6481756573
  0
LWPOLYLINE
  5
332
100
AcDbEntity
  8
0
100
AcDbPolyline
 62
6
  6
CONTINUOUS
 90
3
 70
0
 10
4.982757505
 20
4.6473457238
 10
4.9838648997
 20
4.6476124141
 10
4.9849872943
 20
4.6478902066
  0
LWPOLYLINE
  5
333
100
AcDbEntity
  8
0
100
AcDbPolyline
 62
6
  6
CONTINUOUS
 90
6
 70
0
 10
4.9774193931
 20
4.6461625792
 10
4.978456451
 20
4.6463792028
 10
4.9795069481
 20
4.646605126
 10
4.9805712119
 20
4.6468406852
 10
4.9816495638
 20
4.6470862288
 10
4.9827423195
 20
4.6473421177
  0
LWPOLYLINE
  5
334
100
AcDbEntity
  8
0
100
AcDbPolyline
 62
6
  6
CONTINUOUS
 90
4
 70
0
 10
4.9744005737
 20
4.6455681559
 10
4.9753994989
 20
4.6457589002
 10
4.9764107552
 20
4.6459579909
 10
4.9774347255
 20
4.6461657356
  0
LWPOLYLINE
  5
335
100
AcDbEntity
  8
0
100
AcDbPolyline
 62
6
  6
CONTINUOUS
 90
3
 70
0
 10
4.972422985
 20
4.6452078594
 10
4.9733983662
 20
4.6453826891
 10
4.9743853073
 20
4.6455652863
  0
LINE
  5
336
100
AcDbEntity
  8
0
100
AcDbLine
 62
6
  6
CONTINUOUS
 10
4.9714738942
 20
4.6450431087
 11
4.9724381641
 21
4.6452105373
  0
LWPOLYLINE
  5
337
100
AcDbEntity
  8
0
100
AcDbPolyline
 62
6
  6
CONTINUOUS
 90
3
 70
0
 10
4.9695622246
 20
4.6447273182
 10
4.9705053152
 20
4.6448804282
 10
4.9714587678
 20
4.6450405257
  0
LINE
  5
338
100
AcDbEntity
  8
0
100
AcDbLine
 62
6
  6
CONTINUOUS
 10
4.9686440388
 20
4.6445832628
 11
4.9695772344
 21
4.6447297141
  0
LWPOLYLINE
  5
339
100
AcDbEntity
  8
0
100
AcDbPolyline
 62
6
  6
CONTINUOUS
 90
6
 70
0
 10
4.9641025242
 20
4.6439433917
 10
4.9649893356
 20
4.6440588439
 10
4.9658855959
 20
4.6441802072
 10
4.9667910573
 20
4.6443075951
 10
4.9677055034
 20
4.6444411223
 10
4.9686290902
 20
4.6445809584
  0
LINE
  5
33A
100
AcDbEntity
  8
0
100
AcDbLine
 62
6
  6
CONTINUOUS
 10
4.9632397755
 20
4.6438354938
 11
4.9641170396
 21
4.6439452443
  0
LWPOLYLINE
  5
33B
100
AcDbEntity
  8
0
100
AcDbPolyline
 62
6
  6
CONTINUOUS
 90
5
 70
0
 10
4.9598191029
 20
4.643450638
 10
4.9606548406
 20
4.6435383312
 10
4.9615013128
 20
4.6436313274
 10
4.9623582569
 20
4.6437297537
 10
4.9632254132
 20
4.6438337346
  0
LINE
  5
33C
100
AcDbEntity
  8
0
100
AcDbLine
 62
6
  6
CONTINUOUS
 10
4.9590075594
 20
4.6433694067
 11
4.9598325869
 21
4.6434520203
  0
LWPOLYLINE
  5
33D
100
AcDbEntity
  8
0
100
AcDbPolyline
 62
6
  6
CONTINUOUS
 90
3
 70
0
 10
4.9573789609
 20
4.6432180646
 10
4.9581808937
 20
4.6432906384
 10
4.9589943647
 20
4.6433681179
  0
LINE
  5
33E
100
AcDbEntity
  8
0
100
AcDbLine
 62
6
  6
CONTINUOUS
 10
5.4307968821
 20
4.9100323749
 11
5.2167968821
 21
4.9795651899
  0
LINE
  5
33F
100
AcDbEntity
  8
0
100
AcDbLine
 62
6
  6
CONTINUOUS
 10
5.2467968821
 20
5.6598151899
 11
5.2624218821
 21
5.6441901899
  0
LINE
  5
340
100
AcDbEntity
  8
0
100
AcDbLine
 62
6
  6
CONTINUOUS
 10
6.3703714039
 20
5.0346638743
 11
6.3762976101
 21
5.0110704406
  0
LWPOLYLINE
  5
341
100
AcDbEntity
  8
0
100
AcDbPolyline
 62
6
  6
CONTINUOUS
 90
4
 70
0
 10
6.3948778095
 20
4.8563123105
 10
6.4002108774
 20
4.8337012041
 10
6.4075296501
 20
4.8096629853
 10
6.4156440033
 20
4.7879694918
  0
LINE
  5
342
100
AcDbEntity
  8
0
100
AcDbLine
 62
6
  6
CONTINUOUS
 10
6.3762198232
 20
5.0114119547
 11
6.3804143879
 21
4.9902491299
  0
LINE
  5
343
100
AcDbEntity
  8
0
100
AcDbLine
 62
9
  6
CONTINUOUS
 10
6.3804164538
 20
4.990249071
 11
6.3804160114
 21
4.9902516318
  0
LINE
  5
344
100
AcDbEntity
  8
0
100
AcDbLine
 62
6
  6
CONTINUOUS
 10
6.7950586421
 20
4.8692945151
 11
6.7934352862
 21
4.9243648758
  0
LINE
  5
345
100
AcDbEntity
  8
0
100
AcDbLine
 62
6
  6
CONTINUOUS
 10
6.7950586421
 20
4.8692945151
 11
6.7950582463
 21
4.8693121626
  0
LINE
  5
346
100
AcDbEntity
  8
0
100
AcDbLine
 62
6
  6
CONTINUOUS
 10
6.7950491212
 20
4.8443565746
 11
6.7951100798
 21
4.8693111032
  0
LINE
  5
347
100
AcDbEntity
  8
0
100
AcDbLine
 62
6
  6
CONTINUOUS
 10
6.7924736865
 20
4.8182859432
 11
6.795049121
 21
4.8443564923
  0
LINE
  5
348
100
AcDbEntity
  8
0
100
AcDbLine
 62
6
  6
CONTINUOUS
 10
6.1177968821
 20
4.9100323749
 11
5.4307968821
 21
4.9100323749
  0
LINE
  5
349
100
AcDbEntity
  8
0
100
AcDbLine
 62
6
  6
CONTINUOUS
 10
6.3317968821
 20
4.9795651899
 11
5.2167968821
 21
4.9795651899
  0
LINE
  5
34A
100
AcDbEntity
  8
0
100
AcDbLine
 62
9
  6
CONTINUOUS
 10
5.2702073081
 20
5.1866835263
 11
5.2702043281
 21
5.1866846469
  0
LWPOLYLINE
  5
34B
100
AcDbEntity
  8
0
100
AcDbPolyline
 62
6
  6
CONTINUOUS
 90
4
 70
0
 10
5.2702043281
 20
5.1866846469
 10
5.2759888293
 20
5.1841874159
 10
5.2854472019
 20
5.1788610627
 10
5.2960764444
 20
5.1710222871
  0
LWPOLYLINE
  5
34C
100
AcDbEntity
  8
0
100
AcDbPolyline
 62
6
  6
CONTINUOUS
 90
75
 70
0
 10
6.4992706087
 20
4.6778949915
 10
6.4995445724
 20
4.6776977595
 10
6.5013996334
 20
4.6763816238
 10
6.5032459455
 20
4.6751045623
 10
6.50508331
 20
4.6738654121
 10
6.5069115611
 20
4.6726630517
 10
6.5087306179
 20
4.6714963658
 10
6.5105404484
 20
4.6703642686
 10
6.5123410626
 20
4.669265707
 10
6.5141325109
 20
4.6681996602
 10
6.5159148822
 20
4.6671651393
 10
6.5176883021
 20
4.6661611872
 10
6.5194529312
 20
4.6651868778
 10
6.5212089639
 20
4.6642413164
 10
6.5229566263
 20
4.6633236388
 10
6.5246961753
 20
4.6624330114
 10
6.5264278966
 20
4.6615686307
 10
6.5281521039
 20
4.6607297234
 10
6.5298691375
 20
4.6599155458
 10
6.5315793629
 20
4.659125384
 10
6.5332831694
 20
4.6583585534
 10
6.5349809695
 20
4.6576143987
 10
6.5366731975
 20
4.6568922937
 10
6.5383603083
 20
4.6561916411
 10
6.5400427767
 20
4.6555118728
 10
6.5417210962
 20
4.6548524493
 10
6.5433941748
 20
4.6542134635
 10
6.5450509578
 20
4.6535986177
 10
6.5466764311
 20
4.6530125674
 10
6.5482553957
 20
4.6524594427
 10
6.5497726145
 20
4.6519428366
 10
6.5512219316
 20
4.6514628839
 10
6.5526130033
 20
4.6510145786
 10
6.5539568232
 20
4.6505929312
 10
6.5552603559
 20
4.6501946004
 10
6.5565280461
 20
4.6498172569
 10
6.5577643599
 20
4.6494587406
 10
6.5589738189
 20
4.6491170398
 10
6.5601609948
 20
4.6487902844
 10
6.5613303007
 20
4.6484767941
 10
6.562483696
 20
4.6481756573
 10
6.5636214916
 20
4.6478864388
 10
6.5647439759
 20
4.6476087255
 10
6.5658514446
 20
4.6473421177
 10
6.5669442003
 20
4.6470862288
 10
6.5680225523
 20
4.6468406852
 10
6.569086816
 20
4.646605126
 10
6.5701373132
 20
4.6463792028
 10
6.5711743711
 20
4.6461625792
 10
6.5721983298
 20
4.6459549296
 10
6.5732095636
 20
4.6457559347
 10
6.5742084569
 20
4.6455652863
 10
6.575195398
 20
4.6453826891
 10
6.5761707792
 20
4.6452078594
 10
6.5771349963
 20
4.6450405257
 10
6.5780884489
 20
4.6448804282
 10
6.5790315395
 20
4.6447273182
 10
6.5799646739
 20
4.6445809584
 10
6.5808882607
 20
4.6444411223
 10
6.5818027068
 20
4.6443075951
 10
6.5827081682
 20
4.6441802072
 10
6.5836044285
 20
4.6440588439
 10
6.5844912399
 20
4.6439433917
 10
6.5853683509
 20
4.6438337346
 10
6.5862355072
 20
4.6437297537
 10
6.5870924514
 20
4.6436313274
 10
6.5879389235
 20
4.6435383312
 10
6.5887746612
 20
4.643450638
 10
6.5895993995
 20
4.6433681179
 10
6.5904128705
 20
4.6432906384
 10
6.5912148032
 20
4.6432180646
 10
6.5920049234
 20
4.6431502591
 10
6.5927828785
 20
4.643087088
 10
6.5935476489
 20
4.6430284632
 10
6.5950320901
 20
4.6429245198
  0
LWPOLYLINE
  5
34D
100
AcDbEntity
  8
0
100
AcDbPolyline
 62
6
  6
CONTINUOUS
 90
4
 70
0
 10
6.461711605
 20
4.7124598597
 10
6.4730963873
 20
4.7001825185
 10
6.4865637256
 20
4.6878156226
 10
6.4992705623
 20
4.677895025
  0
LWPOLYLINE
  5
34E
100
AcDbEntity
  8
0
100
AcDbPolyline
 62
6
  6
CONTINUOUS
 90
4
 70
0
 10
6.4591378311
 20
4.7155129341
 10
6.4595452632
 20
4.7150221104
 10
6.4611994102
 20
4.7130585611
 10
6.4617115984
 20
4.7124598673
  0
LINE
  5
34F
100
AcDbEntity
  8
0
100
AcDbLine
 62
9
  6
CONTINUOUS
 10
6.3345449679
 20
5.125246239
 11
6.3345441009
 21
5.1252478794
  0
LWPOLYLINE
  5
350
100
AcDbEntity
  8
0
100
AcDbPolyline
 62
6
  6
CONTINUOUS
 90
5
 70
0
 10
6.3345441009
 20
5.1252478794
 10
6.3447841855
 20
5.1045079189
 10
6.3546494146
 20
5.0814342193
 10
6.3632133309
 20
5.0579877708
 10
6.3704460184
 20
5.03442075
  0
LWPOLYLINE
  5
351
100
AcDbEntity
  8
0
100
AcDbPolyline
 62
6
  6
CONTINUOUS
 90
5
 70
0
 10
6.4156439709
 20
4.7879695711
 10
6.4239095686
 20
4.7696761415
 10
6.4345192296
 20
4.7502930412
 10
6.4466711519
 20
4.7317356907
 10
6.4591378573
 20
4.7155129026
  0
LINE
  5
352
100
AcDbEntity
  8
0
100
AcDbLine
 62
6
  6
CONTINUOUS
 10
6.7934352873
 20
4.924364838
 11
6.787862072
 21
4.9802560224
  0
LWPOLYLINE
  5
353
100
AcDbEntity
  8
0
100
AcDbPolyline
 62
6
  6
CONTINUOUS
 90
3
 70
0
 10
5.2628219526
 20
5.1888314174
 10
5.2641570232
 20
5.1885745314
 10
5.2702073081
 20
5.1866835263
  0
LINE
  5
354
100
AcDbEntity
  8
0
100
AcDbLine
 62
6
  6
CONTINUOUS
 10
6.3017968821
 20
5.6285651899
 11
6.3317968821
 21
5.5485651899
  0
LINE
  5
355
100
AcDbEntity
  8
0
100
AcDbLine
 62
6
  6
CONTINUOUS
 10
6.787862075
 20
4.9802559918
 11
6.7786606605
 21
5.0347854544
  0
LINE
  5
356
100
AcDbEntity
  8
0
100
AcDbLine
 62
9
  6
CONTINUOUS
 10
6.1103124395
 20
5.284565203
 11
6.1511924628
 21
5.2845651899
  0
LINE
  5
357
100
AcDbEntity
  8
0
100
AcDbLine
 62
9
  6
CONTINUOUS
 10
5.4382737767
 20
5.2845652071
 11
5.3974013014
 21
5.2845651899
  0
LWPOLYLINE
  5
358
100
AcDbEntity
  8
0
100
AcDbPolyline
 62
6
  6
CONTINUOUS
 90
11
 70
0
 10
6.282229802
 20
5.1909905263
 10
6.2821246762
 20
5.1910308279
 10
6.2837678913
 20
5.1901603493
 10
6.2873271217
 20
5.1878013852
 10
6.2916955451
 20
5.1842855821
 10
6.2967334881
 20
5.1795075363
 10
6.3029292105
 20
5.1727738113
 10
6.3098227292
 20
5.1643029488
 10
6.3173978038
 20
5.1538347781
 10
6.325848766
 20
5.1406560002
 10
6.3345449679
 20
5.125246239
  0
LWPOLYLINE
  5
359
100
AcDbEntity
  8
0
100
AcDbPolyline
 62
6
  6
CONTINUOUS
 90
3
 70
0
 10
6.7506810986
 20
5.1384698307
 10
6.7324658719
 20
5.1871586832
 10
6.7127383112
 20
5.231435026
  0
LINE
  5
35A
100
AcDbEntity
  8
0
100
AcDbLine
 62
6
  6
CONTINUOUS
 10
6.766168912
 20
5.0875993423
 11
6.7506810952
 21
5.1384698422
  0
LINE
  5
35B
100
AcDbEntity
  8
0
100
AcDbLine
 62
6
  6
CONTINUOUS
 10
6.7786606645
 20
5.0347854304
 11
6.7661689078
 21
5.08759936
  0
LINE
  5
35C
100
AcDbEntity
  8
0
100
AcDbLine
 62
9
  6
CONTINUOUS
 10
5.2999653276
 20
5.4425846435
 11
5.2983444407
 21
5.4425522667
  0
LINE
  5
35D
100
AcDbEntity
  8
0
100
AcDbLine
 62
9
  6
CONTINUOUS
 10
5.3110591362
 20
5.4429939242
 11
5.3097271075
 21
5.4429719465
  0
LINE
  5
35E
100
AcDbEntity
  8
0
100
AcDbLine
 62
9
  6
CONTINUOUS
 10
6.2375346278
 20
5.442993913
 11
6.2388646993
 21
5.4429719817
  0
LINE
  5
35F
100
AcDbEntity
  8
0
100
AcDbLine
 62
9
  6
CONTINUOUS
 10
6.2502493234
 20
5.4425522667
 11
6.2486284365
 21
5.4425846435
  0
LINE
  5
360
100
AcDbEntity
  8
0
100
AcDbLine
 62
6
  6
CONTINUOUS
 10
6.6992446149
 20
5.2571094072
 11
6.6820609984
 21
5.2846230306
  0
LINE
  5
361
100
AcDbEntity
  8
0
100
AcDbLine
 62
6
  6
CONTINUOUS
 10
6.7127387461
 20
5.2314341241
 11
6.6992005548
 21
5.2571865904
  0
LINE
  5
362
100
AcDbEntity
  8
0
100
AcDbLine
 62
6
  6
CONTINUOUS
 10
5.038440522
 20
5.4094778844
 11
5.014398882
 21
5.4028885367
  0
LINE
  5
363
100
AcDbEntity
  8
0
100
AcDbLine
 62
9
  6
CONTINUOUS
 10
5.0384404886
 20
5.4094778772
 11
5.0384367296
 21
5.4094770677
  0
LINE
  5
364
100
AcDbEntity
  8
0
100
AcDbLine
 62
6
  6
CONTINUOUS
 10
5.124124391
 20
5.4253972882
 11
5.0384367296
 21
5.4094770677
  0
LINE
  5
365
100
AcDbEntity
  8
0
100
AcDbLine
 62
6
  6
CONTINUOUS
 10
5.3119623365
 20
5.4432636634
 11
5.3097267626
 21
5.4429719349
  0
LWPOLYLINE
  5
366
100
AcDbEntity
  8
0
100
AcDbPolyline
 62
6
  6
CONTINUOUS
 90
3
 70
0
 10
5.2983440473
 20
5.442552251
 10
5.2115210002
 20
5.436557477
 10
5.124124391
 20
5.4253972882
  0
LWPOLYLINE
  5
367
100
AcDbEntity
  8
0
100
AcDbPolyline
 62
6
  6
CONTINUOUS
 90
3
 70
0
 10
5.3097059453
 20
5.4429712522
 10
5.3080089815
 20
5.4429132246
 10
5.2983444407
 20
5.4425522667
  0
LINE
  5
368
100
AcDbEntity
  8
0
100
AcDbLine
 62
9
  6
CONTINUOUS
 10
5.3097271075
 20
5.4429719465
 11
5.3097059211
 21
5.4429712385
  0
LINE
  5
369
100
AcDbEntity
  8
0
100
AcDbLine
 62
6
  6
CONTINUOUS
 10
6.3317968821
 20
5.5485651899
 11
5.2167968821
 21
5.5485651899
  0
LINE
  5
36A
100
AcDbEntity
  8
0
100
AcDbLine
 62
9
  6
CONTINUOUS
 10
6.2388646993
 20
5.4429719817
 11
6.2388878057
 21
5.4429712099
  0
LWPOLYLINE
  5
36B
100
AcDbEntity
  8
0
100
AcDbPolyline
 62
6
  6
CONTINUOUS
 90
3
 70
0
 10
6.2502493234
 20
5.4425522667
 10
6.2459948222
 20
5.4427173049
 10
6.2388877757
 20
5.4429712536
  0
LINE
  5
36C
100
AcDbEntity
  8
0
100
AcDbLine
 62
6
  6
CONTINUOUS
 10
6.3370727639
 20
5.436557477
 11
6.2502497168
 21
5.442552251
  0
LINE
  5
36D
100
AcDbEntity
  8
0
100
AcDbLine
 62
6
  6
CONTINUOUS
 10
6.2388646657
 20
5.4429719828
 11
6.2366507545
 21
5.4432594314
  0
LWPOLYLINE
  5
36E
100
AcDbEntity
  8
0
100
AcDbPolyline
 62
6
  6
CONTINUOUS
 90
3
 70
0
 10
6.5101570346
 20
5.4094770677
 10
6.4244693731
 20
5.4253972882
 10
6.3370727639
 20
5.436557477
  0
LINE
  5
36F
100
AcDbEntity
  8
0
100
AcDbLine
 62
9
  6
CONTINUOUS
 10
6.5101570346
 20
5.4094770677
 11
6.5101532421
 21
5.4094778844
  0
LINE
  5
370
100
AcDbEntity
  8
0
100
AcDbLine
 62
6
  6
CONTINUOUS
 10
6.5341948821
 20
5.4028885367
 11
6.5101532756
 21
5.4094778772
  0
LWPOLYLINE
  5
371
100
AcDbEntity
  8
0
100
AcDbPolyline
 62
6
  6
CONTINUOUS
 90
3
 70
0
 10
6.2366507545
 20
5.4432594314
 10
6.2344952505
 20
5.4439342337
 10
6.233708583
 20
5.4443181298
  0
LINE
  5
372
100
AcDbEntity
  8
0
100
AcDbLine
 62
6
  6
CONTINUOUS
 10
6.5594607717
 20
5.3928689416
 11
6.534027625
 21
5.4029441707
  0
LINE
  5
373
100
AcDbEntity
  8
0
100
AcDbLine
 62
6
  6
CONTINUOUS
 10
6.5842353164
 20
5.3797604173
 11
6.5591379809
 21
5.3930176254
  0
LINE
  5
374
100
AcDbEntity
  8
0
100
AcDbLine
 62
9
  6
CONTINUOUS
 10
6.2337085461
 20
5.4443180681
 11
6.233699163
 21
5.4443236346
  0
LINE
  5
375
100
AcDbEntity
  8
0
100
AcDbLine
 62
6
  6
CONTINUOUS
 10
6.6012317432
 20
5.3686812927
 11
6.5837717312
 21
5.3800376946
  0
LINE
  5
376
100
AcDbEntity
  8
0
100
AcDbLine
 62
9
  6
CONTINUOUS
 10
6.6012120656
 20
5.3686951896
 11
6.6012312634
 21
5.3686816316
  0
LINE
  5
377
100
AcDbEntity
  8
0
100
AcDbLine
 62
6
  6
CONTINUOUS
 10
6.6193779797
 20
5.3547347975
 11
6.6012120656
 21
5.3686951896
  0
LINE
  5
378
100
AcDbEntity
  8
0
100
AcDbLine
 62
6
  6
CONTINUOUS
 10
6.2861718821
 20
5.6441901899
 11
6.3017968821
 21
5.6285651899
  0
LINE
  5
379
100
AcDbEntity
  8
0
100
AcDbLine
 62
6
  6
CONTINUOUS
 10
6.2867968821
 20
5.7507198475
 11
6.3017968821
 21
5.7357198475
  0
LWPOLYLINE
  5
37A
100
AcDbEntity
  8
0
100
AcDbPolyline
 62
6
  6
CONTINUOUS
 90
3
 70
0
 10
6.6627573353
 20
5.3105183753
 10
6.6415933463
 20
5.3342114461
 10
6.6192072439
 20
5.3548660069
  0
LINE
  5
37B
100
AcDbEntity
  8
0
100
AcDbLine
 62
6
  6
CONTINUOUS
 10
6.6821575804
 20
5.2844813687
 11
6.662676478
 21
5.310608895
  0
LINE
  5
37C
100
AcDbEntity
  8
0
100
AcDbLine
 62
6
  6
CONTINUOUS
 10
5.2467968821
 20
5.6285651899
 11
6.3017968821
 21
5.6285651899
  0
LINE
  5
37D
100
AcDbEntity
  8
0
100
AcDbLine
 62
6
  6
CONTINUOUS
 10
5.2624218821
 20
5.6441901899
 11
6.2861718821
 21
5.6441901899
  0
LINE
  5
37E
100
AcDbEntity
  8
0
100
AcDbLine
 62
6
  6
CONTINUOUS
 10
5.2467968821
 20
5.6598151899
 11
6.3017968821
 21
5.6598151899
  0
LINE
  5
37F
100
AcDbEntity
  8
0
100
AcDbLine
 62
6
  6
CONTINUOUS
 10
5.2467968821
 20
5.7357198475
 11
6.3017968821
 21
5.7357198475
  0
LINE
  5
380
100
AcDbEntity
  8
0
100
AcDbLine
 62
6
  6
CONTINUOUS
 10
5.2617968821
 20
5.7507198475
 11
6.2867968821
 21
5.7507198475
  0
LINE
  5
381
100
AcDbEntity
  8
0
100
AcDbLine
 62
6
  6
CONTINUOUS
 10
5.3197968821
 20
5.7695651899
 11
6.2287968821
 21
5.7695651899
  0
LINE
  5
382
100
AcDbEntity
  8
0
100
AcDbLine
 62
9
  6
CONTINUOUS
 10
6.1694415386
 20
5.7983744832
 11
5.3791522255
 21
5.7983744832
  0
LINE
  5
383
100
AcDbEntity
  8
0
100
AcDbLine
 62
6
  6
CONTINUOUS
 10
5.7792968821
 20
5.8495571289
 11
5.8492968821
 21
5.8477503958
  0
LINE
  5
384
100
AcDbEntity
  8
0
100
AcDbLine
 62
6
  6
CONTINUOUS
 10
6.2867968821
 20
5.7507198475
 11
6.2287968821
 21
5.7695651899
  0
ARC
  5
385
100
AcDbEntity
  8
0
100
AcDbCircle
 62
6
  6
CONTINUOUS
 10
4.3287149374
 20
2.9450393567
 40
0.75
100
AcDbArc
 50
296.8780899777
 51
338.0396077086
  0
ARC
  5
386
100
AcDbEntity
  8
0
100
AcDbCircle
 62
6
  6
CONTINUOUS
 10
4.7242968821
 20
2.1645651899
 40
0.125
100
AcDbArc
 50
116.8780899777
 51
270.0
  0
ARC
  5
387
100
AcDbEntity
  8
0
100
AcDbCircle
 62
6
  6
CONTINUOUS
 10
5.0267968821
 20
2.7295651899
 40
0.065
100
AcDbArc
 50
90.0
 51
267.8004275869
  0
ARC
  5
388
100
AcDbEntity
  8
0
100
AcDbCircle
 62
6
  6
CONTINUOUS
 10
5.0440175912
 20
5.1112729558
 40
1.36
100
AcDbArc
 50
18.7559867836
 51
22.3561036556
  0
ARC
  5
389
100
AcDbEntity
  8
0
100
AcDbCircle
 62
9
  6
CONTINUOUS
 10
4.8106789737
 20
4.8874301224
 40
0.3092786662
100
AcDbArc
 50
341.5540697657
 51
355.0008347719
  0
ARC
  5
38A
100
AcDbEntity
  8
0
100
AcDbCircle
 62
9
  6
CONTINUOUS
 10
4.8784924859
 20
4.8529388681
 40
0.2325143665
100
AcDbArc
 50
323.0229797468
 51
323.9554950668
  0
ARC
  5
38B
100
AcDbEntity
  8
0
100
AcDbCircle
 62
9
  6
CONTINUOUS
 10
4.9802222747
 20
4.8365595781
 40
0.211538955
100
AcDbArc
 50
213.715744983
 51
214.7702743725
  0
ARC
  5
38C
100
AcDbEntity
  8
0
100
AcDbCircle
 62
9
  6
CONTINUOUS
 10
4.9535737306
 20
4.8178632026
 40
0.1789847303
100
AcDbArc
 50
214.7188268662
 51
230.5731710703
  0
ARC
  5
38D
100
AcDbEntity
  8
0
100
AcDbCircle
 62
9
  6
CONTINUOUS
 10
4.9440780697
 20
4.806635537
 40
0.164073831
100
AcDbArc
 50
266.6619473831
 51
269.5042238066
  0
ARC
  5
38E
100
AcDbEntity
  8
0
100
AcDbCircle
 62
6
  6
CONTINUOUS
 10
4.943035267
 20
4.7387537479
 40
0.0961886427
100
AcDbArc
 50
264.9387729108
 51
269.7773013337
  0
ARC
  5
38F
100
AcDbEntity
  8
0
100
AcDbCircle
 62
9
  6
CONTINUOUS
 10
4.9434566952
 20
4.67164558
 40
0.029083809
100
AcDbArc
 50
268.4547329748
 51
269.1214647476
  0
ARC
  5
390
100
AcDbEntity
  8
0
100
AcDbCircle
 62
9
  6
CONTINUOUS
 10
5.3717892429
 20
3.6468011582
 40
1.7972192412
100
AcDbArc
 50
91.9795968402
 51
92.2903735511
  0
ARC
  5
391
100
AcDbEntity
  8
0
100
AcDbCircle
 62
9
  6
CONTINUOUS
 10
5.3912470836
 20
3.6620695775
 40
1.7755912663
100
AcDbArc
 50
91.7750497459
 51
92.2037105742
  0
ARC
  5
392
100
AcDbEntity
  8
0
100
AcDbCircle
 62
7
  6
CONTINUOUS
 10
5.7119236605
 20
4.3645934577
 40
1.4556752683
100
AcDbArc
 50
89.5380043288
 51
91.0010663079
  0
ARC
  5
393
100
AcDbEntity
  8
0
100
AcDbCircle
 62
7
  6
CONTINUOUS
 10
5.7105908478
 20
4.3645984155
 40
1.4543924642
100
AcDbArc
 50
89.7915643044
 51
90.2504726422
  0
ARC
  5
394
100
AcDbEntity
  8
0
100
AcDbCircle
 62
7
  6
CONTINUOUS
 10
5.7057710852
 20
4.3643884263
 40
1.4497451264
100
AcDbArc
 50
89.7908961354
 51
90.251275569
  0
ARC
  5
395
100
AcDbEntity
  8
0
100
AcDbCircle
 62
7
  6
CONTINUOUS
 10
5.7668239596
 20
4.4140186774
 40
1.435303911
100
AcDbArc
 50
93.3561506839
 51
93.7361469425
  0
ARC
  5
396
100
AcDbEntity
  8
0
100
AcDbCircle
 62
7
  6
CONTINUOUS
 10
5.6522761129
 20
4.5505457127
 40
1.2697230182
100
AcDbArc
 50
90.1547877809
 51
90.8245065396
  0
ARC
  5
397
100
AcDbEntity
  8
0
100
AcDbCircle
 62
7
  6
CONTINUOUS
 10
5.6522758734
 20
4.5505809838
 40
1.2696877466
100
AcDbArc
 50
89.4846894128
 51
90.1328555751
  0
ARC
  5
398
100
AcDbEntity
  8
0
100
AcDbCircle
 62
7
  6
CONTINUOUS
 10
5.6502422022
 20
4.5504154865
 40
1.2688587515
100
AcDbArc
 50
89.7731161097
 51
90.0412513144
  0
ARC
  5
399
100
AcDbEntity
  8
0
100
AcDbCircle
 62
7
  6
CONTINUOUS
 10
5.642514206
 20
4.5497644321
 40
1.2655744428
100
AcDbArc
 50
89.7725273164
 51
90.0413583654
  0
ARC
  5
39A
100
AcDbEntity
  8
0
100
AcDbCircle
 62
7
  6
CONTINUOUS
 10
5.640073778
 20
4.5495469917
 40
1.2644975142
100
AcDbArc
 50
89.6688475878
 51
90.0413932216
  0
ARC
  5
39B
100
AcDbEntity
  8
0
100
AcDbCircle
 62
7
  6
CONTINUOUS
 10
5.6303120985
 20
4.5486491531
 40
1.2599683457
100
AcDbArc
 50
89.6676571874
 51
90.0415420126
  0
ARC
  5
39C
100
AcDbEntity
  8
0
100
AcDbCircle
 62
6
  6
CONTINUOUS
 10
5.3755900347
 20
3.7265651899
 40
0.188
100
AcDbArc
 50
90.0
 51
170.3718438715
  0
ARC
  5
39D
100
AcDbEntity
  8
0
100
AcDbCircle
 62
9
  6
CONTINUOUS
 10
5.3117108516
 20
4.8708454024
 40
0.4564891784
100
AcDbArc
 50
199.4103039527
 51
199.8391772033
  0
ARC
  5
39E
100
AcDbEntity
  8
0
100
AcDbCircle
 62
9
  6
CONTINUOUS
 10
5.0586200467
 20
4.8428223508
 40
0.2572024307
100
AcDbArc
 50
208.7369575462
 51
209.5704153837
  0
ARC
  5
39F
100
AcDbEntity
  8
0
100
AcDbCircle
 62
9
  6
CONTINUOUS
 10
5.0865053264
 20
5.1716854451
 40
0.2411808936
100
AcDbArc
 50
125.2345582535
 51
126.9525402766
  0
ARC
  5
3A0
100
AcDbEntity
  8
0
100
AcDbCircle
 62
9
  6
CONTINUOUS
 10
5.0855716747
 20
5.2374539358
 40
0.1770366067
100
AcDbArc
 50
102.1943084696
 51
105.2427930579
  0
ARC
  5
3A1
100
AcDbEntity
  8
0
100
AcDbCircle
 62
9
  6
CONTINUOUS
 10
5.3043295267
 20
5.2771167056
 40
0.0966588774
100
AcDbArc
 50
245.3305650418
 51
245.9395027943
  0
ARC
  5
3A2
100
AcDbEntity
  8
0
100
AcDbCircle
 62
9
  6
CONTINUOUS
 10
5.303500961
 20
5.2752049826
 40
0.0945754492
100
AcDbArc
 50
245.9256686984
 51
249.386375139
  0
ARC
  5
3A3
100
AcDbEntity
  8
0
100
AcDbCircle
 62
9
  6
CONTINUOUS
 10
5.3093637775
 20
5.49300435
 40
0.050039154
100
AcDbArc
 50
271.9415894193
 51
276.4900790663
  0
ARC
  5
3A4
100
AcDbEntity
  8
0
100
AcDbCircle
 62
9
  6
CONTINUOUS
 10
5.0477878167
 20
5.3660574662
 40
0.0444151397
100
AcDbArc
 50
100.3834119401
 51
102.1489384163
  0
ARC
  5
3A5
100
AcDbEntity
  8
0
100
AcDbCircle
 62
6
  6
CONTINUOUS
 10
5.3867968821
 20
5.7693648429
 40
0.03
100
AcDbArc
 50
104.7630312681
 51
179.6177286235
  0
ARC
  5
3A6
100
AcDbEntity
  8
0
100
AcDbCircle
 62
7
  6
CONTINUOUS
 10
5.7458264471
 20
4.7697100532
 40
1.0789933375
100
AcDbArc
 50
93.0560629237
 51
93.3487973701
  0
ARC
  5
3A7
100
AcDbEntity
  8
0
100
AcDbCircle
 62
7
  6
CONTINUOUS
 10
5.7355537016
 20
4.8440271869
 40
1.0041628386
100
AcDbArc
 50
92.0148974986
 51
93.0115986229
  0
ARC
  5
3A8
100
AcDbEntity
  8
0
100
AcDbCircle
 62
7
  6
CONTINUOUS
 10
5.7355278968
 20
4.844725009
 40
1.0034645406
100
AcDbArc
 50
90.9157084325
 51
92.0148259022
  0
ARC
  5
3A9
100
AcDbEntity
  8
0
100
AcDbCircle
 62
7
  6
CONTINUOUS
 10
5.7355434997
 20
4.8439244201
 40
1.0032645127
100
AcDbArc
 50
92.0140478926
 51
92.5475234263
  0
ARC
  5
3AA
100
AcDbEntity
  8
0
100
AcDbCircle
 62
7
  6
CONTINUOUS
 10
5.7355218613
 20
4.8450310376
 40
1.0031584546
100
AcDbArc
 50
90.5751224267
 51
90.9156430952
  0
ARC
  5
3AB
100
AcDbEntity
  8
0
100
AcDbCircle
 62
7
  6
CONTINUOUS
 10
5.7355270951
 20
4.8443982391
 40
1.0027904099
100
AcDbArc
 50
90.7789161763
 51
92.0140626182
  0
ARC
  5
3AC
100
AcDbEntity
  8
0
100
AcDbCircle
 62
7
  6
CONTINUOUS
 10
5.7300366811
 20
5.0622638952
 40
0.7860137693
100
AcDbArc
 50
92.8812770249
 51
93.0436442247
  0
ARC
  5
3AD
100
AcDbEntity
  8
0
100
AcDbCircle
 62
6
  6
CONTINUOUS
 10
5.6609690477
 20
4.7799213981
 40
0.7706786497
100
AcDbArc
 50
17.878269959
 51
22.2928424536
  0
ARC
  5
3AE
100
AcDbEntity
  8
0
100
AcDbCircle
 62
7
  6
CONTINUOUS
 10
5.6967295537
 20
5.1983772491
 40
0.6478488693
100
AcDbArc
 50
91.2327804796
 51
93.6703522005
  0
ARC
  5
3AF
100
AcDbEntity
  8
0
100
AcDbCircle
 62
7
  6
CONTINUOUS
 10
5.6967090035
 20
5.1992157803
 40
0.64701009
100
AcDbArc
 50
89.6822748857
 51
91.2325586536
  0
ARC
  5
3B0
100
AcDbEntity
  8
0
100
AcDbCircle
 62
7
  6
CONTINUOUS
 10
5.7418484095
 20
5.2182912136
 40
0.629701552
100
AcDbArc
 50
91.907584168
 51
92.0341730073
  0
ARC
  5
3B1
100
AcDbEntity
  8
0
100
AcDbCircle
 62
7
  6
CONTINUOUS
 10
5.7126893643
 20
5.4141628084
 40
0.4336878758
100
AcDbArc
 50
92.2116787787
 51
92.9292825514
  0
ARC
  5
3B2
100
AcDbEntity
  8
0
100
AcDbCircle
 62
7
  6
CONTINUOUS
 10
5.7347506956
 20
5.4390245485
 40
0.4088543573
100
AcDbArc
 50
91.4424493826
 51
91.9431615014
  0
ARC
  5
3B3
100
AcDbEntity
  8
0
100
AcDbCircle
 62
7
  6
CONTINUOUS
 10
5.6419808322
 20
5.5864195783
 40
0.2656159095
100
AcDbArc
 50
58.7917857385
 51
60.7979883446
  0
ARC
  5
3B4
100
AcDbEntity
  8
0
100
AcDbCircle
 62
7
  6
CONTINUOUS
 10
5.6722127055
 20
5.5914169002
 40
0.2530506231
100
AcDbArc
 50
94.3185959384
 51
94.5163098538
  0
ARC
  5
3B5
100
AcDbEntity
  8
0
100
AcDbCircle
 62
7
  6
CONTINUOUS
 10
5.6663824401
 20
5.5965594551
 40
0.2484538042
100
AcDbArc
 50
94.7526712924
 51
95.0164922494
  0
ARC
  5
3B6
100
AcDbEntity
  8
0
100
AcDbCircle
 62
7
  6
CONTINUOUS
 10
5.6656119158
 20
5.6047270458
 40
0.2392504048
100
AcDbArc
 50
94.7507537437
 51
95.0246316107
  0
ARC
  5
3B7
100
AcDbEntity
  8
0
100
AcDbCircle
 62
7
  6
CONTINUOUS
 10
5.6706850323
 20
5.6120542613
 40
0.2333570938
100
AcDbArc
 50
94.2104981879
 51
94.5219873932
  0
ARC
  5
3B8
100
AcDbEntity
  8
0
100
AcDbCircle
 62
7
  6
CONTINUOUS
 10
5.7296567981
 20
5.6466167968
 40
0.2011997084
100
AcDbArc
 50
90.693362638
 51
91.4804381978
  0
ARC
  5
3B9
100
AcDbEntity
  8
0
100
AcDbCircle
 62
7
  6
CONTINUOUS
 10
5.66805328
 20
5.6464644069
 40
0.1978461956
100
AcDbArc
 50
94.0959088565
 51
94.3178985463
  0
ARC
  5
3BA
100
AcDbEntity
  8
0
100
AcDbCircle
 62
7
  6
CONTINUOUS
 10
5.6584707727
 20
5.6866899531
 40
0.157976729
100
AcDbArc
 50
95.016446069
 51
95.3728497107
  0
ARC
  5
3BB
100
AcDbEntity
  8
0
100
AcDbCircle
 62
7
  6
CONTINUOUS
 10
5.6567153415
 20
5.705084938
 40
0.1384989956
100
AcDbArc
 50
94.9945809957
 51
95.4009466092
  0
ARC
  5
3BC
100
AcDbEntity
  8
0
100
AcDbCircle
 62
7
  6
CONTINUOUS
 10
5.6622879106
 20
5.7274017075
 40
0.1177044791
100
AcDbArc
 50
93.7570336668
 51
94.2564784915
  0
ARC
  5
3BD
100
AcDbEntity
  8
0
100
AcDbCircle
 62
7
  6
CONTINUOUS
 10
5.66220372
 20
5.7280545735
 40
0.1160466079
100
AcDbArc
 50
93.7691277419
 51
94.0924812948
  0
ARC
  5
3BE
100
AcDbEntity
  8
0
100
AcDbCircle
 62
7
  6
CONTINUOUS
 10
5.6386691176
 20
5.928863929
 40
0.0859074101
100
AcDbArc
 50
273.9949935673
 51
274.7593198815
  0
ARC
  5
3BF
100
AcDbEntity
  8
0
100
AcDbCircle
 62
7
  6
CONTINUOUS
 10
5.7113881458
 20
7.1398810294
 40
1.2918186382
100
AcDbArc
 50
270.6238079436
 51
271.2822905714
  0
ARC
  5
3C0
100
AcDbEntity
  8
0
100
AcDbCircle
 62
7
  6
CONTINUOUS
 10
5.6135516125
 20
6.8129930415
 40
0.969522152
100
AcDbArc
 50
274.2156159982
 51
274.4237953678
  0
ARC
  5
3C1
100
AcDbEntity
  8
0
100
AcDbCircle
 62
7
  6
CONTINUOUS
 10
5.6724029213
 20
6.4711909965
 40
0.6253864613
100
AcDbArc
 50
274.3549391069
 51
274.4749051056
  0
ARC
  5
3C2
100
AcDbEntity
  8
0
100
AcDbCircle
 62
7
  6
CONTINUOUS
 10
5.691566715
 20
6.2294693399
 40
0.3829065412
100
AcDbArc
 50
274.438146201
 51
275.0708687193
  0
ARC
  5
3C3
100
AcDbEntity
  8
0
100
AcDbCircle
 62
7
  6
CONTINUOUS
 10
5.7072725098
 20
6.0508265772
 40
0.2035747916
100
AcDbArc
 50
275.1689514523
 51
275.3997532117
  0
ARC
  5
3C4
100
AcDbEntity
  8
0
100
AcDbCircle
 62
7
  6
CONTINUOUS
 10
5.476332472
 20
6.0126420251
 40
0.1894401706
100
AcDbArc
 50
279.2805849352
 51
279.8161116673
  0
ARC
  5
3C5
100
AcDbEntity
  8
0
100
AcDbCircle
 62
7
  6
CONTINUOUS
 10
5.814222746
 20
3.580246618
 40
2.2703637327
100
AcDbArc
 50
92.9153703273
 51
93.3185692321
  0
ARC
  5
3C6
100
AcDbEntity
  8
0
100
AcDbCircle
 62
7
  6
CONTINUOUS
 10
5.8104245282
 20
3.6529823559
 40
2.196529008
100
AcDbArc
 50
92.8731191501
 51
93.1527996736
  0
ARC
  5
3C7
100
AcDbEntity
  8
0
100
AcDbCircle
 62
9
  6
CONTINUOUS
 10
6.1768208016
 20
3.6472335216
 40
1.7967865726
100
AcDbArc
 50
87.7095941935
 51
88.0211833234
  0
ARC
  5
3C8
100
AcDbEntity
  8
0
100
AcDbCircle
 62
9
  6
CONTINUOUS
 10
6.1573466806
 20
3.6620695776
 40
1.7755912663
100
AcDbArc
 50
87.7962894258
 51
88.2249502541
  0
ARC
  5
3C9
100
AcDbEntity
  8
0
100
AcDbCircle
 62
6
  6
CONTINUOUS
 10
6.1730037294
 20
3.7265651899
 40
0.188
100
AcDbArc
 50
9.6281561285
 51
90.0
  0
ARC
  5
3CA
100
AcDbEntity
  8
0
100
AcDbCircle
 62
6
  6
CONTINUOUS
 10
5.7742968821
 20
4.2988951744
 40
1.5506700155
100
AcDbArc
 50
78.7753828049
 51
81.2638776667
  0
ARC
  5
3CB
100
AcDbEntity
  8
0
100
AcDbCircle
 62
6
  6
CONTINUOUS
 10
5.7742968821
 20
4.2988951744
 40
1.5506700155
100
AcDbArc
 50
101.0985676361
 51
104.7630312681
  0
ARC
  5
3CC
100
AcDbEntity
  8
0
100
AcDbCircle
 62
6
  6
CONTINUOUS
 10
5.7742968821
 20
4.2988951744
 40
1.5506700155
100
AcDbArc
 50
95.9781118612
 51
98.492392884
  0
ARC
  5
3CD
100
AcDbEntity
  8
0
100
AcDbCircle
 62
6
  6
CONTINUOUS
 10
5.7742968821
 20
4.2988951744
 40
1.5506700155
100
AcDbArc
 50
90.9237661994
 51
92.0213491955
  0
ARC
  5
3CE
100
AcDbEntity
  8
0
100
AcDbCircle
 62
6
  6
CONTINUOUS
 10
5.7742968821
 20
4.2988951744
 40
1.5506700155
100
AcDbArc
 50
75.2369687319
 51
77.7128511668
  0
ARC
  5
3CF
100
AcDbEntity
  8
0
100
AcDbCircle
 62
6
  6
CONTINUOUS
 10
5.7742968821
 20
4.2988951744
 40
1.5506700155
100
AcDbArc
 50
82.6640617287
 51
83.9847357909
  0
ARC
  5
3D0
100
AcDbEntity
  8
0
100
AcDbCircle
 62
6
  6
CONTINUOUS
 10
5.7742968821
 20
4.2988951744
 40
1.5506700155
100
AcDbArc
 50
85.0982741378
 51
86.1173792133
  0
ARC
  5
3D1
100
AcDbEntity
  8
0
100
AcDbCircle
 62
7
  6
CONTINUOUS
 10
5.7742968821
 20
4.2988951744
 40
1.550669693
100
AcDbArc
 50
93.7344982126
 51
94.7534044473
  0
ARC
  5
3D2
100
AcDbEntity
  8
0
100
AcDbCircle
 62
7
  6
CONTINUOUS
 10
5.7742968821
 20
4.2988951744
 40
1.5506493791
100
AcDbArc
 50
99.3527643775
 51
99.6712142153
  0
ARC
  5
3D3
100
AcDbEntity
  8
0
100
AcDbCircle
 62
7
  6
CONTINUOUS
 10
5.7742968821
 20
4.2988951744
 40
1.5505974645
100
AcDbArc
 50
94.5130334945
 51
94.7536263756
  0
ARC
  5
3D4
100
AcDbEntity
  8
0
100
AcDbCircle
 62
7
  6
CONTINUOUS
 10
5.7742968821
 20
4.2988951744
 40
1.5504684766
100
AcDbArc
 50
98.4935049317
 51
98.9795458287
  0
ARC
  5
3D5
100
AcDbEntity
  8
0
100
AcDbCircle
 62
7
  6
CONTINUOUS
 10
5.7742968821
 20
4.2988951744
 40
1.5500169344
100
AcDbArc
 50
99.7356798048
 51
99.8627407761
  0
ARC
  5
3D6
100
AcDbEntity
  8
0
100
AcDbCircle
 62
7
  6
CONTINUOUS
 10
5.7742968821
 20
4.2988951744
 40
1.5498637027
100
AcDbArc
 50
80.3425863685
 51
81.0917682267
  0
ARC
  5
3D7
100
AcDbEntity
  8
0
100
AcDbCircle
 62
7
  6
CONTINUOUS
 10
5.7742968821
 20
4.2988951744
 40
1.5496943237
100
AcDbArc
 50
80.3415207167
 51
81.0907866485
  0
ARC
  5
3D8
100
AcDbEntity
  8
0
100
AcDbCircle
 62
7
  6
CONTINUOUS
 10
5.7742968821
 20
4.2988951744
 40
1.5496943237
100
AcDbArc
 50
94.4023892276
 51
94.7564031041
  0
ARC
  5
3D9
100
AcDbEntity
  8
0
100
AcDbCircle
 62
6
  6
CONTINUOUS
 10
5.7742968821
 20
4.2988951744
 40
1.5496700155
100
AcDbArc
 50
81.0907866485
 51
82.6437382505
  0
ARC
  5
3DA
100
AcDbEntity
  8
0
100
AcDbCircle
 62
6
  6
CONTINUOUS
 10
5.7742968821
 20
4.2988951744
 40
1.5496700155
100
AcDbArc
 50
78.7709510154
 51
78.9119530993
  0
ARC
  5
3DB
100
AcDbEntity
  8
0
100
AcDbCircle
 62
6
  6
CONTINUOUS
 10
5.7742968821
 20
4.2988951744
 40
1.5496700155
100
AcDbArc
 50
83.9710959938
 51
85.083166441
  0
ARC
  5
3DC
100
AcDbEntity
  8
0
100
AcDbCircle
 62
6
  6
CONTINUOUS
 10
5.7742968821
 20
4.2988951744
 40
1.5496700155
100
AcDbArc
 50
99.6775152175
 51
101.1124974438
  0
ARC
  5
3DD
100
AcDbEntity
  8
0
100
AcDbCircle
 62
6
  6
CONTINUOUS
 10
5.7742968821
 20
4.2988951744
 40
1.5496700155
100
AcDbArc
 50
92.0331123399
 51
93.1823226163
  0
ARC
  5
3DE
100
AcDbEntity
  8
0
100
AcDbCircle
 62
6
  6
CONTINUOUS
 10
5.7742968821
 20
4.2988951744
 40
1.5496700155
100
AcDbArc
 50
94.7564031041
 51
95.9934681239
  0
ARC
  5
3DF
100
AcDbEntity
  8
0
100
AcDbCircle
 62
6
  6
CONTINUOUS
 10
5.7742968821
 20
4.2988951744
 40
1.5496700155
100
AcDbArc
 50
87.0157149331
 51
87.2259495595
  0
ARC
  5
3E0
100
AcDbEntity
  8
0
100
AcDbCircle
 62
6
  6
CONTINUOUS
 10
5.7742968821
 20
4.2988951744
 40
1.5496700155
100
AcDbArc
 50
89.8151352277
 51
90.0434464889
  0
ARC
  5
3E1
100
AcDbEntity
  8
0
100
AcDbCircle
 62
7
  6
CONTINUOUS
 10
5.7742968821
 20
4.2988951744
 40
1.5496493658
100
AcDbArc
 50
99.3636504662
 51
99.6775152175
  0
ARC
  5
3E2
100
AcDbEntity
  8
0
100
AcDbCircle
 62
7
  6
CONTINUOUS
 10
5.7742968821
 20
4.2988951744
 40
1.5495974177
100
AcDbArc
 50
94.5159520661
 51
94.756701237
  0
ARC
  5
3E3
100
AcDbEntity
  8
0
100
AcDbCircle
 62
7
  6
CONTINUOUS
 10
5.7742968821
 20
4.2988951744
 40
1.5490892475
100
AcDbArc
 50
99.362268506
 51
101.8082133118
  0
ARC
  5
3E4
100
AcDbEntity
  8
0
100
AcDbCircle
 62
7
  6
CONTINUOUS
 10
5.7742968821
 20
4.2988951744
 40
1.5490892475
100
AcDbArc
 50
94.4057639541
 51
96.4493050949
  0
ARC
  5
3E5
100
AcDbEntity
  8
0
100
AcDbCircle
 62
7
  6
CONTINUOUS
 10
5.7742968821
 20
4.2988951744
 40
1.5490892475
100
AcDbArc
 50
91.2576505499
 51
92.7380616712
  0
ARC
  5
3E6
100
AcDbEntity
  8
0
100
AcDbCircle
 62
7
  6
CONTINUOUS
 10
5.7742968821
 20
4.2988951744
 40
1.5490892475
100
AcDbArc
 50
83.3273112645
 51
85.7426068924
  0
ARC
  5
3E7
100
AcDbEntity
  8
0
100
AcDbCircle
 62
7
  6
CONTINUOUS
 10
5.7742968821
 20
4.2988951744
 40
1.5490892475
100
AcDbArc
 50
80.3377119356
 51
82.9547769217
  0
ARC
  5
3E8
100
AcDbEntity
  8
0
100
AcDbCircle
 62
7
  6
CONTINUOUS
 10
5.7742968821
 20
4.2988951744
 40
1.5147123479
100
AcDbArc
 50
89.799039071
 51
90.4070880332
  0
ARC
  5
3E9
100
AcDbEntity
  8
0
100
AcDbCircle
 62
6
  6
CONTINUOUS
 10
5.8876249165
 20
4.7799213301
 40
0.7706788629
100
AcDbArc
 50
157.7071736922
 51
162.1217297425
  0
ARC
  5
3EA
100
AcDbEntity
  8
0
100
AcDbCircle
 62
7
  6
CONTINUOUS
 10
5.8050158224
 20
5.500952886
 40
0.35516477
100
AcDbArc
 50
118.3213862927
 51
119.7170947765
  0
ARC
  5
3EB
100
AcDbEntity
  8
0
100
AcDbCircle
 62
7
  6
CONTINUOUS
 10
5.7976213828
 20
5.5149356273
 40
0.3393466743
100
AcDbArc
 50
116.4090138834
 51
117.4454455582
  0
ARC
  5
3EC
100
AcDbEntity
  8
0
100
AcDbCircle
 62
7
  6
CONTINUOUS
 10
5.9020309951
 20
5.5863475759
 40
0.2661031293
100
AcDbArc
 50
119.771617284
 51
121.3631273847
  0
ARC
  5
3ED
100
AcDbEntity
  8
0
100
AcDbCircle
 62
7
  6
CONTINUOUS
 10
5.8989581398
 20
5.5916993345
 40
0.2599319333
100
AcDbArc
 50
119.34544491
 51
119.7694372664
  0
ARC
  5
3EE
100
AcDbEntity
  8
0
100
AcDbCircle
 62
7
  6
CONTINUOUS
 10
5.7960029876
 20
6.0971831535
 40
0.2492066596
100
AcDbArc
 50
266.6424955832
 51
267.255314118
  0
ARC
  5
3EF
100
AcDbEntity
  8
0
100
AcDbCircle
 62
7
  6
CONTINUOUS
 10
5.8250097505
 20
5.6808455404
 40
0.19269289
100
AcDbArc
 50
135.5726913816
 51
137.3651312286
  0
ARC
  5
3F0
100
AcDbEntity
  8
0
100
AcDbCircle
 62
7
  6
CONTINUOUS
 10
5.8271628505
 20
5.6912177536
 40
0.1779732574
100
AcDbArc
 50
134.2176413105
 51
136.1055578327
  0
ARC
  5
3F1
100
AcDbEntity
  8
0
100
AcDbCircle
 62
7
  6
CONTINUOUS
 10
6.0378666525
 20
5.9802930394
 40
0.1522362873
100
AcDbArc
 50
260.3580529891
 51
261.093434083
  0
ARC
  5
3F2
100
AcDbEntity
  8
0
100
AcDbCircle
 62
7
  6
CONTINUOUS
 10
5.7866361363
 20
5.9398861331
 40
0.0906321646
100
AcDbArc
 50
265.9545652126
 51
266.412603968
  0
ARC
  5
3F3
100
AcDbEntity
  8
0
100
AcDbCircle
 62
9
  6
CONTINUOUS
 10
6.2368829128
 20
4.8708454023
 40
0.4564891782
100
AcDbArc
 50
340.1608227966
 51
340.5896960474
  0
ARC
  5
3F4
100
AcDbEntity
  8
0
100
AcDbCircle
 62
9
  6
CONTINUOUS
 10
6.4899737175
 20
4.8428223508
 40
0.2572024307
100
AcDbArc
 50
330.4295846163
 51
331.2630424538
  0
ARC
  5
3F5
100
AcDbEntity
  8
0
100
AcDbCircle
 62
9
  6
CONTINUOUS
 10
6.4620817486
 20
5.1716760916
 40
0.2411923927
100
AcDbArc
 50
53.0331945644
 51
54.765565286
  0
ARC
  5
3F6
100
AcDbEntity
  8
0
100
AcDbCircle
 62
9
  6
CONTINUOUS
 10
6.4630220923
 20
5.2374539485
 40
0.1770365937
100
AcDbArc
 50
74.7572176868
 51
77.8056915751
  0
ARC
  5
3F7
100
AcDbEntity
  8
0
100
AcDbCircle
 62
9
  6
CONTINUOUS
 10
6.2442942529
 20
5.2770508936
 40
0.0965865436
100
AcDbArc
 50
293.8013395889
 51
294.6296316354
  0
ARC
  5
3F8
100
AcDbEntity
  8
0
100
AcDbCircle
 62
9
  6
CONTINUOUS
 10
6.2449464061
 20
5.2755592494
 40
0.0949585763
100
AcDbArc
 50
290.6209962587
 51
293.8045315498
  0
ARC
  5
3F9
100
AcDbEntity
  8
0
100
AcDbCircle
 62
9
  6
CONTINUOUS
 10
6.2392180195
 20
5.4928420265
 40
0.0498765298
100
AcDbArc
 50
263.5030013667
 51
268.065832552
  0
ARC
  5
3FA
100
AcDbEntity
  8
0
100
AcDbCircle
 62
6
  6
CONTINUOUS
 10
6.1617968821
 20
5.7693648429
 40
0.03
100
AcDbArc
 50
0.3822713765
 51
75.2369687319
  0
ARC
  5
3FB
100
AcDbEntity
  8
0
100
AcDbCircle
 62
6
  6
CONTINUOUS
 10
7.2198788267
 20
2.9450393567
 40
0.75
100
AcDbArc
 50
201.9603922914
 51
243.1219100223
  0
ARC
  5
3FC
100
AcDbEntity
  8
0
100
AcDbCircle
 62
6
  6
CONTINUOUS
 10
6.8242968821
 20
2.1645651899
 40
0.125
100
AcDbArc
 50
270.0
 51
63.1219100223
  0
ARC
  5
3FD
100
AcDbEntity
  8
0
100
AcDbCircle
 62
6
  6
CONTINUOUS
 10
6.5217968821
 20
2.7295651899
 40
0.065
100
AcDbArc
 50
272.1995724131
 51
90.0
  0
ARC
  5
3FE
100
AcDbEntity
  8
0
100
AcDbCircle
 62
6
  6
CONTINUOUS
 10
6.5045761729
 20
5.1112729558
 40
1.36
100
AcDbArc
 50
157.6438963444
 51
161.2440132164
  0
ARC
  5
3FF
100
AcDbEntity
  8
0
100
AcDbCircle
 62
9
  6
CONTINUOUS
 10
6.7379147902
 20
4.8874301224
 40
0.3092786662
100
AcDbArc
 50
184.9991652233
 51
198.4459302386
  0
ARC
  5
400
100
AcDbEntity
  8
0
100
AcDbCircle
 62
9
  6
CONTINUOUS
 10
6.6701012783
 20
4.852938868
 40
0.2325143664
100
AcDbArc
 50
216.0445049331
 51
216.9770202533
  0
ARC
  5
401
100
AcDbEntity
  8
0
100
AcDbCircle
 62
9
  6
CONTINUOUS
 10
6.5683714895
 20
4.8365595781
 40
0.2115389549
100
AcDbArc
 50
325.2297256274
 51
326.2842550171
  0
ARC
  5
402
100
AcDbEntity
  8
0
100
AcDbCircle
 62
9
  6
CONTINUOUS
 10
6.5950200336
 20
4.8178632026
 40
0.1789847303
100
AcDbArc
 50
309.4268289279
 51
325.2811731349
  0
ARC
  5
403
100
AcDbEntity
  8
0
100
AcDbCircle
 62
9
  6
CONTINUOUS
 10
6.6045157081
 20
4.8066353646
 40
0.1640736581
100
AcDbArc
 50
270.4920501666
 51
273.3397439156
  0
ARC
  5
404
100
AcDbEntity
  8
0
100
AcDbCircle
 62
6
  6
CONTINUOUS
 10
6.6055586864
 20
4.7387498399
 40
0.0961847318
100
AcDbArc
 50
270.2163086076
 51
275.0501266644
  0
ARC
  5
405
100
AcDbEntity
  8
0
100
AcDbCircle
 62
9
  6
CONTINUOUS
 10
6.500820335
 20
5.366129931
 40
0.04434127
100
AcDbArc
 50
77.8495744018
 51
79.6634971623
  0
ARC
  5
406
100
AcDbEntity
  8
0
100
AcDbCircle
 62
9
  6
CONTINUOUS
 10
6.605137072
 20
4.6716454267
 40
0.0290836557
100
AcDbArc
 50
270.8785338579
 51
271.5250928309
  0
ARC
  5
407
100
AcDbEntity
  8
0
100
AcDbCircle
 62
7
  6
CONTINUOUS
 10
6.7278076783
 20
41.2151226422
 40
35.379449668
100
AcDbArc
 50
268.4634072498
 51
268.5771356549
  0
LINE
  5
408
100
AcDbEntity
  8
0
100
AcDbLine
 62
7
  6
CONTINUOUS
 10
5.8601122454
 20
5.8105567035
 11
5.8600670514
 21
5.8106787267
  0
SPLINE
  5
409
100
AcDbEntity
  8
0
100
AcDbSpline
 62
7
  6
CONTINUOUS
 70
0
 71
3
 72
14
 73
10
 74
8
 42
0.0000001
 43
0.0000001
 44
0.0000000001
 12
-0.0011189619
 22
0.0014816319
 32
0.0
 13
-0.0018137707
 23
0.000396919
 33
0.0
 40
0.0
 40
0.0
 40
0.0
 40
0.0
 40
0.0680245916
 40
0.1551439102
 40
0.2608167616
 40
0.3833300987
 40
0.5206122701
 40
0.6706164998
 40
1.0
 40
1.0
 40
1.0
 40
1.0
 10
5.8600670514
 20
5.8106787267
 30
0.0
 10
5.8600416791
 20
5.8107123225
 30
0.0
 10
5.8599693198
 20
5.8107775176
 30
0.0
 10
5.8598320082
 20
5.810862744
 30
0.0
 10
5.8596556682
 20
5.8109471332
 30
0.0
 10
5.8594447797
 20
5.8110292317
 30
0.0
 10
5.8592036404
 20
5.8111081561
 30
0.0
 10
5.8588364206
 20
5.8112123586
 30
0.0
 10
5.8585474828
 20
5.8112804159
 30
0.0
 10
5.8583483408
 20
5.8113239954
 30
0.0
 11
5.8600670514
 21
5.8106787267
 31
0.0
 11
5.859976434
 21
5.8107667061
 31
0.0
 11
5.8598404848
 21
5.8108543537
 31
0.0
 11
5.859664217
 21
5.8109405215
 31
0.0
 11
5.8594526435
 21
5.8110240626
 31
0.0
 11
5.8592106636
 21
5.8111041567
 31
0.0
 11
5.8589428994
 21
5.8111807801
 31
0.0
 11
5.8583483408
 21
5.8113239954
 31
0.0
  0
SPLINE
  5
40A
100
AcDbEntity
  8
0
100
AcDbSpline
 62
7
  6
CONTINUOUS
 70
0
 71
3
 72
26
 73
22
 74
20
 42
0.0000001
 43
0.0000001
 44
0.0000000001
 12
-0.0395271868
 22
0.0086499867
 32
0.0
 13
-0.040104783
 23
0.0053690925
 33
0.0
 40
0.0
 40
0.0
 40
0.0
 40
0.0
 40
0.0273784051
 40
0.0565844135
 40
0.0868418209
 40
0.1177316584
 40
0.1806262826
 40
0.2443325313
 40
0.3084341051
 40
0.372688859
 40
0.4368909506
 40
0.5009312468
 40
0.5648622468
 40
0.6288728132
 40
0.6609840904
 40
0.693169613
 40
0.7572968501
 40
0.8203408027
 40
0.8818368482
 40
0.9416106304
 40
1.0
 40
1.0
 40
1.0
 40
1.0
 10
5.8583483408
 20
5.8113239954
 30
0.0
 10
5.8579876103
 20
5.8114029364
 30
0.0
 10
5.8572372252
 20
5.8115438654
 30
0.0
 10
5.856079528
 20
5.8117222786
 30
0.0
 10
5.854871207
 20
5.81188119
 30
0.0
 10
5.85320913
 20
5.8120726244
 30
0.0
 10
5.851094501
 20
5.8122755789
 30
0.0
 10
5.848530107
 20
5.8124757795
 30
0.0
 10
5.8459447398
 20
5.8126393926
 30
0.0
 10
5.8433506447
 20
5.8127668477
 30
0.0
 10
5.8407558697
 20
5.8128581833
 30
0.0
 10
5.8381646551
 20
5.8129210098
 30
0.0
 10
5.8355757284
 20
5.8129682415
 30
0.0
 10
5.8334173652
 20
5.8130082234
 30
0.0
 10
5.8316874501
 20
5.8130558375
 30
0.0
 10
5.8299564494
 20
5.813118468
 30
0.0
 10
5.8278096775
 20
5.8132278821
 30
0.0
 10
5.8252725158
 20
5.8134268038
 30
0.0
 10
5.822799072
 20
5.8136772423
 30
0.0
 10
5.8203925846
 20
5.8139616878
 30
0.0
 10
5.8188122285
 20
5.8141679091
 30
0.0
 10
5.8180316642
 20
5.8142724085
 30
0.0
 11
5.8583483408
 21
5.8113239954
 31
0.0
 11
5.8572605375
 21
5.811533536
 31
0.0
 11
5.856092939
 21
5.811715877
 31
0.0
 11
5.854879275
 21
5.8118768516
 31
0.0
 11
5.8536376908
 21
5.8120206406
 31
0.0
 11
5.8511047711
 21
5.8122670693
 31
0.0
 11
5.8485349793
 21
5.8124690792
 31
0.0
 11
5.8459464604
 21
5.8126331807
 31
0.0
 11
5.8433496839
 21
5.8127608586
 31
0.0
 11
5.8407535543
 21
5.8128535175
 31
0.0
 11
5.8381631322
 21
5.8129184527
 31
0.0
 11
5.8355767998
 21
5.8129683428
 31
0.0
 11
5.8329873096
 21
5.8130213621
 31
0.0
 11
5.8316885119
 21
5.8130576797
 31
0.0
 11
5.8303870636
 21
5.8131050299
 31
0.0
 11
5.8277958496
 21
5.8132405179
 31
0.0
 11
5.8252525956
 21
5.8134381507
 31
0.0
 11
5.8227767395
 21
5.8136865831
 31
0.0
 11
5.8203746569
 21
5.8139687773
 31
0.0
 11
5.8180316642
 21
5.8142724085
 31
0.0
  0
SPLINE
  5
40B
100
AcDbEntity
  8
0
100
AcDbSpline
 62
6
  6
CONTINUOUS
 70
0
 71
3
 72
16
 73
12
 74
10
 42
0.0000001
 43
0.0000001
 44
0.0000000001
 12
0.0579775388
 22
-0.058753371
 32
0.0
 13
0.0822217729
 23
-0.0072755528
 33
0.0
 40
0.0
 40
0.0
 40
0.0
 40
0.0
 40
0.13440567
 40
0.2003638471
 40
0.2655261903
 40
0.3935726004
 40
0.5188657231
 40
0.6417402997
 40
0.7625808844
 40
0.8818308356
 40
1.0
 40
1.0
 40
1.0
 40
1.0
 10
4.862285024
 20
4.6792456658
 30
0.0
 10
4.8648825273
 20
4.6766134037
 30
0.0
 10
4.8689049813
 20
4.6728328916
 30
0.0
 10
4.874517752
 20
4.6681539429
 30
0.0
 10
4.8801748729
 20
4.663810069
 30
0.0
 10
4.8874461638
 20
4.6588993542
 30
0.0
 10
4.8964942965
 20
4.6538455323
 30
0.0
 10
4.9057706388
 20
4.6496852009
 30
0.0
 10
4.9152306649
 20
4.6464397202
 30
0.0
 10
4.9248284055
 20
4.6441305179
 30
0.0
 10
4.9313107891
 20
4.6432267273
 30
0.0
 10
4.9345494818
 20
4.6429401453
 30
0.0
 11
4.862285024
 21
4.6792456658
 31
0.0
 11
4.8703749155
 21
4.6716538215
 31
0.0
 11
4.8745574617
 21
4.6681684703
 31
0.0
 11
4.8788242447
 21
4.6648935727
 31
0.0
 11
4.8875880309
 21
4.6589853579
 31
0.0
 11
4.8966212929
 21
4.6539496157
 31
0.0
 11
4.90587905
 21
4.6498067847
 31
0.0
 11
4.9153163211
 21
4.6465773036
 31
0.0
 11
4.9248881253
 21
4.6442816109
 31
0.0
 11
4.9345494818
 21
4.6429401453
 31
0.0
  0
LINE
  5
40C
100
AcDbEntity
  8
0
100
AcDbLine
 62
6
  6
CONTINUOUS
 10
4.9426613995
 20
4.6425658318
 11
4.9429688174
 21
4.6425651992
  0
LINE
  5
40D
100
AcDbEntity
  8
0
100
AcDbLine
 62
7
  6
CONTINUOUS
 10
5.7194968011
 20
5.8475959492
 11
5.7023510693
 21
5.8468508872
  0
LINE
  5
40E
100
AcDbEntity
  8
0
100
AcDbLine
 62
7
  6
CONTINUOUS
 10
5.7023510693
 20
5.8468508872
 11
5.7003248823
 21
5.8467502905
  0
SPLINE
  5
40F
100
AcDbEntity
  8
0
100
AcDbSpline
 62
6
  6
CONTINUOUS
 70
0
 71
3
 72
16
 73
12
 74
10
 42
0.0000001
 43
0.0000001
 44
0.0000000001
 12
-0.057990724
 22
-0.0587667326
 32
0.0
 13
-0.0822418785
 23
-0.0072612915
 33
0.0
 40
0.0
 40
0.0
 40
0.0
 40
0.0
 40
0.1344071267
 40
0.2003657362
 40
0.2655283322
 40
0.3935747699
 40
0.5188674444
 40
0.6417413019
 40
0.7625811473
 40
0.8818306434
 40
1.0
 40
1.0
 40
1.0
 40
1.0
 10
6.6863087402
 20
4.6792456658
 30
0.0
 10
6.683710618
 20
4.6766127765
 30
0.0
 10
6.6796871748
 20
4.6728314027
 30
0.0
 10
6.6740729699
 20
4.6681514858
 30
0.0
 10
6.6684143982
 20
4.6638068043
 30
0.0
 10
6.6611412086
 20
4.6588953338
 30
0.0
 10
6.6520906736
 20
4.6538410298
 30
0.0
 10
6.64281186
 20
4.6496806685
 30
0.0
 10
6.6333493259
 20
4.6464356261
 30
0.0
 10
6.623749074
 20
4.6441273465
 30
0.0
 10
6.6172650543
 20
4.6432245116
 30
0.0
 10
6.6140255643
 20
4.6429384909
 30
0.0
 11
6.6863087402
 21
4.6792456658
 31
0.0
 11
6.6782168503
 21
4.6716520882
 31
0.0
 11
6.6740332419
 21
4.6681660218
 31
0.0
 11
6.66976536
 21
4.6648905126
 31
0.0
 11
6.6609992826
 21
4.6589813923
 31
0.0
 11
6.6519636319
 21
4.6539451808
 31
0.0
 11
6.6427034211
 21
4.6498023315
 31
0.0
 11
6.6332636639
 21
4.6465732978
 31
0.0
 11
6.6236893738
 21
4.6442785331
 31
0.0
 11
6.6140255643
 21
4.6429384909
 31
0.0
  0
LINE
  5
410
100
AcDbEntity
  8
0
100
AcDbLine
 62
6
  6
CONTINUOUS
 10
6.6059218115
 20
4.6425657936
 11
6.6056249468
 21
4.6425651992
  0
SPLINE
  5
411
100
AcDbEntity
  8
0
100
AcDbSpline
 62
7
  6
CONTINUOUS
 70
0
 71
3
 72
30
 73
26
 74
24
 42
0.0000001
 43
0.0000001
 44
0.0000000001
 12
-0.0000755313
 22
0.287035438
 32
0.0
 13
-0.2495599632
 23
0.1418068162
 33
0.0
 40
0.0
 40
0.0
 40
0.0
 40
0.0
 40
0.0656040142
 40
0.1312068732
 40
0.1966673927
 40
0.2619308068
 40
0.294483807
 40
0.3269719959
 40
0.3917211114
 40
0.4561288559
 40
0.488184766
 40
0.5201249929
 40
0.583600294
 40
0.6151149881
 40
0.6464628453
 40
0.7085702318
 40
0.7697272743
 40
0.7998965179
 40
0.8297476323
 40
0.8592399843
 40
0.8883402939
 40
0.9170214315
 40
0.9452319056
 40
0.9729078352
 40
1.0
 40
1.0
 40
1.0
 40
1.0
 10
5.5493560822
 20
5.284407311
 30
0.0
 10
5.5493544305
 20
5.2906842033
 30
0.0
 10
5.5488749002
 20
5.303242069
 30
0.0
 10
5.5468328952
 20
5.3219616071
 30
0.0
 10
5.5435659571
 20
5.3404726022
 30
0.0
 10
5.5399008413
 20
5.3556689701
 30
0.0
 10
5.536452851
 20
5.3676514851
 30
0.0
 10
5.5326853835
 20
5.3794858344
 30
0.0
 10
5.5273914137
 20
5.3940259878
 30
0.0
 10
5.5213544498
 20
5.4082280051
 30
0.0
 10
5.5161184177
 20
5.419343127
 30
0.0
 10
5.5106427617
 20
5.4302422569
 30
0.0
 10
5.5047765758
 20
5.4408833537
 30
0.0
 10
5.4985292103
 20
5.4512329092
 30
0.0
 10
5.4920807582
 20
5.4613033916
 30
0.0
 10
5.4836025482
 20
5.473435692
 30
0.0
 10
5.4744960193
 20
5.4849629892
 30
0.0
 10
5.466876071
 20
5.4937037985
 30
0.0
 10
5.4610291975
 20
5.4999644218
 30
0.0
 10
5.4550279097
 20
5.5059332969
 30
0.0
 10
5.4488764898
 20
5.5115836045
 30
0.0
 10
5.4425820094
 20
5.516886152
 30
0.0
 10
5.4361561056
 20
5.5218084437
 30
0.0
 10
5.4296145989
 20
5.526313489
 30
0.0
 10
5.4251377388
 20
5.5290436787
 30
0.0
 10
5.4228840323
 20
5.5303242965
 30
0.0
 11
5.5493560822
 21
5.284407311
 31
0.0
 11
5.5486541932
 21
5.3032249031
 31
0.0
 11
5.546625947
 21
5.3219456976
 31
0.0
 11
5.5433723283
 21
5.3404513422
 31
0.0
 11
5.5389918077
 21
5.3586648833
 31
0.0
 11
5.5364093234
 21
5.3676447824
 31
0.0
 11
5.5335814177
 21
5.376530921
 31
0.0
 11
5.5272277814
 21
5.3939964402
 31
0.0
 11
5.5199997322
 21
5.4110121911
 31
0.0
 11
5.5160787266
 21
5.419336101
 31
0.0
 11
5.511962526
 21
5.427528091
 31
0.0
 11
5.5031623225
 21
5.4434815384
 31
0.0
 11
5.4984869864
 21
5.4512254619
 31
0.0
 11
5.4936339317
 21
5.4588024597
 31
0.0
 11
5.4834091075
 21
5.4734057356
 31
0.0
 11
5.4725122353
 21
5.4871683474
 31
0.0
 11
5.4668191202
 21
5.4936935177
 31
0.0
 11
5.4609676932
 21
5.4999526747
 31
0.0
 11
5.4549622677
 21
5.5059189988
 31
0.0
 11
5.448807164
 21
5.5115656179
 31
0.0
 11
5.4425072604
 21
5.5168651766
 31
0.0
 11
5.4360749288
 21
5.5217838244
 31
0.0
 11
5.4295279028
 21
5.5262830637
 31
0.0
 11
5.4228840323
 21
5.5303242965
 31
0.0
  0
SPLINE
  5
412
100
AcDbEntity
  8
0
100
AcDbSpline
 62
7
  6
CONTINUOUS
 70
0
 71
3
 72
19
 73
15
 74
13
 42
0.0000001
 43
0.0000001
 44
0.0000000001
 12
-0.0863428181
 22
-0.0604293626
 32
0.0
 13
-0.0323013082
 23
-0.1003165768
 33
0.0
 40
0.0
 40
0.0
 40
0.0
 40
0.0
 40
0.0559756461
 40
0.1127387195
 40
0.1703572865
 40
0.2288547701
 40
0.3484818987
 40
0.471819473
 40
0.5348672902
 40
0.5987973676
 40
0.7292601673
 40
0.7957670744
 40
0.8630769242
 40
1.0
 40
1.0
 40
1.0
 40
1.0
 10
5.3414986179
 20
5.5303242964
 30
0.0
 10
5.3398875862
 20
5.5291967722
 30
0.0
 10
5.3367247979
 20
5.5268066765
 30
0.0
 10
5.3321998223
 20
5.5228841912
 30
0.0
 10
5.3278623589
 20
5.5186280626
 30
0.0
 10
5.322287407
 20
5.5124990283
 30
0.0
 10
5.3157891904
 20
5.5041138243
 30
0.0
 10
5.3099710514
 20
5.4950604278
 30
0.0
 10
5.3056297444
 20
5.4874116785
 30
0.0
 10
5.301435583
 20
5.4793975506
 30
0.0
 10
5.2975764876
 20
5.471077315
 30
0.0
 10
5.294016039
 20
5.4625023824
 30
0.0
 10
5.2905926807
 20
5.453627979
 30
0.0
 10
5.2882498785
 20
5.4468432984
 30
0.0
 10
5.2867756136
 20
5.442264747
 30
0.0
 11
5.3414986179
 21
5.5303242964
 31
0.0
 11
5.3367883676
 21
5.5267726563
 31
0.0
 11
5.3322640138
 21
5.5228589858
 31
0.0
 11
5.3279256151
 21
5.5186102541
 31
0.0
 11
5.3237732299
 21
5.5140534307
 31
0.0
 11
5.3160189493
 21
5.504112781
 31
0.0
 11
5.3089610287
 21
5.4931974709
 31
0.0
 11
5.3056779654
 21
5.4874206821
 31
0.0
 11
5.3025510607
 21
5.4814527238
 31
0.0
 11
5.29674448
 21
5.4689896901
 31
0.0
 11
5.2940542193
 21
5.4625174645
 31
0.0
 11
5.2914989286
 21
5.4558999809
 31
0.0
 11
5.2867756136
 21
5.442264747
 31
0.0
  0
SPLINE
  5
413
100
AcDbEntity
  8
0
100
AcDbSpline
 62
7
  6
CONTINUOUS
 70
0
 71
3
 72
61
 73
57
 74
55
 42
0.0000001
 43
0.0000001
 44
0.0000000001
 12
0.0980811661
 22
-0.4707674094
 32
0.0
 13
0.0013142665
 23
0.4808743511
 33
0.0
 40
0.0
 40
0.0
 40
0.0
 40
0.0
 40
0.0335358507
 40
0.0659246555
 40
0.0816634658
 40
0.0970953416
 40
0.1270488233
 40
0.1558523901
 40
0.1836034856
 40
0.2104348507
 40
0.2365103074
 40
0.2493258225
 40
0.2620250776
 40
0.2746345177
 40
0.2871848074
 40
0.2997113404
 40
0.3122437854
 40
0.324812125
 40
0.3374563469
 40
0.350223859
 40
0.3631549302
 40
0.376284115
 40
0.3829340604
 40
0.3896450598
 40
0.4032610083
 40
0.4171527986
 40
0.4313282021
 40
0.4457861461
 40
0.4605238806
 40
0.4755362854
 40
0.4908125729
 40
0.5063392554
 40
0.5221062341
 40
0.53810288
 40
0.5543172593
 40
0.5707375361
 40
0.5873521552
 40
0.6041494575
 40
0.6382420808
 40
0.6555221762
 40
0.6729425865
 40
0.6904936079
 40
0.7081661442
 40
0.7259498028
 40
0.7438351187
 40
0.7618122523
 40
0.7798708319
 40
0.798001372
 40
0.8161946351
 40
0.8344421306
 40
0.852736084
 40
0.8710693739
 40
0.8894350577
 40
0.9262354245
 40
0.9631019146
 40
1.0
 40
1.0
 40
1.0
 40
1.0
 10
5.273356605
 20
5.1851927508
 30
0.0
 10
5.2744530167
 20
5.1799302223
 30
0.0
 10
5.2768566625
 20
5.1696345573
 30
0.0
 10
5.2805433146
 20
5.1570656144
 30
0.0
 10
5.2838804145
 20
5.1474376849
 30
0.0
 10
5.2873982899
 20
5.138291716
 30
0.0
 10
5.2922482018
 20
5.1274209601
 30
0.0
 10
5.2988759934
 20
5.1152234735
 30
0.0
 10
5.306260632
 20
5.1040600175
 30
0.0
 10
5.3144055411
 20
5.0939925398
 30
0.0
 10
5.321871572
 20
5.086526561
 30
0.0
 10
5.3282100043
 20
5.0812088009
 30
0.0
 10
5.3331234722
 20
5.0775685763
 30
0.0
 10
5.3382216072
 20
5.0742690942
 30
0.0
 10
5.3435022236
 20
5.0713260864
 30
0.0
 10
5.3489604541
 20
5.0687553133
 30
0.0
 10
5.3545912819
 20
5.0665790588
 30
0.0
 10
5.3603879293
 20
5.064825287
 30
0.0
 10
5.3663414103
 20
5.06352215
 30
0.0
 10
5.3724386962
 20
5.0626980333
 30
0.0
 10
5.3786590662
 20
5.062353159
 30
0.0
 10
5.3839064562
 20
5.0624654399
 30
0.0
 10
5.3881408277
 20
5.0627922024
 30
0.0
 10
5.3924379125
 20
5.0632832702
 30
0.0
 10
5.3978507773
 20
5.0641986336
 30
0.0
 10
5.4043555757
 20
5.065743564
 30
0.0
 10
5.4108837591
 20
5.0677183136
 30
0.0
 10
5.4174182225
 20
5.0701011847
 30
0.0
 10
5.4239436942
 20
5.0728714075
 30
0.0
 10
5.430446437
 20
5.0760086151
 30
0.0
 10
5.4369137525
 20
5.0794927332
 30
0.0
 10
5.443333901
 20
5.0833053112
 30
0.0
 10
5.4496925062
 20
5.0874354857
 30
0.0
 10
5.455976311
 20
5.0918723772
 30
0.0
 10
5.4621725219
 20
5.0966052605
 30
0.0
 10
5.4682673577
 20
5.1016251716
 30
0.0
 10
5.4742467678
 20
5.1069241604
 30
0.0
 10
5.4820847817
 20
5.1143863764
 30
0.0
 10
5.4895919364
 20
5.1223416701
 30
0.0
 10
5.4967233223
 20
5.1307545485
 30
0.0
 10
5.5019061015
 20
5.1373364128
 30
0.0
 10
5.5068808327
 20
5.1441548326
 30
0.0
 10
5.5116300897
 20
5.1512026308
 30
0.0
 10
5.5161379166
 20
5.1584704554
 30
0.0
 10
5.5203868266
 20
5.1659488929
 30
0.0
 10
5.5243651942
 20
5.1736243599
 30
0.0
 10
5.5280626419
 20
5.1814824883
 30
0.0
 10
5.5314715941
 20
5.1895076082
 30
0.0
 10
5.5345874082
 20
5.1976833821
 30
0.0
 10
5.5374057671
 20
5.2059940465
 30
0.0
 10
5.5399225847
 20
5.2144242875
 30
0.0
 10
5.5421385676
 20
5.2229581454
 30
0.0
 10
5.544696321
 20
5.2344605401
 30
0.0
 10
5.5471485797
 20
5.2490201835
 30
0.0
 10
5.5489179573
 20
5.2666663301
 30
0.0
 10
5.5493268914
 20
5.2784928995
 30
0.0
 10
5.549343056
 20
5.2844073471
 30
0.0
 11
5.273356605
 21
5.1851927508
 31
0.0
 11
5.2770466297
 21
5.1694940043
 31
0.0
 11
5.2814553756
 21
5.1545560091
 31
0.0
 11
5.2839366565
 21
5.14740589
 31
0.0
 11
5.2866035588
 21
5.1404808473
 31
0.0
 11
5.2924950413
 21
5.1273369058
 31
0.0
 11
5.299131859
 21
5.1151795452
 31
0.0
 11
5.3065173386
 21
5.1040647154
 31
0.0
 11
5.3146535805
 21
5.0940508394
 31
0.0
 11
5.3235398146
 21
5.0852042017
 31
0.0
 11
5.3282630348
 21
5.0812456969
 31
0.0
 11
5.3331718828
 21
5.0776130895
 31
0.0
 11
5.3382640727
 21
5.0743211914
 31
0.0
 11
5.3435370173
 21
5.0713853936
 31
0.0
 11
5.3489878831
 21
5.0688215769
 31
0.0
 11
5.3546104799
 21
5.0666523012
 31
0.0
 11
5.3603961922
 21
5.064904952
 31
0.0
 11
5.3663363506
 21
5.0636070219
 31
0.0
 11
5.3724201961
 21
5.0627815434
 31
0.0
 11
5.3786287163
 21
5.0624339349
 31
0.0
 11
5.384940862
 21
5.0625652674
 31
0.0
 11
5.3881292165
 21
5.0628108712
 31
0.0
 11
5.391335595
 21
5.0631765149
 31
0.0
 11
5.3977927827
 21
5.0642607635
 31
0.0
 11
5.404293853
 21
5.0657975021
 31
0.0
 11
5.4108203885
 21
5.0677648739
 31
0.0
 11
5.4173541885
 21
5.0701410983
 31
0.0
 11
5.4238798791
 21
5.0729053859
 31
0.0
 11
5.4303840683
 21
5.0760376428
 31
0.0
 11
5.4368534053
 21
5.0795177905
 31
0.0
 11
5.4432745704
 21
5.083327769
 31
0.0
 11
5.4496343397
 21
5.0874556635
 31
0.0
 11
5.4559195073
 21
5.0918907248
 31
0.0
 11
5.4621168259
 21
5.0966223355
 31
0.0
 11
5.4682125863
 21
5.1016413401
 31
0.0
 11
5.4741927914
 21
5.1069394944
 31
0.0
 11
5.480043413
 21
5.1125086033
 31
0.0
 11
5.4912972468
 21
5.1244302332
 31
0.0
 11
5.4966702673
 21
5.1307689921
 31
0.0
 11
5.5018524359
 21
5.1373508049
 31
0.0
 11
5.5068264875
 21
5.1441691753
 31
0.0
 11
5.5115753188
 21
5.1512168504
 31
0.0
 11
5.5160822781
 21
5.1584845548
 31
0.0
 11
5.5203311986
 21
5.1659623466
 31
0.0
 11
5.5243096777
 21
5.1736372299
 31
0.0
 11
5.5280074805
 21
5.1814945241
 31
0.0
 11
5.5314170871
 21
5.1895187123
 31
0.0
 11
5.5345334014
 21
5.1976935791
 31
0.0
 11
5.5373521056
 21
5.2060033182
 31
0.0
 11
5.5398698958
 21
5.2144324436
 31
0.0
 11
5.5420869259
 21
5.2229651671
 31
0.0
 11
5.5440049438
 21
5.231585997
 31
0.0
 11
5.5469511696
 21
5.2490354377
 31
0.0
 11
5.5487247357
 21
5.2666747148
 31
0.0
 11
5.549343056
 21
5.2844073471
 31
0.0
  0
SPLINE
  5
414
100
AcDbEntity
  8
0
100
AcDbSpline
 62
7
  6
CONTINUOUS
 70
0
 71
3
 72
18
 73
14
 74
12
 42
0.0000001
 43
0.0000001
 44
0.0000000001
 12
0.0865402138
 22
-0.060570937
 32
0.0
 13
0.0322908254
 23
-0.1005750944
 33
0.0
 40
0.0
 40
0.0
 40
0.0
 40
0.0
 40
0.0559696626
 40
0.1127341586
 40
0.1703510914
 40
0.2288352434
 40
0.3484576578
 40
0.4096794231
 40
0.4718191069
 40
0.5987794873
 40
0.7292623759
 40
0.8630498516
 40
1.0
 40
1.0
 40
1.0
 40
1.0
 10
6.2070952077
 20
5.5303242965
 30
0.0
 10
6.2087097499
 20
5.5291942515
 30
0.0
 10
6.2118796426
 20
5.5267986645
 30
0.0
 10
6.2164146729
 20
5.5228670424
 30
0.0
 10
6.220761152
 20
5.5186007054
 30
0.0
 10
6.2263459682
 20
5.5124559544
 30
0.0
 10
6.2315118805
 20
5.5057782872
 30
0.0
 10
6.2362931503
 20
5.4986816068
 30
0.0
 10
6.2409208386
 20
5.4911776173
 30
0.0
 10
6.2462889844
 20
5.4812768352
 30
0.0
 10
6.2520779838
 20
5.4687685249
 30
0.0
 10
6.2573114304
 20
5.4556401042
 30
0.0
 10
6.2604154482
 20
5.4466228634
 30
0.0
 10
6.2618895259
 20
5.4420316054
 30
0.0
 11
6.2070952077
 21
5.5303242965
 31
0.0
 11
6.2118157056
 21
5.5267647132
 31
0.0
 11
6.216350344
 21
5.5228416273
 31
0.0
 11
6.2206978449
 21
5.5185824342
 31
0.0
 11
6.2248569993
 21
5.5140144614
 31
0.0
 11
6.2326215096
 21
5.5040455749
 31
0.0
 11
6.2362389213
 21
5.498684991
 31
0.0
 11
6.2396880003
 21
5.4931002913
 31
0.0
 11
6.2461045639
 21
5.481323892
 31
0.0
 11
6.2519161431
 21
5.4688258902
 31
0.0
 11
6.2571658006
 21
5.4557049158
 31
0.0
 11
6.2618895259
 21
5.4420316054
 31
0.0
  0
SPLINE
  5
415
100
AcDbEntity
  8
0
100
AcDbSpline
 62
7
  6
CONTINUOUS
 70
0
 71
3
 72
30
 73
26
 74
24
 42
0.0000001
 43
0.0000001
 44
0.0000000001
 12
0.000052656
 22
0.287015182
 32
0.0
 13
0.2495701774
 23
0.1417478183
 33
0.0
 40
0.0
 40
0.0
 40
0.0
 40
0.0
 40
0.1311315502
 40
0.196580468
 40
0.2618501111
 40
0.3268886871
 40
0.3916482617
 40
0.4560610498
 40
0.5200516996
 40
0.5518666622
 40
0.5835434828
 40
0.6150647609
 40
0.6464134048
 40
0.6775735039
 40
0.708528601
 40
0.7392506045
 40
0.7697086547
 40
0.7998756591
 40
0.8297263582
 40
0.859222492
 40
0.8883248009
 40
0.9170025624
 40
0.9452167524
 40
0.9729011366
 40
1.0
 40
1.0
 40
1.0
 40
1.0
 10
5.9992519863
 20
5.2844073492
 30
0.0
 10
5.999254288
 20
5.2969529311
 30
0.0
 10
6.0006702081
 20
5.3157896202
 30
0.0
 10
6.0050298996
 20
5.3404686661
 30
0.0
 10
6.0094254399
 20
5.358686952
 30
0.0
 10
6.0148439283
 20
5.3765553214
 30
0.0
 10
6.021206358
 20
5.3940221046
 30
0.0
 10
6.0284316803
 20
5.4110399714
 30
0.0
 10
6.0351414119
 20
5.4248299122
 30
0.0
 10
6.0408943441
 20
5.4355855488
 30
0.0
 10
6.045385369
 20
5.4434899217
 30
0.0
 10
6.0500579564
 20
5.4512362643
 30
0.0
 10
6.0549086588
 20
5.4588137752
 30
0.0
 10
6.0599340916
 20
5.466211203
 30
0.0
 10
6.0651295354
 20
5.4734165381
 30
0.0
 10
6.0704928129
 20
5.4804135395
 30
0.0
 10
6.0760214907
 20
5.4871837041
 30
0.0
 10
6.0817125472
 20
5.4937079257
 30
0.0
 10
6.0875612936
 20
5.4999660383
 30
0.0
 10
6.0935639797
 20
5.5059333889
 30
0.0
 10
6.0997159324
 20
5.5115825646
 30
0.0
 10
6.1060103928
 20
5.5168845634
 30
0.0
 10
6.1124363171
 20
5.5218072603
 30
0.0
 10
6.11897861
 20
5.5263133646
 30
0.0
 10
6.1234565568
 20
5.5290438948
 30
0.0
 10
6.1257109129
 20
5.5303242964
 30
0.0
 11
5.9992519863
 21
5.2844073492
 31
0.0
 11
6.0019696453
 21
5.3219458495
 31
0.0
 11
6.0052230934
 21
5.3404467965
 31
0.0
 11
6.009604665
 21
5.3586605636
 31
0.0
 11
6.0150140684
 21
5.3765266614
 31
0.0
 11
6.0213685236
 21
5.3939936811
 31
0.0
 11
6.0285920146
 21
5.4110115225
 31
0.0
 11
6.036627734
 21
5.4275265992
 31
0.0
 11
6.0409346972
 21
5.4355784388
 31
0.0
 11
6.0454269127
 21
5.4434828382
 31
0.0
 11
6.0501007165
 21
5.4512291479
 31
0.0
 11
6.0549526897
 21
5.4588063523
 31
0.0
 11
6.0599794131
 21
5.4662034357
 31
0.0
 11
6.0651775055
 21
5.4734086873
 31
0.0
 11
6.0705438595
 21
5.4804053831
 31
0.0
 11
6.076075488
 21
5.4871746005
 31
0.0
 11
6.0817694041
 21
5.4936974073
 31
0.0
 11
6.0876224013
 21
5.4999541046
 31
0.0
 11
6.0936296416
 21
5.5059192939
 31
0.0
 11
6.0997855517
 21
5.5115650106
 31
0.0
 11
6.1060845334
 21
5.5168632572
 31
0.0
 11
6.1125171203
 21
5.5217823858
 31
0.0
 11
6.1190655326
 21
5.5262829024
 31
0.0
 11
6.1257109129
 21
5.5303242964
 31
0.0
  0
SPLINE
  5
416
100
AcDbEntity
  8
0
100
AcDbSpline
 62
7
  6
CONTINUOUS
 70
0
 71
3
 72
56
 73
52
 74
50
 42
0.0000001
 43
0.0000001
 44
0.0000000001
 12
-0.0980425628
 22
-0.4708115357
 32
0.0
 13
-0.001314726
 23
0.4809096773
 33
0.0
 40
0.0
 40
0.0
 40
0.0
 40
0.0
 40
0.0169119638
 40
0.0335535063
 40
0.0499069148
 40
0.065959696
 40
0.0971414035
 40
0.1271088769
 40
0.1559246862
 40
0.1836866762
 40
0.2105263844
 40
0.2236545912
 40
0.236614711
 40
0.2494314898
 40
0.2621296591
 40
0.2747373606
 40
0.2872830921
 40
0.2997987426
 40
0.3123173363
 40
0.3248754888
 40
0.3375114255
 40
0.3502653132
 40
0.3631781959
 40
0.3697079447
 40
0.3762920331
 40
0.3896370666
 40
0.403241157
 40
0.4171204532
 40
0.4312830102
 40
0.4457300694
 40
0.4604584262
 40
0.4754605922
 40
0.4907277872
 40
0.5062489046
 40
0.5220128536
 40
0.5380076147
 40
0.5706362147
 40
0.6040463778
 40
0.6381472203
 40
0.6728524708
 40
0.7080808354
 40
0.7258706147
 40
0.7437622359
 40
0.7617452981
 40
0.7798100897
 40
0.8161400275
 40
0.8526884727
 40
0.8893949163
 40
0.9262086439
 40
0.9630885325
 40
1.0
 40
1.0
 40
1.0
 40
1.0
 10
6.275246691
 20
5.1852393149
 30
0.0
 10
6.2746939935
 20
5.182585199
 30
0.0
 10
6.2735337675
 20
5.1773323798
 30
0.0
 10
6.2716049723
 20
5.1695671605
 30
0.0
 10
6.2694957105
 20
5.1619915674
 30
0.0
 10
6.2664668592
 20
5.1522573265
 30
0.0
 10
6.2622331832
 20
5.1406176525
 30
0.0
 10
6.2563524533
 20
5.1274351425
 30
0.0
 10
6.249721004
 20
5.1152310731
 30
0.0
 10
6.2423333699
 20
5.104063568
 30
0.0
 10
6.2354918128
 20
5.0956068286
 30
0.0
 10
6.2296459705
 20
5.0894525731
 30
0.0
 10
6.2251054235
 20
5.0851722015
 30
0.0
 10
6.2203783284
 20
5.0812049567
 30
0.0
 10
6.2154650963
 20
5.0775642583
 30
0.0
 10
6.2103679519
 20
5.0742645554
 30
0.0
 10
6.2050891495
 20
5.0713229282
 30
0.0
 10
6.1996327873
 20
5.0687579364
 30
0.0
 10
6.1940042036
 20
5.0665901954
 30
0.0
 10
6.188211094
 20
5.0648416452
 30
0.0
 10
6.1822639126
 20
5.0635335934
 30
0.0
 10
6.1761760238
 20
5.0626876018
 30
0.0
 10
6.171017571
 20
5.062387683
 30
0.0
 10
6.1668444821
 20
5.0623920434
 30
0.0
 10
6.1626055063
 20
5.0625630168
 30
0.0
 10
6.1572502699
 20
5.0630870042
 30
0.0
 10
6.1507929431
 20
5.0641839164
 30
0.0
 10
6.1442939
 20
5.0657300147
 30
0.0
 10
6.1377709942
 20
5.0677035316
 30
0.0
 10
6.131240285
 20
5.0700825964
 30
0.0
 10
6.1247169976
 20
5.0728466581
 30
0.0
 10
6.1182148899
 20
5.0759757748
 30
0.0
 10
6.1117478176
 20
5.0794531642
 30
0.0
 10
6.1053283959
 20
5.0832625199
 30
0.0
 10
6.0989699198
 20
5.0873909569
 30
0.0
 10
6.0905349733
 20
5.0933431995
 30
0.0
 10
6.0802257623
 20
5.1015280035
 30
0.0
 10
6.068393401
 20
5.1123957604
 30
0.0
 10
6.0571329748
 20
5.1243185267
 30
0.0
 10
6.0465678794
 20
5.1372402842
 30
0.0
 10
6.0384776123
 20
5.1487599535
 30
0.0
 10
6.0324847673
 20
5.1584217221
 30
0.0
 10
6.0282322819
 20
5.1659022966
 30
0.0
 10
6.0242508698
 20
5.1735803219
 30
0.0
 10
6.0193078595
 20
5.1840797396
 30
0.0
 10
6.0138563157
 20
5.1976169424
 30
0.0
 10
6.0085210576
 20
5.2143702178
 30
0.0
 10
6.0043902681
 20
5.2315394711
 30
0.0
 10
6.0014470083
 20
5.2490044835
 30
0.0
 10
5.9996761771
 20
5.2666586767
 30
0.0
 10
5.9992668891
 20
5.278490321
 30
0.0
 10
5.999250713
 20
5.2844073483
 30
0.0
 11
6.275246691
 21
5.1852393149
 31
0.0
 11
6.2734897281
 21
5.1772981983
 31
0.0
 11
6.2715572712
 21
5.1695319019
 31
0.0
 11
6.2694445874
 21
5.1619564426
 31
0.0
 11
6.2671481725
 21
5.1545859362
 31
0.0
 11
6.2619991976
 21
5.1405019984
 31
0.0
 11
6.2561051934
 21
5.1273506538
 31
0.0
 11
6.2494650493
 21
5.115187242
 31
0.0
 11
6.2420759503
 21
5.1040673496
 31
0.0
 11
6.2339367005
 21
5.0940495265
 31
0.0
 11
6.2295860536
 21
5.0894743523
 31
0.0
 11
6.2250486009
 21
5.0852014489
 31
0.0
 11
6.2203250087
 21
5.0812417371
 31
0.0
 11
6.2154165974
 21
5.0776086631
 31
0.0
 11
6.2103250087
 21
5.0743165549
 31
0.0
 11
6.2050531732
 21
5.0713823598
 31
0.0
 11
6.1996048493
 21
5.068824399
 31
0.0
 11
6.1939858472
 21
5.0666630907
 31
0.0
 11
6.1882035898
 21
5.0649197135
 31
0.0
 11
6.1822684236
 21
5.0636155287
 31
0.0
 11
6.1761932066
 21
5.0627720537
 31
0.0
 11
6.1699938428
 21
5.0624095482
 31
0.0
 11
6.1668536131
 21
5.0624124993
 31
0.0
 11
6.1636897879
 21
5.0625392624
 31
0.0
 11
6.1573018302
 21
5.0631572374
 31
0.0
 11
6.1508506305
 21
5.0642456023
 31
0.0
 11
6.1443555147
 21
5.0657835434
 31
0.0
 11
6.1378344953
 21
5.0677495435
 31
0.0
 11
6.1313043647
 21
5.070122035
 31
0.0
 11
6.1247804993
 21
5.0728803997
 31
0.0
 11
6.1182774762
 21
5.0760049453
 31
0.0
 11
6.1118089254
 21
5.0794784595
 31
0.0
 11
6.105388148
 21
5.0832849203
 31
0.0
 11
6.0990282125
 21
5.0874109052
 31
0.0
 11
6.0927421173
 21
5.0918440597
 31
0.0
 11
6.0804450853
 21
5.1015911196
 31
0.0
 11
6.0686072161
 21
5.1124550034
 31
0.0
 11
6.0573450551
 21
5.1243758626
 31
0.0
 11
6.0467816766
 21
5.1372977916
 31
0.0
 11
6.0370498422
 21
5.1511655036
 31
0.0
 11
6.0325401305
 21
5.1584357039
 31
0.0
 11
6.0282879756
 21
5.165915872
 31
0.0
 11
6.0243064053
 21
5.1735930796
 31
0.0
 11
6.0206053654
 21
5.1814528568
 31
0.0
 11
6.0140733094
 21
5.1976573314
 31
0.0
 11
6.0087321935
 21
5.2144027241
 31
0.0
 11
6.0045934895
 21
5.23156325
 31
0.0
 11
6.001644621
 21
5.2490200793
 31
0.0
 11
5.9998695527
 21
5.2666669903
 31
0.0
 11
5.999250713
 21
5.2844073483
 31
0.0
  0
SPLINE
  5
417
100
AcDbEntity
  8
0
100
AcDbSpline
 62
7
  6
CONTINUOUS
 70
0
 71
3
 72
14
 73
10
 74
8
 42
0.0000001
 43
0.0000001
 44
0.0000000001
 12
-0.0392249221
 22
0.0222854261
 32
0.0
 13
-0.0451135759
 23
0.0000003721
 33
0.0
 40
0.0
 40
0.0
 40
0.0
 40
0.0
 40
0.1333576444
 40
0.2643130052
 40
0.5186848562
 40
0.6422743062
 40
0.7635548509
 40
0.88272228
 40
1.0
 40
1.0
 40
1.0
 40
1.0
 10
5.4228833285
 20
5.5303242964
 30
0.0
 10
5.4211396807
 20
5.5313149404
 30
0.0
 10
5.4176359604
 20
5.5331963543
 30
0.0
 10
5.4105802355
 20
5.5365261448
 30
0.0
 10
5.4033911283
 20
5.5392146972
 30
0.0
 10
5.3961316793
 20
5.541147095
 30
0.0
 10
5.3907522662
 20
5.5421880752
 30
0.0
 10
5.3854054053
 20
5.5428209794
 30
0.0
 10
5.3818483073
 20
5.5429655341
 30
0.0
 10
5.3800847015
 20
5.5429655487
 30
0.0
 11
5.4228833285
 21
5.5303242964
 31
0.0
 11
5.4175807576
 21
5.533166459
 31
0.0
 11
5.412235798
 21
5.5356832569
 31
0.0
 11
5.4014726713
 21
5.5396638404
 31
0.0
 11
5.3960833757
 21
5.5410929608
 31
0.0
 11
5.3907106576
 21
5.5421274208
 31
0.0
 11
5.385371319
 21
5.5427547807
 31
0.0
 11
5.3800847015
 21
5.5429655487
 31
0.0
  0
SPLINE
  5
418
100
AcDbEntity
  8
0
100
AcDbSpline
 62
7
  6
CONTINUOUS
 70
0
 71
3
 72
15
 73
11
 74
9
 42
0.0000001
 43
0.0000001
 44
0.0000000001
 12
-0.0412504449
 22
-0.0000000935
 32
0.0
 13
-0.0337982333
 23
-0.0236490725
 33
0.0
 40
0.0
 40
0.0
 40
0.0
 40
0.0
 40
0.1265628852
 40
0.2518559907
 40
0.3762810601
 40
0.5002857135
 40
0.6242911698
 40
0.7486873006
 40
0.873832314
 40
1.0
 40
1.0
 40
1.0
 40
1.0
 10
5.3800846929
 20
5.5429655487
 30
0.0
 10
5.3783444344
 20
5.5429655447
 30
0.0
 10
5.3748796753
 20
5.5428265583
 30
0.0
 10
5.3697385125
 20
5.5421984079
 30
0.0
 10
5.3646997441
 20
5.5411610245
 30
0.0
 10
5.3597779073
 20
5.5397272467
 30
0.0
 10
5.3549841622
 20
5.5379125862
 30
0.0
 10
5.3503276127
 20
5.535733786
 30
0.0
 10
5.3458153774
 20
5.5332098604
 30
0.0
 10
5.3429195387
 20
5.5313188794
 30
0.0
 10
5.3414981238
 20
5.5303242964
 30
0.0
 11
5.3800846929
 21
5.5429655487
 31
0.0
 11
5.3748681737
 21
5.542754783
 31
0.0
 11
5.3697379968
 21
5.5421274029
 31
0.0
 11
5.3647107365
 21
5.5410929327
 31
0.0
 11
5.3597991803
 21
5.5396638179
 31
0.0
 11
5.3550143602
 21
5.5378550645
 31
0.0
 11
5.3503652162
 21
5.5356832721
 31
0.0
 11
5.3458580132
 21
5.5331664621
 31
0.0
 11
5.3414981238
 21
5.5303242964
 31
0.0
  0
SPLINE
  5
419
100
AcDbEntity
  8
0
100
AcDbSpline
 62
7
  6
CONTINUOUS
 70
0
 71
3
 72
15
 73
11
 74
9
 42
0.0000001
 43
0.0000001
 44
0.0000000001
 12
0.0412504557
 22
-0.0000016815
 32
0.0
 13
0.0337988727
 23
-0.0236481776
 33
0.0
 40
0.0
 40
0.0
 40
0.0
 40
0.0
 40
0.1265531197
 40
0.2518574551
 40
0.376288724
 40
0.5002908371
 40
0.6242907529
 40
0.748695157
 40
0.8738443105
 40
1.0
 40
1.0
 40
1.0
 40
1.0
 10
6.1685090719
 20
5.5429655487
 30
0.0
 10
6.1702491966
 20
5.5429654777
 30
0.0
 10
6.1737139525
 20
5.5428262542
 30
0.0
 10
6.1788552908
 20
5.5421986209
 30
0.0
 10
6.1838941976
 20
5.5411608684
 30
0.0
 10
6.1888160971
 20
5.5397273976
 30
0.0
 10
6.1936097208
 20
5.5379124004
 30
0.0
 10
6.1982664713
 20
5.5357338096
 30
0.0
 10
6.2027785536
 20
5.5332095821
 30
0.0
 10
6.205674349
 20
5.5313187471
 30
0.0
 10
6.2070956557
 20
5.5303242964
 30
0.0
 11
6.1685090719
 21
5.5429655487
 31
0.0
 11
6.173725184
 21
5.5427546499
 31
0.0
 11
6.1788558519
 21
5.5421274575
 31
0.0
 11
6.1838833466
 21
5.541092851
 31
0.0
 11
6.1887948287
 21
5.539663852
 31
0.0
 11
6.1935793873
 21
5.5378550495
 31
0.0
 11
6.1982288715
 21
5.5356831757
 31
0.0
 11
6.2027361471
 21
5.5331661425
 31
0.0
 11
6.2070956557
 21
5.5303242964
 31
0.0
  0
SPLINE
  5
41A
100
AcDbEntity
  8
0
100
AcDbSpline
 62
7
  6
CONTINUOUS
 70
0
 71
3
 72
14
 73
10
 74
8
 42
0.0000001
 43
0.0000001
 44
0.0000000001
 12
0.0392256761
 22
0.0222841391
 32
0.0
 13
0.0451135957
 23
0.0000016965
 33
0.0
 40
0.0
 40
0.0
 40
0.0
 40
0.0
 40
0.1333448589
 40
0.2643049042
 40
0.5186795111
 40
0.6422630125
 40
0.7635519848
 40
0.8827323558
 40
1.0
 40
1.0
 40
1.0
 40
1.0
 10
6.1257104517
 20
5.5303242964
 30
0.0
 10
6.1274539658
 20
5.5313147882
 30
0.0
 10
6.1309575926
 20
5.5331961123
 30
0.0
 10
6.1380131074
 20
5.5365261628
 30
0.0
 10
6.1452022695
 20
5.5392147152
 30
0.0
 10
6.1524618385
 20
5.5411469282
 30
0.0
 10
6.1578414374
 20
5.5421882303
 30
0.0
 10
6.1631885256
 20
5.5428206802
 30
0.0
 10
6.1667456472
 20
5.5429654824
 30
0.0
 10
6.1685091022
 20
5.5429655487
 30
0.0
 11
6.1257104517
 21
5.5303242964
 31
0.0
 11
6.1310125388
 21
5.5331661463
 31
0.0
 11
6.1363576197
 21
5.5356831886
 31
0.0
 11
6.1471208639
 21
5.5396638274
 31
0.0
 11
6.152509919
 21
5.5410928173
 31
0.0
 11
6.1578829967
 21
5.5421274335
 31
0.0
 11
6.1632229426
 21
5.5427546475
 31
0.0
 11
6.1685091022
 21
5.5429655487
 31
0.0
  0
LINE
  5
41B
100
AcDbEntity
  8
0
100
AcDbLine
 62
7
  6
CONTINUOUS
 10
5.4572968821
 20
5.8159938848
 11
5.4734340882
 21
5.8196027566
  0
LINE
  5
41C
100
AcDbEntity
  8
0
100
AcDbLine
 62
7
  6
CONTINUOUS
 10
5.4734340882
 20
5.8196027566
 11
5.4756076356
 21
5.8201909473
  0
SPLINE
  5
41D
100
AcDbEntity
  8
0
100
AcDbSpline
 62
7
  6
CONTINUOUS
 70
0
 71
3
 72
9
 73
5
 74
3
 42
0.0000001
 43
0.0000001
 44
0.0000000001
 12
0.0000896434
 22
0.0000315528
 32
0.0
 13
0.0000880692
 23
0.0000357117
 33
0.0
 40
0.0
 40
0.0
 40
0.0
 40
0.0
 40
0.2777634401
 40
1.0
 40
1.0
 40
1.0
 40
1.0
 10
5.4756076356
 20
5.8201909473
 30
0.0
 10
5.4756159355
 20
5.8201938687
 30
0.0
 10
5.4756457703
 20
5.8202045149
 30
0.0
 10
5.4756754258
 20
5.8202156818
 30
0.0
 10
5.4756966281
 20
5.8202242792
 30
0.0
 11
5.4756076356
 21
5.8201909473
 31
0.0
 11
5.4756324957
 21
5.8201998232
 31
0.0
 11
5.4756966281
 21
5.8202242792
 31
0.0
  0
LINE
  5
41E
100
AcDbEntity
  8
0
100
AcDbLine
 62
7
  6
CONTINUOUS
 10
5.4756966281
 20
5.8202242792
 11
5.4757968821
 21
5.8202845272
  0
LINE
  5
41F
100
AcDbEntity
  8
0
100
AcDbLine
 62
7
  6
CONTINUOUS
 10
5.5037968821
 20
5.8255115515
 11
5.5044048693
 21
5.8255151304
  0
LINE
  5
420
100
AcDbEntity
  8
0
100
AcDbLine
 62
7
  6
CONTINUOUS
 10
5.5044048693
 20
5.8255151304
 11
5.522014497
 21
5.8280893004
  0
LINE
  5
421
100
AcDbEntity
  8
0
100
AcDbLine
 62
7
  6
CONTINUOUS
 10
5.522014497
 20
5.8280893004
 11
5.5221737572
 21
5.8281148905
  0
LINE
  5
422
100
AcDbEntity
  8
0
100
AcDbLine
 62
7
  6
CONTINUOUS
 10
5.5221737572
 20
5.8281148905
 11
5.5222968821
 21
5.8281346903
  0
LINE
  5
423
100
AcDbEntity
  8
0
100
AcDbLine
 62
7
  6
CONTINUOUS
 10
5.5137968821
 20
5.8275067166
 11
5.5136266578
 21
5.8274776901
  0
LINE
  5
424
100
AcDbEntity
  8
0
100
AcDbLine
 62
7
  6
CONTINUOUS
 10
5.5136266578
 20
5.8274776901
 11
5.5057499943
 21
5.8260868943
  0
LINE
  5
425
100
AcDbEntity
  8
0
100
AcDbLine
 62
7
  6
CONTINUOUS
 10
5.5057499943
 20
5.8260868943
 11
5.5037968821
 21
5.8256837148
  0
LINE
  5
426
100
AcDbEntity
  8
0
100
AcDbLine
 62
7
  6
CONTINUOUS
 10
5.5322968821
 20
5.8304595697
 11
5.5318124427
 21
5.8304159972
  0
LINE
  5
427
100
AcDbEntity
  8
0
100
AcDbLine
 62
7
  6
CONTINUOUS
 10
5.5318124427
 20
5.8304159972
 11
5.5303913398
 21
5.8302150279
  0
LINE
  5
428
100
AcDbEntity
  8
0
100
AcDbLine
 62
7
  6
CONTINUOUS
 10
5.5303913398
 20
5.8302150279
 11
5.5222968821
 21
5.8289309573
  0
LINE
  5
429
100
AcDbEntity
  8
0
100
AcDbLine
 62
7
  6
CONTINUOUS
 10
5.6002968821
 20
5.8389605941
 11
5.6107240758
 21
5.8404376746
  0
LINE
  5
42A
100
AcDbEntity
  8
0
100
AcDbLine
 62
7
  6
CONTINUOUS
 10
5.6107240758
 20
5.8404376746
 11
5.6126456628
 21
5.8408029601
  0
SPLINE
  5
42B
100
AcDbEntity
  8
0
100
AcDbSpline
 62
7
  6
CONTINUOUS
 70
0
 71
3
 72
9
 73
5
 74
3
 42
0.0000001
 43
0.0000001
 44
0.0000000001
 12
0.0000656755
 22
0.0000188823
 32
0.0
 13
0.0000646562
 23
0.0000221221
 33
0.0
 40
0.0
 40
0.0
 40
0.0
 40
0.0
 40
0.2747947028
 40
1.0
 40
1.0
 40
1.0
 40
1.0
 10
5.6126456628
 20
5.8408029601
 30
0.0
 10
5.6126516786
 20
5.8408046897
 30
0.0
 10
5.61267354
 20
5.8408110868
 30
0.0
 10
5.6126952827
 20
5.8408179058
 30
0.0
 10
5.6127109124
 20
5.8408232535
 30
0.0
 11
5.6126456628
 21
5.8408029601
 31
0.0
 11
5.6126636844
 21
5.8408082373
 31
0.0
 11
5.6127109124
 21
5.8408232535
 31
0.0
  0
SPLINE
  5
42C
100
AcDbEntity
  8
0
100
AcDbSpline
 62
7
  6
CONTINUOUS
 70
0
 71
3
 72
10
 73
6
 74
4
 42
0.0000001
 43
0.0000001
 44
0.0000000001
 12
0.0000956521
 22
0.0000327273
 32
0.0
 13
0.0
 23
0.000101096
 33
0.0
 40
0.0
 40
0.0
 40
0.0
 40
0.0
 40
0.6903878038
 40
0.8862206031
 40
1.0
 40
1.0
 40
1.0
 40
1.0
 10
5.6127109124
 20
5.8408232535
 30
0.0
 10
5.6127329247
 20
5.840830785
 30
0.0
 10
5.6127614632
 20
5.8408413523
 30
0.0
 10
5.6127898859
 20
5.8408584952
 30
0.0
 10
5.6127968821
 20
5.8408678512
 30
0.0
 10
5.6127968821
 20
5.8408716854
 30
0.0
 11
5.6127109124
 21
5.8408232535
 31
0.0
 11
5.6127753562
 21
5.8408500563
 31
0.0
 11
5.6127914964
 21
5.8408615215
 31
0.0
 11
5.6127968821
 21
5.8408716854
 31
0.0
  0
LINE
  5
42D
100
AcDbEntity
  8
0
100
AcDbLine
 62
7
  6
CONTINUOUS
 10
5.6427968821
 20
5.843719294
 11
5.6433415596
 21
5.8436615983
  0
LINE
  5
42E
100
AcDbEntity
  8
0
100
AcDbLine
 62
7
  6
CONTINUOUS
 10
5.6433415596
 20
5.8436615983
 11
5.6449660494
 21
5.8436819118
  0
LINE
  5
42F
100
AcDbEntity
  8
0
100
AcDbLine
 62
7
  6
CONTINUOUS
 10
5.6449660494
 20
5.8436819118
 11
5.6545755726
 21
5.8441418866
  0
LINE
  5
430
100
AcDbEntity
  8
0
100
AcDbLine
 62
7
  6
CONTINUOUS
 10
5.6545755726
 20
5.8441418866
 11
5.6552968821
 21
5.8441836578
  0
LINE
  5
431
100
AcDbEntity
  8
0
100
AcDbLine
 62
7
  6
CONTINUOUS
 10
5.6436783778
 20
5.8439726029
 11
5.6427968821
 21
5.8438745422
  0
LINE
  5
432
100
AcDbEntity
  8
0
100
AcDbLine
 62
7
  6
CONTINUOUS
 10
5.6552569081
 20
5.8448973007
 11
5.6545752508
 21
5.8448532263
  0
LINE
  5
433
100
AcDbEntity
  8
0
100
AcDbLine
 62
7
  6
CONTINUOUS
 10
5.7196018338
 20
5.8486002911
 11
5.7194698079
 21
5.8485956188
  0
LINE
  5
434
100
AcDbEntity
  8
0
100
AcDbLine
 62
7
  6
CONTINUOUS
 10
5.7194698079
 20
5.8485956188
 11
5.7193017674
 21
5.8485896358
  0
LINE
  5
435
100
AcDbEntity
  8
0
100
AcDbLine
 62
7
  6
CONTINUOUS
 10
5.7193017674
 20
5.8485896358
 11
5.7002495018
 21
5.8477476815
  0
LINE
  5
436
100
AcDbEntity
  8
0
100
AcDbLine
 62
7
  6
CONTINUOUS
 10
5.7002495018
 20
5.8477476815
 11
5.6987500997
 21
5.8476719302
  0
LINE
  5
437
100
AcDbEntity
  8
0
100
AcDbLine
 62
7
  6
CONTINUOUS
 10
6.0762609881
 20
5.8198801087
 11
6.0724917969
 21
5.8204661224
  0
LINE
  5
438
100
AcDbEntity
  8
0
100
AcDbLine
 62
7
  6
CONTINUOUS
 10
6.0724917969
 20
5.8204661224
 11
6.0722935925
 21
5.8204960444
  0
LINE
  5
439
100
AcDbEntity
  8
0
100
AcDbLine
 62
7
  6
CONTINUOUS
 10
5.8892968821
 20
5.8444864842
 11
5.8894109405
 21
5.8444791632
  0
LINE
  5
43A
100
AcDbEntity
  8
0
100
AcDbLine
 62
7
  6
CONTINUOUS
 10
5.8894109405
 20
5.8444791632
 11
5.9045896091
 21
5.8436523427
  0
LINE
  5
43B
100
AcDbEntity
  8
0
100
AcDbLine
 62
7
  6
CONTINUOUS
 10
5.9045896091
 20
5.8436523427
 11
5.9067822737
 21
5.8436592052
  0
LINE
  5
43C
100
AcDbEntity
  8
0
100
AcDbLine
 62
7
  6
CONTINUOUS
 10
5.9367968821
 20
5.8408054652
 11
5.9373137444
 21
5.8406568327
  0
LINE
  5
43D
100
AcDbEntity
  8
0
100
AcDbLine
 62
7
  6
CONTINUOUS
 10
5.9373137444
 20
5.8406568327
 11
5.9388963954
 21
5.8403800152
  0
LINE
  5
43E
100
AcDbEntity
  8
0
100
AcDbLine
 62
7
  6
CONTINUOUS
 10
5.9388963954
 20
5.8403800152
 11
5.9542968821
 21
5.8382708586
  0
LINE
  5
43F
100
AcDbEntity
  8
0
100
AcDbLine
 62
7
  6
CONTINUOUS
 10
5.9642968821
 20
5.8370686032
 11
5.9644907207
 21
5.8370480282
  0
LINE
  5
440
100
AcDbEntity
  8
0
100
AcDbLine
 62
7
  6
CONTINUOUS
 10
5.9644907207
 20
5.8370480282
 11
5.9701259005
 21
5.8365062053
  0
LINE
  5
441
100
AcDbEntity
  8
0
100
AcDbLine
 62
7
  6
CONTINUOUS
 10
5.9701259005
 20
5.8365062053
 11
5.9722915915
 21
5.836424677
  0
LINE
  5
442
100
AcDbEntity
  8
0
100
AcDbLine
 62
7
  6
CONTINUOUS
 10
5.7792968821
 20
5.8495571289
 11
5.780242263
 21
5.8494797857
  0
SPLINE
  5
443
100
AcDbEntity
  8
0
100
AcDbSpline
 62
7
  6
CONTINUOUS
 70
0
 71
3
 72
22
 73
18
 74
16
 42
0.0000001
 43
0.0000001
 44
0.0000000001
 12
0.0659032003
 22
-0.0041634732
 32
0.0
 13
0.066033019
 23
0.0004546723
 33
0.0
 40
0.0
 40
0.0
 40
0.0
 40
0.0
 40
0.0233308266
 40
0.05742645
 40
0.1038352669
 40
0.1626282416
 40
0.231977174
 40
0.3097503997
 40
0.4831948841
 40
0.573243506
 40
0.6602135034
 40
0.7414271715
 40
0.815119805
 40
0.8793052377
 40
0.9317987654
 40
0.9717467447
 40
1.0
 40
1.0
 40
1.0
 40
1.0
 10
5.7809651937
 20
5.8494315607
 30
0.0
 10
5.7814777191
 20
5.8493991816
 30
0.0
 10
5.7827397286
 20
5.8493271217
 30
0.0
 10
5.7850225614
 20
5.8492148994
 30
0.0
 10
5.7880859405
 20
5.8490841835
 30
0.0
 10
5.7919253184
 20
5.8489386173
 30
0.0
 10
5.7964550542
 20
5.8487800244
 30
0.0
 10
5.8035073838
 20
5.8485474861
 30
0.0
 10
5.8110158707
 20
5.8483231164
 30
0.0
 10
5.8187277182
 20
5.8481309032
 30
0.0
 10
5.8244104552
 20
5.8480067043
 30
0.0
 10
5.8297335055
 20
5.8479024839
 30
0.0
 10
5.8345553011
 20
5.8478173699
 30
0.0
 10
5.8387451848
 20
5.8477531385
 30
0.0
 10
5.8421925729
 20
5.8477139046
 30
0.0
 10
5.8448492193
 20
5.8476982354
 30
0.0
 10
5.846350452
 20
5.8477005867
 30
0.0
 10
5.8469723346
 20
5.8477048687
 30
0.0
 11
5.7809651937
 21
5.8494315607
 31
0.0
 11
5.782503246
 21
5.8493422794
 31
0.0
 11
5.7847519481
 21
5.8492302632
 31
0.0
 11
5.787813677
 21
5.849097943
 31
0.0
 11
5.791693194
 21
5.8489491404
 31
0.0
 11
5.7962697851
 21
5.8487879768
 31
0.0
 11
5.8014027114
 21
5.8486185215
 31
0.0
 11
5.8128510636
 21
5.8482807321
 31
0.0
 11
5.8187955342
 21
5.8481323066
 31
0.0
 11
5.8245371768
 21
5.8480061878
 31
0.0
 11
5.8298990569
 21
5.8479010485
 31
0.0
 11
5.8347645706
 21
5.8478156886
 31
0.0
 11
5.8390025544
 21
5.8477522622
 31
0.0
 11
5.8424687354
 21
5.847714359
 31
0.0
 11
5.8451066476
 21
5.8477005616
 31
0.0
 11
5.8469723346
 21
5.8477048687
 31
0.0
  0
LINE
  5
444
100
AcDbEntity
  8
0
100
AcDbLine
 62
7
  6
CONTINUOUS
 10
5.8469723346
 20
5.8477048687
 11
5.8492948451
 21
5.847750269
  0
SPLINE
  5
445
100
AcDbEntity
  8
0
100
AcDbSpline
 62
7
  6
CONTINUOUS
 70
0
 71
3
 72
40
 73
36
 74
34
 42
0.0000001
 43
0.0000001
 44
0.0000000001
 12
0.0253753263
 22
-0.0001471907
 32
0.0
 13
-0.0253753293
 23
0.0001466635
 33
0.0
 40
0.0
 40
0.0
 40
0.0
 40
0.0
 40
0.0890672083
 40
0.182357951
 40
0.2759496521
 40
0.3663649538
 40
0.4503484077
 40
0.4889921732
 40
0.5249931985
 40
0.5580687013
 40
0.5879710823
 40
0.6145295343
 40
0.6376108568
 40
0.6571443966
 40
0.6656065191
 40
0.673231269
 40
0.680065009
 40
0.6861795691
 40
0.6916834824
 40
0.696735274
 40
0.7015463702
 40
0.7063611447
 40
0.7168970867
 40
0.7230452332
 40
0.7299386619
 40
0.7376542661
 40
0.7462381811
 40
0.7661029653
 40
0.7896438196
 40
0.8168287277
 40
0.8475060609
 40
0.881485753
 40
0.9185108723
 40
0.9581658336
 40
1.0
 40
1.0
 40
1.0
 40
1.0
 10
5.6376204741
 20
5.8085963028
 30
0.0
 10
5.6383738439
 20
5.8085919328
 30
0.0
 10
5.6399166813
 20
5.8086225046
 30
0.0
 10
5.6422469103
 20
5.8087676449
 30
0.0
 10
5.6445807245
 20
5.8090086801
 30
0.0
 10
5.6468246323
 20
5.8093345785
 30
0.0
 10
5.648595424
 20
5.809673163
 30
0.0
 10
5.6499018301
 20
5.8099799403
 30
0.0
 10
5.6507822207
 20
5.8102153663
 30
0.0
 10
5.6515830461
 20
5.8104602599
 30
0.0
 10
5.6522974243
 20
5.8107125454
 30
0.0
 10
5.652919655
 20
5.8109695698
 30
0.0
 10
5.6534447009
 20
5.811228872
 30
0.0
 10
5.6538140907
 20
5.8114549376
 30
0.0
 10
5.6540538141
 20
5.8116378877
 30
0.0
 10
5.6541980579
 20
5.8117678222
 30
0.0
 10
5.6543152639
 20
5.8118969396
 30
0.0
 10
5.6544050973
 20
5.8120252031
 30
0.0
 10
5.6544670461
 20
5.8121526872
 30
0.0
 10
5.6545002553
 20
5.8122793686
 30
0.0
 10
5.6545039065
 20
5.8124046237
 30
0.0
 10
5.6544680071
 20
5.812572939
 30
0.0
 10
5.6543680916
 20
5.8127314671
 30
0.0
 10
5.6542258526
 20
5.8128714113
 30
0.0
 10
5.6540857492
 20
5.8129780746
 30
0.0
 10
5.6539181664
 20
5.8130805055
 30
0.0
 10
5.6536447852
 20
5.8132183765
 30
0.0
 10
5.6532329393
 20
5.8133755005
 30
0.0
 10
5.6526576598
 20
5.8135372763
 30
0.0
 10
5.6519832747
 20
5.8136783586
 30
0.0
 10
5.6512153502
 20
5.8137975692
 30
0.0
 10
5.6503603716
 20
5.8138931813
 30
0.0
 10
5.6494268417
 20
5.813963757
 30
0.0
 10
5.648425267
 20
5.8140089239
 30
0.0
 10
5.6477360054
 20
5.8140213406
 30
0.0
 10
5.6473821535
 20
5.8140233858
 30
0.0
 11
5.6376204741
 21
5.8085963028
 31
0.0
 11
5.6398802482
 21
5.8086373842
 31
0.0
 11
5.6422430592
 21
5.8087834724
 31
0.0
 11
5.6446054021
 21
5.8090279526
 31
0.0
 11
5.6468756193
 21
5.8093598938
 31
0.0
 11
5.6489678968
 21
5.8097650444
 31
0.0
 11
5.6499223401
 21
5.8099900846
 31
0.0
 11
5.6508045911
 21
5.8102271764
 31
0.0
 11
5.6516067699
 21
5.8104740776
 31
0.0
 11
5.652321634
 21
5.8107285178
 31
0.0
 11
5.6529435538
 21
5.8109881558
 31
0.0
 11
5.6534671507
 21
5.8112506395
 31
0.0
 11
5.6538873165
 21
5.8115136179
 31
0.0
 11
5.6540575055
 21
5.8116445602
 31
0.0
 11
5.6542006389
 21
5.8117747477
 31
0.0
 11
5.6543163725
 21
5.8119038879
 31
0.0
 11
5.6544043621
 21
5.8120316884
 31
0.0
 11
5.6544642636
 21
5.8121578565
 31
0.0
 11
5.6544958272
 21
5.8122821029
 31
0.0
 11
5.6544990258
 21
5.8124041462
 31
0.0
 11
5.6544738645
 21
5.8125237058
 31
0.0
 11
5.6543384821
 21
5.8127542522
 31
0.0
 11
5.6542282711
 21
5.812864678
 31
0.0
 11
5.6540897504
 21
5.8129715008
 31
0.0
 11
5.6539232213
 21
5.8130744642
 31
0.0
 11
5.6537291237
 21
5.8131733234
 31
0.0
 11
5.6532599889
 21
5.8133577497
 31
0.0
 11
5.6526858824
 21
5.8135228223
 31
0.0
 11
5.6520112261
 21
5.8136667482
 31
0.0
 11
5.6512422787
 21
5.8137880764
 31
0.0
 11
5.6503855283
 21
5.8138853981
 31
0.0
 11
5.649448758
 21
5.8139574912
 31
0.0
 11
5.6484435441
 21
5.8140036794
 31
0.0
 11
5.6473821535
 21
5.8140233858
 31
0.0
  0
SPLINE
  5
446
100
AcDbEntity
  8
0
100
AcDbSpline
 62
7
  6
CONTINUOUS
 70
0
 71
3
 72
21
 73
17
 74
15
 42
0.0000001
 43
0.0000001
 44
0.0000000001
 12
-0.0013334608
 22
-0.0007641505
 32
0.0
 13
0.0015368938
 23
0.0000011143
 33
0.0
 40
0.0
 40
0.0
 40
0.0
 40
0.0
 40
0.0539896528
 40
0.0987388068
 40
0.1349885369
 40
0.1646007802
 40
0.1914337676
 40
0.2207621228
 40
0.2566954631
 40
0.3014682527
 40
0.3561254163
 40
0.4209076975
 40
0.4956845093
 40
0.5801777509
 40
0.7759283736
 40
1.0
 40
1.0
 40
1.0
 40
1.0
 10
5.6283849473
 20
5.8090820824
 30
0.0
 10
5.6283609496
 20
5.8090683303
 30
0.0
 10
5.628318067
 20
5.8090412976
 30
0.0
 10
5.6282645723
 20
5.8089970385
 30
0.0
 10
5.6282282191
 20
5.8089529746
 30
0.0
 10
5.6282097746
 20
5.8089078665
 30
0.0
 10
5.6282135667
 20
5.8088623223
 30
0.0
 10
5.6282392409
 20
5.8088212088
 30
0.0
 10
5.6282828448
 20
5.8087846738
 30
0.0
 10
5.6283439904
 20
5.8087513327
 30
0.0
 10
5.6284226987
 20
5.8087211743
 30
0.0
 10
5.628518591
 20
5.8086942609
 30
0.0
 10
5.6286310391
 20
5.8086708891
 30
0.0
 10
5.6288109235
 20
5.8086435758
 30
0.0
 10
5.6290686597
 20
5.8086221664
 30
0.0
 10
5.6292837735
 20
5.8086170844
 30
0.0
 10
5.629398565
 20
5.8086171677
 30
0.0
 11
5.6283849473
 21
5.8090820824
 31
0.0
 11
5.628315176
 21
5.8090371708
 31
0.0
 11
5.6282628761
 21
5.808992509
 31
0.0
 11
5.6282286249
 21
5.8089485695
 31
0.0
 11
5.6282129996
 21
5.808905825
 31
0.0
 11
5.6282164636
 21
5.8088647313
 31
0.0
 11
5.6282389481
 21
5.8088256651
 31
0.0
 11
5.6282802289
 21
5.8087889803
 31
0.0
 11
5.6283400818
 21
5.8087550305
 31
0.0
 11
5.6284182066
 21
5.8087241614
 31
0.0
 11
5.6285139012
 21
5.8086966761
 31
0.0
 11
5.6286263312
 21
5.8086728639
 31
0.0
 11
5.6287546623
 21
5.8086530137
 31
0.0
 11
5.6290543075
 21
5.8086261386
 31
0.0
 11
5.629398565
 21
5.8086171677
 31
0.0
  0
LINE
  5
447
100
AcDbEntity
  8
0
100
AcDbLine
 62
7
  6
CONTINUOUS
 10
5.6289543199
 20
5.8094076821
 11
5.6283849473
 21
5.8090820824
  0
SPLINE
  5
448
100
AcDbEntity
  8
0
100
AcDbSpline
 62
7
  6
CONTINUOUS
 70
0
 71
3
 72
15
 73
11
 74
9
 42
0.0000001
 43
0.0000001
 44
0.0000000001
 12
-0.0026938803
 22
-0.0000019462
 32
0.0
 13
-0.0023714658
 23
-0.0012779455
 33
0.0
 40
0.0
 40
0.0
 40
0.0
 40
0.0
 40
0.1395723116
 40
0.286040038
 40
0.4329460514
 40
0.57478324
 40
0.7064699576
 40
0.8236665795
 40
0.9224904948
 40
1.0
 40
1.0
 40
1.0
 40
1.0
 10
5.6391602444
 20
5.814044176
 30
0.0
 10
5.639034914
 20
5.8140440854
 30
0.0
 10
5.6387780469
 20
5.8140375528
 30
0.0
 10
5.6383900172
 20
5.814012141
 30
0.0
 10
5.6380012576
 20
5.8139712715
 30
0.0
 10
5.637627515
 20
5.8139171643
 30
0.0
 10
5.6372826871
 20
5.8138518507
 30
0.0
 10
5.6369790198
 20
5.8137782992
 30
0.0
 10
5.6367274947
 20
5.813699083
 30
0.0
 10
5.6365809506
 20
5.8136375691
 30
0.0
 10
5.6365196802
 20
5.8136045515
 30
0.0
 11
5.6391602444
 21
5.814044176
 31
0.0
 11
5.6387843587
 21
5.8140352683
 31
0.0
 11
5.6383906284
 21
5.8140095918
 31
0.0
 11
5.6379970522
 21
5.8139681954
 31
0.0
 11
5.6376189631
 21
5.8139130287
 31
0.0
 11
5.6372705401
 21
5.8138463369
 31
0.0
 11
5.6369640197
 21
5.8137707033
 31
0.0
 11
5.6367106613
 21
5.8136889567
 31
0.0
 11
5.6365196802
 21
5.8136045515
 31
0.0
  0
SPLINE
  5
449
100
AcDbEntity
  8
0
100
AcDbSpline
 62
7
  6
CONTINUOUS
 70
0
 71
3
 72
40
 73
36
 74
34
 42
0.0000001
 43
0.0000001
 44
0.0000000001
 12
0.0199406136
 22
-0.0000791676
 32
0.0
 13
-0.0199406144
 23
0.0000789627
 33
0.0
 40
0.0
 40
0.0
 40
0.0
 40
0.0
 40
0.0895431872
 40
0.1833324929
 40
0.2774373572
 40
0.3683584068
 40
0.4527930959
 40
0.4916210801
 40
0.5277648052
 40
0.5609296203
 40
0.5908554075
 40
0.6173581204
 40
0.6402885328
 40
0.65955672
 40
0.6678364932
 40
0.6752421044
 40
0.6818170681
 40
0.6876316131
 40
0.6974265715
 40
0.7018611999
 40
0.7063188336
 40
0.7110676519
 40
0.716331722
 40
0.7222773745
 40
0.7290197812
 40
0.7366284808
 40
0.745142874
 40
0.7649597194
 40
0.7885441701
 40
0.8158373535
 40
0.8466685752
 40
0.8808336811
 40
0.9180639826
 40
0.9579375272
 40
1.0
 40
1.0
 40
1.0
 40
1.0
 10
5.6475387097
 20
5.8153289009
 30
0.0
 10
5.6481338918
 20
5.815326538
 30
0.0
 10
5.6493526869
 20
5.8153501448
 30
0.0
 10
5.6511940833
 20
5.8154571033
 30
0.0
 10
5.6530394073
 20
5.815633259
 30
0.0
 10
5.6548151005
 20
5.8158707217
 30
0.0
 10
5.6562178401
 20
5.8161171288
 30
0.0
 10
5.657253738
 20
5.8163403585
 30
0.0
 10
5.657951934
 20
5.8165115835
 30
0.0
 10
5.6585871983
 20
5.8166896403
 30
0.0
 10
5.6591539738
 20
5.8168730103
 30
0.0
 10
5.659647623
 20
5.817059714
 30
0.0
 10
5.6600640426
 20
5.8172479288
 30
0.0
 10
5.6603574834
 20
5.8174121339
 30
0.0
 10
5.6605481387
 20
5.817545268
 30
0.0
 10
5.6606624653
 20
5.8176394425
 30
0.0
 10
5.6607553856
 20
5.8177331615
 30
0.0
 10
5.6608452132
 20
5.8178500938
 30
0.0
 10
5.6609010306
 20
5.8179762296
 30
0.0
 10
5.6609046638
 20
5.8181017967
 30
0.0
 10
5.6608833934
 20
5.8181909617
 30
0.0
 10
5.6608387776
 20
5.8182770804
 30
0.0
 10
5.6607716554
 20
5.8183599539
 30
0.0
 10
5.6606824089
 20
5.8184397557
 30
0.0
 10
5.660571157
 20
5.8185165477
 30
0.0
 10
5.6604381086
 20
5.8185904038
 30
0.0
 10
5.660220732
 20
5.8186899227
 30
0.0
 10
5.6598939427
 20
5.8188029904
 30
0.0
 10
5.6594382856
 20
5.8189191354
 30
0.0
 10
5.6589043737
 20
5.8190202373
 30
0.0
 10
5.6582966997
 20
5.8191054444
 30
0.0
 10
5.6576204782
 20
5.8191735119
 30
0.0
 10
5.6568824573
 20
5.8192234312
 30
0.0
 10
5.6560909097
 20
5.8192549497
 30
0.0
 10
5.6555462898
 20
5.8192631827
 30
0.0
 10
5.6552667059
 20
5.8192642898
 30
0.0
 11
5.6475387097
 21
5.8153289009
 31
0.0
 11
5.6493239844
 21
5.8153608272
 31
0.0
 11
5.6511911128
 21
5.8154685114
 31
0.0
 11
5.6530591084
 21
5.8156472098
 31
0.0
 11
5.6548559317
 21
5.8158891283
 31
0.0
 11
5.6565135931
 21
5.8161840525
 31
0.0
 11
5.6572703399
 21
5.8163477982
 31
0.0
 11
5.6579701318
 21
5.8165202753
 31
0.0
 11
5.6586066161
 21
5.8166998521
 31
0.0
 11
5.6591739521
 21
5.816884872
 31
0.0
 11
5.6596675829
 21
5.8170736167
 31
0.0
 11
5.660083149
 21
5.8172643585
 31
0.0
 11
5.6604165274
 21
5.8174553709
 31
0.0
 11
5.6605515142
 21
5.8175504407
 31
0.0
 11
5.6606649984
 21
5.8176449332
 31
0.0
 11
5.6607567046
 21
5.8177386335
 31
0.0
 11
5.6608263575
 21
5.817831327
 31
0.0
 11
5.6608984928
 21
5.8180128373
 31
0.0
 11
5.6609007808
 21
5.8181012376
 31
0.0
 11
5.6608805583
 21
5.8181877953
 31
0.0
 11
5.6608378374
 21
5.8182723062
 31
0.0
 11
5.6607726303
 21
5.8183545659
 31
0.0
 11
5.6606849492
 21
5.8184343701
 31
0.0
 11
5.6605748364
 21
5.818511517
 31
0.0
 11
5.6604425542
 21
5.8185858231
 31
0.0
 11
5.6602884628
 21
5.8186571133
 31
0.0
 11
5.6599162936
 21
5.8187899441
 31
0.0
 11
5.6594612183
 21
5.8189086083
 31
0.0
 11
5.6589268502
 21
5.8190118342
 31
0.0
 11
5.6583182055
 21
5.8190986018
 31
0.0
 11
5.6576404626
 21
5.8191679197
 31
0.0
 11
5.6568998165
 21
5.819218935
 31
0.0
 11
5.6561053617
 21
5.8192511882
 31
0.0
 11
5.6552667059
 21
5.8192642898
 31
0.0
  0
SPLINE
  5
44A
100
AcDbEntity
  8
0
100
AcDbSpline
 62
7
  6
CONTINUOUS
 70
0
 71
3
 72
21
 73
17
 74
15
 42
0.0000001
 43
0.0000001
 44
0.0000000001
 12
-0.0013412234
 22
-0.0006999972
 32
0.0
 13
0.0015129028
 23
0.0000010921
 33
0.0
 40
0.0
 40
0.0
 40
0.0
 40
0.0
 40
0.0535617549
 40
0.0974153895
 40
0.1322560569
 40
0.1599905333
 40
0.184866372
 40
0.2127682183
 40
0.2479858832
 40
0.2926366772
 40
0.3476231009
 40
0.413074582
 40
0.4887831488
 40
0.5744120685
 40
0.7728614202
 40
1.0
 40
1.0
 40
1.0
 40
1.0
 10
5.6405870466
 20
5.8157618452
 30
0.0
 10
5.6405631005
 20
5.8157493475
 30
0.0
 10
5.6405204053
 20
5.8157248596
 30
0.0
 10
5.6404669077
 20
5.8156845854
 30
0.0
 10
5.6404305316
 20
5.8156445772
 30
0.0
 10
5.6404117675
 20
5.8156031421
 30
0.0
 10
5.6404159464
 20
5.8155607856
 30
0.0
 10
5.6404422576
 20
5.8155234017
 30
0.0
 10
5.6404859701
 20
5.8154904096
 30
0.0
 10
5.6405472033
 20
5.8154601991
 30
0.0
 10
5.6406259765
 20
5.8154328489
 30
0.0
 10
5.6407219198
 20
5.8154084256
 30
0.0
 10
5.6408343653
 20
5.8153872219
 30
0.0
 10
5.6410141657
 20
5.815362449
 30
0.0
 10
5.6412714607
 20
5.8153430554
 30
0.0
 10
5.6414861181
 20
5.8153384626
 30
0.0
 10
5.6416006643
 20
5.8153385452
 30
0.0
 11
5.6405870466
 21
5.8157618452
 31
0.0
 11
5.6405171452
 21
5.8157208542
 31
0.0
 11
5.6404647945
 21
5.815680096
 31
0.0
 11
5.6404305707
 21
5.8156400069
 31
0.0
 11
5.6404150501
 21
5.8156010233
 31
0.0
 11
5.6404186866
 21
5.8155635647
 31
0.0
 11
5.6404413849
 21
5.8155279739
 31
0.0
 11
5.6404828965
 21
5.8154945725
 31
0.0
 11
5.6405429723
 21
5.8154636821
 31
0.0
 11
5.6406212839
 21
5.8154356158
 31
0.0
 11
5.6407171052
 21
5.8154106442
 31
0.0
 11
5.6408295861
 21
5.8153890248
 31
0.0
 11
5.6409578765
 21
5.8153710152
 31
0.0
 11
5.6412571213
 21
5.8153466556
 31
0.0
 11
5.6416006643
 21
5.8153385452
 31
0.0
  0
LINE
  5
44B
100
AcDbEntity
  8
0
100
AcDbLine
 62
7
  6
CONTINUOUS
 10
5.6412152001
 20
5.816088863
 11
5.6405870466
 21
5.8157618452
  0
SPLINE
  5
44C
100
AcDbEntity
  8
0
100
AcDbSpline
 62
7
  6
CONTINUOUS
 70
0
 71
3
 72
15
 73
11
 74
9
 42
0.0000001
 43
0.0000001
 44
0.0000000001
 12
-0.0026860163
 22
-0.0000019339
 32
0.0
 13
-0.0024057288
 23
-0.0011946364
 33
0.0
 40
0.0
 40
0.0
 40
0.0
 40
0.0
 40
0.1397234505
 40
0.2863487357
 40
0.4334339818
 40
0.5754508593
 40
0.7072750844
 40
0.8244803765
 40
0.9230778266
 40
1.0
 40
1.0
 40
1.0
 40
1.0
 10
5.6493286605
 20
5.8192739091
 30
0.0
 10
5.6492035607
 20
5.8192738191
 30
0.0
 10
5.6489471695
 20
5.8192678092
 30
0.0
 10
5.6485597246
 20
5.8192444447
 30
0.0
 10
5.6481713308
 20
5.819206858
 30
0.0
 10
5.6477976689
 20
5.8191570616
 30
0.0
 10
5.6474526649
 20
5.8190969041
 30
0.0
 10
5.6471486905
 20
5.8190291361
 30
0.0
 10
5.6468968745
 20
5.8189561155
 30
0.0
 10
5.6467497809
 20
5.8188993243
 30
0.0
 10
5.6466880963
 20
5.8188686929
 30
0.0
 11
5.6493286605
 21
5.8192739091
 31
0.0
 11
5.6489534505
 21
5.8192657098
 31
0.0
 11
5.6485603207
 21
5.8192421011
 31
0.0
 11
5.6481670866
 21
5.8192040232
 31
0.0
 11
5.6477890225
 21
5.8191532385
 31
0.0
 11
5.6474403137
 21
5.8190917866
 31
0.0
 11
5.6471333219
 21
5.8190220389
 31
0.0
 11
5.6468794581
 21
5.8189466039
 31
0.0
 11
5.6466880963
 21
5.8188686929
 31
0.0
  0
LINE
  5
44D
100
AcDbEntity
  8
0
100
AcDbLine
 62
7
  6
CONTINUOUS
 10
5.6989120519
 20
5.8146122956
 11
5.6986428878
 21
5.8143321657
  0
LINE
  5
44E
100
AcDbEntity
  8
0
100
AcDbLine
 62
7
  6
CONTINUOUS
 10
5.7042328863
 20
5.8189769826
 11
5.703046827
 21
5.8187704605
  0
SPLINE
  5
44F
100
AcDbEntity
  8
0
100
AcDbSpline
 62
7
  6
CONTINUOUS
 70
0
 71
3
 72
27
 73
23
 74
21
 42
0.0000001
 43
0.0000001
 44
0.0000000001
 12
0.0150025265
 22
-0.000054753
 32
0.0
 13
-0.0078412642
 23
0.0127903625
 33
0.0
 40
0.0
 40
0.0
 40
0.0
 40
0.0
 40
0.0917679553
 40
0.1847943381
 40
0.3683855839
 40
0.4563299228
 40
0.540126321
 40
0.6187132984
 40
0.6910942002
 40
0.7563686777
 40
0.8138901497
 40
0.8631220138
 40
0.88453217
 40
0.903801727
 40
0.9209607141
 40
0.9360761329
 40
0.9492751402
 40
0.96079151
 40
0.9710104078
 40
0.9804858685
 40
0.9899118219
 40
1.0
 40
1.0
 40
1.0
 40
1.0
 10
5.7110619921
 20
5.8141238979
 30
0.0
 10
5.7115209092
 20
5.814122223
 30
0.0
 10
5.7124451275
 20
5.8141310735
 30
0.0
 10
5.714286416
 20
5.8141940035
 30
0.0
 10
5.7161059421
 20
5.8143226728
 30
0.0
 10
5.717872352
 20
5.8145177035
 30
0.0
 10
5.7191124491
 20
5.8146902846
 30
0.0
 10
5.7202698802
 20
5.8148882498
 30
0.0
 10
5.7213289152
 20
5.8151083448
 30
0.0
 10
5.7222755594
 20
5.815347714
 30
0.0
 10
5.7230977668
 20
5.8156022616
 30
0.0
 10
5.7236964807
 20
5.8158334241
 30
0.0
 10
5.7241025497
 20
5.8160270033
 30
0.0
 10
5.7243558849
 20
5.8161670259
 30
0.0
 10
5.7245718532
 20
5.8163082798
 30
0.0
 10
5.7247498986
 20
5.8164504431
 30
0.0
 10
5.7248895053
 20
5.8165934468
 30
0.0
 10
5.7249900834
 20
5.816737527
 30
0.0
 10
5.7250507481
 20
5.8168829727
 30
0.0
 10
5.7250695
 20
5.8170294107
 30
0.0
 10
5.7250448664
 20
5.8171742899
 30
0.0
 10
5.7250024163
 20
5.8172634807
 30
0.0
 10
5.7249760483
 20
5.8173064912
 30
0.0
 11
5.7110619921
 21
5.8141238979
 31
0.0
 11
5.7124386938
 21
5.8141366155
 31
0.0
 11
5.7138335214
 21
5.8141842301
 31
0.0
 11
5.7165808525
 21
5.814380751
 31
0.0
 11
5.7178921948
 21
5.8145263098
 31
0.0
 11
5.7191372307
 21
5.8147005281
 31
0.0
 11
5.720299138
 21
5.8149006243
 31
0.0
 11
5.72136192
 21
5.8151235171
 31
0.0
 11
5.7223107104
 21
5.8153660103
 31
0.0
 11
5.7231340391
 21
5.8156245686
 31
0.0
 11
5.7238211254
 21
5.815895591
 31
0.0
 11
5.7241106816
 21
5.8160346311
 31
0.0
 11
5.7243631921
 21
5.8161753925
 31
0.0
 11
5.7245779105
 21
5.8163174
 31
0.0
 11
5.7247540906
 21
5.8164601784
 31
0.0
 11
5.7248909909
 21
5.8166032523
 31
0.0
 11
5.7249881115
 21
5.8167461476
 31
0.0
 11
5.7250453013
 21
5.8168883916
 31
0.0
 11
5.7250624366
 21
5.8170295119
 31
0.0
 11
5.7250393936
 21
5.817169036
 31
0.0
 11
5.7249760483
 21
5.8173064912
 31
0.0
  0
SPLINE
  5
450
100
AcDbEntity
  8
0
100
AcDbSpline
 62
7
  6
CONTINUOUS
 70
0
 71
3
 72
15
 73
11
 74
9
 42
0.0000001
 43
0.0000001
 44
0.0000000001
 12
-0.0017106005
 22
0.0027902644
 32
0.0
 13
-0.0032193146
 23
0.0005896973
 33
0.0
 40
0.0
 40
0.0
 40
0.0
 40
0.0
 40
0.0694655078
 40
0.1526246785
 40
0.2515508188
 40
0.36730221
 40
0.5003241421
 40
0.6504402879
 40
0.8171909411
 40
1.0
 40
1.0
 40
1.0
 40
1.0
 10
5.7249760483
 20
5.8173064912
 30
0.0
 10
5.7249364391
 20
5.8173711003
 30
0.0
 10
5.7248270342
 20
5.8174993432
 30
0.0
 10
5.724609805
 20
5.8176687123
 30
0.0
 10
5.7243275643
 20
5.8178313317
 30
0.0
 10
5.7239809007
 20
5.8179864522
 30
0.0
 10
5.723570893
 20
5.818133272
 30
0.0
 10
5.7230996045
 20
5.81827112
 30
0.0
 10
5.7225695488
 20
5.8183991127
 30
0.0
 10
5.7221955014
 20
5.8184739145
 30
0.0
 10
5.7219993281
 20
5.8185098485
 30
0.0
 11
5.7249760483
 21
5.8173064912
 31
0.0
 11
5.7248322108
 21
5.8174825587
 31
0.0
 11
5.7246202276
 21
5.8176532617
 31
0.0
 11
5.7243412572
 21
5.8178175924
 31
0.0
 11
5.7239964581
 21
5.817974543
 31
0.0
 11
5.7235872329
 21
5.8181231263
 31
0.0
 11
5.7231160892
 21
5.8182624492
 31
0.0
 11
5.7225858475
 21
5.8183916455
 31
0.0
 11
5.7219993281
 21
5.8185098485
 31
0.0
  0
SPLINE
  5
451
100
AcDbEntity
  8
0
100
AcDbSpline
 62
7
  6
CONTINUOUS
 70
0
 71
3
 72
11
 73
7
 74
5
 42
0.0000001
 43
0.0000001
 44
0.0000000001
 12
-0.0060421162
 22
0.0011067634
 32
0.0
 13
-0.0061426048
 23
0.0000223463
 33
0.0
 40
0.0
 40
0.0
 40
0.0
 40
0.0
 40
0.2145206617
 40
0.4563867425
 40
0.7205945505
 40
1.0
 40
1.0
 40
1.0
 40
1.0
 10
5.7219993281
 20
5.8185098485
 30
0.0
 10
5.7215672752
 20
5.8185889897
 30
0.0
 10
5.7206421554
 20
5.8187252462
 30
0.0
 10
5.7191731819
 20
5.8188678703
 30
0.0
 10
5.7175669446
 20
5.8189568863
 30
0.0
 10
5.7164538472
 20
5.8189791747
 30
0.0
 10
5.7158817548
 20
5.8189812559
 30
0.0
 11
5.7219993281
 21
5.8185098485
 31
0.0
 11
5.7206964258
 21
5.8187069353
 31
0.0
 11
5.7192179921
 21
5.8188536692
 31
0.0
 11
5.7175976787
 21
5.8189458765
 31
0.0
 11
5.7158817548
 21
5.8189812559
 31
0.0
  0
SPLINE
  5
452
100
AcDbEntity
  8
0
100
AcDbSpline
 62
7
  6
CONTINUOUS
 70
0
 71
3
 72
18
 73
14
 74
12
 42
0.0000001
 43
0.0000001
 44
0.0000000001
 12
-0.0006152676
 22
-0.0006416568
 32
0.0
 13
0.0008889671
 23
0.0000038987
 33
0.0
 40
0.0
 40
0.0
 40
0.0
 40
0.0
 40
0.0525255045
 40
0.0757275556
 40
0.1020919389
 40
0.1346558282
 40
0.1750930036
 40
0.2240727417
 40
0.2816542111
 40
0.4217950186
 40
0.5929645556
 40
0.7887132699
 40
1.0
 40
1.0
 40
1.0
 40
1.0
 10
5.6986428878
 20
5.8143321657
 30
0.0
 10
5.6986321154
 20
5.8143209313
 30
0.0
 10
5.6986183526
 20
5.814299702
 30
0.0
 10
5.6986236364
 20
5.8142687309
 30
0.0
 10
5.6986376347
 20
5.8142482091
 30
0.0
 10
5.6986604587
 20
5.814229253
 30
0.0
 10
5.6986921144
 20
5.8142115315
 30
0.0
 10
5.698732488
 20
5.8141949928
 30
0.0
 10
5.6988023278
 20
5.8141731754
 30
0.0
 10
5.6989096138
 20
5.8141510584
 30
0.0
 10
5.6990588148
 20
5.8141325842
 30
0.0
 10
5.6992298719
 20
5.8141214714
 30
0.0
 10
5.6993505147
 20
5.8141193363
 30
0.0
 10
5.6994131237
 20
5.8141196109
 30
0.0
 11
5.6986428878
 21
5.8143321657
 31
0.0
 11
5.6986215301
 21
5.8142906426
 31
0.0
 11
5.6986247618
 21
5.8142702713
 31
0.0
 11
5.698637277
 21
5.8142504552
 31
0.0
 11
5.6986590833
 21
5.8142314158
 31
0.0
 11
5.6986901744
 21
5.8142133719
 31
0.0
 11
5.6987303155
 21
5.8141965026
 31
0.0
 11
5.6987790855
 21
5.8141809542
 31
0.0
 11
5.698900805
 21
5.8141544026
 31
0.0
 11
5.6990517097
 21
5.8141348543
 31
0.0
 11
5.6992253271
 21
5.8141230855
 31
0.0
 11
5.6994131237
 21
5.8141196109
 31
0.0
  0
LINE
  5
453
100
AcDbEntity
  8
0
100
AcDbLine
 62
7
  6
CONTINUOUS
 10
6.012368511
 20
5.8302072907
 11
6.0107427469
 21
5.8304978639
  0
LINE
  5
454
100
AcDbEntity
  8
0
100
AcDbLine
 62
7
  6
CONTINUOUS
 10
6.0107427469
 20
5.8304978639
 11
6.0092968821
 21
5.8308391998
  0
LINE
  5
455
100
AcDbEntity
  8
0
100
AcDbLine
 62
7
  6
CONTINUOUS
 10
6.0722935925
 20
5.8204138919
 11
6.0724751421
 21
5.8203883201
  0
LINE
  5
456
100
AcDbEntity
  8
0
100
AcDbLine
 62
7
  6
CONTINUOUS
 10
6.0724751421
 20
5.8203883201
 11
6.0762609881
 21
5.8198801087
  0
LINE
  5
457
100
AcDbEntity
  8
0
100
AcDbLine
 62
7
  6
CONTINUOUS
 10
6.0092968821
 20
5.8309942237
 11
6.0142968821
 21
5.8300638447
  0
LINE
  5
458
100
AcDbEntity
  8
0
100
AcDbLine
 62
7
  6
CONTINUOUS
 10
5.6446542274
 20
5.8431652617
 11
5.6436748877
 21
5.8431057647
  0
LINE
  5
459
100
AcDbEntity
  8
0
100
AcDbLine
 62
7
  6
CONTINUOUS
 10
5.6436748877
 20
5.8431057647
 11
5.6428015263
 21
5.8430989367
  0
LINE
  5
45A
100
AcDbEntity
  8
0
100
AcDbLine
 62
7
  6
CONTINUOUS
 10
5.7002852589
 20
5.8475589404
 11
5.698609722
 21
5.8472654751
  0
LINE
  5
45B
100
AcDbEntity
  8
0
100
AcDbLine
 62
7
  6
CONTINUOUS
 10
5.698609722
 20
5.8472654751
 11
5.6883338665
 21
5.8463592858
  0
LINE
  5
45C
100
AcDbEntity
  8
0
100
AcDbLine
 62
7
  6
CONTINUOUS
 10
5.6427968821
 20
5.8439742167
 11
5.6436819623
 21
5.8440533327
  0
LINE
  5
45D
100
AcDbEntity
  8
0
100
AcDbLine
 62
7
  6
CONTINUOUS
 10
5.6436819623
 20
5.8440533327
 11
5.6446470742
 21
5.8441352573
  0
LINE
  5
45E
100
AcDbEntity
  8
0
100
AcDbLine
 62
7
  6
CONTINUOUS
 10
5.6446470742
 20
5.8441352573
 11
5.6457968821
 21
5.8442314637
  0
LINE
  5
45F
100
AcDbEntity
  8
0
100
AcDbLine
 62
7
  6
CONTINUOUS
 10
5.5087968821
 20
5.8260042887
 11
5.5086294809
 21
5.8259752593
  0
LINE
  5
460
100
AcDbEntity
  8
0
100
AcDbLine
 62
7
  6
CONTINUOUS
 10
5.5068833764
 20
5.8256815467
 11
5.5052543615
 21
5.8254268268
  0
LINE
  5
461
100
AcDbEntity
  8
0
100
AcDbLine
 62
7
  6
CONTINUOUS
 10
5.5052543615
 20
5.8254268268
 11
5.5037968821
 21
5.825265787
  0
LINE
  5
462
100
AcDbEntity
  8
0
100
AcDbLine
 62
7
  6
CONTINUOUS
 10
5.4757968821
 20
5.8201640376
 11
5.4753423423
 21
5.8199689385
  0
LINE
  5
463
100
AcDbEntity
  8
0
100
AcDbLine
 62
7
  6
CONTINUOUS
 10
5.4753423423
 20
5.8199689385
 11
5.4739579053
 21
5.8195806832
  0
LINE
  5
464
100
AcDbEntity
  8
0
100
AcDbLine
 62
7
  6
CONTINUOUS
 10
5.4739579053
 20
5.8195806832
 11
5.4607968821
 21
5.8165480487
  0
LINE
  5
465
100
AcDbEntity
  8
0
100
AcDbLine
 62
7
  6
CONTINUOUS
 10
5.9722968821
 20
5.8363059236
 11
5.971737843
 21
5.8362623396
  0
LINE
  5
466
100
AcDbEntity
  8
0
100
AcDbLine
 62
7
  6
CONTINUOUS
 10
5.971737843
 20
5.8362623396
 11
5.9701094616
 21
5.8363545647
  0
LINE
  5
467
100
AcDbEntity
  8
0
100
AcDbLine
 62
7
  6
CONTINUOUS
 10
5.9701094616
 20
5.8363545647
 11
5.9644037743
 21
5.8368867637
  0
LINE
  5
468
100
AcDbEntity
  8
0
100
AcDbLine
 62
7
  6
CONTINUOUS
 10
5.9542968821
 20
5.8381003254
 11
5.9389470852
 21
5.8402460574
  0
LINE
  5
469
100
AcDbEntity
  8
0
100
AcDbLine
 62
7
  6
CONTINUOUS
 10
5.9389470852
 20
5.8402460574
 11
5.9371606227
 21
5.8405824802
  0
LINE
  5
46A
100
AcDbEntity
  8
0
100
AcDbLine
 62
7
  6
CONTINUOUS
 10
5.9371606227
 20
5.8405824802
 11
5.9369498249
 21
5.8406382189
  0
SPLINE
  5
46B
100
AcDbEntity
  8
0
100
AcDbSpline
 62
7
  6
CONTINUOUS
 70
0
 71
3
 72
9
 73
5
 74
3
 42
0.0000001
 43
0.0000001
 44
0.0000000001
 12
-0.0000522848
 22
0.0000168505
 32
0.0
 13
-0.0000512908
 23
0.0000196695
 33
0.0
 40
0.0
 40
0.0
 40
0.0
 40
0.0
 40
0.2729116332
 40
1.0
 40
1.0
 40
1.0
 40
1.0
 10
5.9369228395
 20
5.8406466517
 30
0.0
 10
5.9369180831
 20
5.8406481846
 30
0.0
 10
5.936900685
 20
5.8406538929
 30
0.0
 10
5.9368834064
 20
5.840659978
 30
0.0
 10
5.9368709754
 20
5.8406647452
 30
0.0
 11
5.9369228395
 21
5.8406466517
 31
0.0
 11
5.9369085957
 21
5.8406513284
 31
0.0
 11
5.9368709754
 21
5.8406647452
 31
0.0
  0
SPLINE
  5
46C
100
AcDbEntity
  8
0
100
AcDbSpline
 62
7
  6
CONTINUOUS
 70
0
 71
3
 72
10
 73
6
 74
4
 42
0.0000001
 43
0.0000001
 44
0.0000000001
 12
-0.0000846276
 22
0.0000324537
 32
0.0
 13
0.0
 23
0.000090637
 33
0.0
 40
0.0
 40
0.0
 40
0.0
 40
0.0
 40
0.6773041799
 40
0.875691363
 40
1.0
 40
1.0
 40
1.0
 40
1.0
 10
5.9368709754
 20
5.8406647452
 30
0.0
 10
5.9368518692
 20
5.8406720722
 30
0.0
 10
5.936827041
 20
5.8406823489
 30
0.0
 10
5.9368024503
 20
5.8406996635
 30
0.0
 10
5.9367968821
 20
5.8407087976
 30
0.0
 10
5.9367968821
 20
5.8407125533
 30
0.0
 11
5.9368709754
 21
5.8406647452
 31
0.0
 11
5.9368154332
 21
5.8406908919
 31
0.0
 11
5.9368015233
 21
5.8407022867
 31
0.0
 11
5.9367968821
 21
5.8407125533
 31
0.0
  0
LINE
  5
46D
100
AcDbEntity
  8
0
100
AcDbLine
 62
7
  6
CONTINUOUS
 10
5.9067968821
 20
5.8435798768
 11
5.9062519966
 21
5.8435131077
  0
LINE
  5
46E
100
AcDbEntity
  8
0
100
AcDbLine
 62
7
  6
CONTINUOUS
 10
5.9062519966
 20
5.8435131077
 11
5.9046445343
 21
5.8435250085
  0
LINE
  5
46F
100
AcDbEntity
  8
0
100
AcDbLine
 62
7
  6
CONTINUOUS
 10
5.9046445343
 20
5.8435250085
 11
5.8892968821
 21
5.844316637
  0
SPLINE
  5
470
100
AcDbEntity
  8
0
100
AcDbSpline
 62
7
  6
CONTINUOUS
 70
0
 71
3
 72
8
 73
4
 74
2
 42
0.0000001
 43
0.0000001
 44
0.0000000001
 12
0.0000711163
 22
0.0000063741
 32
0.0
 13
0.0000711144
 23
0.0000063954
 33
0.0
 40
0.0
 40
0.0
 40
0.0
 40
0.0
 40
1.0
 40
1.0
 40
1.0
 40
1.0
 10
5.7254110053
 20
5.8480614438
 30
0.0
 10
5.7254347107
 20
5.8480635685
 30
0.0
 10
5.7254584158
 20
5.8480656967
 30
0.0
 10
5.7254821206
 20
5.8480678285
 30
0.0
 11
5.7254110053
 21
5.8480614438
 31
0.0
 11
5.7254821206
 21
5.8480678285
 31
0.0
  0
LINE
  5
471
100
AcDbEntity
  8
0
100
AcDbLine
 62
7
  6
CONTINUOUS
 10
5.7254821206
 20
5.8480678285
 11
5.7256131526
 21
5.8480796497
  0
LINE
  5
472
100
AcDbEntity
  8
0
100
AcDbLine
 62
7
  6
CONTINUOUS
 10
5.6127968821
 20
5.8407716503
 11
5.6122851714
 21
5.8406009029
  0
LINE
  5
473
100
AcDbEntity
  8
0
100
AcDbLine
 62
7
  6
CONTINUOUS
 10
5.6122851714
 20
5.8406009029
 11
5.610722975
 21
5.8403050924
  0
LINE
  5
474
100
AcDbEntity
  8
0
100
AcDbLine
 62
7
  6
CONTINUOUS
 10
5.610722975
 20
5.8403050924
 11
5.6002968821
 21
5.8387901374
  0
LINE
  5
475
100
AcDbEntity
  8
0
100
AcDbLine
 62
7
  6
CONTINUOUS
 10
5.8492968821
 20
5.8467492234
 11
5.8487666188
 21
5.8467300188
  0
LINE
  5
476
100
AcDbEntity
  8
0
100
AcDbLine
 62
7
  6
CONTINUOUS
 10
5.8487666188
 20
5.8467300188
 11
5.8445590019
 21
5.8467006565
  0
LINE
  5
477
100
AcDbEntity
  8
0
100
AcDbLine
 62
7
  6
CONTINUOUS
 10
5.7814079566
 20
5.8484042471
 11
5.7792968821
 21
5.8485571237
  0
SPLINE
  5
478
100
AcDbEntity
  8
0
100
AcDbSpline
 62
7
  6
CONTINUOUS
 70
0
 71
3
 72
39
 73
35
 74
33
 42
0.0000001
 43
0.0000001
 44
0.0000000001
 12
0.0056277964
 22
0.0005929589
 32
0.0
 13
-0.0056586109
 23
-0.0000617648
 33
0.0
 40
0.0
 40
0.0
 40
0.0
 40
0.0
 40
0.1093330489
 40
0.2038158235
 40
0.2454233905
 40
0.2832414584
 40
0.3172535824
 40
0.3474506449
 40
0.3738253005
 40
0.3963728827
 40
0.4150936148
 40
0.4299976639
 40
0.4411191675
 40
0.4485699519
 40
0.4510374741
 40
0.4528463515
 40
0.4543812524
 40
0.4562087228
 40
0.458703227
 40
0.4620204495
 40
0.4662255918
 40
0.4713500094
 40
0.477410752
 40
0.4844179906
 40
0.5012926853
 40
0.5219956
 40
0.5465292958
 40
0.5748895262
 40
0.6070684928
 40
0.6430563663
 40
0.6828417496
 40
0.7737229112
 40
0.879512844
 40
1.0
 40
1.0
 40
1.0
 40
1.0
 10
5.7277760326
 20
5.8472882158
 30
0.0
 10
5.727981134
 20
5.8473098258
 30
0.0
 10
5.7283633502
 20
5.8473513469
 30
0.0
 10
5.7288231343
 20
5.847405448
 30
0.0
 10
5.7291485498
 20
5.847446929
 30
0.0
 10
5.7293606041
 20
5.8474755871
 30
0.0
 10
5.7295510846
 20
5.8475031096
 30
0.0
 10
5.729719914
 20
5.8475294744
 30
0.0
 10
5.729867021
 20
5.8475546587
 30
0.0
 10
5.7299923684
 20
5.8475786214
 30
0.0
 10
5.7300958515
 20
5.8476013374
 30
0.0
 10
5.7301776313
 20
5.8476226658
 30
0.0
 10
5.7302374237
 20
5.8476426376
 30
0.0
 10
5.7302739182
 20
5.8476593919
 30
0.0
 10
5.7302910714
 20
5.8476734625
 30
0.0
 10
5.7302972962
 20
5.847683056
 30
0.0
 10
5.7302965776
 20
5.8476934878
 30
0.0
 10
5.7302891373
 20
5.8477022586
 30
0.0
 10
5.7302769946
 20
5.8477100776
 30
0.0
 10
5.730259589
 20
5.8477176204
 30
0.0
 10
5.7302368488
 20
5.847724877
 30
0.0
 10
5.7302086552
 20
5.8477318732
 30
0.0
 10
5.730174994
 20
5.8477385868
 30
0.0
 10
5.7301192476
 20
5.8477477227
 30
0.0
 10
5.7300357404
 20
5.8477579403
 30
0.0
 10
5.7299190416
 20
5.8477684545
 30
0.0
 10
5.7297805177
 20
5.8477777685
 30
0.0
 10
5.7296202428
 20
5.8477858682
 30
0.0
 10
5.7294382874
 20
5.8477927257
 30
0.0
 10
5.7292347298
 20
5.8477983304
 30
0.0
 10
5.7289204222
 20
5.8478043791
 30
0.0
 10
5.728474396
 20
5.8478082625
 30
0.0
 10
5.7278761299
 20
5.8478077516
 30
0.0
 10
5.7274493104
 20
5.8478042537
 30
0.0
 10
5.7272220471
 20
5.8478017731
 30
0.0
 11
5.7277760326
 21
5.8472882158
 31
0.0
 11
5.7283910893
 21
5.8473553529
 31
0.0
 11
5.7289220453
 21
5.8474182899
 31
0.0
 11
5.7291556005
 21
5.8474481405
 31
0.0
 11
5.7293676712
 21
5.8474768896
 31
0.0
 11
5.7295581501
 21
5.8475045225
 31
0.0
 11
5.7297269658
 21
5.8475310262
 31
0.0
 11
5.7298740481
 21
5.847556388
 31
0.0
 11
5.7299993264
 21
5.8475805948
 31
0.0
 11
5.7301027305
 21
5.847603634
 31
0.0
 11
5.73018419
 21
5.8476254925
 31
0.0
 11
5.7302436366
 21
5.8476461576
 31
0.0
 11
5.7302810403
 21
5.8476656187
 31
0.0
 11
5.7302914773
 21
5.8476748949
 31
0.0
 11
5.7302964055
 21
5.8476838669
 31
0.0
 11
5.7302958255
 21
5.8476925334
 31
0.0
 11
5.730289738
 21
5.8477008935
 31
0.0
 11
5.7302781437
 21
5.8477089459
 31
0.0
 11
5.7302610434
 21
5.8477166897
 31
0.0
 11
5.7302384377
 21
5.8477241236
 31
0.0
 11
5.7302103273
 21
5.8477312467
 31
0.0
 11
5.730176713
 21
5.8477380578
 31
0.0
 11
5.7301375954
 21
5.8477445559
 31
0.0
 11
5.7300428662
 21
5.8477566092
 31
0.0
 11
5.7299262076
 21
5.8477674012
 31
0.0
 11
5.7297876999
 21
5.8477769276
 31
0.0
 11
5.7296274233
 21
5.8477851836
 31
0.0
 11
5.7294454581
 21
5.8477921646
 31
0.0
 11
5.7292418844
 21
5.8477978662
 31
0.0
 11
5.7290167843
 21
5.8478022839
 31
0.0
 11
5.7285025166
 21
5.8478072603
 31
0.0
 11
5.7279038569
 21
5.8478070904
 31
0.0
 11
5.7272220471
 21
5.8478017731
 31
0.0
  0
LINE
  5
479
100
AcDbEntity
  8
0
100
AcDbLine
 62
7
  6
CONTINUOUS
 10
5.6552695732
 20
5.843895092
 11
5.6545752508
 21
5.8438501764
  0
LINE
  5
47A
100
AcDbEntity
  8
0
100
AcDbLine
 62
7
  6
CONTINUOUS
 10
5.6427968821
 20
5.8428708565
 11
5.6436791566
 21
5.8429690548
  0
LINE
  5
47B
100
AcDbEntity
  8
0
100
AcDbLine
 62
7
  6
CONTINUOUS
 10
5.6477424746
 20
5.8427825661
 11
5.6449657568
 21
5.8426780927
  0
LINE
  5
47C
100
AcDbEntity
  8
0
100
AcDbLine
 62
7
  6
CONTINUOUS
 10
5.6449657568
 20
5.8426780927
 11
5.6427968821
 21
5.8427155074
  0
LINE
  5
47D
100
AcDbEntity
  8
0
100
AcDbLine
 62
7
  6
CONTINUOUS
 10
5.6127968821
 20
5.8398660438
 11
5.6122859983
 21
5.8397117002
  0
LINE
  5
47E
100
AcDbEntity
  8
0
100
AcDbLine
 62
7
  6
CONTINUOUS
 10
5.6122859983
 20
5.8397117002
 11
5.6107271324
 21
5.8394322492
  0
LINE
  5
47F
100
AcDbEntity
  8
0
100
AcDbLine
 62
7
  6
CONTINUOUS
 10
5.5037968821
 20
5.8246680628
 11
5.504301659
 21
5.824791248
  0
LINE
  5
480
100
AcDbEntity
  8
0
100
AcDbLine
 62
7
  6
CONTINUOUS
 10
5.504301659
 20
5.824791248
 11
5.5057507946
 21
5.82507166
  0
LINE
  5
481
100
AcDbEntity
  8
0
100
AcDbLine
 62
7
  6
CONTINUOUS
 10
5.5057507946
 20
5.82507166
 11
5.5137968821
 21
5.8264922767
  0
LINE
  5
482
100
AcDbEntity
  8
0
100
AcDbLine
 62
7
  6
CONTINUOUS
 10
5.5111314118
 20
5.8253903679
 11
5.5044034814
 21
5.8244992471
  0
LINE
  5
483
100
AcDbEntity
  8
0
100
AcDbLine
 62
7
  6
CONTINUOUS
 10
5.5044034814
 20
5.8244992471
 11
5.5037968821
 21
5.8244957849
  0
LINE
  5
484
100
AcDbEntity
  8
0
100
AcDbLine
 62
7
  6
CONTINUOUS
 10
5.4757968821
 20
5.8192652685
 11
5.4734405609
 21
5.8185846407
  0
LINE
  5
485
100
AcDbEntity
  8
0
100
AcDbLine
 62
7
  6
CONTINUOUS
 10
5.9442830666
 20
5.838585599
 11
5.9388940873
 21
5.8393744231
  0
LINE
  5
486
100
AcDbEntity
  8
0
100
AcDbLine
 62
7
  6
CONTINUOUS
 10
5.9388940873
 20
5.8393744231
 11
5.9367968821
 21
5.8397997805
  0
LINE
  5
487
100
AcDbEntity
  8
0
100
AcDbLine
 62
7
  6
CONTINUOUS
 10
5.9067968821
 20
5.8426687993
 11
5.9060026749
 21
5.8426182046
  0
LINE
  5
488
100
AcDbEntity
  8
0
100
AcDbLine
 62
7
  6
CONTINUOUS
 10
5.9060026749
 20
5.8426182046
 11
5.8996961146
 21
5.842867586
  0
LINE
  5
489
100
AcDbEntity
  8
0
100
AcDbLine
 62
7
  6
CONTINUOUS
 10
5.9722968821
 20
5.8354249681
 11
5.9719459544
 21
5.8353896486
  0
LINE
  5
48A
100
AcDbEntity
  8
0
100
AcDbLine
 62
7
  6
CONTINUOUS
 10
5.9719459544
 20
5.8353896486
 11
5.970900821
 21
5.8354401654
  0
SPLINE
  5
48B
100
AcDbEntity
  8
0
100
AcDbSpline
 62
7
  6
CONTINUOUS
 70
0
 71
3
 72
8
 73
4
 74
2
 42
0.0000001
 43
0.0000001
 44
0.0000000001
 12
0.000047501
 22
-0.0000049541
 32
0.0
 13
0.000047501
 23
-0.0000049541
 33
0.0
 40
0.0
 40
0.0
 40
0.0
 40
0.0
 40
1.0
 40
1.0
 40
1.0
 40
1.0
 10
5.7792968821
 20
5.8485571237
 30
0.0
 10
5.7793127158
 20
5.8485554723
 30
0.0
 10
5.7793285494
 20
5.8485538209
 30
0.0
 10
5.7793443831
 20
5.8485521696
 30
0.0
 11
5.7792968821
 21
5.8485571237
 31
0.0
 11
5.7793443831
 21
5.8485521696
 31
0.0
  0
SPLINE
  5
48C
100
AcDbEntity
  8
0
100
AcDbSpline
 62
7
  6
CONTINUOUS
 70
0
 71
3
 72
16
 73
12
 74
10
 42
0.0000001
 43
0.0000001
 44
0.0000000001
 12
0.0472104781
 22
0.0071924635
 32
0.0
 13
0.0474130428
 23
-0.005706501
 33
0.0
 40
0.0
 40
0.0
 40
0.0
 40
0.0
 40
0.051416237
 40
0.1054677217
 40
0.2205299189
 40
0.3433340655
 40
0.4719189473
 40
0.6041195199
 40
0.7376821581
 40
0.8704047589
 40
1.0
 40
1.0
 40
1.0
 40
1.0
 10
5.8150702806
 20
5.8187962484
 30
0.0
 10
5.815879409
 20
5.8189195182
 30
0.0
 10
5.8175425116
 20
5.8191505961
 30
0.0
 10
5.8210300108
 20
5.8195537275
 30
0.0
 10
5.8256622242
 20
5.8199389662
 30
0.0
 10
5.8314902011
 20
5.8202122883
 30
0.0
 10
5.8375967236
 20
5.8202999025
 30
0.0
 10
5.8438742243
 20
5.820199611
 30
0.0
 10
5.8502119312
 20
5.8199134824
 30
0.0
 10
5.8564972621
 20
5.8194468505
 30
0.0
 10
5.8606512619
 20
5.8190143333
 30
0.0
 10
5.8626994301
 20
5.8187678216
 30
0.0
 11
5.8150702806
 21
5.8187962484
 31
0.0
 11
5.8175020935
 21
5.8191357242
 31
0.0
 11
5.82006611
 21
5.8194334174
 31
0.0
 11
5.8255413557
 21
5.8198968113
 31
0.0
 11
5.8313992005
 21
5.8201769344
 31
0.0
 11
5.8375391172
 21
5.8202684712
 31
0.0
 11
5.8438516078
 21
5.8201694626
 31
0.0
 11
5.8502234403
 21
5.8198820174
 31
0.0
 11
5.8565441554
 21
5.8194115952
 31
0.0
 11
5.8626994301
 21
5.8187678216
 31
0.0
  0
LINE
  5
48D
100
AcDbEntity
  8
0
100
AcDbLine
 62
7
  6
CONTINUOUS
 10
5.8567381233
 20
5.8096384692
 11
5.8581994809
 21
5.8098307996
  0
SPLINE
  5
48E
100
AcDbEntity
  8
0
100
AcDbSpline
 62
7
  6
CONTINUOUS
 70
0
 71
3
 72
18
 73
14
 74
12
 42
0.0000001
 43
0.0000001
 44
0.0000000001
 12
0.0020911334
 22
0.0003441338
 32
0.0
 13
0.0000164039
 23
0.0021191974
 33
0.0
 40
0.0
 40
0.0
 40
0.0
 40
0.0
 40
0.1799258086
 40
0.3486671972
 40
0.5041256636
 40
0.6441558353
 40
0.765381637
 40
0.8179000309
 40
0.8646363905
 40
0.9055605379
 40
0.9409839024
 40
0.9718200828
 40
1.0
 40
1.0
 40
1.0
 40
1.0
 10
5.8581994809
 20
5.8098307996
 30
0.0
 10
5.8583248972
 20
5.8098514391
 30
0.0
 10
5.8585675218
 20
5.8098940379
 30
0.0
 10
5.8589164431
 20
5.8099655811
 30
0.0
 10
5.8592351164
 20
5.8100434859
 30
0.0
 10
5.859517306
 20
5.8101277182
 30
0.0
 10
5.8597249168
 20
5.8102065711
 30
0.0
 10
5.8598646297
 20
5.81027571
 30
0.0
 10
5.8599494934
 20
5.8103270455
 30
0.0
 10
5.8600183977
 20
5.810380507
 30
0.0
 10
5.8600702398
 20
5.8104363232
 30
0.0
 10
5.8601037444
 20
5.8104949198
 30
0.0
 10
5.8601120913
 20
5.8105367972
 30
0.0
 10
5.8601122454
 20
5.8105567035
 30
0.0
 11
5.8581994809
 21
5.8098307996
 31
0.0
 11
5.8585749581
 21
5.8098972371
 31
0.0
 11
5.8589251381
 21
5.8099697408
 31
0.0
 11
5.8592449484
 21
5.8100488819
 31
0.0
 11
5.859528875
 21
5.8101352096
 31
0.0
 11
5.8597680107
 21
5.8102291052
 31
0.0
 11
5.8598675078
 21
5.8102789857
 31
0.0
 11
5.8599518763
 21
5.8103308718
 31
0.0
 11
5.8600198069
 21
5.8103847916
 31
0.0
 11
5.8600700174
 21
5.8104406003
 31
0.0
 11
5.8601012495
 21
5.8104980039
 31
0.0
 11
5.8601122454
 21
5.8105567035
 31
0.0
  0
SPLINE
  5
48F
100
AcDbEntity
  8
0
100
AcDbSpline
 62
7
  6
CONTINUOUS
 70
0
 71
3
 72
18
 73
14
 74
12
 42
0.0000001
 43
0.0000001
 44
0.0000000001
 12
0.0434369499
 22
0.0085576906
 32
0.0
 13
0.0439820305
 23
-0.0050580314
 33
0.0
 40
0.0
 40
0.0
 40
0.0
 40
0.0
 40
0.043852642
 40
0.0912189017
 40
0.1419218485
 40
0.1957738572
 40
0.3121184241
 40
0.4384792016
 40
0.5047748745
 40
0.5727722207
 40
0.7127028331
 40
0.8559505963
 40
1.0
 40
1.0
 40
1.0
 40
1.0
 10
5.8825581244
 20
5.8187962484
 30
0.0
 10
5.8831930661
 20
5.8189213409
 30
0.0
 10
5.8845191595
 20
5.8191548424
 30
0.0
 10
5.8865929442
 20
5.8194499783
 30
0.0
 10
5.8888209672
 20
5.8197020115
 30
0.0
 10
5.892068762
 20
5.819985791
 30
0.0
 10
5.8964405146
 20
5.8202153756
 30
0.0
 10
5.9010009218
 20
5.8202845733
 30
0.0
 10
5.9048474458
 20
5.8202499991
 30
0.0
 10
5.9088931732
 20
5.8201507722
 30
0.0
 10
5.9140706671
 20
5.8199078088
 30
0.0
 10
5.9203586252
 20
5.8194386921
 30
0.0
 10
5.9245773008
 20
5.8190106904
 30
0.0
 10
5.9266891625
 20
5.8187678216
 30
0.0
 11
5.8825581244
 21
5.8187962484
 31
0.0
 11
5.8844696546
 21
5.8191357242
 31
0.0
 11
5.8865454117
 21
5.8194334174
 31
0.0
 11
5.8887756925
 21
5.8196875836
 31
0.0
 11
5.8911506257
 21
5.8198968113
 31
0.0
 11
5.8962937999
 21
5.8201769344
 31
0.0
 11
5.9018872849
 21
5.8202684712
 31
0.0
 11
5.9048222086
 21
5.8202427235
 31
0.0
 11
5.9078316899
 21
5.8201694626
 31
0.0
 11
5.9140200142
 21
5.8198820174
 31
0.0
 11
5.9203443959
 21
5.8194115952
 31
0.0
 11
5.9266891625
 21
5.8187678216
 31
0.0
  0
LINE
  5
490
100
AcDbEntity
  8
0
100
AcDbLine
 62
7
  6
CONTINUOUS
 10
5.6874002194
 20
5.815731295
 11
5.6881322611
 21
5.8164733142
  0
LINE
  5
491
100
AcDbEntity
  8
0
100
AcDbLine
 62
7
  6
CONTINUOUS
 10
5.6881322611
 20
5.8164733142
 11
5.688643254
 21
5.8169862171
  0
LINE
  5
492
100
AcDbEntity
  8
0
100
AcDbLine
 62
7
  6
CONTINUOUS
 10
5.6488458887
 20
5.8202640974
 11
5.6493317657
 21
5.820265317
  0
LINE
  5
493
100
AcDbEntity
  8
0
100
AcDbLine
 62
7
  6
CONTINUOUS
 10
6.1042968821
 20
5.814044506
 11
6.1029909192
 21
5.814268593
  0
LINE
  5
494
100
AcDbEntity
  8
0
100
AcDbLine
 62
7
  6
CONTINUOUS
 10
6.1029909192
 20
5.814268593
 11
6.0762389275
 21
5.818851632
  0
LINE
  5
495
100
AcDbEntity
  8
0
100
AcDbLine
 62
7
  6
CONTINUOUS
 10
6.0762389275
 20
5.818851632
 11
6.0761165665
 21
5.8188725626
  0
LINE
  5
496
100
AcDbEntity
  8
0
100
AcDbLine
 62
7
  6
CONTINUOUS
 10
6.0761165665
 20
5.8188725626
 11
6.073348655
 21
5.8193459546
  0
LINE
  5
497
100
AcDbEntity
  8
0
100
AcDbLine
 62
7
  6
CONTINUOUS
 10
6.073348655
 20
5.8193459546
 11
6.0723591183
 21
5.8195151577
  0
LINE
  5
498
100
AcDbEntity
  8
0
100
AcDbLine
 62
7
  6
CONTINUOUS
 10
6.0723591183
 20
5.8195151577
 11
6.0721978883
 21
5.819542725
  0
LINE
  5
499
100
AcDbEntity
  8
0
100
AcDbLine
 62
7
  6
CONTINUOUS
 10
6.0721978883
 20
5.819542725
 11
6.0344650573
 21
5.8259806487
  0
LINE
  5
49A
100
AcDbEntity
  8
0
100
AcDbLine
 62
7
  6
CONTINUOUS
 10
6.0344650573
 20
5.8259806487
 11
6.0342968821
 21
5.8260092818
  0
LINE
  5
49B
100
AcDbEntity
  8
0
100
AcDbLine
 62
7
  6
CONTINUOUS
 10
5.8792968821
 20
5.8460061908
 11
5.8776101532
 21
5.8460215824
  0
LINE
  5
49C
100
AcDbEntity
  8
0
100
AcDbLine
 62
7
  6
CONTINUOUS
 10
5.8776101532
 20
5.8460215824
 11
5.8492964876
 21
5.8465818178
  0
LINE
  5
49D
100
AcDbEntity
  8
0
100
AcDbLine
 62
7
  6
CONTINUOUS
 10
5.7790940038
 20
5.8483952198
 11
5.7742833784
 21
5.8485268457
  0
LINE
  5
49E
100
AcDbEntity
  8
0
100
AcDbLine
 62
7
  6
CONTINUOUS
 10
5.7742833784
 20
5.8485268457
 11
5.7741244696
 21
5.8485312639
  0
LINE
  5
49F
100
AcDbEntity
  8
0
100
AcDbLine
 62
7
  6
CONTINUOUS
 10
5.7741244696
 20
5.8485312639
 11
5.7501125757
 21
5.8493284116
  0
LINE
  5
4A0
100
AcDbEntity
  8
0
100
AcDbLine
 62
7
  6
CONTINUOUS
 10
5.7501125757
 20
5.8493284116
 11
5.749296882
 21
5.849363651
  0
SPLINE
  5
4A1
100
AcDbEntity
  8
0
100
AcDbSpline
 62
9
  6
CONTINUOUS
 70
0
 71
3
 72
33
 73
29
 74
27
 42
0.0000001
 43
0.0000001
 44
0.0000000001
 12
-0.0004730852
 22
0.190942243
 32
0.0
 13
-0.1741530546
 23
0.0782935346
 33
0.0
 40
0.0
 40
0.0
 40
0.0
 40
0.0
 40
0.0325384293
 40
0.0651193237
 40
0.0977297512
 40
0.1303221539
 40
0.1628549486
 40
0.1953415963
 40
0.2277911466
 40
0.2602000471
 40
0.2925541815
 40
0.3248447627
 40
0.3570707866
 40
0.3892282356
 40
0.453299952
 40
0.5169856824
 40
0.5802166178
 40
0.6116435676
 40
0.6429314593
 40
0.7050176268
 40
0.7663381995
 40
0.7966771567
 40
0.826766808
 40
0.8860546652
 40
0.9152103323
 40
0.9439750351
 40
0.9722630401
 40
1.0
 40
1.0
 40
1.0
 40
1.0
 10
5.4382791198
 20
5.284565207
 30
0.0
 10
5.4382739886
 20
5.2866361939
 30
0.0
 10
5.4381181946
 20
5.2907816536
 30
0.0
 10
5.4374906844
 20
5.2969736993
 30
0.0
 10
5.4365112286
 20
5.3031229471
 30
0.0
 10
5.435221914
 20
5.309210905
 30
0.0
 10
5.433658981
 20
5.3152259186
 30
0.0
 10
5.4318447425
 20
5.3211601778
 30
0.0
 10
5.429802487
 20
5.3270112403
 30
0.0
 10
5.4275544071
 20
5.3327770281
 30
0.0
 10
5.4251238244
 20
5.3384570742
 30
0.0
 10
5.422525724
 20
5.3440495438
 30
0.0
 10
5.4197688984
 20
5.3495514743
 30
0.0
 10
5.4158995768
 20
5.356754802
 30
0.0
 10
5.4107178591
 20
5.3655212387
 30
0.0
 10
5.4040078329
 20
5.3756632412
 30
0.0
 10
5.3980255609
 20
5.3837797943
 30
0.0
 10
5.3930261292
 20
5.3900468709
 30
0.0
 10
5.3879156859
 20
5.3961288793
 30
0.0
 10
5.3812897184
 20
5.4034183974
 30
0.0
 10
5.3743085984
 20
5.4102840541
 30
0.0
 10
5.3685414574
 20
5.4154615632
 30
0.0
 10
5.3627109611
 20
5.4203685104
 30
0.0
 10
5.3566922523
 20
5.4249308612
 30
0.0
 10
5.3504902132
 20
5.4290796173
 30
0.0
 10
5.3458032467
 20
5.431936119
 30
0.0
 10
5.3410688966
 20
5.4345304771
 30
0.0
 10
5.3378573503
 20
5.4360847325
 30
0.0
 10
5.3362471915
 20
5.4368086074
 30
0.0
 11
5.4382791198
 21
5.284565207
 31
0.0
 11
5.4380527995
 21
5.2907740633
 31
0.0
 11
5.4374323253
 21
5.2969641319
 31
0.0
 11
5.4364592597
 21
5.3031143576
 31
0.0
 11
5.4351751327
 21
5.3092037173
 31
0.0
 11
5.4336158905
 21
5.3152167459
 31
0.0
 11
5.4318055975
 21
5.3211498054
 31
0.0
 11
5.4297667962
 21
5.3270007725
 31
0.0
 11
5.4275220291
 21
5.332767524
 31
0.0
 11
5.4250934649
 21
5.3384479434
 31
0.0
 11
5.4224965759
 21
5.3440400332
 31
0.0
 11
5.4197410499
 21
5.3495418988
 31
0.0
 11
5.4168363846
 21
5.3549516489
 31
0.0
 11
5.4106176236
 21
5.3654872371
 31
0.0
 11
5.4039072595
 21
5.375628476
 31
0.0
 11
5.3967431193
 21
5.385346724
 31
0.0
 11
5.3930008668
 21
5.3900376253
 31
0.0
 11
5.3891570862
 21
5.3946110703
 31
0.0
 11
5.381176514
 21
5.4033774448
 31
0.0
 11
5.3728213257
 21
5.4115801905
 31
0.0
 11
5.368509336
 21
5.4154487389
 31
0.0
 11
5.3641119782
 21
5.4191464277
 31
0.0
 11
5.3550772661
 21
5.4259677005
 31
0.0
 11
5.3504481983
 21
5.4290602642
 31
0.0
 11
5.3457560323
 21
5.4319151174
 31
0.0
 11
5.3410168881
 21
5.434506554
 31
0.0
 11
5.3362471915
 21
5.4368086074
 31
0.0
  0
LINE
  5
4A2
100
AcDbEntity
  8
0
100
AcDbLine
 62
9
  6
CONTINUOUS
 10
5.5493560822
 20
5.284407311
 11
5.4382791198
 21
5.284565207
  0
SPLINE
  5
4A3
100
AcDbEntity
  8
0
100
AcDbSpline
 62
9
  6
CONTINUOUS
 70
0
 71
3
 72
15
 73
11
 74
9
 42
0.0000001
 43
0.0000001
 44
0.0000000001
 12
-0.0172303366
 22
-0.0105524754
 32
0.0
 13
-0.0087769668
 23
-0.0181990135
 33
0.0
 40
0.0
 40
0.0
 40
0.0
 40
0.0
 40
0.1249193013
 40
0.2488459576
 40
0.3722885932
 40
0.495759785
 40
0.6197702593
 40
0.7448231714
 40
0.8714088083
 40
1.0
 40
1.0
 40
1.0
 40
1.0
 10
4.8491560708
 20
5.2462757345
 30
0.0
 10
4.8484386036
 20
5.2458363319
 30
0.0
 10
4.8470398164
 20
5.2449100627
 30
0.0
 10
4.8450531932
 20
5.2433768461
 30
0.0
 10
4.843190953
 20
5.2417091036
 30
0.0
 10
4.8414553956
 20
5.2399091641
 30
0.0
 10
4.8398486222
 20
5.2379792827
 30
0.0
 10
4.8383727278
 20
5.2359217149
 30
0.0
 10
4.8370298431
 20
5.2337388802
 30
0.0
 10
4.8362316665
 20
5.2322151036
 30
0.0
 10
4.835855453
 20
5.231435026
 30
0.0
 11
4.8491560708
 21
5.2462757345
 31
0.0
 11
4.8470520993
 21
5.2448815291
 31
0.0
 11
4.8450701403
 21
5.2433513325
 31
0.0
 11
4.8432122439
 21
5.2416872999
 31
0.0
 11
4.8414804601
 21
5.2398915863
 31
0.0
 11
4.839876839
 21
5.237966347
 31
0.0
 11
4.8384034307
 21
5.2359137371
 31
0.0
 11
4.8370622853
 21
5.2337359117
 31
0.0
 11
4.835855453
 21
5.231435026
 31
0.0
  0
SPLINE
  5
4A4
100
AcDbEntity
  8
0
100
AcDbSpline
 62
9
  6
CONTINUOUS
 70
0
 71
3
 72
26
 73
22
 74
20
 42
0.0000001
 43
0.0000001
 44
0.0000000001
 12
0.0220875347
 22
-0.0936935907
 32
0.0
 13
-0.0827799638
 23
-0.0491307004
 33
0.0
 40
0.0
 40
0.0
 40
0.0
 40
0.0
 40
0.0720618456
 40
0.143129973
 40
0.2130117521
 40
0.2815330559
 40
0.348595717
 40
0.4141686937
 40
0.4782417229
 40
0.5408310965
 40
0.6019815351
 40
0.6617625088
 40
0.6911764657
 40
0.7202895751
 40
0.749122092
 40
0.7776956746
 40
0.8341433148
 40
0.8898480955
 40
0.9175009976
 40
0.9450580135
 40
1.0
 40
1.0
 40
1.0
 40
1.0
 10
5.3414986179
 20
5.5303242964
 30
0.0
 10
5.3420291741
 20
5.5280737187
 30
0.0
 10
5.3429554942
 20
5.5235723529
 30
0.0
 10
5.3439396165
 20
5.5168047418
 30
0.0
 10
5.3445044212
 20
5.5101028287
 30
0.0
 10
5.3446425541
 20
5.5035068614
 30
0.0
 10
5.3443522442
 20
5.4970539601
 30
0.0
 10
5.343637789
 20
5.4907775082
 30
0.0
 10
5.3425022486
 20
5.4847089712
 30
0.0
 10
5.3409491366
 20
5.478879916
 30
0.0
 10
5.3389891023
 20
5.4733204953
 30
0.0
 10
5.337013977
 20
5.4689122725
 30
0.0
 10
5.335238851
 20
5.4655555142
 30
0.0
 10
5.3338194788
 20
5.4631371903
 30
0.0
 10
5.3323074189
 20
5.4608077517
 30
0.0
 10
5.330179777
 20
5.4578367021
 30
0.0
 10
5.3272979417
 20
5.4543511586
 30
0.0
 10
5.3241159001
 20
5.4511783859
 30
0.0
 10
5.3214153498
 20
5.4488583005
 30
0.0
 10
5.3186229631
 20
5.446689826
 30
0.0
 10
5.3164121664
 20
5.4452233576
 30
0.0
 10
5.3148961346
 20
5.4443235782
 30
0.0
 11
5.3414986179
 21
5.5303242964
 31
0.0
 11
5.3428947386
 21
5.523529434
 31
0.0
 11
5.3438761652
 21
5.5167590463
 31
0.0
 11
5.3444366724
 21
5.5100554875
 31
0.0
 11
5.3445702768
 21
5.5034608518
 31
0.0
 11
5.344275875
 21
5.4970119909
 31
0.0
 11
5.3435568894
 21
5.4907408949
 31
0.0
 11
5.3424169139
 21
5.4846793698
 31
0.0
 11
5.3408609177
 21
5.4788587905
 31
0.0
 11
5.3388984997
 21
5.4733090809
 31
0.0
 11
5.3365402322
 21
5.4680598597
 31
0.0
 11
5.3352159593
 21
5.4655571875
 31
0.0
 11
5.3337969417
 21
5.4631405169
 31
0.0
 11
5.332285358
 21
5.4608127798
 31
0.0
 11
5.3306834763
 21
5.4585768278
 31
0.0
 11
5.3272178908
 21
5.4543916853
 31
0.0
 11
5.3234183305
 21
5.4506079004
 31
0.0
 11
5.3213991324
 21
5.448873352
 31
0.0
 11
5.3193038567
 21
5.4472465196
 31
0.0
 11
5.3148961346
 21
5.4443235782
 31
0.0
  0
SPLINE
  5
4A5
100
AcDbEntity
  8
0
100
AcDbSpline
 62
6
  6
CONTINUOUS
 70
0
 71
3
 72
25
 73
21
 74
19
 42
0.0000001
 43
0.0000001
 44
0.0000000001
 12
-0.0140203878
 22
-0.0009826721
 32
0.0
 13
-0.0006350278
 23
-0.0140404294
 33
0.0
 40
0.0
 40
0.0
 40
0.0
 40
0.0
 40
0.2261497244
 40
0.4227946882
 40
0.5100619046
 40
0.5899673135
 40
0.6625230777
 40
0.7277477864
 40
0.7856696981
 40
0.836332282
 40
0.8798042783
 40
0.91619937
 40
0.9318052749
 40
0.9457301029
 40
0.958029682
 40
0.968785621
 40
0.978120615
 40
0.9862227659
 40
0.9933787412
 40
1.0
 40
1.0
 40
1.0
 40
1.0
 10
4.7671455846
 20
4.8717488177
 30
0.0
 10
4.7660886823
 20
4.8716747407
 30
0.0
 10
4.7641136274
 20
4.8715234308
 30
0.0
 10
4.7617343954
 20
4.8712989634
 30
0.0
 10
4.76004068
 20
4.8711074777
 30
0.0
 10
4.7589265395
 20
4.870965463
 30
0.0
 10
4.7579171536
 20
4.8708193911
 30
0.0
 10
4.7570125774
 20
4.8706693646
 30
0.0
 10
4.7562128523
 20
4.870515513
 30
0.0
 10
4.7555179203
 20
4.8703580203
 30
0.0
 10
4.7549277619
 20
4.8701970141
 30
0.0
 10
4.7545035218
 20
4.8700537963
 30
0.0
 10
4.7542183254
 20
4.8699349145
 30
0.0
 10
4.7540418222
 20
4.869849467
 30
0.0
 10
4.7538914247
 20
4.8697631024
 30
0.0
 10
4.7537670291
 20
4.8696757221
 30
0.0
 10
4.7536685104
 20
4.8695871301
 30
0.0
 10
4.7535958501
 20
4.8694968604
 30
0.0
 10
4.7535495052
 20
4.8694043708
 30
0.0
 10
4.7535368551
 20
4.8693400297
 30
0.0
 10
4.7535354535
 20
4.8693090413
 30
0.0
 11
4.7671455846
 21
4.8717488177
 31
0.0
 11
4.7639766246
 21
4.8715029285
 31
0.0
 11
4.7612254453
 21
4.871239082
 31
0.0
 11
4.7600067671
 21
4.8711005929
 31
0.0
 11
4.7588928267
 21
4.8709578164
 31
0.0
 11
4.7578837215
 21
4.8708108197
 31
0.0
 11
4.7569795491
 21
4.8706596701
 31
0.0
 11
4.756180407
 21
4.8705044348
 31
0.0
 11
4.7554863928
 21
4.8703451812
 31
0.0
 11
4.7548976039
 21
4.8701819765
 31
0.0
 11
4.7544141379
 21
4.870014888
 31
0.0
 11
4.7542119315
 21
4.8699299083
 31
0.0
 11
4.7540360923
 21
4.8698439829
 31
0.0
 11
4.7538866327
 21
4.8697571202
 31
0.0
 11
4.7537635647
 21
4.8696693286
 31
0.0
 11
4.7536669006
 21
4.8695806165
 31
0.0
 11
4.7535966526
 21
4.8694909923
 31
0.0
 11
4.7535528328
 21
4.8694004644
 31
0.0
 11
4.7535354535
 21
4.8693090413
 31
0.0
  0
SPLINE
  5
4A6
100
AcDbEntity
  8
0
100
AcDbSpline
 62
9
  6
CONTINUOUS
 70
0
 71
3
 72
32
 73
28
 74
26
 42
0.0000001
 43
0.0000001
 44
0.0000000001
 12
0.0
 22
-0.1871652128
 32
0.0
 13
-0.1751899178
 23
0.0658734362
 33
0.0
 40
0.0
 40
0.0
 40
0.0
 40
0.0
 40
0.0344607971
 40
0.06847861
 40
0.1021212852
 40
0.1354469135
 40
0.1685040695
 40
0.2013322175
 40
0.2663901602
 40
0.3308065005
 40
0.3946363592
 40
0.4578613232
 40
0.5204189177
 40
0.5822333375
 40
0.6432477412
 40
0.7034586969
 40
0.7333002573
 40
0.7629835337
 40
0.7925398976
 40
0.8220111223
 40
0.8367332649
 40
0.8514550552
 40
0.880923666
 40
0.91047532
 40
0.9401522736
 40
0.969986333
 40
1.0
 40
1.0
 40
1.0
 40
1.0
 10
5.3974013014
 20
5.2845651899
 30
0.0
 10
5.3974013014
 20
5.2824152358
 30
0.0
 10
5.3972655151
 20
5.2781416955
 30
0.0
 10
5.3966596365
 20
5.2717953607
 30
0.0
 10
5.3956688694
 20
5.2655692082
 30
0.0
 10
5.3943090943
 20
5.2594747912
 30
0.0
 10
5.3925960158
 20
5.253522901
 30
0.0
 10
5.3898711092
 20
5.2458172081
 30
0.0
 10
5.385661946
 20
5.2365806938
 30
0.0
 10
5.3794383281
 20
5.2262222168
 30
0.0
 10
5.3721821417
 20
5.2167029519
 30
0.0
 10
5.3640187699
 20
5.2081097164
 30
0.0
 10
5.3550721011
 20
5.2005284811
 30
0.0
 10
5.345464637
 20
5.19404619
 30
0.0
 10
5.3353194891
 20
5.1887511072
 30
0.0
 10
5.3264869438
 20
5.1853910843
 30
0.0
 10
5.319283698
 20
5.1833964099
 30
0.0
 10
5.3138397657
 20
5.1822578487
 30
0.0
 10
5.3083555452
 20
5.1814841296
 30
0.0
 10
5.3037623449
 20
5.181152685
 30
0.0
 10
5.3000867388
 20
5.1810814778
 30
0.0
 10
5.2964110889
 20
5.1811411956
 30
0.0
 10
5.2918173732
 20
5.1814586159
 30
0.0
 10
5.2863316973
 20
5.1822160132
 30
0.0
 10
5.280885744
 20
5.1833387062
 30
0.0
 10
5.2754954952
 20
5.1848152849
 30
0.0
 10
5.2719600054
 20
5.1860244919
 30
0.0
 10
5.2702073081
 20
5.1866835263
 30
0.0
 11
5.3974013014
 21
5.2845651899
 31
0.0
 11
5.3971961358
 21
5.2781185914
 31
0.0
 11
5.3965910847
 21
5.2717804544
 31
0.0
 11
5.3956018163
 21
5.2655619125
 31
0.0
 11
5.3942439989
 21
5.2594740993
 31
0.0
 11
5.3925333006
 21
5.2535281484
 31
0.0
 11
5.3904853898
 21
5.2477351934
 31
0.0
 11
5.3854406036
 21
5.2366528055
 31
0.0
 11
5.3792349862
 21
5.2263160043
 31
0.0
 11
5.3719938838
 21
5.2168138587
 31
0.0
 11
5.3638426423
 21
5.2082354374
 31
0.0
 11
5.3549066078
 21
5.2006698092
 31
0.0
 11
5.3453111263
 21
5.1942060429
 31
0.0
 11
5.3351815439
 21
5.1889332072
 31
0.0
 11
5.3246432067
 21
5.1849403711
 31
0.0
 11
5.3192599256
 21
5.1834517868
 31
0.0
 11
5.3138214605
 21
5.1823166031
 31
0.0
 11
5.3083434797
 21
5.1815459538
 31
0.0
 11
5.3028416515
 21
5.1811509722
 31
0.0
 11
5.300086691
 21
5.1810978362
 31
0.0
 11
5.2973316441
 21
5.1811423869
 31
0.0
 11
5.2918291258
 21
5.1815205655
 31
0.0
 11
5.2863497648
 21
5.1822749023
 31
0.0
 11
5.2809092293
 21
5.1833942638
 31
0.0
 11
5.2755231877
 21
5.1848675163
 31
0.0
 11
5.2702073081
 21
5.1866835263
 31
0.0
  0
SPLINE
  5
4A7
100
AcDbEntity
  8
0
100
AcDbSpline
 62
9
  6
CONTINUOUS
 70
0
 71
3
 72
15
 73
11
 74
9
 42
0.0000001
 43
0.0000001
 44
0.0000000001
 12
0.0071502672
 22
-0.0324273605
 32
0.0
 13
-0.0155156642
 23
-0.0293585455
 33
0.0
 40
0.0
 40
0.0
 40
0.0
 40
0.0
 40
0.1535122269
 40
0.2962948727
 40
0.4297682151
 40
0.5552817261
 40
0.674079225
 40
0.7872473679
 40
0.8956671733
 40
1.0
 40
1.0
 40
1.0
 40
1.0
 10
5.2174809409
 20
5.157572949
 30
0.0
 10
5.2178468254
 20
5.1559136169
 30
0.0
 10
5.218433138
 20
5.1526825772
 30
0.0
 10
5.2188901662
 20
5.1479419431
 30
0.0
 10
5.2189263404
 20
5.1434889596
 30
0.0
 10
5.2185780783
 20
5.139315884
 30
0.0
 10
5.2178817459
 20
5.1354149293
 30
0.0
 10
5.2168768723
 20
5.1317782134
 30
0.0
 10
5.2156055416
 20
5.1283973215
 30
0.0
 10
5.2145895705
 20
5.1262693419
 30
0.0
 10
5.2140499728
 20
5.1252483219
 30
0.0
 11
5.2174809409
 21
5.157572949
 31
0.0
 11
5.2183815641
 21
5.1525555624
 31
0.0
 11
5.2188282325
 21
5.1478353622
 31
0.0
 11
5.2188574513
 21
5.1434032993
 31
0.0
 11
5.218505726
 21
5.1392503245
 31
0.0
 11
5.2178096806
 21
5.1353673885
 31
0.0
 11
5.2168080302
 21
5.1317454422
 31
0.0
 11
5.2155412751
 21
5.1283754364
 31
0.0
 11
5.2140499728
 21
5.1252483219
 31
0.0
  0
SPLINE
  5
4A8
100
AcDbEntity
  8
0
100
AcDbSpline
 62
9
  6
CONTINUOUS
 70
0
 71
3
 72
35
 73
31
 74
29
 42
0.0000001
 43
0.0000001
 44
0.0000000001
 12
0.0004421207
 22
0.1909439037
 32
0.0
 13
0.1741723677
 23
0.0782544322
 33
0.0
 40
0.0
 40
0.0
 40
0.0
 40
0.0
 40
0.0325488833
 40
0.0651335995
 40
0.0977282426
 40
0.1302840979
 40
0.1628016301
 40
0.1952900701
 40
0.2277423002
 40
0.2601438591
 40
0.2924937302
 40
0.3247895843
 40
0.35702363
 40
0.3891835533
 40
0.4212607384
 40
0.4532504256
 40
0.5169361309
 40
0.5801786019
 40
0.6428889533
 40
0.674020366
 40
0.704985306
 40
0.7357620238
 40
0.7663284864
 40
0.7966656442
 40
0.8267558685
 40
0.8860505937
 40
0.9151971461
 40
0.9439582363
 40
0.9722522101
 40
1.0
 40
1.0
 40
1.0
 40
1.0
 10
6.1103138525
 20
5.2845652006
 30
0.0
 10
6.1103186493
 20
5.2866368709
 30
0.0
 10
6.1104745738
 20
5.2907832963
 30
0.0
 10
6.1111027565
 20
5.2969752269
 30
0.0
 10
6.1120816119
 20
5.3031214541
 30
0.0
 10
6.1133684157
 20
5.3092056355
 30
0.0
 10
6.1149341662
 20
5.3152167398
 30
0.0
 10
6.1167517429
 20
5.3211492824
 30
0.0
 10
6.1187940924
 20
5.3270000879
 30
0.0
 10
6.1210358954
 20
5.3327677386
 30
0.0
 10
6.1234637491
 20
5.3384486401
 30
0.0
 10
6.1260640549
 20
5.344040817
 30
0.0
 10
6.1288237216
 20
5.3495424505
 30
0.0
 10
6.1317291069
 20
5.3549526394
 30
0.0
 10
6.134771362
 20
5.3602691577
 30
0.0
 10
6.1389955192
 20
5.3672179581
 30
0.0
 10
6.1445841024
 20
5.3756544248
 30
0.0
 10
6.1517453386
 20
5.3853765196
 30
0.0
 10
6.1580790261
 20
5.3931189526
 30
0.0
 10
6.1633481253
 20
5.3990646599
 30
0.0
 10
6.1673860736
 20
5.4033827864
 30
0.0
 10
6.1715175848
 20
5.4075611121
 30
0.0
 10
6.1757401836
 20
5.4115897536
 30
0.0
 10
6.1800513811
 20
5.415458633
 30
0.0
 10
6.1858829256
 20
5.4203648954
 30
0.0
 10
6.1919007407
 20
5.4249283103
 30
0.0
 10
6.1981019
 20
5.429077833
 30
0.0
 10
6.2027881255
 20
5.4319348115
 30
0.0
 10
6.2075230009
 20
5.4345300663
 30
0.0
 10
6.210735665
 20
5.4360845799
 30
0.0
 10
6.212346631
 20
5.4368083757
 30
0.0
 11
6.1103138525
 21
5.2845652006
 31
0.0
 11
6.110540102
 21
5.2907761086
 31
0.0
 11
6.1111611331
 21
5.2969669067
 31
0.0
 11
6.112133529
 21
5.3031142394
 31
0.0
 11
6.1134157232
 21
5.3091969274
 31
0.0
 11
6.1149769412
 21
5.3152064857
 31
0.0
 11
6.1167903098
 21
5.3211390177
 31
0.0
 11
6.1188289618
 21
5.3269906331
 31
0.0
 11
6.1210687735
 21
5.3327578625
 31
0.0
 11
6.1234946171
 21
5.3384386149
 31
0.0
 11
6.1260932061
 21
5.3440310817
 31
0.0
 11
6.1288512536
 21
5.3495334542
 31
0.0
 11
6.1317557311
 21
5.3549438994
 31
0.0
 11
6.1347974108
 21
5.3602602244
 31
0.0
 11
6.1379699618
 21
5.3654799624
 31
0.0
 11
6.1446826444
 21
5.3756197821
 31
0.0
 11
6.1518466542
 21
5.3853409872
 31
0.0
 11
6.1594318275
 21
5.3946063207
 31
0.0
 11
6.1633748198
 21
5.3990547294
 31
0.0
 11
6.1674141303
 21
5.4033724372
 31
0.0
 11
6.171547069
 21
5.407550205
 31
0.0
 11
6.1757710125
 21
5.411577981
 31
0.0
 11
6.1800833373
 21
5.4154457134
 31
0.0
 11
6.1844812778
 21
5.4191429532
 31
0.0
 11
6.1935164326
 21
5.4259659721
 31
0.0
 11
6.1981436209
 21
5.4290582991
 31
0.0
 11
6.2028348375
 21
5.4319134734
 31
0.0
 11
6.2075748143
 21
5.4345058566
 31
0.0
 11
6.212346631
 21
5.4368083757
 31
0.0
  0
LINE
  5
4A9
100
AcDbEntity
  8
0
100
AcDbLine
 62
9
  6
CONTINUOUS
 10
6.1103138525
 20
5.2845652006
 11
5.9992519863
 21
5.2844073492
  0
SPLINE
  5
4AA
100
AcDbEntity
  8
0
100
AcDbSpline
 62
9
  6
CONTINUOUS
 70
0
 71
3
 72
22
 73
18
 74
16
 42
0.0000001
 43
0.0000001
 44
0.0000000001
 12
0.0214782277
 22
-0.0219708643
 32
0.0
 13
-0.0052267186
 23
-0.0302772944
 33
0.0
 40
0.0
 40
0.0
 40
0.0
 40
0.0
 40
0.1021944416
 40
0.1975571288
 40
0.2863910059
 40
0.3690053097
 40
0.4457164787
 40
0.5168491405
 40
0.5827371449
 40
0.6437270794
 40
0.700182904
 40
0.7524773081
 40
0.8009887478
 40
0.8460992108
 40
0.9275693635
 40
0.9647423016
 40
1.0
 40
1.0
 40
1.0
 40
1.0
 10
5.1541650037
 20
5.0165140875
 30
0.0
 10
5.1548966555
 20
5.0157656541
 30
0.0
 10
5.1562923663
 20
5.0143003604
 30
0.0
 10
5.1582524088
 20
5.0121176775
 30
0.0
 10
5.1600121274
 20
5.0100264257
 30
0.0
 10
5.1615791187
 20
5.0080246534
 30
0.0
 10
5.1629609965
 20
5.006110378
 30
0.0
 10
5.1641653605
 20
5.0042816172
 30
0.0
 10
5.165199808
 20
5.0025363492
 30
0.0
 10
5.1660719628
 20
5.0008724939
 30
0.0
 10
5.1667901013
 20
4.9992881762
 30
0.0
 10
5.1673625259
 20
4.9977815359
 30
0.0
 10
5.1677975493
 20
4.9963503442
 30
0.0
 10
5.168192126
 20
4.9946000422
 30
0.0
 10
5.1683729404
 20
4.9929232931
 30
0.0
 10
5.1683289088
 20
4.9913459572
 30
0.0
 10
5.1682391396
 20
4.9906082054
 30
0.0
 10
5.1681777122
 20
4.9902523695
 30
0.0
 11
5.1541650037
 21
5.0165140875
 31
0.0
 11
5.1563289534
 21
5.01423889
 31
0.0
 11
5.1582848198
 21
5.0120572246
 31
0.0
 11
5.1600402175
 21
5.0099671584
 31
0.0
 11
5.1616027613
 21
5.0079667586
 31
0.0
 11
5.1629800661
 21
5.0060540923
 31
0.0
 11
5.1641797465
 21
5.0042272267
 31
0.0
 11
5.1652094175
 21
5.0024842287
 31
0.0
 11
5.1660768606
 21
5.0008231656
 31
0.0
 11
5.1667903905
 21
4.9992421045
 31
0.0
 11
5.1673584282
 21
4.9977391125
 31
0.0
 11
5.1677893946
 21
4.9963122566
 31
0.0
 11
5.1680917107
 21
4.9949596041
 31
0.0
 11
5.1683440742
 21
4.9924691775
 31
0.0
 11
5.1683101743
 21
4.9913275376
 31
0.0
 11
5.1681777122
 21
4.9902523695
 31
0.0
  0
SPLINE
  5
4AB
100
AcDbEntity
  8
0
100
AcDbSpline
 62
9
  6
CONTINUOUS
 70
0
 71
3
 72
26
 73
22
 74
20
 42
0.0000001
 43
0.0000001
 44
0.0000000001
 12
-0.0373932093
 22
-0.1287936317
 32
0.0
 13
-0.1336656949
 23
-0.0109331453
 33
0.0
 40
0.0
 40
0.0
 40
0.0
 40
0.0
 40
0.0692681426
 40
0.1394435098
 40
0.2100098666
 40
0.2805020684
 40
0.3505328263
 40
0.4197243092
 40
0.4877009922
 40
0.5540937652
 40
0.6185624846
 40
0.6808247304
 40
0.7406359841
 40
0.7978256514
 40
0.8254189932
 40
0.8523351071
 40
0.8785760902
 40
0.9041485612
 40
0.9290621458
 40
0.9533311963
 40
1.0
 40
1.0
 40
1.0
 40
1.0
 10
5.4228833285
 20
5.5303242964
 30
0.0
 10
5.4220199424
 20
5.5273505312
 30
0.0
 10
5.4201030836
 20
5.5214145484
 30
0.0
 10
5.4167154362
 20
5.5126537794
 30
0.0
 10
5.4128206592
 20
5.5040458781
 30
0.0
 10
5.4084527114
 20
5.4956755792
 30
0.0
 10
5.4036548694
 20
5.4876153981
 30
0.0
 10
5.3984660399
 20
5.4799362786
 30
0.0
 10
5.3929333957
 20
5.4727045232
 30
0.0
 10
5.3871070848
 20
5.4659835835
 30
0.0
 10
5.3810352441
 20
5.4598371068
 30
0.0
 10
5.3747755215
 20
5.4543165163
 30
0.0
 10
5.368382494
 20
5.4494715375
 30
0.0
 10
5.3629240519
 20
5.4459930385
 30
0.0
 10
5.3585406168
 20
5.4435983205
 30
0.0
 10
5.3552938634
 20
5.4420171613
 30
0.0
 10
5.3520558894
 20
5.4406339248
 30
0.0
 10
5.348834212
 20
5.4394522001
 30
0.0
 10
5.3456367892
 20
5.4384735796
 30
0.0
 10
5.3414731016
 20
5.4374558312
 30
0.0
 10
5.3383265721
 20
5.4369788498
 30
0.0
 10
5.3362472328
 20
5.4368087708
 30
0.0
 11
5.4228833285
 21
5.5303242964
 31
0.0
 11
5.4200335104
 21
5.5214825222
 31
0.0
 11
5.4166410096
 21
5.5127038703
 31
0.0
 11
5.4127397149
 21
5.5040816064
 31
0.0
 11
5.4083658775
 21
5.4957003807
 31
0.0
 11
5.4035594114
 21
5.4876314896
 31
0.0
 11
5.3983610476
 21
5.4799448428
 31
0.0
 11
5.3928173565
 21
5.4727075804
 31
0.0
 11
5.3869786762
 21
5.465985056
 31
0.0
 11
5.3808964622
 21
5.4598400918
 31
0.0
 11
5.3746263895
 21
5.4543255033
 31
0.0
 11
5.3682251816
 21
5.4494915
 31
0.0
 11
5.3617491869
 21
5.4453820333
 31
0.0
 11
5.3585005747
 21
5.4436097568
 31
0.0
 11
5.3552541721
 21
5.4420313543
 31
0.0
 11
5.3520169523
 21
5.4406509889
 31
0.0
 11
5.3487964019
 21
5.4394719823
 31
0.0
 11
5.3456008036
 21
5.4384963519
 31
0.0
 11
5.3424385086
 21
5.437726003
 31
0.0
 11
5.3362472328
 21
5.4368087708
 31
0.0
  0
SPLINE
  5
4AC
100
AcDbEntity
  8
0
100
AcDbSpline
 62
9
  6
CONTINUOUS
 70
0
 71
3
 72
12
 73
8
 74
6
 42
0.0000001
 43
0.0000001
 44
0.0000000001
 12
-0.023820831
 22
0.0107048824
 32
0.0
 13
-0.026115637
 23
0.0000000298
 33
0.0
 40
0.0
 40
0.0
 40
0.0
 40
0.0
 40
0.2658477994
 40
0.522146438
 40
0.646241597
 40
0.7673524163
 40
1.0
 40
1.0
 40
1.0
 40
1.0
 10
5.3362472328
 20
5.4368087708
 30
0.0
 10
5.3341363276
 20
5.437757394
 30
0.0
 10
5.3299195165
 20
5.4394686876
 30
0.0
 10
5.3245339868
 20
5.4411257638
 30
0.0
 10
5.3202720345
 20
5.4420822269
 30
0.0
 10
5.3161673919
 20
5.4427644376
 30
0.0
 10
5.3130843828
 20
5.4429939222
 30
0.0
 10
5.3110591362
 20
5.4429939245
 30
0.0
 11
5.3362472328
 21
5.4368087708
 31
0.0
 11
5.3298075173
 21
5.4394034429
 31
0.0
 11
5.3234038097
 21
5.4413513035
 31
0.0
 11
5.3202409312
 21
5.4420578027
 31
0.0
 11
5.3171202711
 21
5.4425729038
 31
0.0
 11
5.3110591362
 21
5.4429939245
 31
0.0
  0
SPLINE
  5
4AD
100
AcDbEntity
  8
0
100
AcDbSpline
 62
9
  6
CONTINUOUS
 70
0
 71
3
 72
23
 73
19
 74
17
 42
0.0000001
 43
0.0000001
 44
0.0000000001
 12
0.0000001425
 22
-0.1293521517
 32
0.0
 13
-0.1285241698
 23
-0.0146122191
 33
0.0
 40
0.0
 40
0.0
 40
0.0
 40
0.0
 40
0.0718715121
 40
0.1435674502
 40
0.2146667278
 40
0.2848113324
 40
0.4211865789
 40
0.4870968485
 40
0.5512268695
 40
0.6134496162
 40
0.6737135231
 40
0.7320267195
 40
0.7884638497
 40
0.843204168
 40
0.8700259556
 40
0.8965239836
 40
0.9486790932
 40
1.0
 40
1.0
 40
1.0
 40
1.0
 10
5.3800846929
 20
5.5429655487
 30
0.0
 10
5.3800846963
 20
5.5398666371
 30
0.0
 10
5.379879259
 20
5.5336744443
 30
0.0
 10
5.3789653013
 20
5.5244575918
 30
0.0
 10
5.3774510136
 20
5.5153939962
 30
0.0
 10
5.374670261
 20
5.5037447985
 30
0.0
 10
5.370752855
 20
5.492617048
 30
0.0
 10
5.3657061769
 20
5.48228715
 30
0.0
 10
5.361477234
 20
5.475145581
 30
0.0
 10
5.3567931328
 20
5.4685902945
 30
0.0
 10
5.351696043
 20
5.4626768778
 30
0.0
 10
5.3462313641
 20
5.4574543592
 30
0.0
 10
5.3404413523
 20
5.4529730855
 30
0.0
 10
5.335350815
 20
5.4498651463
 30
0.0
 10
5.3311727472
 20
5.4477973645
 30
0.0
 10
5.3269801041
 20
5.4460291141
 30
0.0
 10
5.3216229439
 20
5.4443328692
 30
0.0
 10
5.3172184207
 20
5.4435358457
 30
0.0
 10
5.3150197617
 20
5.4432858749
 30
0.0
 11
5.3800846929
 21
5.5429655487
 31
0.0
 11
5.3797773068
 21
5.533673897
 31
0.0
 11
5.3788600315
 21
5.5244453476
 31
0.0
 11
5.3773402517
 21
5.5153749441
 31
0.0
 11
5.3752297072
 21
5.5065504678
 31
0.0
 11
5.3693200446
 21
5.4899293753
 31
0.0
 11
5.3655704735
 21
5.4822725371
 31
0.0
 11
5.3613342335
 21
5.4751404122
 31
0.0
 11
5.3566462382
 21
5.468597981
 31
0.0
 11
5.3515481764
 21
5.4627008683
 31
0.0
 11
5.346085751
 21
5.4574991557
 31
0.0
 11
5.3403052632
 21
5.4530404767
 31
0.0
 11
5.3342556989
 21
5.4493607773
 31
0.0
 11
5.3311455785
 21
5.4478231571
 31
0.0
 11
5.3279868805
 21
5.4464924015
 31
0.0
 11
5.3215531116
 21
5.4444625733
 31
0.0
 11
5.3150197617
 21
5.4432858749
 31
0.0
  0
SPLINE
  5
4AE
100
AcDbEntity
  8
0
100
AcDbSpline
 62
9
  6
CONTINUOUS
 70
0
 71
3
 72
23
 73
19
 74
17
 42
0.0000001
 43
0.0000001
 44
0.0000000001
 12
-0.1285247352
 22
0.0146111607
 32
0.0
 13
0.0000001534
 23
0.129352594
 33
0.0
 40
0.0
 40
0.0
 40
0.0
 40
0.0
 40
0.0513208948
 40
0.1034759787
 40
0.1299739902
 40
0.1567957587
 40
0.2115360346
 40
0.2679731212
 40
0.3262862786
 40
0.3865501558
 40
0.4487728837
 40
0.5129028988
 40
0.5788131759
 40
0.715188472
 40
0.7853331167
 40
0.8564324419
 40
0.9281284331
 40
1.0
 40
1.0
 40
1.0
 40
1.0
 10
6.2335744319
 20
5.4432858145
 30
0.0
 10
6.2313757638
 20
5.4435357671
 30
0.0
 10
6.2269712204
 20
5.4443327569
 30
0.0
 10
6.2216140313
 20
5.4460289669
 30
0.0
 10
6.2174213641
 20
5.4477971934
 30
0.0
 10
6.2132432716
 20
5.4498649539
 30
0.0
 10
6.2081527027
 20
5.4529728721
 30
0.0
 10
6.2023626528
 20
5.4574541289
 30
0.0
 10
6.1968979363
 20
5.4626766389
 30
0.0
 10
6.1918008103
 20
5.4685900549
 30
0.0
 10
6.1871166745
 20
5.4751453477
 30
0.0
 10
6.1828876997
 20
5.4822869301
 30
0.0
 10
6.1778409823
 20
5.4926168552
 30
0.0
 10
6.1739235455
 20
5.5037446426
 30
0.0
 10
6.171142771
 20
5.5153938833
 30
0.0
 10
6.1696284714
 20
5.524457515
 30
0.0
 10
6.1687145068
 20
5.5336744054
 30
0.0
 10
6.1685090683
 20
5.5398666241
 30
0.0
 10
6.1685090719
 20
5.5429655487
 30
0.0
 11
6.2335744319
 21
5.4432858145
 31
0.0
 11
6.2270410515
 21
5.4444624629
 31
0.0
 11
6.2206072487
 21
5.446492249
 31
0.0
 11
6.2174485326
 21
5.4478229865
 31
0.0
 11
6.214338394
 21
5.4493605909
 31
0.0
 11
6.2082887923
 21
5.453040265
 31
0.0
 11
6.2025082668
 21
5.4574989268
 31
0.0
 11
6.1970458042
 21
5.4627006304
 31
0.0
 11
6.1919477062
 21
5.4685977419
 31
0.0
 11
6.1872596764
 21
5.4751401792
 31
0.0
 11
6.1830234044
 21
5.4822723172
 31
0.0
 11
6.1792738044
 21
5.4899291748
 31
0.0
 11
6.1733640952
 21
5.5065503215
 31
0.0
 11
6.1712535339
 21
5.5153748311
 31
0.0
 11
6.1697337421
 21
5.5244452707
 31
0.0
 11
6.1688164598
 21
5.5336738582
 31
0.0
 11
6.1685090719
 21
5.5429655487
 31
0.0
  0
SPLINE
  5
4AF
100
AcDbEntity
  8
0
100
AcDbSpline
 62
9
  6
CONTINUOUS
 70
0
 71
3
 72
13
 73
9
 74
7
 42
0.0000001
 43
0.0000001
 44
0.0000000001
 12
0.02382244
 22
0.0107058931
 32
0.0
 13
0.0261175189
 23
0.0000001604
 33
0.0
 40
0.0
 40
0.0
 40
0.0
 40
0.0
 40
0.2658212867
 40
0.3953014296
 40
0.5221777084
 40
0.6462582408
 40
0.7673652044
 40
1.0
 40
1.0
 40
1.0
 40
1.0
 10
6.2123465314
 20
5.4368087707
 30
0.0
 10
6.2144573686
 20
5.4377573888
 30
0.0
 10
6.2176508743
 20
5.4390534433
 30
0.0
 10
6.2219679486
 20
5.4404818319
 30
0.0
 10
6.2251593178
 20
5.4413726177
 30
0.0
 10
6.2283216278
 20
5.4420821621
 30
0.0
 10
6.2324262372
 20
5.4427644708
 30
0.0
 10
6.2355093465
 20
5.4429938974
 30
0.0
 10
6.2375346277
 20
5.4429939098
 30
0.0
 11
6.2123465314
 21
5.4368087707
 31
0.0
 11
6.2187860733
 21
5.4394033593
 31
0.0
 11
6.2219974054
 21
5.4404631902
 31
0.0
 11
6.2251898701
 21
5.4413512974
 31
0.0
 11
6.228352607
 21
5.4420577491
 31
0.0
 11
6.2314733881
 21
5.4425728992
 31
0.0
 11
6.2375346277
 21
5.4429939098
 31
0.0
  0
SPLINE
  5
4B0
100
AcDbEntity
  8
0
100
AcDbSpline
 62
9
  6
CONTINUOUS
 70
0
 71
3
 72
26
 73
22
 74
20
 42
0.0000001
 43
0.0000001
 44
0.0000000001
 12
-0.1336656848
 22
0.0109331389
 32
0.0
 13
-0.0373931923
 23
0.1287936256
 33
0.0
 40
0.0
 40
0.0
 40
0.0
 40
0.0
 40
0.0466688
 40
0.0709378493
 40
0.0958514329
 40
0.1214239032
 40
0.1476648859
 40
0.1745809998
 40
0.2021743419
 40
0.2593640104
 40
0.3191752662
 40
0.3814375144
 40
0.4459062364
 40
0.5122990117
 40
0.5802756967
 40
0.649467181
 40
0.7194979393
 40
0.7899901405
 40
0.8605564959
 40
0.9307318607
 40
1.0
 40
1.0
 40
1.0
 40
1.0
 10
6.2123465314
 20
5.4368087707
 30
0.0
 10
6.2102671923
 20
5.4369788496
 30
0.0
 10
6.2071206634
 20
5.4374558309
 30
0.0
 10
6.2029569763
 20
5.4384735792
 30
0.0
 10
6.199759554
 20
5.4394521997
 30
0.0
 10
6.196537877
 20
5.4406339245
 30
0.0
 10
6.1932999034
 20
5.4420171611
 30
0.0
 10
6.1900531504
 20
5.4435983204
 30
0.0
 10
6.1856697157
 20
5.4459930386
 30
0.0
 10
6.1802112742
 20
5.4494715379
 30
0.0
 10
6.1738182475
 20
5.4543165172
 30
0.0
 10
6.1675585258
 20
5.459837108
 30
0.0
 10
6.161486686
 20
5.4659835851
 30
0.0
 10
6.1556603761
 20
5.4727045252
 30
0.0
 10
6.1501277329
 20
5.4799362808
 30
0.0
 10
6.1449389045
 20
5.4876154004
 30
0.0
 10
6.1401410638
 20
5.4956755814
 30
0.0
 10
6.1357731171
 20
5.50404588
 30
0.0
 10
6.1318783414
 20
5.5126537808
 30
0.0
 10
6.1284906953
 20
5.5214145492
 30
0.0
 10
6.1265738373
 20
5.5273505315
 30
0.0
 10
6.1257104517
 20
5.5303242964
 30
0.0
 11
6.2123465314
 21
5.4368087707
 31
0.0
 11
6.2061552565
 21
5.4377260026
 31
0.0
 11
6.2029929619
 21
5.4384963515
 31
0.0
 11
6.1997973641
 21
5.4394719819
 31
0.0
 11
6.1965768141
 21
5.4406509886
 31
0.0
 11
6.1933395946
 21
5.4420313541
 31
0.0
 11
6.1900931924
 21
5.4436097566
 31
0.0
 11
6.1868445806
 21
5.4453820333
 31
0.0
 11
6.1803685867
 21
5.4494915004
 31
0.0
 11
6.1739673795
 21
5.4543255041
 31
0.0
 11
6.1676973076
 21
5.4598400931
 31
0.0
 11
6.1616150945
 21
5.4659850577
 31
0.0
 11
6.1557764152
 21
5.4727075824
 31
0.0
 11
6.1502327252
 21
5.479944845
 31
0.0
 11
6.1450343625
 21
5.4876314919
 31
0.0
 11
6.1402278976
 21
5.4957003829
 31
0.0
 11
6.1358540615
 21
5.5040816084
 31
0.0
 11
6.131952768
 21
5.5127038718
 31
0.0
 11
6.1285602685
 21
5.521482523
 31
0.0
 11
6.1257104517
 21
5.5303242964
 31
0.0
  0
SPLINE
  5
4B1
100
AcDbEntity
  8
0
100
AcDbSpline
 62
9
  6
CONTINUOUS
 70
0
 71
3
 72
11
 73
7
 74
5
 42
0.0000001
 43
0.0000001
 44
0.0000000001
 12
-0.0261724579
 22
-0.0785506077
 32
0.0
 13
-0.0487187543
 23
-0.0669453397
 33
0.0
 40
0.0
 40
0.0
 40
0.0
 40
0.0
 40
0.2536994214
 40
0.4427156241
 40
0.630319687
 40
1.0
 40
1.0
 40
1.0
 40
1.0
 10
5.1040690206
 20
4.7895709565
 30
0.0
 10
5.1018557082
 20
4.7829282086
 30
0.0
 10
5.0975515052
 20
4.7714776938
 30
0.0
 10
5.09036322
 20
4.7556264729
 30
0.0
 10
5.0808010018
 20
4.7373754627
 30
0.0
 10
5.0724977995
 20
4.7243737374
 30
0.0
 10
5.0664943447
 20
4.7161242794
 30
0.0
 11
5.1040690206
 21
4.7895709565
 31
0.0
 11
5.0966781151
 21
4.7699088564
 31
0.0
 11
5.0902134891
 21
4.7556566622
 31
0.0
 11
5.0830021352
 21
4.7418992304
 31
0.0
 11
5.0664943447
 21
4.7161242794
 31
0.0
  0
SPLINE
  5
4B2
100
AcDbEntity
  8
0
100
AcDbSpline
 62
9
  6
CONTINUOUS
 70
0
 71
3
 72
9
 73
5
 74
3
 42
0.0000001
 43
0.0000001
 44
0.0000000001
 12
-0.0285520698
 22
-0.0379200405
 32
0.0
 13
-0.0360675833
 23
-0.0308590277
 33
0.0
 40
0.0
 40
0.0
 40
0.0
 40
0.0
 40
0.5057672305
 40
1.0
 40
1.0
 40
1.0
 40
1.0
 10
5.0642428229
 20
4.7130827173
 30
0.0
 10
5.0594292558
 20
4.7066898126
 30
0.0
 10
5.0492453451
 20
4.6945369464
 30
0.0
 10
5.0378063049
 20
4.6835522392
 30
0.0
 10
5.0318643777
 20
4.6784683916
 30
0.0
 11
5.0642428229
 21
4.7130827173
 31
0.0
 11
5.0488068164
 21
4.6946955853
 31
0.0
 11
5.0318643777
 21
4.6784683916
 31
0.0
  0
SPLINE
  5
4B3
100
AcDbEntity
  8
0
100
AcDbSpline
 62
9
  6
CONTINUOUS
 70
0
 71
3
 72
15
 73
11
 74
9
 42
0.0000001
 43
0.0000001
 44
0.0000000001
 12
-0.0742756678
 22
-0.0635494447
 32
0.0
 13
-0.0977482527
 23
-0.0008281525
 33
0.0
 40
0.0
 40
0.0
 40
0.0
 40
0.0
 40
0.1337371487
 40
0.2648379548
 40
0.393339955
 40
0.5192921596
 40
0.6427723788
 40
0.7639062019
 40
0.8828875014
 40
1.0
 40
1.0
 40
1.0
 40
1.0
 10
5.0318643777
 20
4.6784683916
 30
0.0
 10
5.028553239
 20
4.6756354177
 30
0.0
 10
5.0217770097
 20
4.6702753576
 30
0.0
 10
5.0111183661
 20
4.6631346567
 30
0.0
 10
5.0001395934
 20
4.6569988555
 30
0.0
 10
4.988916056
 20
4.6518959424
 30
0.0
 10
4.9775221377
 20
4.6478533575
 30
0.0
 10
4.9660317672
 20
4.64489913
 30
0.0
 10
4.9545208805
 20
4.6430617089
 30
0.0
 10
4.9468266083
 20
4.6425975189
 30
0.0
 10
4.943010761
 20
4.6425651899
 30
0.0
 11
5.0318643777
 21
4.6784683916
 31
0.0
 11
5.0216074796
 21
4.6703628094
 31
0.0
 11
5.0109567477
 21
4.6632357685
 31
0.0
 11
4.9999876984
 21
4.6571148098
 31
0.0
 11
4.988775848
 21
4.6520274746
 31
0.0
 11
4.9773967127
 21
4.6480013039
 31
0.0
 11
4.965925809
 21
4.6450638388
 31
0.0
 11
4.9544386529
 21
4.6432426204
 31
0.0
 11
4.943010761
 21
4.6425651899
 31
0.0
  0
SPLINE
  5
4B4
100
AcDbEntity
  8
0
100
AcDbSpline
 62
9
  6
CONTINUOUS
 70
0
 71
3
 72
19
 73
15
 74
13
 42
0.0000001
 43
0.0000001
 44
0.0000000001
 12
-0.2449246141
 22
0.0086404227
 32
0.0
 13
-0.2450357443
 23
0.0044952756
 33
0.0
 40
0.0
 40
0.0
 40
0.0
 40
0.0
 40
0.0483271048
 40
0.1026242871
 40
0.2271890032
 40
0.3676283076
 40
0.4412015053
 40
0.5154924577
 40
0.6612487791
 40
0.7303373285
 40
0.795546788
 40
0.8559137204
 40
0.9105602271
 40
1.0
 40
1.0
 40
1.0
 40
1.0
 10
5.1040690206
 20
4.7895709565
 30
0.0
 10
5.1001235215
 20
4.7897101454
 30
0.0
 10
5.0917452018
 20
4.7900081219
 30
0.0
 10
5.0731973506
 20
4.7906683359
 30
0.0
 10
5.0471289729
 20
4.7915841724
 30
0.0
 10
5.0194854207
 20
4.7925139193
 30
0.0
 10
4.9959450489
 20
4.793259871
 30
0.0
 10
4.9719694778
 20
4.7939853256
 30
0.0
 10
4.9483586185
 20
4.7946502893
 30
0.0
 10
4.9254878953
 20
4.7952389218
 30
0.0
 10
4.9095899443
 20
4.795624954
 30
0.0
 10
4.8948709566
 20
4.7959614272
 30
0.0
 10
4.8781725323
 20
4.7963194383
 30
0.0
 10
4.8664040437
 20
4.7965505493
 30
0.0
 10
4.8590987299
 20
4.7966845681
 30
0.0
 11
5.1040690206
 21
4.7895709565
 31
0.0
 11
5.0922326052
 21
4.789990843
 31
0.0
 11
5.0789340135
 21
4.7904635152
 31
0.0
 11
5.048424756
 21
4.7915314844
 31
0.0
 11
5.0140255815
 21
4.7926829147
 31
0.0
 11
4.9960035227
 21
4.7932537432
 31
0.0
 11
4.9778048519
 21
4.7938044683
 31
0.0
 11
4.9420974055
 21
4.794807035
 31
0.0
 11
4.9251710026
 21
4.795242853
 31
0.0
 11
4.9091943707
 21
4.7956306265
 31
0.0
 11
4.8944036827
 21
4.7959684343
 31
0.0
 11
4.8810141583
 21
4.7962554645
 31
0.0
 11
4.8590987299
 21
4.7966845681
 31
0.0
  0
SPLINE
  5
4B5
100
AcDbEntity
  8
0
100
AcDbSpline
 62
9
  6
CONTINUOUS
 70
0
 71
3
 72
11
 73
7
 74
5
 42
0.0000001
 43
0.0000001
 44
0.0000000001
 12
0.0146699076
 22
-0.0753253328
 32
0.0
 13
0.0175813934
 23
-0.0746994415
 33
0.0
 40
0.0
 40
0.0
 40
0.0
 40
0.0
 40
0.2532897066
 40
0.5053988597
 40
0.7548055163
 40
1.0
 40
1.0
 40
1.0
 40
1.0
 10
4.8431640327
 20
4.8717479615
 30
0.0
 10
4.8444026116
 20
4.865388251
 30
0.0
 10
4.8469141048
 20
4.8527062258
 30
0.0
 10
4.8508131823
 20
4.8337957047
 30
0.0
 10
4.8548481321
 20
4.8151254373
 30
0.0
 10
4.8576617763
 20
4.8027898651
 30
0.0
 10
4.8590987299
 20
4.7966845681
 30
0.0
 11
4.8431640327
 21
4.8717479615
 31
0.0
 11
4.8469448952
 21
4.852681629
 31
0.0
 11
4.8508573005
 21
4.8337343522
 31
0.0
 11
4.8549067462
 21
4.8150280316
 31
0.0
 11
4.8590987299
 21
4.7966845681
 31
0.0
  0
SPLINE
  5
4B6
100
AcDbEntity
  8
0
100
AcDbSpline
 62
9
  6
CONTINUOUS
 70
0
 71
3
 72
12
 73
8
 74
6
 42
0.0000001
 43
0.0000001
 44
0.0000000001
 12
-0.0549249042
 22
0.0010076186
 32
0.0
 13
-0.054934146
 23
0.0
 33
0.0
 40
0.0
 40
0.0
 40
0.0
 40
0.0
 40
0.3104350958
 40
0.4434196994
 40
0.5658541993
 40
0.7901166503
 40
1.0
 40
1.0
 40
1.0
 40
1.0
 10
4.8590987299
 20
4.7966845681
 30
0.0
 10
4.8534151906
 20
4.7967888348
 30
0.0
 10
4.8452966881
 20
4.7969254092
 30
0.0
 10
4.8349361068
 20
4.7970691168
 30
0.0
 10
4.8261531149
 20
4.7971753122
 30
0.0
 10
4.8159618433
 20
4.7972770624
 30
0.0
 10
4.8080120208
 20
4.7973098095
 30
0.0
 10
4.8041687666
 20
4.7973098095
 30
0.0
 11
4.8590987299
 21
4.7966845681
 31
0.0
 11
4.8420476038
 21
4.7969683204
 31
0.0
 11
4.8347429095
 21
4.7970695404
 31
0.0
 11
4.8280175693
 21
4.797151101
 31
0.0
 11
4.8156984506
 21
4.7972672512
 31
0.0
 11
4.8041687666
 21
4.7973098095
 31
0.0
  0
SPLINE
  5
4B7
100
AcDbEntity
  8
0
100
AcDbSpline
 62
9
  6
CONTINUOUS
 70
0
 71
3
 72
11
 73
7
 74
5
 42
0.0000001
 43
0.0000001
 44
0.0000000001
 12
0.0
 22
-0.0756344071
 32
0.0
 13
0.0164301359
 23
-0.0738282749
 33
0.0
 40
0.0
 40
0.0
 40
0.0
 40
0.0
 40
0.2518047309
 40
0.5028810236
 40
0.7525135779
 40
1.0
 40
1.0
 40
1.0
 40
1.0
 10
4.7960146503
 20
4.8723621359
 30
0.0
 10
4.7960146503
 20
4.8660137687
 30
0.0
 10
4.7963585062
 20
4.8533327815
 30
0.0
 10
4.79789489
 20
4.8344141947
 30
0.0
 10
4.8004396214
 20
4.8157144492
 30
0.0
 10
4.8028133547
 20
4.8034003081
 30
0.0
 10
4.8041687666
 20
4.7973098095
 30
0.0
 11
4.7960146503
 21
4.8723621359
 31
0.0
 11
4.7965302144
 21
4.853324014
 31
0.0
 11
4.7980689976
 21
4.8343964548
 31
0.0
 11
4.8006191363
 21
4.8156886546
 31
0.0
 11
4.8041687666
 21
4.7973098095
 31
0.0
  0
SPLINE
  5
4B8
100
AcDbEntity
  8
0
100
AcDbSpline
 62
9
  6
CONTINUOUS
 70
0
 71
3
 72
14
 73
10
 74
8
 42
0.0000001
 43
0.0000001
 44
0.0000000001
 12
-0.0323853681
 22
0.0
 32
0.0
 13
-0.0323244998
 23
-0.001984635
 33
0.0
 40
0.0
 40
0.0
 40
0.0
 40
0.0
 40
0.3149695262
 40
0.4500755024
 40
0.5752627879
 40
0.6934706543
 40
0.8043984743
 40
0.9069405101
 40
1.0
 40
1.0
 40
1.0
 40
1.0
 10
4.8041687666
 20
4.7973098095
 30
0.0
 10
4.8007686319
 20
4.7973098095
 30
0.0
 10
4.7959099512
 20
4.7972926595
 30
0.0
 10
4.789700294
 20
4.7972223145
 30
0.0
 10
4.7856148594
 20
4.7971554825
 30
0.0
 10
4.7817907178
 20
4.7970755899
 30
0.0
 10
4.7782115361
 20
4.7969768285
 30
0.0
 10
4.7749047528
 20
4.7968535898
 30
0.0
 10
4.7727958247
 20
4.7967461311
 30
0.0
 10
4.7717931242
 20
4.7966845681
 30
0.0
 11
4.8041687666
 21
4.7973098095
 31
0.0
 11
4.7939684513
 21
4.7972672512
 31
0.0
 11
4.7895932798
 21
4.7972172946
 31
0.0
 11
4.7855395838
 21
4.797151101
 31
0.0
 11
4.7817122475
 21
4.7970695404
 31
0.0
 11
4.7781212355
 21
4.7969683204
 31
0.0
 11
4.7748027827
 21
4.7968418574
 31
0.0
 11
4.7717931242
 21
4.7966845681
 31
0.0
  0
SPLINE
  5
4B9
100
AcDbEntity
  8
0
100
AcDbSpline
 62
9
  6
CONTINUOUS
 70
0
 71
3
 72
12
 73
8
 74
6
 42
0.0000001
 43
0.0000001
 44
0.0000000001
 12
-0.0062644182
 22
-0.0752033415
 32
0.0
 13
0.0158178123
 23
-0.073787413
 33
0.0
 40
0.0
 40
0.0
 40
0.0
 40
0.0
 40
0.2529344546
 40
0.3787748564
 40
0.5041351959
 40
0.7532312562
 40
1.0
 40
1.0
 40
1.0
 40
1.0
 10
4.7671455924
 20
4.8717479615
 30
0.0
 10
4.76661743
 20
4.8654074561
 30
0.0
 10
4.7661685543
 20
4.8558791354
 30
0.0
 10
4.7662611766
 20
4.8431961762
 30
0.0
 10
4.7668102596
 20
4.8306208218
 30
0.0
 10
4.7683455698
 20
4.8150552118
 30
0.0
 10
4.7704920103
 20
4.8027540438
 30
0.0
 10
4.7717931242
 20
4.7966845681
 30
0.0
 11
4.7671455924
 21
4.8717479615
 31
0.0
 11
4.7662491313
 21
4.852681629
 31
0.0
 11
4.7663188705
 21
4.8431854898
 31
0.0
 11
4.7667321182
 21
4.8337343522
 31
0.0
 11
4.7685837251
 21
4.8150280316
 31
0.0
 11
4.7717931242
 21
4.7966845681
 31
0.0
  0
SPLINE
  5
4BA
100
AcDbEntity
  8
0
100
AcDbSpline
 62
9
  6
CONTINUOUS
 70
0
 71
3
 72
25
 73
21
 74
19
 42
0.0000001
 43
0.0000001
 44
0.0000000001
 12
-0.0113389235
 22
-0.0006961786
 32
0.0
 13
0.0027426991
 23
-0.0110242211
 33
0.0
 40
0.0
 40
0.0
 40
0.0
 40
0.0
 40
0.1732302599
 40
0.3477417353
 40
0.4329756303
 40
0.5155305856
 40
0.5944127333
 40
0.6686335433
 40
0.7372128368
 40
0.7992059871
 40
0.8537991155
 40
0.9002525802
 40
0.9202212749
 40
0.9379242637
 40
0.9533162003
 40
0.9663888675
 40
0.9772059354
 40
0.9859800636
 40
0.9932340684
 40
1.0
 40
1.0
 40
1.0
 40
1.0
 10
4.7717931242
 20
4.7966845681
 30
0.0
 10
4.771138376
 20
4.7966443684
 30
0.0
 10
4.7698243608
 20
4.7965582757
 30
0.0
 10
4.768189487
 20
4.7964335377
 30
0.0
 10
4.7668982286
 20
4.7963202015
 30
0.0
 10
4.7659684953
 20
4.7962299922
 30
0.0
 10
4.7650812841
 20
4.796133879
 30
0.0
 10
4.7642480178
 20
4.7960318276
 30
0.0
 10
4.7634800209
 20
4.795923838
 30
0.0
 10
4.7627880708
 20
4.795809865
 30
0.0
 10
4.7621822871
 20
4.7956901564
 30
0.0
 10
4.7617368243
 20
4.7955813741
 30
0.0
 10
4.7614318999
 20
4.7954888738
 30
0.0
 10
4.7612424396
 20
4.7954216509
 30
0.0
 10
4.7610814584
 20
4.7953530907
 30
0.0
 10
4.7609498717
 20
4.7952831802
 30
0.0
 10
4.7608483874
 20
4.7952116546
 30
0.0
 10
4.7607773708
 20
4.7951376028
 30
0.0
 10
4.7607388336
 20
4.7950578757
 30
0.0
 10
4.7607399873
 20
4.7950024821
 30
0.0
 10
4.7607461729
 20
4.794977619
 30
0.0
 11
4.7717931242
 21
4.7966845681
 31
0.0
 11
4.7698294444
 21
4.7965550963
 31
0.0
 11
4.7678528063
 21
4.7964027749
 31
0.0
 11
4.7668882603
 21
4.7963178162
 31
0.0
 11
4.7659548334
 21
4.7962268699
 31
0.0
 11
4.7650639786
 21
4.7961298442
 31
0.0
 11
4.7642271488
 21
4.7960266474
 31
0.0
 11
4.7634557969
 21
4.7959171878
 31
0.0
 11
4.7627611218
 21
4.795801397
 31
0.0
 11
4.7621530616
 21
4.7956793226
 31
0.0
 11
4.7616411648
 21
4.7955510481
 31
0.0
 11
4.7614242613
 21
4.7954846119
 31
0.0
 11
4.7612349793
 21
4.795416657
 31
0.0
 11
4.7610745121
 21
4.7953471938
 31
0.0
 11
4.7609440534
 21
4.7952762328
 31
0.0
 11
4.7608447966
 21
4.7952037843
 31
0.0
 11
4.7607779352
 21
4.7951298589
 31
0.0
 11
4.7607446628
 21
4.795054467
 31
0.0
 11
4.7607461729
 21
4.794977619
 31
0.0
  0
SPLINE
  5
4BB
100
AcDbEntity
  8
0
100
AcDbSpline
 62
9
  6
CONTINUOUS
 70
0
 71
3
 72
19
 73
15
 74
13
 42
0.0000001
 43
0.0000001
 44
0.0000000001
 12
-0.1853194374
 22
0.0035907787
 32
0.0
 13
-0.1853531171
 23
0.0006399438
 33
0.0
 40
0.0
 40
0.0
 40
0.0
 40
0.0
 40
0.0480282072
 40
0.1017639727
 40
0.2244650859
 40
0.3624259339
 40
0.5079212574
 40
0.6522708737
 40
0.7212853858
 40
0.7869550056
 40
0.8483963991
 40
0.9048019285
 40
0.9555390785
 40
1.0
 40
1.0
 40
1.0
 40
1.0
 10
5.0664943447
 20
4.7161242794
 30
0.0
 10
5.0635274913
 20
4.7161817656
 30
0.0
 10
5.0572413217
 20
4.7163092931
 30
0.0
 10
5.0433759355
 20
4.7166039991
 30
0.0
 10
5.0239556302
 20
4.7170302066
 30
0.0
 10
4.998867
 20
4.7175650691
 30
0.0
 10
4.9724399764
 20
4.7180724916
 30
0.0
 10
4.9502709271
 20
4.7184389068
 30
0.0
 10
4.9330325712
 20
4.718679541
 30
0.0
 10
4.9209159182
 20
4.7188286486
 30
0.0
 10
4.9095780234
 20
4.7189484994
 30
0.0
 10
4.8991624879
 20
4.719039105
 30
0.0
 10
4.889795909
 20
4.7191026775
 30
0.0
 10
4.883914181
 20
4.7191305255
 30
0.0
 10
4.8811671908
 20
4.7191400097
 30
0.0
 11
5.0664943447
 21
4.7161242794
 31
0.0
 11
5.0575939179
 21
4.7163034951
 31
0.0
 11
5.0476359948
 21
4.7165141516
 31
0.0
 11
5.0248981723
 21
4.717007282
 31
0.0
 11
4.9993322296
 21
4.7175463656
 31
0.0
 11
4.9723689831
 21
4.7180617961
 31
0.0
 11
4.9456167664
 21
4.7185003325
 31
0.0
 11
4.9328258805
 21
4.7186788143
 31
0.0
 11
4.9206546562
 21
4.7188282266
 31
0.0
 11
4.9092668653
 21
4.7189480842
 31
0.0
 11
4.8988122545
 21
4.719038644
 31
0.0
 11
4.8894081221
 21
4.7191018804
 31
0.0
 11
4.8811671908
 21
4.7191400097
 31
0.0
  0
SPLINE
  5
4BC
100
AcDbEntity
  8
0
100
AcDbSpline
 62
9
  6
CONTINUOUS
 70
0
 71
3
 72
13
 73
9
 74
7
 42
0.0000001
 43
0.0000001
 44
0.0000000001
 12
0.0184793925
 22
-0.0785148403
 32
0.0
 13
0.0268068618
 23
-0.076075359
 33
0.0
 40
0.0
 40
0.0
 40
0.0
 40
0.0
 40
0.2647550334
 40
0.5208518134
 40
0.6450949134
 40
0.7665080308
 40
0.8848785775
 40
1.0
 40
1.0
 40
1.0
 40
1.0
 10
4.8590987299
 20
4.7966845681
 30
0.0
 10
4.8607295673
 20
4.7897555017
 30
0.0
 10
4.8640649008
 20
4.7761533998
 30
0.0
 10
4.8685651764
 20
4.7594010224
 30
0.0
 10
4.8723211722
 20
4.746443542
 30
0.0
 10
4.8751799055
 20
4.737082453
 30
0.0
 10
4.8781090742
 20
4.7280005035
 30
0.0
 10
4.8801385095
 20
4.7220593109
 30
0.0
 10
4.8811671908
 20
4.7191400097
 30
0.0
 11
4.8590987299
 21
4.7966845681
 31
0.0
 11
4.8641973951
 21
4.7759469709
 31
0.0
 11
4.8695728822
 21
4.7560018396
 31
0.0
 11
4.8723654393
 21
4.7463773107
 31
0.0
 11
4.8752284083
 21
4.7370119329
 31
0.0
 11
4.8781621915
 21
4.7279260509
 31
0.0
 11
4.8811671908
 21
4.7191400097
 31
0.0
  0
LINE
  5
4BD
100
AcDbEntity
  8
0
100
AcDbLine
 62
9
  6
CONTINUOUS
 10
4.8811671908
 20
4.7191400097
 11
4.833095639
 21
4.7191622041
  0
SPLINE
  5
4BE
100
AcDbEntity
  8
0
100
AcDbSpline
 62
9
  6
CONTINUOUS
 70
0
 71
3
 72
11
 73
7
 74
5
 42
0.0000001
 43
0.0000001
 44
0.0000000001
 12
0.0181576822
 22
-0.0815909472
 32
0.0
 13
0.0401883808
 23
-0.0732917331
 33
0.0
 40
0.0
 40
0.0
 40
0.0
 40
0.0
 40
0.257223579
 40
0.5101306951
 40
0.7579536004
 40
1.0
 40
1.0
 40
1.0
 40
1.0
 10
4.8041687666
 20
4.7973098095
 30
0.0
 10
4.8057256279
 20
4.7903141044
 30
0.0
 10
4.8092706004
 20
4.7765370412
 30
0.0
 10
4.8159048725
 20
4.7564709484
 30
0.0
 10
4.8237605184
 20
4.7373063509
 30
0.0
 10
4.8298531547
 20
4.7250755375
 30
0.0
 10
4.833095639
 20
4.7191622041
 30
0.0
 11
4.8041687666
 21
4.7973098095
 31
0.0
 11
4.8095345397
 21
4.7764895826
 31
0.0
 11
4.8161822629
 21
4.7564222827
 31
0.0
 11
4.824054956
 21
4.7372618448
 31
0.0
 11
4.833095639
 21
4.7191622041
 31
0.0
  0
LINE
  5
4BF
100
AcDbEntity
  8
0
100
AcDbLine
 62
9
  6
CONTINUOUS
 10
4.833095639
 20
4.7191622041
 11
4.8042638296
 21
4.7191400097
  0
SPLINE
  5
4C0
100
AcDbEntity
  8
0
100
AcDbSpline
 62
9
  6
CONTINUOUS
 70
0
 71
3
 72
11
 73
7
 74
5
 42
0.0000001
 43
0.0000001
 44
0.0000000001
 12
0.0177193361
 22
-0.0826576991
 32
0.0
 13
0.0469235079
 23
-0.0703168152
 33
0.0
 40
0.0
 40
0.0
 40
0.0
 40
0.0
 40
0.253660027
 40
0.5048242029
 40
0.7535652806
 40
1.0
 40
1.0
 40
1.0
 40
1.0
 10
4.7717931242
 20
4.7966845681
 30
0.0
 10
4.7732913533
 20
4.7896955834
 30
0.0
 10
4.7769135929
 20
4.7759146549
 30
0.0
 10
4.78419823
 20
4.7559373605
 30
0.0
 10
4.7932331434
 20
4.7369128885
 30
0.0
 10
4.8004093024
 20
4.7249161779
 30
0.0
 10
4.8042638296
 20
4.7191400097
 30
0.0
 11
4.7717931242
 21
4.7966845681
 31
0.0
 11
4.7772490791
 21
4.7759469709
 31
0.0
 11
4.7845293993
 21
4.7560018396
 31
0.0
 11
4.7935592582
 21
4.7370119329
 31
0.0
 11
4.8042638296
 21
4.7191400097
 31
0.0
  0
SPLINE
  5
4C1
100
AcDbEntity
  8
0
100
AcDbSpline
 62
9
  6
CONTINUOUS
 70
0
 71
3
 72
29
 73
25
 74
23
 42
0.0000001
 43
0.0000001
 44
0.0000000001
 12
-0.0082795089
 22
-0.0000942791
 32
0.0
 13
0.0048684044
 23
-0.0066975961
 33
0.0
 40
0.0
 40
0.0
 40
0.0
 40
0.0
 40
0.1886734289
 40
0.3722580604
 40
0.4600064572
 40
0.5439208358
 40
0.6231489914
 40
0.6968403246
 40
0.7641467781
 40
0.8242290813
 40
0.8513202208
 40
0.8763284585
 40
0.8991685213
 40
0.9197568914
 40
0.9380128355
 40
0.9538603099
 40
0.9672317992
 40
0.9780769662
 40
0.9863853328
 40
0.9896166193
 40
0.9922750424
 40
0.996219649
 40
0.9979887944
 40
1.0
 40
1.0
 40
1.0
 40
1.0
 10
4.8042638296
 20
4.7191400097
 30
0.0
 10
4.8037431218
 20
4.7191340803
 30
0.0
 10
4.8027157854
 20
4.7191190306
 30
0.0
 10
4.8014464555
 20
4.7190908738
 30
0.0
 10
4.8004663905
 20
4.719061926
 30
0.0
 10
4.7997743528
 20
4.7190375393
 30
0.0
 10
4.7991212585
 20
4.719010089
 30
0.0
 10
4.7985141917
 20
4.7189795153
 30
0.0
 10
4.7979602231
 20
4.7189457701
 30
0.0
 10
4.7975350204
 20
4.7189139847
 30
0.0
 10
4.7972266283
 20
4.7188863408
 30
0.0
 10
4.7970208413
 20
4.7188655013
 30
0.0
 10
4.7968331926
 20
4.7188438479
 30
0.0
 10
4.7966644198
 20
4.7188213923
 30
0.0
 10
4.7965152503
 20
4.7187981627
 30
0.0
 10
4.7963864109
 20
4.7187741761
 30
0.0
 10
4.7962785605
 20
4.7187495361
 30
0.0
 10
4.7961923803
 20
4.7187241898
 30
0.0
 10
4.7961348053
 20
4.7187012992
 30
0.0
 10
4.7961008185
 20
4.7186813795
 30
0.0
 10
4.7960795976
 20
4.718664808
 30
0.0
 10
4.7960652648
 20
4.7186439417
 30
0.0
 10
4.796067498
 20
4.7186219637
 30
0.0
 10
4.7960727123
 20
4.718612668
 30
0.0
 10
4.7960759761
 20
4.718608178
 30
0.0
 11
4.8042638296
 21
4.7191400097
 31
0.0
 11
4.8027017769
 21
4.7191168376
 31
0.0
 11
4.8011820759
 21
4.7190824891
 31
0.0
 11
4.8004558357
 21
4.7190609087
 31
0.0
 11
4.7997614576
 21
4.7190362765
 31
0.0
 11
4.7991060329
 21
4.7190085063
 31
0.0
 11
4.798496653
 21
4.7189775123
 31
0.0
 11
4.7979404092
 21
4.7189432086
 31
0.0
 11
4.7974443552
 21
4.7189055126
 31
0.0
 11
4.7972209445
 21
4.7188853814
 31
0.0
 11
4.7970149411
 21
4.7188643975
 31
0.0
 11
4.796827089
 21
4.7188425632
 31
0.0
 11
4.7966581321
 21
4.7188198809
 31
0.0
 11
4.7965088144
 21
4.7187963529
 31
0.0
 11
4.7963798797
 21
4.7187719817
 31
0.0
 11
4.796272072
 21
4.7187467695
 31
0.0
 11
4.7961861352
 21
4.7187207188
 31
0.0
 11
4.7961228133
 21
4.718693832
 31
0.0
 11
4.7960998654
 21
4.7186800757
 31
0.0
 11
4.7960828502
 21
4.7186661113
 31
0.0
 11
4.7960669898
 21
4.7186375592
 31
0.0
 11
4.7960683306
 21
4.718622972
 31
0.0
 11
4.7960759761
 21
4.718608178
 31
0.0
  0
SPLINE
  5
4C2
100
AcDbEntity
  8
0
100
AcDbSpline
 62
9
  6
CONTINUOUS
 70
0
 71
3
 72
19
 73
15
 74
13
 42
0.0000001
 43
0.0000001
 44
0.0000000001
 12
-0.1819183606
 22
0.0035483898
 32
0.0
 13
-0.1819525533
 23
0.0003864314
 33
0.0
 40
0.0
 40
0.0
 40
0.0
 40
0.0
 40
0.0480604317
 40
0.101812695
 40
0.2244976039
 40
0.3623893506
 40
0.5077943829
 40
0.652069619
 40
0.7210645819
 40
0.7867315467
 40
0.8481908041
 40
0.9046379656
 40
0.955442895
 40
1.0
 40
1.0
 40
1.0
 40
1.0
 10
5.0642428229
 20
4.7130827173
 30
0.0
 10
5.0613284646
 20
4.713139563
 30
0.0
 10
5.0551546977
 20
4.7132650645
 30
0.0
 10
5.0415417417
 20
4.7135530493
 30
0.0
 10
5.022481846
 20
4.7139655426
 30
0.0
 10
4.997863975
 20
4.7144778486
 30
0.0
 10
4.9719357465
 20
4.7149589857
 30
0.0
 10
4.9501844009
 20
4.7153018968
 30
0.0
 10
4.9332680308
 20
4.7155235753
 30
0.0
 10
4.9213738523
 20
4.7156590216
 30
0.0
 10
4.9102404499
 20
4.7157657192
 30
0.0
 10
4.9000082312
 20
4.7158438333
 30
0.0
 10
4.8908009938
 20
4.7158957104
 30
0.0
 10
4.8850172208
 20
4.7159158232
 30
0.0
 10
4.8823147945
 20
4.7159215626
 30
0.0
 11
5.0642428229
 21
4.7130827173
 31
0.0
 11
5.0554998656
 21
4.7132591856
 31
0.0
 11
5.04572165
 21
4.7134651059
 31
0.0
 11
5.0234038763
 21
4.7139426753
 31
0.0
 11
4.9983193817
 21
4.7144591983
 31
0.0
 11
4.9718670192
 21
4.7149479057
 31
0.0
 11
4.9456189178
 21
4.7153581232
 31
0.0
 11
4.9330661565
 21
4.7155225402
 31
0.0
 11
4.921118628
 21
4.7156582167
 31
0.0
 11
4.9099364423
 21
4.7157648451
 31
0.0
 11
4.8996660102
 21
4.7158428427
 31
0.0
 11
4.890422046
 21
4.7158943047
 31
0.0
 11
4.8823147945
 21
4.7159215626
 31
0.0
  0
LINE
  5
4C3
100
AcDbEntity
  8
0
100
AcDbLine
 62
9
  6
CONTINUOUS
 10
4.8823147945
 20
4.7159215626
 11
4.8349182686
 21
4.7158947934
  0
LINE
  5
4C4
100
AcDbEntity
  8
0
100
AcDbLine
 62
9
  6
CONTINUOUS
 10
4.8349182686
 20
4.7158947934
 11
4.8064546175
 21
4.7159215626
  0
SPLINE
  5
4C5
100
AcDbEntity
  8
0
100
AcDbSpline
 62
9
  6
CONTINUOUS
 70
0
 71
3
 72
29
 73
25
 74
23
 42
0.0000001
 43
0.0000001
 44
0.0000000001
 12
-0.0081192002
 22
-0.0000567741
 32
0.0
 13
0.0049006119
 23
-0.0064736882
 33
0.0
 40
0.0
 40
0.0
 40
0.0
 40
0.0
 40
0.1891405964
 40
0.3729760838
 40
0.4607871089
 40
0.5447318809
 40
0.6239652458
 40
0.6976434456
 40
0.764924934
 40
0.824975871
 40
0.8520495139
 40
0.8770394489
 40
0.8998605744
 40
0.9204293143
 40
0.9386645135
 40
0.9544890968
 40
0.9678334172
 40
0.9786428324
 40
0.9868977319
 40
0.9900893024
 40
0.9926936457
 40
0.9964614235
 40
0.9981096328
 40
1.0
 40
1.0
 40
1.0
 40
1.0
 10
4.8064546175
 20
4.7159215626
 30
0.0
 10
4.8059427274
 20
4.7159179832
 30
0.0
 10
4.8049333243
 20
4.7159077197
 30
0.0
 10
4.803686393
 20
4.7158860102
 30
0.0
 10
4.8027242801
 20
4.7158625258
 30
0.0
 10
4.8020452841
 20
4.7158422836
 30
0.0
 10
4.8014046555
 20
4.7158190769
 30
0.0
 10
4.8008092803
 20
4.7157928398
 30
0.0
 10
4.8002660328
 20
4.715763517
 30
0.0
 10
4.799849052
 20
4.715735604
 30
0.0
 10
4.7995466005
 20
4.7157111459
 30
0.0
 10
4.7993447703
 20
4.7156926318
 30
0.0
 10
4.7991607064
 20
4.7156733206
 30
0.0
 10
4.7989951266
 20
4.7156532223
 30
0.0
 10
4.7988487407
 20
4.7156323631
 30
0.0
 10
4.7987222554
 20
4.7156107567
 30
0.0
 10
4.7986163266
 20
4.7155885063
 30
0.0
 10
4.7985316062
 20
4.7155655516
 30
0.0
 10
4.7984749231
 20
4.7155448026
 30
0.0
 10
4.7984412588
 20
4.7155266478
 30
0.0
 10
4.7984204521
 20
4.7155117271
 30
0.0
 10
4.7984057841
 20
4.7154927988
 30
0.0
 10
4.79840757
 20
4.7154722833
 30
0.0
 10
4.7984125309
 20
4.7154638164
 30
0.0
 10
4.7984156189
 20
4.7154597372
 30
0.0
 11
4.8064546175
 21
4.7159215626
 31
0.0
 11
4.8049189916
 21
4.7159056942
 31
0.0
 11
4.8034265944
 21
4.7158791311
 31
0.0
 11
4.8027138368
 21
4.7158616147
 31
0.0
 11
4.8020325629
 21
4.7158411553
 31
0.0
 11
4.8013896647
 21
4.7158176632
 31
0.0
 11
4.8007920343
 21
4.7157910485
 31
0.0
 11
4.800246564
 21
4.7157612215
 31
0.0
 11
4.7997601131
 21
4.7157280954
 31
0.0
 11
4.7995410143
 21
4.7157102819
 31
0.0
 11
4.7993389696
 21
4.7156916361
 31
0.0
 11
4.7991547023
 21
4.7156721597
 31
0.0
 11
4.7989889355
 21
4.715651854
 31
0.0
 11
4.7988423926
 21
4.7156307207
 31
0.0
 11
4.798715797
 21
4.7156087611
 31
0.0
 11
4.7986098719
 21
4.7155859769
 31
0.0
 11
4.7985253405
 21
4.7155623694
 31
0.0
 11
4.7984629262
 21
4.7155379402
 31
0.0
 11
4.798440239
 21
4.7155254179
 31
0.0
 11
4.7984233523
 21
4.7155126908
 31
0.0
 11
4.7984073421
 21
4.7154866226
 31
0.0
 11
4.7984083994
 21
4.715473282
 31
0.0
 11
4.7984156189
 21
4.7154597372
 31
0.0
  0
SPLINE
  5
4C6
100
AcDbEntity
  8
0
100
AcDbSpline
 62
9
  6
CONTINUOUS
 70
0
 71
3
 72
17
 73
13
 74
11
 42
0.0000001
 43
0.0000001
 44
0.0000000001
 12
-0.1332312361
 22
0.0025512895
 32
0.0
 13
-0.1332483214
 23
-0.0013986369
 33
0.0
 40
0.0
 40
0.0
 40
0.0
 40
0.0
 40
0.1025512715
 40
0.2252163536
 40
0.3624420844
 40
0.50688478
 40
0.6503091338
 40
0.7190486957
 40
0.7846307737
 40
0.9030371937
 40
0.954491531
 40
1.0
 40
1.0
 40
1.0
 40
1.0
 10
5.0318643777
 20
4.6784683916
 30
0.0
 10
5.0273100335
 20
4.6785556043
 30
0.0
 10
5.0173081147
 20
4.6787488589
 30
0.0
 10
5.0012114807
 20
4.6790342994
 30
0.0
 10
4.9832536117
 20
4.6793069152
 30
0.0
 10
4.9643728714
 20
4.679529006
 30
0.0
 10
4.9485333688
 20
4.6796547867
 30
0.0
 10
4.936196406
 20
4.679710047
 30
0.0
 10
4.9249706132
 20
4.6797348184
 30
0.0
 10
4.9145125336
 20
4.6797216347
 30
0.0
 10
4.9049462813
 20
4.6796685088
 30
0.0
 10
4.9006394823
 20
4.6796315734
 30
0.0
 10
4.8986181733
 20
4.6796103568
 30
0.0
 11
5.0318643777
 21
4.6784683916
 31
0.0
 11
5.0182013121
 21
4.6787283058
 31
0.0
 11
5.0018580322
 21
4.6790162718
 31
0.0
 11
4.9835740041
 21
4.6792919019
 31
0.0
 11
4.9643275162
 21
4.679517236
 31
0.0
 11
4.9452159897
 21
4.6796662217
 31
0.0
 11
4.9360561453
 21
4.6797071243
 31
0.0
 11
4.9273169825
 21
4.6797260405
 31
0.0
 11
4.9115386748
 21
4.6797021474
 31
0.0
 11
4.9046822027
 21
4.6796633765
 31
0.0
 11
4.8986181733
 21
4.6796103568
 31
0.0
  0
SPLINE
  5
4C7
100
AcDbEntity
  8
0
100
AcDbSpline
 62
9
  6
CONTINUOUS
 70
0
 71
3
 72
11
 73
7
 74
5
 42
0.0000001
 43
0.0000001
 44
0.0000000001
 12
0.0135248332
 22
-0.0374815504
 32
0.0
 13
0.0196523788
 23
-0.0346636948
 33
0.0
 40
0.0
 40
0.0
 40
0.0
 40
0.0
 40
0.2682182049
 40
0.5246533819
 40
0.7687418299
 40
1.0
 40
1.0
 40
1.0
 40
1.0
 10
4.8823147945
 20
4.7159215626
 30
0.0
 10
4.8835239966
 20
4.7125704846
 30
0.0
 10
4.8859991425
 20
4.7060543977
 30
0.0
 10
4.8899805026
 20
4.6966490683
 30
0.0
 10
4.8941387204
 20
4.687860454
 30
0.0
 10
4.8971032489
 20
4.6822824443
 30
0.0
 10
4.8986181733
 20
4.6796103568
 30
0.0
 11
4.8823147945
 21
4.7159215626
 31
0.0
 11
4.8861179962
 21
4.7059334345
 31
0.0
 11
4.8901105655
 21
4.6965275468
 31
0.0
 11
4.894281094
 21
4.6877408656
 31
0.0
 11
4.8986181733
 21
4.6796103568
 31
0.0
  0
LINE
  5
4C8
100
AcDbEntity
  8
0
100
AcDbLine
 62
9
  6
CONTINUOUS
 10
4.8986181733
 20
4.6796103568
 11
4.862285024
 21
4.6792456658
  0
SPLINE
  5
4C9
100
AcDbEntity
  8
0
100
AcDbSpline
 62
9
  6
CONTINUOUS
 70
0
 71
3
 72
11
 73
7
 74
5
 42
0.0000001
 43
0.0000001
 44
0.0000000001
 12
0.0226337334
 22
-0.0398879717
 32
0.0
 13
0.0322131842
 23
-0.0326442481
 33
0.0
 40
0.0
 40
0.0
 40
0.0
 40
0.0
 40
0.2585595146
 40
0.511485138
 40
0.7586496696
 40
1.0
 40
1.0
 40
1.0
 40
1.0
 10
4.8349182686
 20
4.7158947934
 30
0.0
 10
4.836868991
 20
4.7124569885
 30
0.0
 10
4.8409319266
 20
4.705769437
 30
0.0
 10
4.8475653182
 20
4.696246631
 30
0.0
 10
4.8546411156
 20
4.6873815336
 30
0.0
 10
4.8596934698
 20
4.6818718991
 30
0.0
 10
4.862285024
 20
4.6792456658
 30
0.0
 11
4.8349182686
 21
4.7158947934
 31
0.0
 11
4.8410812776
 21
4.7057640629
 31
0.0
 11
4.8477179796
 21
4.6962505207
 31
0.0
 11
4.854796515
 21
4.687396833
 31
0.0
 11
4.862285024
 21
4.6792456658
 31
0.0
  0
SPLINE
  5
4CA
100
AcDbEntity
  8
0
100
AcDbSpline
 62
9
  6
CONTINUOUS
 70
0
 71
3
 72
11
 73
7
 74
5
 42
0.0000001
 43
0.0000001
 44
0.0000000001
 12
-0.0223860211
 22
0.0
 32
0.0
 13
-0.02237378
 23
0.00074021
 33
0.0
 40
0.0
 40
0.0
 40
0.0
 40
0.0
 40
0.3145930361
 40
0.580691758
 40
0.8107187382
 40
1.0
 40
1.0
 40
1.0
 40
1.0
 10
4.862285024
 20
4.6792456658
 30
0.0
 10
4.8599375285
 20
4.6792456658
 30
0.0
 10
4.8556043647
 20
4.6792611132
 30
0.0
 10
4.8495552072
 20
4.679342259
 30
0.0
 10
4.8444420998
 20
4.6794653631
 30
0.0
 10
4.8413147503
 20
4.6795636542
 30
0.0
 10
4.8399031046
 20
4.6796103568
 30
0.0
 11
4.862285024
 21
4.6792456658
 31
0.0
 11
4.8552425984
 21
4.6792749282
 31
0.0
 11
4.8492862752
 21
4.6793572182
 31
0.0
 11
4.8441383408
 21
4.6794795972
 31
0.0
 11
4.8399031046
 21
4.6796103568
 31
0.0
  0
LINE
  5
4CB
100
AcDbEntity
  8
0
100
AcDbLine
 62
9
  6
CONTINUOUS
 10
4.8399031046
 20
4.6796103568
 11
4.833784866
 21
4.6796971633
  0
SPLINE
  5
4CC
100
AcDbEntity
  8
0
100
AcDbSpline
 62
9
  6
CONTINUOUS
 70
0
 71
3
 72
16
 73
12
 74
10
 42
0.0000001
 43
0.0000001
 44
0.0000000001
 12
0.0256625557
 22
-0.0452646984
 32
0.0
 13
0.0498405081
 23
-0.0149460175
 33
0.0
 40
0.0
 40
0.0
 40
0.0
 40
0.0
 40
0.1568397499
 40
0.3036083113
 40
0.4405574704
 40
0.5680857808
 40
0.6867846664
 40
0.7974951159
 40
0.9013705829
 40
0.9512375623
 40
1.0
 40
1.0
 40
1.0
 40
1.0
 10
4.8986181733
 20
4.6796103568
 30
0.0
 10
4.8999598096
 20
4.6772439221
 30
0.0
 10
4.9026700447
 20
4.6727255186
 30
0.0
 10
4.9069758402
 20
4.6664072619
 30
0.0
 10
4.9113803296
 20
4.6607889605
 30
0.0
 10
4.9158777834
 20
4.6558855711
 30
0.0
 10
4.9204638209
 20
4.6517120821
 30
0.0
 10
4.9251336758
 20
4.6482850346
 30
0.0
 10
4.9291480867
 20
4.646035815
 30
0.0
 10
4.9323793691
 20
4.644652613
 30
0.0
 10
4.9339993405
 20
4.644096805
 30
0.0
 10
4.9348094554
 20
4.6438538703
 30
0.0
 11
4.8986181733
 21
4.6796103568
 31
0.0
 11
4.9028285538
 21
4.6726194553
 31
0.0
 11
4.9071429202
 21
4.6663180538
 31
0.0
 11
4.9115540695
 21
4.6607215939
 31
0.0
 11
4.9160547988
 21
4.6558455171
 31
0.0
 11
4.920637905
 21
4.6517052648
 31
0.0
 11
4.9252961852
 21
4.6483162786
 31
0.0
 11
4.9300224363
 21
4.6456939999
 31
0.0
 11
4.9324088
 21
4.6446752014
 31
0.0
 11
4.9348094554
 21
4.6438538703
 31
0.0
  0
SPLINE
  5
4CD
100
AcDbEntity
  8
0
100
AcDbSpline
 62
9
  6
CONTINUOUS
 70
0
 71
3
 72
9
 73
5
 74
3
 42
0.0000001
 43
0.0000001
 44
0.0000000001
 12
0.0076477896
 22
-0.0022933955
 32
0.0
 13
0.0079813527
 23
-0.0002153077
 33
0.0
 40
0.0
 40
0.0
 40
0.0
 40
0.0
 40
0.5034087782
 40
1.0
 40
1.0
 40
1.0
 40
1.0
 10
4.9348094554
 20
4.6438538703
 30
0.0
 10
4.9360927768
 20
4.6434690318
 30
0.0
 10
4.9386926968
 20
4.6428624086
 30
0.0
 10
4.9413512435
 20
4.6426079878
 30
0.0
 10
4.9426724
 20
4.6425723479
 30
0.0
 11
4.9348094554
 21
4.6438538703
 31
0.0
 11
4.9387252791
 21
4.6429475282
 31
0.0
 11
4.9426724
 21
4.6425723479
 31
0.0
  0
SPLINE
  5
4CE
100
AcDbEntity
  8
0
100
AcDbSpline
 62
9
  6
CONTINUOUS
 70
0
 71
3
 72
15
 73
11
 74
9
 42
0.0000001
 43
0.0000001
 44
0.0000000001
 12
0.0797480432
 22
-0.065414841
 32
0.0
 13
0.1029690083
 23
-0.0060195644
 33
0.0
 40
0.0
 40
0.0
 40
0.0
 40
0.0
 40
0.1251988566
 40
0.2501213868
 40
0.3749053688
 40
0.4996576077
 40
0.6244645577
 40
0.749403125
 40
0.8745515126
 40
1.0
 40
1.0
 40
1.0
 40
1.0
 10
4.8399031046
 20
4.6796103568
 30
0.0
 10
4.8432312258
 20
4.6768804024
 30
0.0
 10
4.850105181
 20
4.6716946118
 30
0.0
 10
4.8609949677
 20
4.6647740625
 30
0.0
 10
4.8723843146
 20
4.6587423299
 30
0.0
 10
4.8842063247
 20
4.6536212827
 30
0.0
 10
4.8963952229
 20
4.6494320245
 30
0.0
 10
4.908885379
 20
4.6461960341
 30
0.0
 10
4.9216099528
 20
4.6439349656
 30
0.0
 10
4.9301951721
 20
4.6430931719
 30
0.0
 10
4.9345009409
 20
4.6428414569
 30
0.0
 11
4.8399031046
 21
4.6796103568
 31
0.0
 11
4.8502108067
 21
4.6718313685
 31
0.0
 11
4.8610845321
 21
4.6649184696
 31
0.0
 11
4.8724579875
 21
4.658893312
 31
0.0
 11
4.8842648792
 21
4.6537775475
 31
0.0
 11
4.8964389139
 21
4.6495928279
 31
0.0
 11
4.908913798
 21
4.6463608051
 31
0.0
 11
4.9216232382
 21
4.6441031308
 31
0.0
 11
4.9345009409
 21
4.6428414569
 31
0.0
  0
SPLINE
  5
4CF
100
AcDbEntity
  8
0
100
AcDbSpline
 62
9
  6
CONTINUOUS
 70
0
 71
3
 72
26
 73
22
 74
20
 42
0.0000001
 43
0.0000001
 44
0.0000000001
 12
0.0
 22
0.1755330844
 32
0.0
 13
-0.1549203886
 23
0.0825320357
 33
0.0
 40
0.0
 40
0.0
 40
0.0
 40
0.0
 40
0.0636153922
 40
0.1287238985
 40
0.1950376375
 40
0.2622239683
 40
0.3299182828
 40
0.3977343613
 40
0.4652731542
 40
0.532130739
 40
0.5979061502
 40
0.6622098069
 40
0.7246733842
 40
0.7849622069
 40
0.8142046538
 40
0.8428022574
 40
0.8707310172
 40
0.8979733133
 40
0.9245191187
 40
0.9503674097
 40
1.0
 40
1.0
 40
1.0
 40
1.0
 10
5.3974013014
 20
5.2845651899
 30
0.0
 10
5.3974013014
 20
5.2882873919
 30
0.0
 10
5.3971222812
 20
5.2958212683
 30
0.0
 10
5.3959477522
 20
5.307179599
 30
0.0
 10
5.3940544774
 20
5.3186519322
 30
0.0
 10
5.3914848295
 20
5.3301461346
 30
0.0
 10
5.3882810711
 20
5.3415708632
 30
0.0
 10
5.3844854296
 20
5.3528343024
 30
0.0
 10
5.380140126
 20
5.3638446232
 30
0.0
 10
5.3752873651
 20
5.374509977
 30
0.0
 10
5.3699693359
 20
5.3847385485
 30
0.0
 10
5.3642280443
 20
5.3944388141
 30
0.0
 10
5.3581055913
 20
5.403518944
 30
0.0
 10
5.3526657318
 20
5.4105642194
 30
0.0
 10
5.3481494477
 20
5.4157983455
 30
0.0
 10
5.3447270423
 20
5.4194705534
 30
0.0
 10
5.3412404911
 20
5.4229175914
 30
0.0
 10
5.3376950333
 20
5.4261278679
 30
0.0
 10
5.3340954109
 20
5.4290901303
 30
0.0
 10
5.3292973702
 20
5.4326442339
 30
0.0
 10
5.325534153
 20
5.4349822405
 30
0.0
 10
5.3229711196
 20
5.4363476667
 30
0.0
 11
5.3974013014
 21
5.2845651899
 31
0.0
 11
5.3970043377
 21
5.2957247378
 31
0.0
 11
5.3958417723
 21
5.307094151
 31
0.0
 11
5.3939560934
 21
5.3185806541
 31
0.0
 11
5.3913897894
 21
5.3300914721
 31
0.0
 11
5.3881853485
 21
5.3415338297
 31
0.0
 11
5.384385259
 21
5.3528149516
 31
0.0
 11
5.3800320093
 21
5.3638420628
 31
0.0
 11
5.3751680876
 21
5.3745223879
 31
0.0
 11
5.3698359823
 21
5.3847631518
 31
0.0
 11
5.3640781816
 21
5.3944715792
 31
0.0
 11
5.3579371738
 21
5.403554895
 31
0.0
 11
5.3514554473
 21
5.4119203239
 31
0.0
 11
5.3481000921
 21
5.4158048386
 31
0.0
 11
5.3446754903
 21
5.4194750908
 31
0.0
 11
5.341186953
 21
5.4229194837
 31
0.0
 11
5.3376397911
 21
5.4261264203
 31
0.0
 11
5.3340393159
 21
5.4290843039
 31
0.0
 11
5.3303908381
 21
5.4317815374
 31
0.0
 11
5.3229711196
 21
5.4363476667
 31
0.0
  0
SPLINE
  5
4D0
100
AcDbEntity
  8
0
100
AcDbSpline
 62
9
  6
CONTINUOUS
 70
0
 71
3
 72
17
 73
13
 74
11
 42
0.0000001
 43
0.0000001
 44
0.0000000001
 12
-0.1209761192
 22
-0.0909951539
 32
0.0
 13
-0.0647121392
 23
-0.1368491085
 33
0.0
 40
0.0
 40
0.0
 40
0.0
 40
0.0
 40
0.1157938162
 40
0.1748920902
 40
0.2347749076
 40
0.2954123918
 40
0.3567698028
 40
0.4814714724
 40
0.6085457922
 40
0.7376036491
 40
0.8682307498
 40
1.0
 40
1.0
 40
1.0
 40
1.0
 10
4.9415186401
 20
5.3644212338
 30
0.0
 10
4.9368492113
 20
5.3609090084
 30
0.0
 10
4.9299845064
 20
5.3553476589
 30
0.0
 10
4.9211857008
 20
5.3474128999
 30
0.0
 10
4.9146665782
 20
5.3411136054
 30
0.0
 10
4.9082802828
 20
5.3345203941
 30
0.0
 10
4.8999086115
 20
5.3253054261
 30
0.0
 10
4.8898339049
 20
5.3131198315
 30
0.0
 10
4.8784697927
 20
5.2976109855
 30
0.0
 10
4.8678295814
 20
5.2812390488
 30
0.0
 10
4.8579783013
 20
5.2641079761
 30
0.0
 10
4.8519984275
 20
5.2522865693
 30
0.0
 10
4.8491560708
 20
5.2462757345
 30
0.0
 11
4.9415186401
 21
5.3644212338
 31
0.0
 11
4.9278951084
 21
5.3533915911
 31
0.0
 11
4.9212498405
 21
5.3474020447
 31
0.0
 11
4.9147291115
 21
5.3411049504
 31
0.0
 11
4.9083410674
 21
5.3345132581
 31
0.0
 11
4.9020938421
 21
5.3276399557
 31
0.0
 11
4.8900543834
 21
5.3131004727
 31
0.0
 11
4.8786758061
 21
5.2975904052
 31
0.0
 11
4.8680231811
 21
5.2812136571
 31
0.0
 11
4.8581615791
 21
5.2640741322
 31
0.0
 11
4.8491560708
 21
5.2462757345
 31
0.0
  0
SPLINE
  5
4D1
100
AcDbEntity
  8
0
100
AcDbSpline
 62
6
  6
CONTINUOUS
 70
0
 71
3
 72
21
 73
17
 74
15
 42
0.0000001
 43
0.0000001
 44
0.0000000001
 12
-0.1782105913
 22
-0.0007349579
 32
0.0
 13
-0.1118138845
 23
-0.1387703508
 33
0.0
 40
0.0
 40
0.0
 40
0.0
 40
0.0
 40
0.0627605279
 40
0.1247405964
 40
0.1554939253
 40
0.1861131676
 40
0.247047888
 40
0.3077664726
 40
0.3684511015
 40
0.4292698352
 40
0.4903725411
 40
0.551874373
 40
0.6138727664
 40
0.7396688163
 40
0.8682947034
 40
1.0
 40
1.0
 40
1.0
 40
1.0
 10
5.3974013014
 20
5.2845651899
 30
0.0
 10
5.3936731045
 20
5.2845498145
 30
0.0
 10
5.3862615066
 20
5.284256379
 30
0.0
 10
5.3770735763
 20
5.283228792
 30
0.0
 10
5.3698445668
 20
5.2820219027
 30
0.0
 10
5.362724524
 20
5.2805683677
 30
0.0
 10
5.3539628469
 20
5.2782875248
 30
0.0
 10
5.343685622
 20
5.2748413024
 30
0.0
 10
5.3336657254
 20
5.2707253499
 30
0.0
 10
5.3239055663
 20
5.2659760276
 30
0.0
 10
5.3144039412
 20
5.2606304902
 30
0.0
 10
5.3051572022
 20
5.2547249642
 30
0.0
 10
5.2931073991
 20
5.2461062718
 30
0.0
 10
5.2786561067
 20
5.2340384085
 30
0.0
 10
5.2623898299
 20
5.2178326939
 30
0.0
 10
5.2522892278
 20
5.2061019718
 30
0.0
 10
5.2473804008
 20
5.2000097084
 30
0.0
 11
5.3974013014
 21
5.2845651899
 31
0.0
 11
5.3862254732
 21
5.2841201477
 31
0.0
 11
5.3752484903
 21
5.2828908813
 31
0.0
 11
5.3698427194
 21
5.2819882257
 31
0.0
 11
5.3644962323
 21
5.280896958
 31
0.0
 11
5.3539862985
 21
5.2781645971
 31
0.0
 11
5.3437255031
 21
5.274728683
 31
0.0
 11
5.3337197163
 21
5.2706246928
 31
0.0
 11
5.3239707309
 21
5.2658883138
 31
0.0
 11
5.3144767427
 21
5.260555418
 31
0.0
 11
5.3052358139
 21
5.2546617801
 31
0.0
 11
5.2962456049
 21
5.2482388878
 31
0.0
 11
5.2790058086
 21
5.2339080419
 31
0.0
 11
5.2627310367
 21
5.217765504
 31
0.0
 11
5.2473804008
 21
5.2000097084
 31
0.0
  0
SPLINE
  5
4D2
100
AcDbEntity
  8
0
100
AcDbSpline
 62
9
  6
CONTINUOUS
 70
0
 71
3
 72
29
 73
25
 74
23
 42
0.0000001
 43
0.0000001
 44
0.0000000001
 12
-0.133841144
 22
0.2324282996
 32
0.0
 13
-0.2439105969
 23
0.1115526199
 33
0.0
 40
0.0
 40
0.0
 40
0.0
 40
0.0
 40
0.0749666224
 40
0.1494228045
 40
0.2230945835
 40
0.2957121368
 40
0.3670107096
 40
0.4367318064
 40
0.5046247387
 40
0.5704486599
 40
0.633974761
 40
0.6949881934
 40
0.7244923214
 40
0.7532974126
 40
0.7813834836
 40
0.8087328234
 40
0.8353303656
 40
0.8611641306
 40
0.8862257504
 40
0.9105110909
 40
0.9340209865
 40
0.9567621035
 40
0.9787479444
 40
1.0
 40
1.0
 40
1.0
 40
1.0
 10
5.2473804008
 20
5.2000097084
 30
0.0
 10
5.2440358613
 20
5.20581783
 30
0.0
 10
5.2372951154
 20
5.2173518819
 30
0.0
 10
5.226991649
 20
5.2344306174
 30
0.0
 10
5.2165406096
 20
5.2511725728
 30
0.0
 10
5.205964843
 20
5.2675008619
 30
0.0
 10
5.1952871656
 20
5.2833387009
 30
0.0
 10
5.1845303866
 20
5.2986093718
 30
0.0
 10
5.1737172972
 20
5.3132362295
 30
0.0
 10
5.1628706405
 20
5.3271427962
 30
0.0
 10
5.1520133437
 20
5.3402522682
 30
0.0
 10
5.1428771946
 20
5.3505619882
 30
0.0
 10
5.1355711855
 20
5.3583361986
 30
0.0
 10
5.1301651291
 20
5.3638538482
 30
0.0
 10
5.1247743445
 20
5.3691141911
 30
0.0
 10
5.119401789
 20
5.374107666
 30
0.0
 10
5.1140504531
 20
5.3788247193
 30
0.0
 10
5.1087232981
 20
5.3832558002
 30
0.0
 10
5.1034232693
 20
5.3873913586
 30
0.0
 10
5.0981532793
 20
5.3912218446
 30
0.0
 10
5.0929162313
 20
5.3947376907
 30
0.0
 10
5.0877149136
 20
5.3979293473
 30
0.0
 10
5.082552349
 20
5.4007871107
 30
0.0
 10
5.0790805355
 20
5.4024916018
 30
0.0
 10
5.0773526683
 20
5.4032818426
 30
0.0
 11
5.2473804008
 21
5.2000097084
 31
0.0
 11
5.237231754
 21
5.2173673278
 31
0.0
 11
5.2269120089
 21
5.2344640571
 31
0.0
 11
5.2164439399
 21
5.2512228277
 31
0.0
 11
5.2058503214
 21
5.2675665707
 31
0.0
 11
5.1951539277
 21
5.2834182176
 31
0.0
 11
5.1843775333
 21
5.2987006995
 31
0.0
 11
5.1735439124
 21
5.3133369477
 31
0.0
 11
5.1626758395
 21
5.3272498934
 31
0.0
 11
5.1517963397
 21
5.3403624982
 31
0.0
 11
5.1409294446
 21
5.3525978448
 31
0.0
 11
5.1355083124
 21
5.3583625192
 31
0.0
 11
5.1300994379
 21
5.3638790465
 31
0.0
 11
5.1247058565
 21
5.3691378158
 31
0.0
 11
5.1193306036
 21
5.3741292164
 31
0.0
 11
5.1139767148
 21
5.3788436373
 31
0.0
 11
5.1086472256
 21
5.3832714677
 31
0.0
 11
5.1033451714
 21
5.3874030968
 31
0.0
 11
5.0980735878
 21
5.3912289138
 31
0.0
 11
5.0928355102
 21
5.3947393076
 31
0.0
 11
5.0876339741
 21
5.3979246676
 31
0.0
 11
5.082472015
 21
5.4007753829
 31
0.0
 11
5.0773526683
 21
5.4032818426
 31
0.0
  0
SPLINE
  5
4D3
100
AcDbEntity
  8
0
100
AcDbSpline
 62
9
  6
CONTINUOUS
 70
0
 71
3
 72
16
 73
12
 74
10
 42
0.0000001
 43
0.0000001
 44
0.0000000001
 12
-0.2480118762
 22
-0.0094947714
 32
0.0
 13
-0.2417978714
 23
-0.0559806289
 33
0.0
 40
0.0
 40
0.0
 40
0.0
 40
0.0
 40
0.106438163
 40
0.2210566262
 40
0.3424108072
 40
0.4690739774
 40
0.5339563882
 40
0.5996308762
 40
0.7326173137
 40
0.8665631821
 40
1.0
 40
1.0
 40
1.0
 40
1.0
 10
5.3229711196
 20
5.4363476667
 30
0.0
 10
5.3141718101
 20
5.4360107981
 30
0.0
 10
5.2959042785
 20
5.4351061269
 30
0.0
 10
5.2676450923
 20
5.433102069
 30
0.0
 10
5.2377704326
 20
5.4303213521
 30
0.0
 10
5.2120554879
 20
5.4273211519
 30
0.0
 10
5.1909683927
 20
5.4244577346
 30
0.0
 10
5.1694008628
 20
5.4212571409
 30
0.0
 10
5.1422573639
 20
5.4167210943
 30
0.0
 10
5.1097251617
 20
5.4104771737
 30
0.0
 10
5.0881075812
 20
5.4057718016
 30
0.0
 10
5.0773526683
 20
5.4032818426
 30
0.0
 11
5.3229711196
 21
5.4363476667
 31
0.0
 11
5.2965857746
 21
5.4350493897
 31
0.0
 11
5.2682092354
 21
5.4330404288
 31
0.0
 11
5.2382196316
 21
5.4302480375
 31
0.0
 11
5.2069950928
 21
5.426599469
 31
0.0
 11
5.1910379711
 21
5.4244339112
 31
0.0
 11
5.1749144123
 21
5.4220421855
 31
0.0
 11
5.1423590393
 21
5.4166044833
 31
0.0
 11
5.109711087
 21
5.4103348673
 31
0.0
 11
5.0773526683
 21
5.4032818426
 31
0.0
  0
SPLINE
  5
4D4
100
AcDbEntity
  8
0
100
AcDbSpline
 62
9
  6
CONTINUOUS
 70
0
 71
3
 72
62
 73
58
 74
56
 42
0.0000001
 43
0.0000001
 44
0.0000000001
 12
0.1796999789
 22
-0.1687552247
 32
0.0
 13
0.0014744898
 23
0.246512138
 33
0.0
 40
0.0
 40
0.0
 40
0.0
 40
0.0
 40
0.0328261726
 40
0.0652642885
 40
0.0813268442
 40
0.0972719653
 40
0.1130873587
 40
0.12876343
 40
0.1442936574
 40
0.1596690113
 40
0.1748499775
 40
0.1897938606
 40
0.2044713853
 40
0.218869888
 40
0.2329923758
 40
0.2468393121
 40
0.2604161923
 40
0.2737403478
 40
0.280318781
 40
0.2868474837
 40
0.2998001304
 40
0.312706676
 40
0.3256453858
 40
0.3386641743
 40
0.3452117751
 40
0.3517857066
 40
0.3650194834
 40
0.3783829875
 40
0.4055356785
 40
0.419338406
 40
0.4332933404
 40
0.4616758535
 40
0.476109752
 40
0.4907032839
 40
0.5054552192
 40
0.5203661148
 40
0.5506659702
 40
0.5816096763
 40
0.6132014847
 40
0.6292426845
 40
0.6454438859
 40
0.6618036778
 40
0.6783213449
 40
0.7117938066
 40
0.7458269603
 40
0.7804153512
 40
0.7979238958
 40
0.8155776564
 40
0.8333792532
 40
0.8513318637
 40
0.8694390335
 40
0.8877020404
 40
0.906118872
 40
0.924681672
 40
0.9621815038
 40
0.9810685122
 40
1.0
 40
1.0
 40
1.0
 40
1.0
 10
5.3007937045
 20
5.1668233295
 30
0.0
 10
5.302759992
 20
5.1649768001
 30
0.0
 10
5.3067525546
 20
5.1613929396
 30
0.0
 10
5.3119390081
 20
5.157173837
 30
0.0
 10
5.3161756592
 20
5.1539956854
 30
0.0
 10
5.3193840799
 20
5.1517256198
 30
0.0
 10
5.3226327047
 20
5.1495702933
 30
0.0
 10
5.3259200858
 20
5.1475384859
 30
0.0
 10
5.3292445005
 20
5.1456395873
 30
0.0
 10
5.3326008075
 20
5.1438834166
 30
0.0
 10
5.3359849949
 20
5.1422909777
 30
0.0
 10
5.3393901388
 20
5.140887113
 30
0.0
 10
5.3428082083
 20
5.139696942
 30
0.0
 10
5.3462310473
 20
5.1387458172
 30
0.0
 10
5.349647692
 20
5.1380601591
 30
0.0
 10
5.3530403104
 20
5.1376480213
 30
0.0
 10
5.3563899832
 20
5.1375173716
 30
0.0
 10
5.3591419457
 20
5.1376508186
 30
0.0
 10
5.361299307
 20
5.1379081279
 30
0.0
 10
5.3634115862
 20
5.1382646219
 30
0.0
 10
5.3660009441
 20
5.1388975073
 30
0.0
 10
5.3690227533
 20
5.1399247794
 30
0.0
 10
5.3719596839
 20
5.1411861555
 30
0.0
 10
5.3743390502
 20
5.1424037509
 30
0.0
 10
5.376208098
 20
5.1434627227
 30
0.0
 10
5.3780645101
 20
5.1445784127
 30
0.0
 10
5.3803484699
 20
5.1460682142
 30
0.0
 10
5.3839351116
 20
5.1486477566
 30
0.0
 10
5.3873910321
 20
5.1514809604
 30
0.0
 10
5.3907261113
 20
5.1545208385
 30
0.0
 10
5.3940341041
 20
5.1577372232
 30
0.0
 10
5.3972313296
 20
5.1611381265
 30
0.0
 10
5.4003319883
 20
5.1646938502
 30
0.0
 10
5.4026342871
 20
5.1674585107
 30
0.0
 10
5.4049012115
 20
5.170302494
 30
0.0
 10
5.4078893353
 20
5.1742206784
 30
0.0
 10
5.4115244187
 20
5.1793168725
 30
0.0
 10
5.4156926973
 20
5.1857084021
 30
0.0
 10
5.4189873744
 20
5.1912639473
 30
0.0
 10
5.4215142979
 20
5.1958609851
 30
0.0
 10
5.4233547781
 20
5.1994058276
 30
0.0
 10
5.4251220589
 20
5.2030314336
 30
0.0
 10
5.4273789272
 20
5.2079950181
 30
0.0
 10
5.4299539302
 20
5.2144072742
 30
0.0
 10
5.4325122007
 20
5.2224044569
 30
0.0
 10
5.4341982879
 20
5.2292840562
 30
0.0
 10
5.4352906883
 20
5.2349113283
 30
0.0
 10
5.4359872023
 20
5.2392081017
 30
0.0
 10
5.4365634189
 20
5.2435593214
 30
0.0
 10
5.437028197
 20
5.2479612104
 30
0.0
 10
5.4373958018
 20
5.2524101977
 30
0.0
 10
5.4376791585
 20
5.2569034784
 30
0.0
 10
5.4378911343
 20
5.2614380981
 30
0.0
 10
5.4380954508
 20
5.2675549704
 30
0.0
 10
5.4382014183
 20
5.273713182
 30
0.0
 10
5.4382545005
 20
5.2799020098
 30
0.0
 10
5.438271948
 20
5.2830095954
 30
0.0
 10
5.4382812528
 20
5.2845652092
 30
0.0
 11
5.3007937045
 21
5.1668233295
 31
0.0
 11
5.3068191831
 21
5.161421735
 31
0.0
 11
5.3130259962
 21
5.1563799098
 31
0.0
 11
5.3161942583
 21
5.1540047832
 31
0.0
 11
5.3194039435
 21
5.1517357287
 31
0.0
 11
5.3226535919
 21
5.1495816431
 31
0.0
 11
5.3259417433
 21
5.147551438
 31
0.0
 11
5.3292669372
 21
5.1456540249
 31
0.0
 11
5.3326269653
 21
5.1439000501
 31
0.0
 11
5.3360150696
 21
5.1423107097
 31
0.0
 11
5.339422782
 21
5.1409111662
 31
0.0
 11
5.3428416311
 21
5.139726589
 31
0.0
 11
5.3462631457
 21
5.1387821477
 31
0.0
 11
5.3496771615
 21
5.1381003633
 31
0.0
 11
5.3530661797
 21
5.137692282
 31
0.0
 11
5.3564107163
 21
5.1375658439
 31
0.0
 11
5.3596912869
 21
5.1377289891
 31
0.0
 11
5.3613014962
 21
5.1379216366
 31
0.0
 11
5.3628884709
 21
5.1381895666
 31
0.0
 11
5.365991249
 21
5.1389434127
 31
0.0
 11
5.3690053175
 21
5.1399624613
 31
0.0
 11
5.3719383501
 21
5.1412158194
 31
0.0
 11
5.3747980207
 21
5.1426725936
 31
0.0
 11
5.3762027433
 21
5.1434676076
 31
0.0
 11
5.3775919483
 21
5.1443021125
 31
0.0
 11
5.3803255426
 21
5.146082662
 31
0.0
 11
5.3830012953
 21
5.1480043604
 31
0.0
 11
5.3881884413
 21
5.1522349196
 31
0.0
 11
5.3907044233
 21
5.1545256676
 31
0.0
 11
5.3931719884
 21
5.1569226581
 31
0.0
 11
5.3979734487
 21
5.162011923
 31
0.0
 11
5.400313172
 21
5.1646926777
 31
0.0
 11
5.4026160425
 21
5.1674565757
 31
0.0
 11
5.4048828751
 21
5.1703002181
 31
0.0
 11
5.4071121291
 21
5.1732228544
 31
0.0
 11
5.411451212
 21
5.1793027008
 31
0.0
 11
5.4156181188
 21
5.1856921719
 31
0.0
 11
5.4195902955
 21
5.192390922
 31
0.0
 11
5.4214942573
 21
5.1958568095
 31
0.0
 11
5.4233337861
 21
5.1994018181
 31
0.0
 11
5.4251001374
 21
5.203027389
 31
0.0
 11
5.4267838326
 21
5.206734863
 31
0.0
 11
5.4298439965
 21
5.2143979503
 31
0.0
 11
5.4324057586
 21
5.2223870077
 31
0.0
 11
5.4344427498
 21
5.2306667273
 31
0.0
 11
5.4352665248
 21
5.2349035317
 31
0.0
 11
5.435964498
 21
5.23919914
 31
0.0
 11
5.4365426468
 21
5.2435492774
 31
0.0
 11
5.4370102201
 21
5.2479501236
 31
0.0
 11
5.437380368
 21
5.2523984672
 31
0.0
 11
5.4376662254
 21
5.2568915163
 31
0.0
 11
5.4378805407
 21
5.2614265088
 31
0.0
 11
5.4380353306
 21
5.2659999275
 31
0.0
 11
5.4382100502
 21
5.2752426053
 31
0.0
 11
5.4382521731
 21
5.2798983748
 31
0.0
 11
5.4382812528
 21
5.2845652092
 31
0.0
  0
SPLINE
  5
4D5
100
AcDbEntity
  8
0
100
AcDbSpline
 62
6
  6
CONTINUOUS
 70
0
 71
3
 72
11
 73
7
 74
5
 42
0.0000001
 43
0.0000001
 44
0.0000000001
 12
-0.0326451801
 22
-0.0404158437
 32
0.0
 13
-0.0272901662
 23
-0.0442085403
 33
0.0
 40
0.0
 40
0.0
 40
0.0
 40
0.0
 40
0.2438839488
 40
0.4919658878
 40
0.7440717045
 40
1.0
 40
1.0
 40
1.0
 40
1.0
 10
5.2473693285
 20
5.2000258476
 30
0.0
 10
5.24471545
 20
5.1967402558
 30
0.0
 10
5.2394791363
 20
5.1900170986
 30
0.0
 10
5.2319018664
 20
5.1795921147
 30
0.0
 10
5.2245389086
 20
5.1687616713
 30
0.0
 10
5.2198112873
 20
5.1613400531
 30
0.0
 10
5.2174831788
 20
5.1575686477
 30
0.0
 11
5.2473693285
 21
5.2000258476
 31
0.0
 11
5.2395794487
 21
5.1900327782
 31
0.0
 11
5.2319976782
 21
5.1796099723
 31
0.0
 11
5.2246301954
 21
5.168780804
 31
0.0
 11
5.2174831788
 21
5.1575686477
 31
0.0
  0
SPLINE
  5
4D6
100
AcDbEntity
  8
0
100
AcDbSpline
 62
6
  6
CONTINUOUS
 70
0
 71
3
 72
13
 73
9
 74
7
 42
0.0000001
 43
0.0000001
 44
0.0000000001
 12
-0.0501899713
 22
-0.0813663502
 32
0.0
 13
-0.0363608944
 23
-0.0884160705
 33
0.0
 40
0.0
 40
0.0
 40
0.0
 40
0.0
 40
0.1205244169
 40
0.2421113315
 40
0.3648483989
 40
0.4888578211
 40
0.7411691867
 40
1.0
 40
1.0
 40
1.0
 40
1.0
 10
5.217479044
 20
5.1575741506
 30
0.0
 10
5.2154626716
 20
5.1543052733
 30
0.0
 10
5.2114917376
 20
5.1476892876
 30
0.0
 10
5.2057353434
 20
5.1375867126
 30
0.0
 10
5.2001440329
 20
5.1272653109
 30
0.0
 10
5.1928625529
 20
5.113125612
 30
0.0
 10
5.1841472974
 20
5.0948516266
 30
0.0
 10
5.1776932312
 20
5.0798919338
 30
0.0
 10
5.1745561246
 20
5.072263666
 30
0.0
 11
5.217479044
 21
5.1575741506
 31
0.0
 11
5.2115465891
 21
5.1476965079
 31
0.0
 11
5.2057896412
 21
5.1375984649
 31
0.0
 11
5.2001993419
 21
5.1272819845
 31
0.0
 11
5.1947700446
 21
5.1167428532
 31
0.0
 11
5.1843731057
 21
5.0949774074
 31
0.0
 11
5.1745561246
 21
5.072263666
 31
0.0
  0
SPLINE
  5
4D7
100
AcDbEntity
  8
0
100
AcDbSpline
 62
9
  6
CONTINUOUS
 70
0
 71
3
 72
23
 73
19
 74
17
 42
0.0000001
 43
0.0000001
 44
0.0000000001
 12
-0.2362599891
 22
0.2108720312
 32
0.0
 13
-0.3050583578
 23
0.085001143
 33
0.0
 40
0.0
 40
0.0
 40
0.0
 40
0.0
 40
0.0739524672
 40
0.1471096868
 40
0.2192995814
 40
0.2903530084
 40
0.3601043157
 40
0.4283920287
 40
0.4950597068
 40
0.5599570194
 40
0.6229395349
 40
0.6838654912
 40
0.7426023437
 40
0.7990310871
 40
0.8530499131
 40
0.9045790489
 40
0.9535671837
 40
1.0
 40
1.0
 40
1.0
 40
1.0
 10
5.1745502909
 20
5.0722693708
 30
0.0
 10
5.1687262879
 20
5.0774675397
 30
0.0
 10
5.1570862157
 20
5.0877469343
 30
0.0
 10
5.1395570948
 20
5.1028678318
 30
0.0
 10
5.1220703922
 20
5.117566747
 30
0.0
 10
5.1046570737
 20
5.1317909566
 30
0.0
 10
5.087348059
 20
5.1454877948
 30
0.0
 10
5.0701742554
 20
5.1586046221
 30
0.0
 10
5.0531665384
 20
5.1710888392
 30
0.0
 10
5.036355875
 20
5.1828878045
 30
0.0
 10
5.0197739016
 20
5.1939484515
 30
0.0
 10
5.0034544578
 20
5.2042193649
 30
0.0
 10
4.9874319036
 20
5.2136487527
 30
0.0
 10
4.9717405301
 20
5.2221848142
 30
0.0
 10
4.9564144817
 20
5.229775787
 30
0.0
 10
4.9414871691
 20
5.2363700451
 30
0.0
 10
4.9269927864
 20
5.2419155263
 30
0.0
 10
4.9173827813
 20
5.2449601204
 30
0.0
 10
4.9126612084
 20
5.2462757345
 30
0.0
 11
5.1745502909
 21
5.0722693708
 31
0.0
 11
5.1569932838
 21
5.0877681207
 31
0.0
 11
5.1394475621
 21
5.1028967394
 31
0.0
 11
5.1219440819
 21
5.117602373
 31
0.0
 11
5.1045137993
 21
5.1318321679
 31
0.0
 11
5.0871876704
 21
5.1455332705
 31
0.0
 11
5.0699966513
 21
5.1586528271
 31
0.0
 11
5.0529716981
 21
5.1711379839
 31
0.0
 11
5.0361437669
 21
5.1829358874
 31
0.0
 11
5.019544465
 21
5.1939937623
 31
0.0
 11
5.0032080042
 21
5.2042591474
 31
0.0
 11
4.9871692471
 21
5.2136796599
 31
0.0
 11
4.9714630563
 21
5.2222029169
 31
0.0
 11
4.9561242944
 21
5.2297765357
 31
0.0
 11
4.941187824
 21
5.2363481334
 31
0.0
 11
4.9266885078
 21
5.2418653273
 31
0.0
 11
4.9126612084
 21
5.2462757345
 31
0.0
  0
SPLINE
  5
4D8
100
AcDbEntity
  8
0
100
AcDbSpline
 62
9
  6
CONTINUOUS
 70
0
 71
3
 72
22
 73
18
 74
16
 42
0.0000001
 43
0.0000001
 44
0.0000000001
 12
-0.2297891176
 22
-0.0532003828
 32
0.0
 13
-0.0933772778
 23
-0.2165964064
 33
0.0
 40
0.0
 40
0.0
 40
0.0
 40
0.0
 40
0.104632533
 40
0.1592111009
 40
0.2152812537
 40
0.2728496798
 40
0.3319295234
 40
0.3925431784
 40
0.4547247139
 40
0.5184993109
 40
0.583798772
 40
0.6505078446
 40
0.7184905722
 40
0.7875957702
 40
0.8576616972
 40
0.9285201272
 40
1.0
 40
1.0
 40
1.0
 40
1.0
 10
5.0773526683
 20
5.4032818426
 30
0.0
 10
5.0693381958
 20
5.4014263457
 30
0.0
 10
5.0573353705
 20
5.39768922
 30
0.0
 10
5.0417509558
 20
5.3910665186
 30
0.0
 10
5.0299369982
 20
5.3850977435
 30
0.0
 10
5.0182304423
 20
5.3781980661
 30
0.0
 10
5.0066915561
 20
5.3703654263
 30
0.0
 10
4.9953829255
 20
5.3615986226
 30
0.0
 10
4.9843679698
 20
5.3518970241
 30
0.0
 10
4.9737172722
 20
5.3412692827
 30
0.0
 10
4.9634644525
 20
5.329777092
 30
0.0
 10
4.9536483115
 20
5.3174842374
 30
0.0
 10
4.9443089705
 20
5.3044560386
 30
0.0
 10
4.9354867247
 20
5.290757749
 30
0.0
 10
4.9272219237
 20
5.2764545382
 30
0.0
 10
4.9195552376
 20
5.2616121397
 30
0.0
 10
4.9148860737
 20
5.2514364957
 30
0.0
 10
4.9126612084
 20
5.2462757345
 30
0.0
 11
5.0773526683
 21
5.4032818426
 31
0.0
 11
5.0537680165
 21
5.3960130092
 31
0.0
 11
5.0419170981
 21
5.3909853475
 31
0.0
 11
5.0301100618
 21
5.3850273802
 31
0.0
 11
5.0184091153
 21
5.3781380007
 31
0.0
 11
5.0068764662
 21
5.3703161021
 31
0.0
 11
4.9955743225
 21
5.3615605778
 31
0.0
 11
4.9845648917
 21
5.3518703211
 31
0.0
 11
4.9739068059
 21
5.3412553788
 31
0.0
 11
4.9636443934
 21
5.3297704123
 31
0.0
 11
4.9538184069
 21
5.3174812364
 31
0.0
 11
4.9444695992
 21
5.3044536659
 31
0.0
 11
4.9356387228
 21
5.2907535156
 31
0.0
 11
4.9273665305
 21
5.2764466004
 31
0.0
 11
4.9196937748
 21
5.2615987351
 31
0.0
 11
4.9126612084
 21
5.2462757345
 31
0.0
  0
SPLINE
  5
4D9
100
AcDbEntity
  8
0
100
AcDbSpline
 62
6
  6
CONTINUOUS
 70
0
 71
3
 72
16
 73
12
 74
10
 42
0.0000001
 43
0.0000001
 44
0.0000000001
 12
-0.2752923614
 22
0.0177133465
 32
0.0
 13
-0.2757905273
 23
0.0062635413
 33
0.0
 40
0.0
 40
0.0
 40
0.0
 40
0.0
 40
0.0509540332
 40
0.1046834608
 40
0.2194290071
 40
0.3421572521
 40
0.4707878525
 40
0.6031976911
 40
0.7370935668
 40
0.8701396086
 40
1.0
 40
1.0
 40
1.0
 40
1.0
 10
5.11877854
 20
4.8604798769
 30
0.0
 10
5.1141027879
 20
4.8607807324
 30
0.0
 10
5.1044952827
 20
4.8613784449
 30
0.0
 10
5.0843524198
 20
4.8625581997
 30
0.0
 10
5.0576133662
 20
4.8639915932
 30
0.0
 10
5.0239874599
 20
4.8656105706
 30
0.0
 10
4.9887311879
 20
4.86713374
 30
0.0
 10
4.952442026
 20
4.8685309781
 30
0.0
 10
4.9157412974
 20
4.8697824962
 30
0.0
 10
4.8792698156
 20
4.8708676635
 30
0.0
 10
4.8551021373
 20
4.8714776432
 30
0.0
 10
4.8431640487
 20
4.8717487719
 30
0.0
 11
5.11877854
 21
4.8604798769
 31
0.0
 11
5.1047495034
 21
4.8613543334
 31
0.0
 11
5.0899530548
 21
4.8622223659
 31
0.0
 11
5.0583449613
 21
4.8639245701
 31
0.0
 11
5.0245283391
 21
4.8655573124
 31
0.0
 11
4.9890772679
 21
4.8670914156
 31
0.0
 11
4.952577608
 21
4.8684991226
 31
0.0
 11
4.9156623424
 21
4.8697583559
 31
0.0
 11
4.8789762348
 21
4.8708484581
 31
0.0
 11
4.8431640487
 21
4.8717487719
 31
0.0
  0
SPLINE
  5
4DA
100
AcDbEntity
  8
0
100
AcDbSpline
 62
9
  6
CONTINUOUS
 70
0
 71
3
 72
15
 73
11
 74
9
 42
0.0000001
 43
0.0000001
 44
0.0000000001
 12
-0.1519083821
 22
-0.3523641985
 32
0.0
 13
0.0079543772
 23
-0.3836318715
 33
0.0
 40
0.0
 40
0.0
 40
0.0
 40
0.0
 40
0.1193059327
 40
0.2407591601
 40
0.364128099
 40
0.4891510449
 40
0.6155456757
 40
0.7430175072
 40
0.8712676262
 40
1.0
 40
1.0
 40
1.0
 40
1.0
 10
4.9126612084
 20
5.2462757345
 30
0.0
 10
4.906620018
 20
5.2322626881
 30
0.0
 10
4.8953029674
 20
5.2035999302
 30
0.0
 10
4.8807346544
 20
5.1593386483
 30
0.0
 10
4.868450258
 20
5.1136320728
 30
0.0
 10
4.8584916362
 20
5.0667184199
 30
0.0
 10
4.8508998107
 20
5.0188334296
 30
0.0
 10
4.8457164161
 20
4.9702131526
 30
0.0
 10
4.8429831715
 20
4.9210956697
 30
0.0
 10
4.8428227041
 20
4.8882099086
 30
0.0
 10
4.8431640327
 20
4.8717479615
 30
0.0
 11
4.9126612084
 21
5.2462757345
 31
0.0
 11
4.8958175677
 21
5.2037076145
 31
0.0
 11
4.8812206348
 21
5.1594492688
 31
0.0
 11
4.8689122692
 21
5.1137389741
 31
0.0
 11
4.8589343305
 21
5.0668150076
 31
0.0
 11
4.851328678
 21
5.0189156461
 31
0.0
 11
4.8461371712
 21
4.9702791666
 31
0.0
 11
4.8434016696
 21
4.9211438461
 31
0.0
 11
4.8431640327
 21
4.8717479615
 31
0.0
  0
SPLINE
  5
4DB
100
AcDbEntity
  8
0
100
AcDbSpline
 62
6
  6
CONTINUOUS
 70
0
 71
3
 72
14
 73
10
 74
8
 42
0.0000001
 43
0.0000001
 44
0.0000000001
 12
-0.0493140861
 22
-0.1524129644
 32
0.0
 13
-0.021998063
 23
-0.1586747492
 33
0.0
 40
0.0
 40
0.0
 40
0.0
 40
0.0
 40
0.2404440336
 40
0.3632479889
 40
0.4876766561
 40
0.6136706644
 40
0.7411715528
 40
0.8700344754
 40
1.0
 40
1.0
 40
1.0
 40
1.0
 10
5.1541645874
 20
5.016514012
 30
0.0
 10
5.1502121614
 20
5.004298416
 30
0.0
 10
5.1446759522
 20
4.9856996044
 30
0.0
 10
5.1380724793
 20
4.9605087893
 30
0.0
 10
5.1334376957
 20
4.941124098
 30
0.0
 10
5.1291683708
 20
4.9213991891
 30
0.0
 10
5.1252770957
 20
4.9013548889
 30
0.0
 10
5.1217795625
 20
4.8810230181
 30
0.0
 10
5.1197315234
 20
4.8673535098
 30
0.0
 10
5.1187785268
 20
4.8604794275
 30
0.0
 11
5.1541645874
 21
5.016514012
 31
0.0
 11
5.1431536111
 21
4.9796041149
 31
0.0
 11
5.1381629516
 21
4.9605754279
 31
0.0
 11
5.1335264625
 21
4.9411896502
 31
0.0
 11
5.1292555149
 21
4.9214634322
 31
0.0
 11
5.1253622198
 21
4.9014132626
 31
0.0
 11
5.1218627166
 21
4.8810691985
 31
0.0
 11
5.1187785268
 21
4.8604794275
 31
0.0
  0
SPLINE
  5
4DC
100
AcDbEntity
  8
0
100
AcDbSpline
 62
6
  6
CONTINUOUS
 70
0
 71
3
 72
30
 73
26
 74
24
 42
0.0000001
 43
0.0000001
 44
0.0000000001
 12
0.0022568496
 22
0.035325546
 32
0.0
 13
-0.0353245219
 23
0.002272822
 33
0.0
 40
0.0
 40
0.0
 40
0.0
 40
0.0
 40
0.0015277611
 40
0.0031615411
 40
0.0050044852
 40
0.0071307499
 40
0.0095900725
 40
0.0124156027
 40
0.0192464553
 40
0.0277438027
 40
0.0379746821
 40
0.0499844814
 40
0.0638075209
 40
0.079471946
 40
0.0970022083
 40
0.1164204235
 40
0.1377480649
 40
0.1862255795
 40
0.242622269
 40
0.3071186866
 40
0.3798914935
 40
0.4611149193
 40
0.5509615976
 40
0.757209315
 40
1.0
 40
1.0
 40
1.0
 40
1.0
 10
5.1537191175
 20
4.8563367152
 30
0.0
 10
5.1537202668
 20
4.8563547049
 30
0.0
 10
5.1537170641
 20
4.8563924897
 30
0.0
 10
5.1536957694
 20
4.8564482142
 30
0.0
 10
5.1536587161
 20
4.8565034818
 30
0.0
 10
5.1536062107
 20
4.85655859
 30
0.0
 10
5.1535382193
 20
4.8566138579
 30
0.0
 10
5.1534189737
 20
4.8566930023
 30
0.0
 10
5.1532275997
 20
4.8567905101
 30
0.0
 10
5.1529476372
 20
4.8569031246
 30
0.0
 10
5.1526032721
 20
4.857017525
 30
0.0
 10
5.1521938104
 20
4.8571336683
 30
0.0
 10
5.1517184789
 20
4.8572514509
 30
0.0
 10
5.1511766507
 20
4.8573708102
 30
0.0
 10
5.1505677062
 20
4.8574916888
 30
0.0
 10
5.149891043
 20
4.8576140558
 30
0.0
 10
5.1488524886
 20
4.8577866128
 30
0.0
 10
5.1473791367
 20
4.8580033145
 30
0.0
 10
5.145397094
 20
4.8582593002
 30
0.0
 10
5.1431269413
 20
4.858520768
 30
0.0
 10
5.1405627028
 20
4.8587875279
 30
0.0
 10
5.1376983933
 20
4.8590593792
 30
0.0
 10
5.1332631717
 20
4.8594464349
 30
0.0
 10
5.1269235138
 20
4.8599362837
 30
0.0
 10
5.1216373004
 20
4.8602946964
 30
0.0
 10
5.1187784788
 20
4.8604786364
 30
0.0
 11
5.1537191175
 21
4.8563367152
 31
0.0
 11
5.153714778
 21
4.8563906198
 31
0.0
 11
5.1536948491
 21
4.8564449094
 31
0.0
 11
5.1536592596
 21
4.856499582
 31
0.0
 11
5.1536079384
 21
4.8565546356
 31
0.0
 11
5.1535408145
 21
4.8566100682
 31
0.0
 11
5.1534578166
 21
4.856665878
 31
0.0
 11
5.1532439144
 21
4.8567786208
 31
0.0
 11
5.1529656629
 21
4.8568928484
 31
0.0
 11
5.1526224929
 21
4.8570085451
 31
0.0
 11
5.1522138355
 21
4.8571256949
 31
0.0
 11
5.1517391214
 21
4.8572442823
 31
0.0
 11
5.1511977818
 21
4.8573642915
 31
0.0
 11
5.1505892474
 21
4.8574857067
 31
0.0
 11
5.1499129493
 21
4.8576085121
 31
0.0
 11
5.1491682858
 21
4.857732692
 31
0.0
 11
5.147470966
 21
4.8579851068
 31
0.0
 11
5.1454913645
 21
4.8582428147
 31
0.0
 11
5.1432235319
 21
4.8585056792
 31
0.0
 11
5.1406615187
 21
4.8587735635
 31
0.0
 11
5.1377993755
 21
4.8590463311
 31
0.0
 11
5.1346311528
 21
4.8593238453
 31
0.0
 11
5.1273526714
 21
4.8598925673
 31
0.0
 11
5.1187784788
 21
4.8604786364
 31
0.0
  0
SPLINE
  5
4DD
100
AcDbEntity
  8
0
100
AcDbSpline
 62
9
  6
CONTINUOUS
 70
0
 71
3
 72
10
 73
6
 74
4
 42
0.0000001
 43
0.0000001
 44
0.0000000001
 12
-0.0129335173
 22
0.006890181
 32
0.0
 13
-0.0143015908
 23
0.0031960857
 33
0.0
 40
0.0
 40
0.0
 40
0.0
 40
0.0
 40
0.5099167038
 40
0.7571077966
 40
1.0
 40
1.0
 40
1.0
 40
1.0
 10
5.3229711196
 20
5.4363476667
 30
0.0
 10
5.3207727807
 20
5.4375188062
 30
0.0
 10
5.3174028427
 20
5.439074004
 30
0.0
 10
5.3127793391
 20
5.4406590223
 30
0.0
 10
5.3104621521
 20
5.4412712754
 30
0.0
 10
5.3093042371
 20
5.4415300435
 30
0.0
 11
5.3229711196
 21
5.4363476667
 31
0.0
 11
5.3161742132
 21
5.4394525686
 31
0.0
 11
5.312746416
 21
5.4406239768
 31
0.0
 11
5.3093042371
 21
5.4415300435
 31
0.0
  0
SPLINE
  5
4DE
100
AcDbEntity
  8
0
100
AcDbSpline
 62
9
  6
CONTINUOUS
 70
0
 71
3
 72
9
 73
5
 74
3
 42
0.0000001
 43
0.0000001
 44
0.0000000001
 12
-0.009185949
 22
0.0020528542
 32
0.0
 13
-0.0094125379
 23
0.0
 33
0.0
 40
0.0
 40
0.0
 40
0.0
 40
0.0
 40
0.5025924168
 40
1.0
 40
1.0
 40
1.0
 40
1.0
 10
5.3093042371
 20
5.4415300435
 30
0.0
 10
5.3077653077
 20
5.4418739598
 30
0.0
 10
5.304665858
 20
5.4424020385
 30
0.0
 10
5.3015259502
 20
5.4425846435
 30
0.0
 10
5.2999653276
 20
5.4425846435
 30
0.0
 11
5.3093042371
 21
5.4415300435
 31
0.0
 11
5.3046395682
 21
5.4423175102
 31
0.0
 11
5.2999653276
 21
5.4425846435
 31
0.0
  0
LINE
  5
4DF
100
AcDbEntity
  8
0
100
AcDbLine
 62
9
  6
CONTINUOUS
 10
5.3110591359
 20
5.4429939437
 11
5.309706804
 21
5.4429478036
  0
SPLINE
  5
4E0
100
AcDbEntity
  8
0
100
AcDbSpline
 62
9
  6
CONTINUOUS
 70
0
 71
3
 72
11
 73
7
 74
5
 42
0.0000001
 43
0.0000001
 44
0.0000000001
 12
-0.0275266978
 22
0.0125893475
 32
0.0
 13
-0.0302689736
 23
0.0
 33
0.0
 40
0.0
 40
0.0
 40
0.0
 40
0.0
 40
0.2715449169
 40
0.527832589
 40
0.7700206389
 40
1.0
 40
1.0
 40
1.0
 40
1.0
 10
5.0773526683
 20
5.4032818426
 30
0.0
 10
5.07486109
 20
5.404421367
 30
0.0
 10
5.069929335
 20
5.4064509639
 30
0.0
 10
5.0624927888
 20
5.4087425797
 30
0.0
 10
5.0552652609
 20
5.4101567298
 30
0.0
 10
5.050497052
 20
5.4104960446
 30
0.0
 10
5.048176639
 20
5.4104960446
 30
0.0
 11
5.0773526683
 21
5.4032818426
 31
0.0
 11
5.0697428895
 21
5.4063882185
 31
0.0
 11
5.0623218167
 21
5.4086481941
 31
0.0
 11
5.0551221624
 21
5.4100285445
 31
0.0
 11
5.048176639
 21
5.4104960446
 31
0.0
  0
LINE
  5
4E1
100
AcDbEntity
  8
0
100
AcDbLine
 62
9
  6
CONTINUOUS
 10
5.2999653276
 20
5.4425846435
 11
5.2983489101
 21
5.442519226
  0
SPLINE
  5
4E2
100
AcDbEntity
  8
0
100
AcDbSpline
 62
9
  6
CONTINUOUS
 70
0
 71
3
 72
16
 73
12
 74
10
 42
0.0000001
 43
0.0000001
 44
0.0000000001
 12
-0.2523052753
 22
-0.0103599432
 32
0.0
 13
-0.2468262724
 23
-0.0533110837
 33
0.0
 40
0.0
 40
0.0
 40
0.0
 40
0.0
 40
0.1049087104
 40
0.2185184019
 40
0.3393381361
 40
0.465894848
 40
0.5308700715
 40
0.596729609
 40
0.7303527478
 40
0.8652728597
 40
1.0
 40
1.0
 40
1.0
 40
1.0
 10
5.2983489101
 20
5.442519226
 30
0.0
 10
5.2895259031
 20
5.4421569432
 30
0.0
 10
5.2711549613
 20
5.4412264149
 30
0.0
 10
5.2426588451
 20
5.4392486774
 30
0.0
 10
5.2123920173
 20
5.4365462999
 30
0.0
 10
5.1862581982
 20
5.4336494437
 30
0.0
 10
5.1647691343
 20
5.4308881355
 30
0.0
 10
5.1427238421
 20
5.4278001264
 30
0.0
 10
5.1149154787
 20
5.4234270524
 30
0.0
 10
5.0815052345
 20
5.4174148333
 30
0.0
 10
5.0592613716
 20
5.4128901945
 30
0.0
 10
5.048176639
 20
5.4104960446
 30
0.0
 11
5.2983489101
 21
5.442519226
 31
0.0
 11
5.2718912353
 21
5.4411843992
 31
0.0
 11
5.2432715103
 21
5.4391994201
 31
0.0
 11
5.2128834727
 21
5.4364837252
 31
0.0
 11
5.1811208606
 21
5.4329567517
 31
0.0
 11
5.1648470797
 21
5.4308670097
 31
0.0
 11
5.1483770295
 21
5.4285609329
 31
0.0
 11
5.1150439472
 21
5.4233222462
 31
0.0
 11
5.0815132662
 21
5.4172856355
 31
0.0
 11
5.048176639
 21
5.4104960446
 31
0.0
  0
SPLINE
  5
4E3
100
AcDbEntity
  8
0
100
AcDbSpline
 62
9
  6
CONTINUOUS
 70
0
 71
3
 72
14
 73
10
 74
8
 42
0.0000001
 43
0.0000001
 44
0.0000000001
 12
-0.0366200691
 22
0.0102037779
 32
0.0
 13
-0.0380150832
 23
0.0
 33
0.0
 40
0.0
 40
0.0
 40
0.0
 40
0.0
 40
0.276015026
 40
0.4078317234
 40
0.5353284383
 40
0.6583844464
 40
0.7768971905
 40
0.8907865207
 40
1.0
 40
1.0
 40
1.0
 40
1.0
 10
4.9126612084
 20
5.2462757345
 30
0.0
 10
4.9092919786
 20
5.2472145332
 30
0.0
 10
4.9042785182
 20
5.2484819681
 30
0.0
 10
4.897635829
 20
5.2498607266
 30
0.0
 10
4.8928631134
 20
5.250700968
 30
0.0
 10
4.8882322707
 20
5.2513605179
 30
0.0
 10
4.8837521669
 20
5.2518365157
 30
0.0
 10
4.8794318999
 20
5.2521261072
 30
0.0
 10
4.8766044891
 20
5.2521944194
 30
0.0
 10
4.8752205693
 20
5.2521944194
 30
0.0
 11
4.9126612084
 21
5.2462757345
 31
0.0
 11
4.9024842877
 21
5.2488306818
 31
0.0
 11
4.8975773107
 21
5.2498465192
 31
0.0
 11
4.892803433
 21
5.2506841017
 31
0.0
 11
4.8881717372
 21
5.251340556
 31
0.0
 11
4.8836913062
 21
5.2518130092
 31
0.0
 11
4.8793712226
 21
5.252098588
 31
0.0
 11
4.8752205693
 21
5.2521944194
 31
0.0
  0
SPLINE
  5
4E4
100
AcDbEntity
  8
0
100
AcDbSpline
 62
9
  6
CONTINUOUS
 70
0
 71
3
 72
34
 73
30
 74
28
 42
0.0000001
 43
0.0000001
 44
0.0000000001
 12
0.010919158
 22
0.0268343539
 32
0.0
 13
-0.0289528464
 23
0.0010213952
 33
0.0
 40
0.0
 40
0.0
 40
0.0
 40
0.0
 40
0.0003057792
 40
0.0006104006
 40
0.001358918
 40
0.0024435577
 40
0.00393124
 40
0.0058484028
 40
0.0082081433
 40
0.0110182664
 40
0.0142841187
 40
0.0180097621
 40
0.022198526
 40
0.0319764832
 40
0.0436383598
 40
0.057201921
 40
0.0726837437
 40
0.0900997262
 40
0.1094653931
 40
0.1307977964
 40
0.1794400332
 40
0.2361810509
 40
0.3011743799
 40
0.3745729187
 40
0.4565291757
 40
0.5471954053
 40
0.6467236897
 40
0.7552659899
 40
1.0
 40
1.0
 40
1.0
 40
1.0
 10
5.1329497933
 20
4.7879695711
 30
0.0
 10
5.1329509062
 20
4.7879723062
 30
0.0
 10
5.1329522729
 20
4.7879782062
 30
0.0
 10
5.1329499158
 20
4.7879914474
 30
0.0
 10
5.1329358461
 20
4.788007895
 30
0.0
 10
5.1329086979
 20
4.7880249561
 30
0.0
 10
5.1328689086
 20
4.7880425792
 30
0.0
 10
5.1328161569
 20
4.7880604152
 30
0.0
 10
5.1327501486
 20
4.7880786223
 30
0.0
 10
5.1326707961
 20
4.7880971015
 30
0.0
 10
5.1325780079
 20
4.7881158572
 30
0.0
 10
5.1324717212
 20
4.7881348707
 30
0.0
 10
5.1323030233
 20
4.7881619748
 30
0.0
 10
5.1320578323
 20
4.7881958556
 30
0.0
 10
5.1317221606
 20
4.7882357825
 30
0.0
 10
5.1313311805
 20
4.7882767307
 30
0.0
 10
5.1308844659
 20
4.7883186969
 30
0.0
 10
5.1303815876
 20
4.7883616647
 30
0.0
 10
5.1298221049
 20
4.788405639
 30
0.0
 10
5.1289616317
 20
4.7884683962
 30
0.0
 10
5.127740555
 20
4.7885485176
 30
0.0
 10
5.1260980682
 20
4.7886451464
 30
0.0
 10
5.1242163726
 20
4.7887459927
 30
0.0
 10
5.1220910749
 20
4.7888511164
 30
0.0
 10
5.1197177803
 20
4.7889605648
 30
0.0
 10
5.117092097
 20
4.7890744005
 30
0.0
 10
5.1142096339
 20
4.7891926937
 30
0.0
 10
5.109840252
 20
4.7893633801
 30
0.0
 10
5.106430936
 20
4.7894876331
 30
0.0
 10
5.1040690206
 20
4.7895709565
 30
0.0
 11
5.1329497933
 21
4.7879695711
 31
0.0
 11
5.1329516668
 21
4.7879782294
 31
0.0
 11
5.1329502587
 21
4.7879869415
 31
0.0
 11
5.1329375712
 21
4.7880045277
 31
0.0
 11
5.1329116783
 21
4.788022331
 31
0.0
 11
5.1328725277
 21
4.7880403529
 31
0.0
 11
5.1328200669
 21
4.7880585946
 31
0.0
 11
5.1327542435
 21
4.7880770576
 31
0.0
 11
5.1326750052
 21
4.7880957431
 31
0.0
 11
5.1325822995
 21
4.7881146526
 31
0.0
 11
5.132476074
 21
4.7881337873
 31
0.0
 11
5.1323562764
 21
4.7881531486
 31
0.0
 11
5.1320757551
 21
4.7881925564
 31
0.0
 11
5.1317403164
 21
4.7882328869
 31
0.0
 11
5.131349541
 21
4.7882741508
 31
0.0
 11
5.1309030097
 21
4.7883163589
 31
0.0
 11
5.1304003034
 21
4.7883595221
 31
0.0
 11
5.1298410016
 21
4.788403651
 31
0.0
 11
5.1292246318
 21
4.7884487561
 31
0.0
 11
5.1278185084
 21
4.7885419342
 31
0.0
 11
5.1261775487
 21
4.7886391347
 31
0.0
 11
5.1242973633
 21
4.7887404362
 31
0.0
 11
5.1221735625
 21
4.7888459169
 31
0.0
 11
5.1198017568
 21
4.7889556552
 31
0.0
 11
5.1171775567
 21
4.7890697297
 31
0.0
 11
5.1142965725
 21
4.7891882186
 31
0.0
 11
5.1111544148
 21
4.7893112005
 31
0.0
 11
5.1040690206
 21
4.7895709565
 31
0.0
  0
SPLINE
  5
4E5
100
AcDbEntity
  8
0
100
AcDbSpline
 62
9
  6
CONTINUOUS
 70
0
 71
3
 72
25
 73
21
 74
19
 42
0.0000001
 43
0.0000001
 44
0.0000000001
 12
-0.2253321191
 22
-0.0613229069
 32
0.0
 13
-0.0970280835
 23
-0.2124161336
 33
0.0
 40
0.0
 40
0.0
 40
0.0
 40
0.0
 40
0.106428774
 40
0.161743833
 40
0.2184392947
 40
0.2765187646
 40
0.3359926965
 40
0.3662616002
 40
0.3968872514
 40
0.4278738055
 40
0.4592250725
 40
0.4909361787
 40
0.5229967335
 40
0.5881115192
 40
0.6544649178
 40
0.7219296706
 40
0.7903661979
 40
0.8596262695
 40
0.9295562432
 40
1.0
 40
1.0
 40
1.0
 40
1.0
 10
5.0390270058
 20
5.4082624658
 30
0.0
 10
5.0310330654
 20
5.4060869585
 30
0.0
 10
5.0190937112
 20
5.4019480635
 30
0.0
 10
5.0036076304
 20
5.3949101091
 30
0.0
 10
4.9919052958
 20
5.3886969984
 30
0.0
 10
4.9803258897
 20
5.3816182258
 30
0.0
 10
4.9708792257
 20
5.3750348492
 30
0.0
 10
4.9634362088
 20
5.3693414389
 30
0.0
 10
4.9578859117
 20
5.3648287161
 30
0.0
 10
4.9524077652
 20
5.3600987986
 30
0.0
 10
4.9470097529
 20
5.3551516991
 30
0.0
 10
4.9416963564
 20
5.3499931021
 30
0.0
 10
4.9346944622
 20
5.3428061118
 30
0.0
 10
4.9261853383
 20
5.3333298918
 30
0.0
 10
4.9164366797
 20
5.321290198
 30
0.0
 10
4.9071334197
 20
5.3085814024
 30
0.0
 10
4.8983118489
 20
5.2952618765
 30
0.0
 10
4.8900080145
 20
5.2813895522
 30
0.0
 10
4.8822583177
 20
5.267022947
 30
0.0
 10
4.8774989102
 20
5.2571822162
 30
0.0
 10
4.8752205693
 20
5.2521944194
 30
0.0
 11
5.0390270058
 21
5.4082624658
 31
0.0
 11
5.0155253256
 21
5.400175794
 31
0.0
 11
5.0037626768
 21
5.3948368743
 31
0.0
 11
4.9920662627
 21
5.3886328383
 31
0.0
 11
4.980491664
 21
5.3815626409
 31
0.0
 11
4.9690944611
 21
5.3736252367
 31
0.0
 11
4.963479752
 21
5.3693310054
 31
0.0
 11
4.9579302345
 21
5.3648195805
 31
0.0
 11
4.9524528562
 21
5.3600908312
 31
0.0
 11
4.9470543711
 21
5.3551452293
 31
0.0
 11
4.9417400358
 21
5.3499879058
 31
0.0
 11
4.9365144088
 21
5.3446261638
 31
0.0
 11
4.9263474979
 21
5.3333186857
 31
0.0
 11
4.9165900751
 21
5.3212813176
 31
0.0
 11
4.9072785773
 21
5.3085725821
 31
0.0
 11
4.898449441
 21
5.2952510019
 31
0.0
 11
4.8901391032
 21
5.2813750997
 31
0.0
 11
4.8823840003
 21
5.2670033979
 31
0.0
 11
4.8752205693
 21
5.2521944194
 31
0.0
  0
LINE
  5
4E6
100
AcDbEntity
  8
0
100
AcDbLine
 62
9
  6
CONTINUOUS
 10
5.0868821657
 20
4.7124598673
 11
5.0642428229
 21
4.7130827173
  0
LINE
  5
4E7
100
AcDbEntity
  8
0
100
AcDbLine
 62
9
  6
CONTINUOUS
 10
5.0894559331
 20
4.7155129341
 11
5.0664943447
 21
4.7161242794
  0
SPLINE
  5
4E8
100
AcDbEntity
  8
0
100
AcDbSpline
 62
9
  6
CONTINUOUS
 70
0
 71
3
 72
13
 73
9
 74
7
 42
0.0000001
 43
0.0000001
 44
0.0000000001
 12
-0.0471421778
 22
0.0010706373
 32
0.0
 13
-0.0471543338
 23
-0.0
 33
0.0
 40
0.0
 40
0.0
 40
0.0
 40
0.0
 40
0.1767626777
 40
0.328995834
 40
0.4619486774
 40
0.5808698962
 40
0.7949593578
 40
1.0
 40
1.0
 40
1.0
 40
1.0
 10
4.8431640424
 20
4.871748328
 30
0.0
 10
4.8403863832
 20
4.8718114109
 30
0.0
 10
4.8352163835
 20
4.8719228423
 30
0.0
 10
4.8279566882
 20
4.8720589015
 30
0.0
 10
4.8216056679
 20
4.8721592106
 30
0.0
 10
4.8142822193
 20
4.8722545899
 30
0.0
 10
4.8058254596
 20
4.8723398625
 30
0.0
 10
4.7992375019
 20
4.8723625037
 30
0.0
 10
4.7960146503
 20
4.8723625037
 30
0.0
 11
4.8431640424
 21
4.871748328
 31
0.0
 11
4.8348308304
 21
4.8719269557
 31
0.0
 11
4.8276536255
 21
4.872060817
 31
0.0
 11
4.8213851017
 21
4.8721596385
 31
0.0
 11
4.8157779327
 21
4.8722331473
 31
0.0
 11
4.8056831501
 21
4.8723298728
 31
0.0
 11
4.7960146503
 21
4.8723625037
 31
0.0
  0
SPLINE
  5
4E9
100
AcDbEntity
  8
0
100
AcDbSpline
 62
9
  6
CONTINUOUS
 70
0
 71
3
 72
34
 73
30
 74
28
 42
0.0000001
 43
0.0000001
 44
0.0000000001
 12
0.0141670364
 22
0.0102622414
 32
0.0
 13
-0.0174901785
 23
0.0003349253
 33
0.0
 40
0.0
 40
0.0
 40
0.0
 40
0.0
 40
0.0005001571
 40
0.0007008605
 40
0.0009473899
 40
0.0012785639
 40
0.0017111097
 40
0.00290606
 40
0.0045605883
 40
0.0066846645
 40
0.0092835765
 40
0.0123607724
 40
0.0159188369
 40
0.0199598973
 40
0.0294982055
 40
0.0409890803
 40
0.0544445007
 40
0.0698758316
 40
0.0872940975
 40
0.1067101194
 40
0.1281345893
 40
0.1515781886
 40
0.1770535809
 40
0.2341591794
 40
0.2995706567
 40
0.3734070665
 40
0.5468300097
 40
0.7553780024
 40
1.0
 40
1.0
 40
1.0
 40
1.0
 10
5.0493232018
 20
4.677895025
 30
0.0
 10
5.0493255638
 20
4.677896736
 30
0.0
 10
5.0493291584
 20
4.6779000149
 30
0.0
 10
5.0493283473
 20
4.6779058474
 30
0.0
 10
5.0493253727
 20
4.6779094437
 30
0.0
 10
5.0493205825
 20
4.6779129009
 30
0.0
 10
5.0493103635
 20
4.6779180825
 30
0.0
 10
5.0492921532
 20
4.6779241661
 30
0.0
 10
5.049263997
 20
4.6779311335
 30
0.0
 10
5.0492274731
 20
4.6779382129
 30
0.0
 10
5.04918256
 20
4.6779454157
 30
0.0
 10
5.0491292061
 20
4.6779527076
 30
0.0
 10
5.0490673878
 20
4.6779600856
 30
0.0
 10
5.0489680114
 20
4.677970617
 30
0.0
 10
5.0488224002
 20
4.6779836808
 30
0.0
 10
5.0486218938
 20
4.6779989575
 30
0.0
 10
5.0483869595
 20
4.6780145355
 30
0.0
 10
5.0481174142
 20
4.6780304081
 30
0.0
 10
5.0478130737
 20
4.6780465625
 30
0.0
 10
5.0474737561
 20
4.6780629936
 30
0.0
 10
5.0470992789
 20
4.6780796969
 30
0.0
 10
5.0466894479
 20
4.6780966716
 30
0.0
 10
5.0460716669
 20
4.6781205837
 30
0.0
 10
5.0452092327
 20
4.6781508704
 30
0.0
 10
5.0440648409
 20
4.6781870625
 30
0.0
 10
5.0422423726
 20
4.6782396085
 30
0.0
 10
5.0395853467
 20
4.6783069232
 30
0.0
 10
5.0359325061
 20
4.6783883085
 30
0.0
 10
5.0332905385
 20
4.6784410816
 30
0.0
 10
5.0318643777
 20
4.6784683916
 30
0.0
 11
5.0493232018
 21
4.677895025
 31
0.0
 11
5.049328558
 21
4.6779019434
 31
0.0
 11
5.0493281195
 21
4.6779054269
 31
0.0
 11
5.0493255993
 21
4.6779089266
 31
0.0
 11
5.0493209948
 21
4.6779124425
 31
0.0
 11
5.0493143031
 21
4.6779159745
 31
0.0
 11
5.0492946467
 21
4.6779230873
 31
0.0
 11
5.0492666075
 21
4.677930265
 31
0.0
 11
5.0492301629
 21
4.6779375075
 31
0.0
 11
5.0491852902
 21
4.6779448149
 31
0.0
 11
5.0491319669
 21
4.6779521871
 31
0.0
 11
5.0490701702
 21
4.6779596243
 31
0.0
 11
5.0489998776
 21
4.6779671264
 31
0.0
 11
5.048833714
 21
4.6779823255
 31
0.0
 11
5.048633295
 21
4.6779977845
 31
0.0
 11
5.0483984396
 21
4.6780135035
 31
0.0
 11
5.0481289667
 21
4.6780294827
 31
0.0
 11
5.0478246954
 21
4.6780457222
 31
0.0
 11
5.0474854444
 21
4.6780622222
 31
0.0
 11
5.0471110329
 21
4.6780789828
 31
0.0
 11
5.0467012784
 21
4.678096004
 31
0.0
 11
5.0462559627
 21
4.6781132859
 31
0.0
 11
5.0452576179
 21
4.6781486295
 31
0.0
 11
5.0441139282
 21
4.6781850098
 31
0.0
 11
5.0428228215
 21
4.6782224233
 31
0.0
 11
5.0397900677
 21
4.6783003346
 31
0.0
 11
5.0361427791
 21
4.6783823339
 31
0.0
 11
5.0318643777
 21
4.6784683916
 31
0.0
  0
SPLINE
  5
4EA
100
AcDbEntity
  8
0
100
AcDbSpline
 62
9
  6
CONTINUOUS
 70
0
 71
3
 72
15
 73
11
 74
9
 42
0.0000001
 43
0.0000001
 44
0.0000000001
 12
-0.162397684
 22
-0.3555247811
 32
0.0
 13
0.0
 23
-0.3908591533
 33
0.0
 40
0.0
 40
0.0
 40
0.0
 40
0.0
 40
0.1197519177
 40
0.2415251265
 40
0.3650850999
 40
0.4901691267
 40
0.6164955804
 40
0.7437722371
 40
0.8717039542
 40
1.0
 40
1.0
 40
1.0
 40
1.0
 10
4.8752205693
 20
5.2521944194
 30
0.0
 10
4.8687380913
 20
5.238002828
 30
0.0
 10
4.8565403084
 20
5.2089718752
 30
0.0
 10
4.8406683892
 20
5.1641072949
 30
0.0
 10
4.8271025228
 20
5.1177678217
 30
0.0
 10
4.8158920784
 20
5.0701948171
 30
0.0
 10
4.8070855229
 20
5.0216271699
 30
0.0
 10
4.8007319405
 20
4.9723040257
 30
0.0
 10
4.7968805461
 20
4.9224666318
 30
0.0
 10
4.7960146503
 20
4.8890773638
 30
0.0
 10
4.7960146503
 20
4.8723621359
 30
0.0
 11
4.8752205693
 21
5.2521944194
 31
0.0
 11
4.8570597115
 21
5.2090551409
 31
0.0
 11
4.8411601863
 21
5.1641931213
 31
0.0
 11
4.8275713442
 21
5.1178497657
 31
0.0
 11
4.8163425359
 21
5.0702664796
 31
0.0
 11
4.8075231118
 21
5.0216846682
 31
0.0
 11
4.8011624224
 21
4.972345737
 31
0.0
 11
4.7973098184
 21
4.9224910911
 31
0.0
 11
4.7960146503
 21
4.8723621359
 31
0.0
  0
SPLINE
  5
4EB
100
AcDbEntity
  8
0
100
AcDbSpline
 62
9
  6
CONTINUOUS
 70
0
 71
3
 72
9
 73
5
 74
3
 42
0.0000001
 43
0.0000001
 44
0.0000000001
 12
-0.0084361405
 22
0.0
 32
0.0
 13
-0.0082979663
 23
-0.0015205991
 33
0.0
 40
0.0
 40
0.0
 40
0.0
 40
0.0
 40
0.5055298964
 40
1.0
 40
1.0
 40
1.0
 40
1.0
 10
5.048176639
 20
5.4104960446
 30
0.0
 10
5.0467550652
 20
5.4104960446
 30
0.0
 10
5.0439414882
 20
5.4103734457
 30
0.0
 10
5.0411503804
 20
5.4099958802
 30
0.0
 10
5.0397826816
 20
5.40974525
 30
0.0
 11
5.048176639
 21
5.4104960446
 31
0.0
 11
5.0439161128
 21
5.4103069304
 31
0.0
 11
5.0397826816
 21
5.40974525
 31
0.0
  0
SPLINE
  5
4EC
100
AcDbEntity
  8
0
100
AcDbSpline
 62
9
  6
CONTINUOUS
 70
0
 71
3
 72
14
 73
10
 74
8
 42
0.0000001
 43
0.0000001
 44
0.0000000001
 12
-0.0270417186
 22
0.0
 32
0.0
 13
-0.0230606041
 23
-0.01412314
 33
0.0
 40
0.0
 40
0.0
 40
0.0
 40
0.0
 40
0.1469211095
 40
0.2872605023
 40
0.4211079167
 40
0.5486010355
 40
0.6699376899
 40
0.7853905164
 40
1.0
 40
1.0
 40
1.0
 40
1.0
 10
4.8752205693
 20
5.2521944194
 30
0.0
 10
4.8738962362
 20
5.2521944194
 30
0.0
 10
4.8713063664
 20
5.2521345116
 30
0.0
 10
4.8675192806
 20
5.251853065
 30
0.0
 10
4.8639268803
 20
5.2513848739
 30
0.0
 10
4.8605374781
 20
5.2507327785
 30
0.0
 10
4.8573581876
 20
5.2498990812
 30
0.0
 10
4.8535066492
 20
5.2485821691
 30
0.0
 10
4.8508057456
 20
5.2472860544
 30
0.0
 10
4.8491560708
 20
5.2462757345
 30
0.0
 11
4.8752205693
 21
5.2521944194
 31
0.0
 11
4.8712487259
 21
5.252098588
 31
0.0
 11
4.8674644679
 21
5.2518130092
 31
0.0
 11
4.8638759712
 21
5.251340556
 31
0.0
 11
4.8604914119
 21
5.2506841017
 31
0.0
 11
4.8573189662
 21
5.2498465192
 31
0.0
 11
4.8543668101
 21
5.2488306818
 31
0.0
 11
4.8491560708
 21
5.2462757345
 31
0.0
  0
LINE
  5
4ED
100
AcDbEntity
  8
0
100
AcDbLine
 62
6
  6
CONTINUOUS
 10
6.0342968821
 20
5.8267948756
 11
6.0344263978
 21
5.8267728374
  0
LINE
  5
4EE
100
AcDbEntity
  8
0
100
AcDbLine
 62
6
  6
CONTINUOUS
 10
6.0344263978
 20
5.8267728374
 11
6.0345939264
 21
5.8267443345
  0
LINE
  5
4EF
100
AcDbEntity
  8
0
100
AcDbLine
 62
6
  6
CONTINUOUS
 10
6.0345939264
 20
5.8267443345
 11
6.0722935925
 21
5.8204960444
  0
LINE
  5
4F0
100
AcDbEntity
  8
0
100
AcDbLine
 62
9
  6
CONTINUOUS
 10
4.9426583685
 20
4.6425678484
 11
4.943010761
 21
4.6425651899
  0
SPLINE
  5
4F1
100
AcDbEntity
  8
0
100
AcDbSpline
 62
9
  6
CONTINUOUS
 70
0
 71
3
 72
15
 73
11
 74
9
 42
0.0000001
 43
0.0000001
 44
0.0000000001
 12
0.1651600325
 22
-0.3492699123
 32
0.0
 13
0.0015378353
 23
-0.3863482148
 33
0.0
 40
0.0
 40
0.0
 40
0.0
 40
0.0
 40
0.1202169548
 40
0.2423069719
 40
0.3660392554
 40
0.4911579846
 40
0.6173915223
 40
0.7444607966
 40
0.87208716
 40
1.0
 40
1.0
 40
1.0
 40
1.0
 10
6.6994376933
 20
5.2462757345
 30
0.0
 10
6.7060560387
 20
5.2322796794
 30
0.0
 10
6.7185291093
 20
5.2036516648
 30
0.0
 10
6.734819177
 20
5.1593902072
 30
0.0
 10
6.7487919582
 20
5.1136825218
 30
0.0
 10
6.7603898504
 20
5.0667668739
 30
0.0
 10
6.7695561923
 20
5.0188790594
 30
0.0
 10
6.7762336927
 20
4.9702550533
 30
0.0
 10
6.7803649059
 20
4.9211330542
 30
0.0
 10
6.7813826021
 20
4.8882209273
 30
0.0
 10
6.7814481718
 20
4.8717479615
 30
0.0
 11
6.6994376933
 21
5.2462757345
 31
0.0
 11
6.7180168119
 21
5.2037076145
 31
0.0
 11
6.7343316267
 21
5.1594492688
 31
0.0
 11
6.7483246028
 21
5.1137389741
 31
0.0
 11
6.7599382049
 21
5.0668150076
 31
0.0
 11
6.7691148979
 21
5.0189156461
 31
0.0
 11
6.7757971468
 21
4.9702791666
 31
0.0
 11
6.7799274165
 21
4.9211438461
 31
0.0
 11
6.7814481718
 21
4.8717479615
 31
0.0
  0
LINE
  5
4F2
100
AcDbEntity
  8
0
100
AcDbLine
 62
9
  6
CONTINUOUS
 10
6.2375346283
 20
5.4429939437
 11
6.2388638434
 21
5.4429486016
  0
LINE
  5
4F3
100
AcDbEntity
  8
0
100
AcDbLine
 62
9
  6
CONTINUOUS
 10
6.2486284365
 20
5.4425846435
 11
6.2502448592
 21
5.4425192258
  0
SPLINE
  5
4F4
100
AcDbEntity
  8
0
100
AcDbSpline
 62
9
  6
CONTINUOUS
 70
0
 71
3
 72
16
 73
12
 74
10
 42
0.0000001
 43
0.0000001
 44
0.0000000001
 12
0.2523052701
 22
-0.0103599439
 32
0.0
 13
0.2468262673
 23
-0.0533110826
 33
0.0
 40
0.0
 40
0.0
 40
0.0
 40
0.0
 40
0.1049087117
 40
0.2185184039
 40
0.3393381384
 40
0.4658948502
 40
0.5308700736
 40
0.5967296109
 40
0.7303527491
 40
0.8652728604
 40
1.0
 40
1.0
 40
1.0
 40
1.0
 10
6.2502448592
 20
5.4425192258
 30
0.0
 10
6.2590678662
 20
5.442156943
 30
0.0
 10
6.2774388077
 20
5.4412264146
 30
0.0
 10
6.3059349236
 20
5.439248677
 30
0.0
 10
6.3362017508
 20
5.4365462995
 30
0.0
 10
6.3623355693
 20
5.4336494433
 30
0.0
 10
6.3838246327
 20
5.4308881351
 30
0.0
 10
6.4058699244
 20
5.427800126
 30
0.0
 10
6.4336782871
 20
5.4234270521
 30
0.0
 10
6.4670885305
 20
5.4174148331
 30
0.0
 10
6.4893323928
 20
5.4128901945
 30
0.0
 10
6.5004171252
 20
5.4104960446
 30
0.0
 11
6.2502448592
 21
5.4425192258
 31
0.0
 11
6.2767025337
 21
5.4411843989
 31
0.0
 11
6.3053222584
 21
5.4391994197
 31
0.0
 11
6.3357102954
 21
5.4364837248
 31
0.0
 11
6.3674729069
 21
5.4329567513
 31
0.0
 11
6.3837466873
 21
5.4308670093
 31
0.0
 11
6.4002167372
 21
5.4285609325
 31
0.0
 11
6.4335498186
 21
5.4233222459
 31
0.0
 11
6.4670804988
 21
5.4172856354
 31
0.0
 11
6.5004171252
 21
5.4104960446
 31
0.0
  0
SPLINE
  5
4F5
100
AcDbEntity
  8
0
100
AcDbSpline
 62
9
  6
CONTINUOUS
 70
0
 71
3
 72
14
 73
10
 74
8
 42
0.0000001
 43
0.0000001
 44
0.0000000001
 12
-0.0230606041
 22
0.01412314
 32
0.0
 13
-0.0270417186
 23
-0.0
 33
0.0
 40
0.0
 40
0.0
 40
0.0
 40
0.0
 40
0.2146094836
 40
0.3300623101
 40
0.4513989645
 40
0.5788920833
 40
0.7127394977
 40
0.8530788905
 40
1.0
 40
1.0
 40
1.0
 40
1.0
 10
6.6994376933
 20
5.2462757345
 30
0.0
 10
6.6977880185
 20
5.2472860544
 30
0.0
 10
6.695087115
 20
5.2485821691
 30
0.0
 10
6.6912355765
 20
5.2498990812
 30
0.0
 10
6.688056286
 20
5.2507327785
 30
0.0
 10
6.6846668838
 20
5.2513848739
 30
0.0
 10
6.6810744836
 20
5.251853065
 30
0.0
 10
6.6772873977
 20
5.2521345116
 30
0.0
 10
6.6746975279
 20
5.2521944194
 30
0.0
 10
6.6733731948
 20
5.2521944194
 30
0.0
 11
6.6994376933
 21
5.2462757345
 31
0.0
 11
6.6942269541
 21
5.2488306818
 31
0.0
 11
6.6912747979
 21
5.2498465192
 31
0.0
 11
6.6881023522
 21
5.2506841017
 31
0.0
 11
6.684717793
 21
5.251340556
 31
0.0
 11
6.6811292963
 21
5.2518130092
 31
0.0
 11
6.6773450382
 21
5.252098588
 31
0.0
 11
6.6733731948
 21
5.2521944194
 31
0.0
  0
SPLINE
  5
4F6
100
AcDbEntity
  8
0
100
AcDbSpline
 62
9
  6
CONTINUOUS
 70
0
 71
3
 72
25
 73
21
 74
19
 42
0.0000001
 43
0.0000001
 44
0.0000000001
 12
0.225332163
 22
-0.061322874
 32
0.0
 13
0.0970280975
 23
-0.2124161643
 33
0.0
 40
0.0
 40
0.0
 40
0.0
 40
0.0
 40
0.1064287699
 40
0.1617438273
 40
0.2184392877
 40
0.2765187565
 40
0.3359926876
 40
0.366261591
 40
0.3968872419
 40
0.4278737959
 40
0.4592250628
 40
0.4909361689
 40
0.5229967238
 40
0.58811151
 40
0.6544649094
 40
0.7219296634
 40
0.7903661922
 40
0.8596262656
 40
0.9295562411
 40
1.0
 40
1.0
 40
1.0
 40
1.0
 10
6.5095667257
 20
5.4082624746
 30
0.0
 10
6.5175606674
 20
5.4060869686
 30
0.0
 10
6.5295000236
 20
5.4019480751
 30
0.0
 10
6.5449861072
 20
5.3949101223
 30
0.0
 10
6.5566884441
 20
5.3886970123
 30
0.0
 10
6.5682678524
 20
5.3816182403
 30
0.0
 10
6.5777145184
 20
5.3750348638
 30
0.0
 10
6.5851575369
 20
5.3693414535
 30
0.0
 10
6.5907078352
 20
5.3648287306
 30
0.0
 10
6.5961859829
 20
5.3600988129
 30
0.0
 10
6.6015839963
 20
5.3551517132
 30
0.0
 10
6.6068973939
 20
5.3499931158
 30
0.0
 10
6.6138992897
 20
5.342806125
 30
0.0
 10
6.6224084155
 20
5.333329904
 30
0.0
 10
6.6321570762
 20
5.3212902088
 30
0.0
 10
6.6414603381
 20
5.3085814115
 30
0.0
 10
6.6502819108
 20
5.2952618836
 30
0.0
 10
6.6585857468
 20
5.2813895571
 30
0.0
 10
6.6663354452
 20
5.2670229496
 30
0.0
 10
6.6710948535
 20
5.2571822171
 30
0.0
 10
6.6733731948
 20
5.2521944194
 30
0.0
 11
6.5095667257
 21
5.4082624746
 31
0.0
 11
6.5330684098
 21
5.4001758059
 31
0.0
 11
6.5448310608
 21
5.3948368873
 31
0.0
 11
6.5565274771
 21
5.3886328522
 31
0.0
 11
6.5681020781
 21
5.3815626553
 31
0.0
 11
6.5794992834
 21
5.3736252513
 31
0.0
 11
6.5851139937
 21
5.36933102
 31
0.0
 11
6.5906635124
 21
5.364819595
 31
0.0
 11
6.5961408918
 21
5.3600908455
 31
0.0
 11
6.6015393781
 21
5.3551452434
 31
0.0
 11
6.6068537146
 21
5.3499879195
 31
0.0
 11
6.6120793427
 21
5.3446261771
 31
0.0
 11
6.6222462559
 21
5.3333186979
 31
0.0
 11
6.6320036807
 21
5.3212813283
 31
0.0
 11
6.6413151806
 21
5.3085725912
 31
0.0
 11
6.6501443186
 21
5.295251009
 31
0.0
 11
6.6584546582
 21
5.2813751046
 31
0.0
 11
6.6662097625
 21
5.2670034005
 31
0.0
 11
6.6733731948
 21
5.2521944194
 31
0.0
  0
SPLINE
  5
4F7
100
AcDbEntity
  8
0
100
AcDbSpline
 62
9
  6
CONTINUOUS
 70
0
 71
3
 72
15
 73
11
 74
9
 42
0.0000001
 43
0.0000001
 44
0.0000000001
 12
-0.0288094795
 22
0.0020191858
 32
0.0
 13
-0.0288801527
 23
0.0
 33
0.0
 40
0.0
 40
0.0
 40
0.0
 40
0.0
 40
0.1046329918
 40
0.2152889767
 40
0.3305468364
 40
0.4489687784
 40
0.5702740673
 40
0.6988467382
 40
0.8402382572
 40
1.0
 40
1.0
 40
1.0
 40
1.0
 10
6.7814481676
 20
4.8717483177
 30
0.0
 10
6.7804433602
 20
4.8718187422
 30
0.0
 10
6.7783741258
 20
4.8719385448
 30
0.0
 10
6.7751946265
 20
4.8720688745
 30
0.0
 10
6.7718811365
 20
4.8721649136
 30
0.0
 10
6.7684645251
 20
4.8722364297
 30
0.0
 10
6.7649194526
 20
4.8722935549
 30
0.0
 10
6.7611530124
 20
4.8723341404
 30
0.0
 10
6.7570162169
 20
4.8723580248
 30
0.0
 10
6.754117095
 20
4.8723624934
 30
0.0
 10
6.7525791138
 20
4.8723624934
 30
0.0
 11
6.7814481676
 21
4.8717483177
 31
0.0
 11
6.778431635
 21
4.8719269454
 31
0.0
 11
6.775238678
 21
4.8720608067
 31
0.0
 11
6.7719114807
 21
4.8721596282
 31
0.0
 11
6.768492227
 21
4.872233137
 31
0.0
 11
6.7649893636
 21
4.8722894021
 31
0.0
 11
6.7612763856
 21
4.8723298625
 31
0.0
 11
6.7571930501
 21
4.8723542992
 31
0.0
 11
6.7525791138
 21
4.8723624934
 31
0.0
  0
SPLINE
  5
4F8
100
AcDbEntity
  8
0
100
AcDbSpline
 62
9
  6
CONTINUOUS
 70
0
 71
3
 72
15
 73
11
 74
9
 42
0.0000001
 43
0.0000001
 44
0.0000000001
 12
0.162397684
 22
-0.3555247811
 32
0.0
 13
0.0
 23
-0.3908591533
 33
0.0
 40
0.0
 40
0.0
 40
0.0
 40
0.0
 40
0.1197519177
 40
0.2415251265
 40
0.3650850999
 40
0.4901691267
 40
0.6164955804
 40
0.7437722371
 40
0.8717039542
 40
1.0
 40
1.0
 40
1.0
 40
1.0
 10
6.6733731948
 20
5.2521944194
 30
0.0
 10
6.6798556729
 20
5.238002828
 30
0.0
 10
6.6920534558
 20
5.2089718752
 30
0.0
 10
6.707925375
 20
5.1641072949
 30
0.0
 10
6.7214912413
 20
5.1177678217
 30
0.0
 10
6.7327016857
 20
5.0701948171
 30
0.0
 10
6.7415082413
 20
5.0216271699
 30
0.0
 10
6.7478618237
 20
4.9723040257
 30
0.0
 10
6.751713218
 20
4.9224666318
 30
0.0
 10
6.7525791138
 20
4.8890773638
 30
0.0
 10
6.7525791138
 20
4.8723621359
 30
0.0
 11
6.6733731948
 21
5.2521944194
 31
0.0
 11
6.6915340526
 21
5.2090551409
 31
0.0
 11
6.7074335778
 21
5.1641931213
 31
0.0
 11
6.7210224199
 21
5.1178497657
 31
0.0
 11
6.7322512283
 21
5.0702664796
 31
0.0
 11
6.7410706524
 21
5.0216846682
 31
0.0
 11
6.7474313417
 21
4.972345737
 31
0.0
 11
6.7512839457
 21
4.9224910911
 31
0.0
 11
6.7525791138
 21
4.8723621359
 31
0.0
  0
SPLINE
  5
4F9
100
AcDbEntity
  8
0
100
AcDbSpline
 62
9
  6
CONTINUOUS
 70
0
 71
3
 72
9
 73
5
 74
3
 42
0.0000001
 43
0.0000001
 44
0.0000000001
 12
-0.009411784
 22
0.0
 32
0.0
 13
-0.0091852468
 23
-0.00205254
 33
0.0
 40
0.0
 40
0.0
 40
0.0
 40
0.0
 40
0.4974079721
 40
1.0
 40
1.0
 40
1.0
 40
1.0
 10
6.2486284365
 20
5.4425846435
 30
0.0
 10
6.2470679377
 20
5.4425846435
 30
0.0
 10
6.2439282817
 20
5.4424020678
 30
0.0
 10
6.2408290744
 20
5.4418740715
 30
0.0
 10
6.2392902638
 20
5.4415302081
 30
0.0
 11
6.2486284365
 21
5.4425846435
 31
0.0
 11
6.2439545655
 21
5.4423175522
 31
0.0
 11
6.2392902638
 21
5.4415302081
 31
0.0
  0
SPLINE
  5
4FA
100
AcDbEntity
  8
0
100
AcDbSpline
 62
9
  6
CONTINUOUS
 70
0
 71
3
 72
10
 73
6
 74
4
 42
0.0000001
 43
0.0000001
 44
0.0000000001
 12
-0.0143023786
 22
-0.003196017
 32
0.0
 13
-0.0129341826
 23
-0.0068905354
 33
0.0
 40
0.0
 40
0.0
 40
0.0
 40
0.0
 40
0.2428919598
 40
0.4900829107
 40
1.0
 40
1.0
 40
1.0
 40
1.0
 10
6.2392902638
 20
5.4415302081
 30
0.0
 10
6.2381322862
 20
5.4412714458
 30
0.0
 10
6.235814973
 20
5.4406591936
 30
0.0
 10
6.2311912166
 20
5.4390741362
 30
0.0
 10
6.2278210982
 20
5.4375188673
 30
0.0
 10
6.2256226446
 20
5.4363476667
 30
0.0
 11
6.2392902638
 21
5.4415302081
 31
0.0
 11
6.2358478987
 21
5.4406241435
 31
0.0
 11
6.2324199162
 21
5.4394527076
 31
0.0
 11
6.2256226446
 21
5.4363476667
 31
0.0
  0
SPLINE
  5
4FB
100
AcDbEntity
  8
0
100
AcDbSpline
 62
9
  6
CONTINUOUS
 70
0
 71
3
 72
11
 73
7
 74
5
 42
0.0000001
 43
0.0000001
 44
0.0000000001
 12
-0.0302689736
 22
0.0
 32
0.0
 13
-0.0275266978
 23
-0.0125893475
 33
0.0
 40
0.0
 40
0.0
 40
0.0
 40
0.0
 40
0.2299793611
 40
0.472167411
 40
0.7284550831
 40
1.0
 40
1.0
 40
1.0
 40
1.0
 10
6.5004171252
 20
5.4104960446
 30
0.0
 10
6.4980967121
 20
5.4104960446
 30
0.0
 10
6.4933285032
 20
5.4101567298
 30
0.0
 10
6.4861009754
 20
5.4087425797
 30
0.0
 10
6.4786644292
 20
5.4064509639
 30
0.0
 10
6.4737326741
 20
5.404421367
 30
0.0
 10
6.4712410958
 20
5.4032818426
 30
0.0
 11
6.5004171252
 21
5.4104960446
 31
0.0
 11
6.4934716018
 21
5.4100285445
 31
0.0
 11
6.4862719475
 21
5.4086481941
 31
0.0
 11
6.4788508746
 21
5.4063882185
 31
0.0
 11
6.4712410958
 21
5.4032818426
 31
0.0
  0
SPLINE
  5
4FC
100
AcDbEntity
  8
0
100
AcDbSpline
 62
9
  6
CONTINUOUS
 70
0
 71
3
 72
16
 73
12
 74
10
 42
0.0000001
 43
0.0000001
 44
0.0000000001
 12
0.2480118762
 22
-0.0094947714
 32
0.0
 13
0.2417978714
 23
-0.0559806289
 33
0.0
 40
0.0
 40
0.0
 40
0.0
 40
0.0
 40
0.106438163
 40
0.2210566262
 40
0.3424108072
 40
0.4690739774
 40
0.5339563882
 40
0.5996308762
 40
0.7326173137
 40
0.8665631821
 40
1.0
 40
1.0
 40
1.0
 40
1.0
 10
6.2256226446
 20
5.4363476667
 30
0.0
 10
6.2344219541
 20
5.4360107981
 30
0.0
 10
6.2526894856
 20
5.4351061269
 30
0.0
 10
6.2809486719
 20
5.433102069
 30
0.0
 10
6.3108233315
 20
5.4303213521
 30
0.0
 10
6.3365382763
 20
5.4273211519
 30
0.0
 10
6.3576253714
 20
5.4244577346
 30
0.0
 10
6.3791929013
 20
5.4212571409
 30
0.0
 10
6.4063364002
 20
5.4167210943
 30
0.0
 10
6.4388686024
 20
5.4104771737
 30
0.0
 10
6.460486183
 20
5.4057718016
 30
0.0
 10
6.4712410958
 20
5.4032818426
 30
0.0
 11
6.2256226446
 21
5.4363476667
 31
0.0
 11
6.2520079896
 21
5.4350493897
 31
0.0
 11
6.2803845287
 21
5.4330404288
 31
0.0
 11
6.3103741325
 21
5.4302480375
 31
0.0
 11
6.3415986714
 21
5.426599469
 31
0.0
 11
6.357555793
 21
5.4244339112
 31
0.0
 11
6.3736793519
 21
5.4220421855
 31
0.0
 11
6.4062347248
 21
5.4166044833
 31
0.0
 11
6.4388826772
 21
5.4103348673
 31
0.0
 11
6.4712410958
 21
5.4032818426
 31
0.0
  0
SPLINE
  5
4FD
100
AcDbEntity
  8
0
100
AcDbSpline
 62
9
  6
CONTINUOUS
 70
0
 71
3
 72
14
 73
10
 74
8
 42
0.0000001
 43
0.0000001
 44
0.0000000001
 12
-0.0380150832
 22
0.0
 32
0.0
 13
-0.0366200691
 23
-0.0102037779
 33
0.0
 40
0.0
 40
0.0
 40
0.0
 40
0.0
 40
0.1092134793
 40
0.2231028095
 40
0.3416155536
 40
0.4646715617
 40
0.5921682766
 40
0.723984974
 40
1.0
 40
1.0
 40
1.0
 40
1.0
 10
6.6733731948
 20
5.2521944194
 30
0.0
 10
6.671989275
 20
5.2521944194
 30
0.0
 10
6.6691618642
 20
5.2521261072
 30
0.0
 10
6.6648415972
 20
5.2518365157
 30
0.0
 10
6.6603614935
 20
5.2513605179
 30
0.0
 10
6.6557306507
 20
5.250700968
 30
0.0
 10
6.6509579351
 20
5.2498607266
 30
0.0
 10
6.6443152459
 20
5.2484819681
 30
0.0
 10
6.6393017855
 20
5.2472145332
 30
0.0
 10
6.6359325558
 20
5.2462757345
 30
0.0
 11
6.6733731948
 21
5.2521944194
 31
0.0
 11
6.6692225415
 21
5.252098588
 31
0.0
 11
6.6649024579
 21
5.2518130092
 31
0.0
 11
6.6604220269
 21
5.251340556
 31
0.0
 11
6.6557903311
 21
5.2506841017
 31
0.0
 11
6.6510164534
 21
5.2498465192
 31
0.0
 11
6.6461094764
 21
5.2488306818
 31
0.0
 11
6.6359325558
 21
5.2462757345
 31
0.0
  0
SPLINE
  5
4FE
100
AcDbEntity
  8
0
100
AcDbSpline
 62
9
  6
CONTINUOUS
 70
0
 71
3
 72
22
 73
18
 74
16
 42
0.0000001
 43
0.0000001
 44
0.0000000001
 12
0.2297891176
 22
-0.0532003828
 32
0.0
 13
0.0933772778
 23
-0.2165964064
 33
0.0
 40
0.0
 40
0.0
 40
0.0
 40
0.0
 40
0.104632533
 40
0.1592111009
 40
0.2152812537
 40
0.2728496798
 40
0.3319295234
 40
0.3925431784
 40
0.4547247139
 40
0.5184993109
 40
0.583798772
 40
0.6505078446
 40
0.7184905722
 40
0.7875957702
 40
0.8576616972
 40
0.9285201272
 40
1.0
 40
1.0
 40
1.0
 40
1.0
 10
6.4712410958
 20
5.4032818426
 30
0.0
 10
6.4792555683
 20
5.4014263457
 30
0.0
 10
6.4912583937
 20
5.39768922
 30
0.0
 10
6.5068428084
 20
5.3910665186
 30
0.0
 10
6.518656766
 20
5.3850977435
 30
0.0
 10
6.5303633218
 20
5.3781980661
 30
0.0
 10
6.541902208
 20
5.3703654263
 30
0.0
 10
6.5532108386
 20
5.3615986226
 30
0.0
 10
6.5642257944
 20
5.3518970241
 30
0.0
 10
6.5748764919
 20
5.3412692827
 30
0.0
 10
6.5851293116
 20
5.329777092
 30
0.0
 10
6.5949454527
 20
5.3174842374
 30
0.0
 10
6.6042847936
 20
5.3044560386
 30
0.0
 10
6.6131070394
 20
5.290757749
 30
0.0
 10
6.6213718404
 20
5.2764545382
 30
0.0
 10
6.6290385265
 20
5.2616121397
 30
0.0
 10
6.6337076904
 20
5.2514364957
 30
0.0
 10
6.6359325558
 20
5.2462757345
 30
0.0
 11
6.4712410958
 21
5.4032818426
 31
0.0
 11
6.4948257477
 21
5.3960130092
 31
0.0
 11
6.506676666
 21
5.3909853475
 31
0.0
 11
6.5184837023
 21
5.3850273802
 31
0.0
 11
6.5301846489
 21
5.3781380007
 31
0.0
 11
6.5417172979
 21
5.3703161021
 31
0.0
 11
6.5530194417
 21
5.3615605778
 31
0.0
 11
6.5640288724
 21
5.3518703211
 31
0.0
 11
6.5746869583
 21
5.3412553788
 31
0.0
 11
6.5849493708
 21
5.3297704123
 31
0.0
 11
6.5947753572
 21
5.3174812364
 31
0.0
 11
6.6041241649
 21
5.3044536659
 31
0.0
 11
6.6129550413
 21
5.2907535156
 31
0.0
 11
6.6212272337
 21
5.2764466004
 31
0.0
 11
6.6288999894
 21
5.2615987351
 31
0.0
 11
6.6359325558
 21
5.2462757345
 31
0.0
  0
SPLINE
  5
4FF
100
AcDbEntity
  8
0
100
AcDbSpline
 62
9
  6
CONTINUOUS
 70
0
 71
3
 72
13
 73
9
 74
7
 42
0.0000001
 43
0.0000001
 44
0.0000000001
 12
-0.047154332
 22
0.0
 32
0.0
 13
-0.0471421761
 23
-0.0010706368
 33
0.0
 40
0.0
 40
0.0
 40
0.0
 40
0.0
 40
0.2050406698
 40
0.4191301617
 40
0.538051388
 40
0.6710042274
 40
0.8232373634
 40
1.0
 40
1.0
 40
1.0
 40
1.0
 10
6.7525791138
 20
4.8723624365
 30
0.0
 10
6.7493562619
 20
4.8723624365
 30
0.0
 10
6.7427683035
 20
4.8723397953
 30
0.0
 10
6.7343115432
 20
4.8722545227
 30
0.0
 10
6.7269880943
 20
4.8721591434
 30
0.0
 10
6.7206370745
 20
4.8720588344
 30
0.0
 10
6.7133773805
 20
4.8719227752
 30
0.0
 10
6.7082073819
 20
4.8718113439
 30
0.0
 10
6.7054297235
 20
4.8717482611
 30
0.0
 11
6.7525791138
 21
4.8723624365
 31
0.0
 11
6.7429106131
 21
4.8723298056
 31
0.0
 11
6.7328158295
 21
4.8722330801
 31
0.0
 11
6.7272086603
 21
4.8721595714
 31
0.0
 11
6.7209401369
 21
4.8720607499
 31
0.0
 11
6.7137629333
 21
4.8719268887
 31
0.0
 11
6.7054297235
 21
4.8717482611
 31
0.0
  0
SPLINE
  5
500
100
AcDbEntity
  8
0
100
AcDbSpline
 62
9
  6
CONTINUOUS
 70
0
 71
3
 72
15
 73
11
 74
9
 42
0.0000001
 43
0.0000001
 44
0.0000000001
 12
0.1519083821
 22
-0.3523641985
 32
0.0
 13
-0.0079543772
 23
-0.3836318715
 33
0.0
 40
0.0
 40
0.0
 40
0.0
 40
0.0
 40
0.1193059327
 40
0.2407591601
 40
0.364128099
 40
0.4891510449
 40
0.6155456757
 40
0.7430175072
 40
0.8712676262
 40
1.0
 40
1.0
 40
1.0
 40
1.0
 10
6.6359325558
 20
5.2462757345
 30
0.0
 10
6.6419737462
 20
5.2322626881
 30
0.0
 10
6.6532907967
 20
5.2035999302
 30
0.0
 10
6.6678591097
 20
5.1593386483
 30
0.0
 10
6.6801435061
 20
5.1136320728
 30
0.0
 10
6.6901021279
 20
5.0667184199
 30
0.0
 10
6.6976939534
 20
5.0188334296
 30
0.0
 10
6.7028773481
 20
4.9702131526
 30
0.0
 10
6.7056105926
 20
4.9210956697
 30
0.0
 10
6.70577106
 20
4.8882099086
 30
0.0
 10
6.7054297314
 20
4.8717479615
 30
0.0
 11
6.6359325558
 21
5.2462757345
 31
0.0
 11
6.6527761965
 21
5.2037076145
 31
0.0
 11
6.6673731293
 21
5.1594492688
 31
0.0
 11
6.6796814949
 21
5.1137389741
 31
0.0
 11
6.6896594337
 21
5.0668150076
 31
0.0
 11
6.6972650862
 21
5.0189156461
 31
0.0
 11
6.7024565929
 21
4.9702791666
 31
0.0
 11
6.7051920945
 21
4.9211438461
 31
0.0
 11
6.7054297314
 21
4.8717479615
 31
0.0
  0
SPLINE
  5
501
100
AcDbEntity
  8
0
100
AcDbSpline
 62
9
  6
CONTINUOUS
 70
0
 71
3
 72
26
 73
22
 74
20
 42
0.0000001
 43
0.0000001
 44
0.0000000001
 12
-0.1549203886
 22
-0.0825320357
 32
0.0
 13
0.0
 23
-0.1755330844
 33
0.0
 40
0.0
 40
0.0
 40
0.0
 40
0.0
 40
0.0496325903
 40
0.0754808813
 40
0.1020266867
 40
0.1292689828
 40
0.1571977426
 40
0.1857953462
 40
0.2150377931
 40
0.2753266158
 40
0.3377901931
 40
0.4020938498
 40
0.467869261
 40
0.5347268458
 40
0.6022656387
 40
0.6700817172
 40
0.7377760317
 40
0.8049623625
 40
0.8712761015
 40
0.9363846078
 40
1.0
 40
1.0
 40
1.0
 40
1.0
 10
6.2256226446
 20
5.4363476667
 30
0.0
 10
6.2230596112
 20
5.4349822405
 30
0.0
 10
6.219296394
 20
5.4326442339
 30
0.0
 10
6.2144983532
 20
5.4290901303
 30
0.0
 10
6.2108987308
 20
5.4261278679
 30
0.0
 10
6.207353273
 20
5.4229175914
 30
0.0
 10
6.2038667218
 20
5.4194705534
 30
0.0
 10
6.2004443164
 20
5.4157983455
 30
0.0
 10
6.1959280323
 20
5.4105642194
 30
0.0
 10
6.1904881729
 20
5.403518944
 30
0.0
 10
6.1843657198
 20
5.3944388141
 30
0.0
 10
6.1786244282
 20
5.3847385485
 30
0.0
 10
6.1733063991
 20
5.374509977
 30
0.0
 10
6.1684536381
 20
5.3638446232
 30
0.0
 10
6.1641083346
 20
5.3528343024
 30
0.0
 10
6.1603126931
 20
5.3415708632
 30
0.0
 10
6.1571089346
 20
5.3301461346
 30
0.0
 10
6.1545392868
 20
5.3186519322
 30
0.0
 10
6.1526460119
 20
5.307179599
 30
0.0
 10
6.1514714829
 20
5.2958212683
 30
0.0
 10
6.1511924628
 20
5.2882873919
 30
0.0
 10
6.1511924628
 20
5.2845651899
 30
0.0
 11
6.2256226446
 21
5.4363476667
 31
0.0
 11
6.218202926
 21
5.4317815374
 31
0.0
 11
6.2145544483
 21
5.4290843039
 31
0.0
 11
6.210953973
 21
5.4261264203
 31
0.0
 11
6.2074068112
 21
5.4229194837
 31
0.0
 11
6.2039182738
 21
5.4194750908
 31
0.0
 11
6.2004936721
 21
5.4158048386
 31
0.0
 11
6.1971383169
 21
5.4119203239
 31
0.0
 11
6.1906565903
 21
5.403554895
 31
0.0
 11
6.1845155826
 21
5.3944715792
 31
0.0
 11
6.1787577819
 21
5.3847631518
 31
0.0
 11
6.1734256765
 21
5.3745223879
 31
0.0
 11
6.1685617548
 21
5.3638420628
 31
0.0
 11
6.1642085051
 21
5.3528149516
 31
0.0
 11
6.1604084156
 21
5.3415338297
 31
0.0
 11
6.1572039747
 21
5.3300914721
 31
0.0
 11
6.1546376707
 21
5.3185806541
 31
0.0
 11
6.1527519918
 21
5.307094151
 31
0.0
 11
6.1515894264
 21
5.2957247378
 31
0.0
 11
6.1511924628
 21
5.2845651899
 31
0.0
  0
SPLINE
  5
502
100
AcDbEntity
  8
0
100
AcDbSpline
 62
9
  6
CONTINUOUS
 70
0
 71
3
 72
29
 73
25
 74
23
 42
0.0000001
 43
0.0000001
 44
0.0000000001
 12
-0.2438966583
 22
-0.1115462451
 32
0.0
 13
-0.1338357743
 23
-0.2324137049
 33
0.0
 40
0.0
 40
0.0
 40
0.0
 40
0.0
 40
0.0212522427
 40
0.0432382417
 40
0.0659794866
 40
0.0894894794
 40
0.1137748871
 40
0.1388365452
 40
0.1646703209
 40
0.1912678483
 40
0.21861715
 40
0.246703162
 40
0.2755081758
 40
0.3050122111
 40
0.3660254228
 40
0.4295512766
 40
0.495374948
 40
0.5632676526
 40
0.6329885694
 40
0.7042870357
 40
0.7769045819
 40
0.8505764791
 40
0.9250329308
 40
1.0
 40
1.0
 40
1.0
 40
1.0
 10
6.4712410958
 20
5.4032818426
 30
0.0
 10
6.4695133122
 20
5.40249164
 30
0.0
 10
6.4660416673
 20
5.4007872374
 30
0.0
 10
6.460879351
 20
5.3979296346
 30
0.0
 10
6.4556782849
 20
5.3947381694
 30
0.0
 10
6.4504414915
 20
5.3912225441
 30
0.0
 10
6.4451717586
 20
5.3873923069
 30
0.0
 10
6.4398719891
 20
5.383257024
 30
0.0
 10
6.4345450951
 20
5.3788262439
 30
0.0
 10
6.4291940214
 20
5.3741095153
 30
0.0
 10
6.4238217291
 20
5.3691163877
 30
0.0
 10
6.418431208
 20
5.3638564134
 30
0.0
 10
6.4130254152
 20
5.3583391522
 30
0.0
 10
6.4057197621
 20
5.3505654918
 30
0.0
 10
6.3965840534
 20
5.3402565004
 30
0.0
 10
6.385727271
 20
5.3271479488
 30
0.0
 10
6.3748811188
 20
5.3132423488
 30
0.0
 10
6.3640685211
 20
5.2986164934
 30
0.0
 10
6.3533122178
 20
5.2833468493
 30
0.0
 10
6.3426349967
 20
5.2675100507
 30
0.0
 10
6.3320596638
 20
5.2511828047
 30
0.0
 10
6.3216090322
 20
5.2344418842
 30
0.0
 10
6.3113059444
 20
5.2173641644
 30
0.0
 10
6.3045654375
 20
5.2058307828
 30
0.0
 10
6.3012210122
 20
5.2000229914
 30
0.0
 11
6.4712410958
 21
5.4032818426
 31
0.0
 11
6.4661219936
 21
5.4007755103
 31
0.0
 11
6.4609602828
 21
5.3979249547
 31
0.0
 11
6.4557589985
 21
5.3947397853
 31
0.0
 11
6.4505211757
 21
5.3912296116
 31
0.0
 11
6.4452498495
 21
5.387404043
 31
0.0
 11
6.439948055
 21
5.383272689
 31
0.0
 11
6.4346188271
 21
5.378845159
 31
0.0
 11
6.429265201
 21
5.3741310627
 31
0.0
 11
6.4238902117
 21
5.3691400094
 31
0.0
 11
6.4184968943
 21
5.3638816086
 31
0.0
 11
6.4130882838
 21
5.3583654698
 31
0.0
 11
6.4076674152
 21
5.3526012025
 31
0.0
 11
6.3968010442
 21
5.3403667202
 31
0.0
 11
6.3859220618
 21
5.3272550376
 31
0.0
 11
6.3750544961
 21
5.3133430608
 31
0.0
 11
6.3642213695
 21
5.2987078174
 31
0.0
 11
6.3534454531
 21
5.2834263651
 31
0.0
 11
6.3427495179
 21
5.2675757617
 31
0.0
 11
6.3321563351
 21
5.2512330648
 31
0.0
 11
6.3216886758
 21
5.2344753323
 31
0.0
 11
6.3113693111
 21
5.2173796219
 31
0.0
 11
6.3012210122
 21
5.2000229914
 31
0.0
  0
SPLINE
  5
503
100
AcDbEntity
  8
0
100
AcDbSpline
 62
9
  6
CONTINUOUS
 70
0
 71
3
 72
23
 73
19
 74
17
 42
0.0000001
 43
0.0000001
 44
0.0000000001
 12
-0.3050583578
 22
-0.085001143
 32
0.0
 13
-0.2362599891
 23
-0.2108720312
 33
0.0
 40
0.0
 40
0.0
 40
0.0
 40
0.0
 40
0.0464328163
 40
0.0954209511
 40
0.1469500869
 40
0.2009689129
 40
0.2573976563
 40
0.3161345088
 40
0.3770604651
 40
0.4400429806
 40
0.5049402932
 40
0.5716079713
 40
0.6398956843
 40
0.7096469916
 40
0.7807004186
 40
0.8528903132
 40
0.9260475328
 40
1.0
 40
1.0
 40
1.0
 40
1.0
 10
6.6359325558
 20
5.2462757345
 30
0.0
 10
6.6312109829
 20
5.2449601204
 30
0.0
 10
6.6216009777
 20
5.2419155263
 30
0.0
 10
6.6071065951
 20
5.2363700451
 30
0.0
 10
6.5921792825
 20
5.229775787
 30
0.0
 10
6.5768532341
 20
5.2221848142
 30
0.0
 10
6.5611618606
 20
5.2136487527
 30
0.0
 10
6.5451393063
 20
5.2042193649
 30
0.0
 10
6.5288198626
 20
5.1939484515
 30
0.0
 10
6.5122378891
 20
5.1828878045
 30
0.0
 10
6.4954272258
 20
5.1710888392
 30
0.0
 10
6.4784195088
 20
5.1586046221
 30
0.0
 10
6.4612457051
 20
5.1454877948
 30
0.0
 10
6.4439366905
 20
5.1317909566
 30
0.0
 10
6.4265233719
 20
5.117566747
 30
0.0
 10
6.4090366693
 20
5.1028678318
 30
0.0
 10
6.3915075484
 20
5.0877469343
 30
0.0
 10
6.3798674762
 20
5.0774675397
 30
0.0
 10
6.3740434732
 20
5.0722693708
 30
0.0
 11
6.6359325558
 21
5.2462757345
 31
0.0
 11
6.6219052563
 21
5.2418653273
 31
0.0
 11
6.6074059401
 21
5.2363481334
 31
0.0
 11
6.5924694698
 21
5.2297765357
 31
0.0
 11
6.5771307079
 21
5.2222029169
 31
0.0
 11
6.561424517
 21
5.2136796599
 31
0.0
 11
6.5453857599
 21
5.2042591474
 31
0.0
 11
6.5290492991
 21
5.1939937623
 31
0.0
 11
6.5124499972
 21
5.1829358874
 31
0.0
 11
6.495622066
 21
5.1711379839
 31
0.0
 11
6.4785971128
 21
5.1586528271
 31
0.0
 11
6.4614060937
 21
5.1455332705
 31
0.0
 11
6.4440799648
 21
5.1318321679
 31
0.0
 11
6.4266496822
 21
5.117602373
 31
0.0
 11
6.409146202
 21
5.1028967394
 31
0.0
 11
6.3916004803
 21
5.0877681207
 31
0.0
 11
6.3740434732
 21
5.0722693708
 31
0.0
  0
SPLINE
  5
504
100
AcDbEntity
  8
0
100
AcDbSpline
 62
6
  6
CONTINUOUS
 70
0
 71
3
 72
16
 73
12
 74
10
 42
0.0000001
 43
0.0000001
 44
0.0000000001
 12
-0.2757905273
 22
-0.0062635407
 32
0.0
 13
-0.2752923616
 23
-0.0177133437
 33
0.0
 40
0.0
 40
0.0
 40
0.0
 40
0.0
 40
0.1298603918
 40
0.2629064339
 40
0.3968023099
 40
0.5292121486
 40
0.657842749
 40
0.7805709938
 40
0.8953165398
 40
0.9490459671
 40
1.0
 40
1.0
 40
1.0
 40
1.0
 10
6.7054297155
 20
4.8717487682
 30
0.0
 10
6.6934916268
 20
4.8714776396
 30
0.0
 10
6.6693239485
 20
4.8708676599
 30
0.0
 10
6.6328524666
 20
4.8697824927
 30
0.0
 10
6.5961517379
 20
4.8685309748
 30
0.0
 10
6.559862576
 20
4.8671337369
 30
0.0
 10
6.5246063041
 20
4.8656105677
 30
0.0
 10
6.4909803977
 20
4.8639915906
 30
0.0
 10
6.4642413442
 20
4.8625581974
 30
0.0
 10
6.4440984814
 20
4.8613784427
 30
0.0
 10
6.4344909762
 20
4.8607807303
 30
0.0
 10
6.4298152242
 20
4.8604798748
 30
0.0
 11
6.7054297155
 21
4.8717487682
 31
0.0
 11
6.6696175294
 21
4.8708484546
 31
0.0
 11
6.6329314216
 21
4.8697583525
 31
0.0
 11
6.596016156
 21
4.8684991193
 31
0.0
 11
6.559516496
 21
4.8670914125
 31
0.0
 11
6.5240654248
 21
4.8655573095
 31
0.0
 11
6.4902488026
 21
4.8639245675
 31
0.0
 11
6.4586407092
 21
4.8622223635
 31
0.0
 11
6.4438442607
 21
4.8613543312
 31
0.0
 11
6.4298152242
 21
4.8604798748
 31
0.0
  0
SPLINE
  5
505
100
AcDbEntity
  8
0
100
AcDbSpline
 62
6
  6
CONTINUOUS
 70
0
 71
3
 72
21
 73
17
 74
15
 42
0.0000001
 43
0.0000001
 44
0.0000000001
 12
0.1782074375
 22
-0.0000927831
 32
0.0
 13
0.1119949311
 23
-0.1386183062
 33
0.0
 40
0.0
 40
0.0
 40
0.0
 40
0.0
 40
0.0627355544
 40
0.1246727482
 40
0.1860033446
 40
0.2469236024
 40
0.3076457746
 40
0.3683504792
 40
0.4291969116
 40
0.4903259024
 40
0.5518507707
 40
0.6138719661
 40
0.73970833
 40
0.8036643872
 40
0.8683530329
 40
1.0
 40
1.0
 40
1.0
 40
1.0
 10
6.1511924628
 20
5.2845651899
 30
0.0
 10
6.1549191102
 20
5.2845632496
 30
0.0
 10
6.1623278556
 20
5.2842813473
 30
0.0
 10
6.1733166103
 20
5.2830412333
 30
0.0
 10
6.1840804746
 20
5.2810268574
 30
0.0
 10
6.1946047028
 20
5.2782761581
 30
0.0
 10
6.2048812149
 20
5.2748269263
 30
0.0
 10
6.2149061951
 20
5.270716786
 30
0.0
 10
6.224676417
 20
5.2659788826
 30
0.0
 10
6.2341887416
 20
5.2606434426
 30
0.0
 10
6.243441711
 20
5.2547397526
 30
0.0
 10
6.2554901045
 20
5.2461109796
 30
0.0
 10
6.2669806637
 20
5.2364935304
 30
0.0
 10
6.2779265328
 20
5.2260631795
 30
0.0
 10
6.2886825578
 20
5.2149506446
 30
0.0
 10
6.2963114536
 20
5.2061120536
 30
0.0
 10
6.3012260513
 20
5.2000291604
 30
0.0
 11
6.1511924628
 21
5.2845651899
 31
0.0
 11
6.1623643356
 21
5.28414045
 31
0.0
 11
6.1733325692
 21
5.2829043224
 31
0.0
 11
6.1840760981
 21
5.2808963172
 31
0.0
 11
6.1945806726
 21
5.2781547297
 31
0.0
 11
6.204840989
 21
5.2747162605
 31
0.0
 11
6.214852408
 21
5.2706173229
 31
0.0
 11
6.2246113907
 21
5.265890891
 31
0.0
 11
6.2341153879
 21
5.2605668438
 31
0.0
 11
6.2433619647
 21
5.2546749601
 31
0.0
 11
6.2523520957
 21
5.2482454663
 31
0.0
 11
6.2695858532
 21
5.2338970417
 31
0.0
 11
6.2778413019
 21
5.2260389659
 31
0.0
 11
6.2858630696
 21
5.217759714
 31
0.0
 11
6.3012260513
 21
5.2000291604
 31
0.0
  0
SPLINE
  5
506
100
AcDbEntity
  8
0
100
AcDbSpline
 62
6
  6
CONTINUOUS
 70
0
 71
3
 72
11
 73
7
 74
5
 42
0.0000001
 43
0.0000001
 44
0.0000000001
 12
0.0326449604
 22
-0.0404156406
 32
0.0
 13
0.02729001
 23
-0.0442082888
 33
0.0
 40
0.0
 40
0.0
 40
0.0
 40
0.0
 40
0.2438839898
 40
0.4919659413
 40
0.7440717436
 40
1.0
 40
1.0
 40
1.0
 40
1.0
 10
6.3012246173
 20
5.2000256084
 30
0.0
 10
6.3038784784
 20
5.1967400325
 30
0.0
 10
6.3091147581
 20
5.1900169092
 30
0.0
 10
6.3166919802
 20
5.1795919805
 30
0.0
 10
6.3240548925
 20
5.1687615974
 30
0.0
 10
6.3287824857
 20
5.1613400219
 30
0.0
 10
6.3311105806
 20
5.1575686385
 30
0.0
 11
6.3012246173
 21
5.2000256084
 31
0.0
 11
6.3090144469
 21
5.1900325887
 31
0.0
 11
6.3165961695
 21
5.1796098379
 31
0.0
 11
6.3239636068
 21
5.1687807299
 31
0.0
 11
6.3311105806
 21
5.1575686385
 31
0.0
  0
SPLINE
  5
507
100
AcDbEntity
  8
0
100
AcDbSpline
 62
6
  6
CONTINUOUS
 70
0
 71
3
 72
13
 73
9
 74
7
 42
0.0000001
 43
0.0000001
 44
0.0000000001
 12
0.0501898635
 22
-0.0813661757
 32
0.0
 13
0.0363608415
 23
-0.0884158705
 33
0.0
 40
0.0
 40
0.0
 40
0.0
 40
0.0
 40
0.1205244281
 40
0.2421113516
 40
0.3648484252
 40
0.4888578504
 40
0.7411692105
 40
1.0
 40
1.0
 40
1.0
 40
1.0
 10
6.33111472
 20
5.1575741503
 30
0.0
 10
6.3331310882
 20
5.1543052797
 30
0.0
 10
6.3371020142
 20
5.1476893078
 30
0.0
 10
6.3428583971
 20
5.1375867541
 30
0.0
 10
6.348449697
 20
5.1272653747
 30
0.0
 10
6.3557311635
 20
5.113125707
 30
0.0
 10
6.3644464036
 20
5.0948517634
 30
0.0
 10
6.3709004595
 20
5.0798921052
 30
0.0
 10
6.3740375613
 20
5.0722638554
 30
0.0
 11
6.33111472
 21
5.1575741503
 31
0.0
 11
6.3370471629
 21
5.147696528
 31
0.0
 11
6.3428040995
 21
5.1375985064
 31
0.0
 11
6.3483943882
 21
5.1272820482
 31
0.0
 11
6.3538236756
 21
5.11674294
 31
0.0
 11
6.3642205963
 21
5.0949775435
 31
0.0
 11
6.3740375613
 21
5.0722638554
 31
0.0
  0
SPLINE
  5
508
100
AcDbEntity
  8
0
100
AcDbSpline
 62
6
  6
CONTINUOUS
 70
0
 71
3
 72
14
 73
10
 74
8
 42
0.0000001
 43
0.0000001
 44
0.0000000001
 12
0.0493141438
 22
-0.1524131429
 32
0.0
 13
0.0219980887
 23
-0.1586749351
 33
0.0
 40
0.0
 40
0.0
 40
0.0
 40
0.0
 40
0.2404439371
 40
0.3632476138
 40
0.4876758102
 40
0.6136696689
 40
0.7411711326
 40
0.8700344552
 40
1.0
 40
1.0
 40
1.0
 40
1.0
 10
6.3944287605
 20
5.0165140875
 30
0.0
 10
6.3983811895
 20
5.0042984821
 30
0.0
 10
6.4039175733
 20
4.9856997232
 30
0.0
 10
6.4105212596
 20
4.9605089777
 30
0.0
 10
6.4151560772
 20
4.9411243191
 30
0.0
 10
6.4194253692
 20
4.9213993812
 30
0.0
 10
6.4233166363
 20
4.9013550104
 30
0.0
 10
6.42681419
 20
4.8810230647
 30
0.0
 10
6.4288622394
 20
4.867353519
 30
0.0
 10
6.4298152373
 20
4.8604794275
 30
0.0
 11
6.3944287605
 21
5.0165140875
 31
0.0
 11
6.4054399699
 21
4.979604229
 31
0.0
 11
6.4104307685
 21
4.9605756008
 31
0.0
 11
6.4150672937
 21
4.9411898854
 31
0.0
 11
6.41933822
 21
4.9214636631
 31
0.0
 11
6.4232315182
 21
4.9014133758
 31
0.0
 11
6.4267310388
 21
4.8810692251
 31
0.0
 11
6.4298152373
 21
4.8604794275
 31
0.0
  0
SPLINE
  5
509
100
AcDbEntity
  8
0
100
AcDbSpline
 62
6
  6
CONTINUOUS
 70
0
 71
3
 72
30
 73
26
 74
24
 42
0.0000001
 43
0.0000001
 44
0.0000000001
 12
-0.0353245174
 22
-0.0022728217
 32
0.0
 13
0.0022560131
 23
-0.0353255948
 33
0.0
 40
0.0
 40
0.0
 40
0.0
 40
0.0
 40
0.2427904274
 40
0.4490379746
 40
0.538884599
 40
0.620107991
 40
0.6928807833
 40
0.7573772049
 40
0.8137739164
 40
0.8622514702
 40
0.8835791375
 40
0.9029973825
 40
0.9205276787
 40
0.9361921415
 40
0.9500152225
 40
0.9620250667
 40
0.972255994
 40
0.9807533917
 40
0.9875842957
 40
0.9904098511
 40
0.9928691976
 40
0.994995484
 40
0.9968384458
 40
0.998472237
 40
1.0
 40
1.0
 40
1.0
 40
1.0
 10
6.4298152854
 20
4.8604786352
 30
0.0
 10
6.4269564672
 20
4.8602946954
 30
0.0
 10
6.4216702595
 20
4.8599362831
 30
0.0
 10
6.4153306081
 20
4.8594464349
 30
0.0
 10
6.4108953901
 20
4.8590593797
 30
0.0
 10
6.4080310821
 20
4.8587875288
 30
0.0
 10
6.4054668445
 20
4.8585207691
 30
0.0
 10
6.4031966919
 20
4.8582593016
 30
0.0
 10
6.4012146486
 20
4.8580033162
 30
0.0
 10
6.3997412958
 20
4.8577866147
 30
0.0
 10
6.3987027404
 20
4.8576140579
 30
0.0
 10
6.3980260763
 20
4.857491691
 30
0.0
 10
6.3974171306
 20
4.8573708126
 30
0.0
 10
6.3968753011
 20
4.8572514533
 30
0.0
 10
6.3963999681
 20
4.8571336709
 30
0.0
 10
6.3959905048
 20
4.8570175276
 30
0.0
 10
6.3956461379
 20
4.8569031273
 30
0.0
 10
6.3953661736
 20
4.8567905129
 30
0.0
 10
6.3951747979
 20
4.8566930052
 30
0.0
 10
6.3950555508
 20
4.8566138609
 30
0.0
 10
6.3949875583
 20
4.8565585931
 30
0.0
 10
6.3949350518
 20
4.8565034849
 30
0.0
 10
6.3948979973
 20
4.8564482175
 30
0.0
 10
6.3948767013
 20
4.856392493
 30
0.0
 10
6.3948734977
 20
4.8563547081
 30
0.0
 10
6.3948746466
 20
4.8563367184
 30
0.0
 11
6.4298152854
 21
4.8604786352
 31
0.0
 11
6.421241103
 21
4.8598925668
 31
0.0
 11
6.4139626285
 21
4.8593238456
 31
0.0
 11
6.4107944082
 21
4.8590463317
 31
0.0
 11
6.4079322665
 21
4.8587735644
 31
0.0
 11
6.4053702542
 21
4.8585056804
 31
0.0
 11
6.4031024217
 21
4.8582428162
 31
0.0
 11
6.4011228196
 21
4.8579851085
 31
0.0
 11
6.3994254986
 21
4.857732694
 31
0.0
 11
6.3986808343
 21
4.8576085143
 31
0.0
 11
6.3980045351
 21
4.8574857089
 31
0.0
 11
6.3973959996
 21
4.8573642938
 31
0.0
 11
6.3968546586
 21
4.8572442848
 31
0.0
 11
6.3963799431
 21
4.8571256975
 31
0.0
 11
6.395971284
 21
4.8570085477
 31
0.0
 11
6.3956281122
 21
4.8568928512
 31
0.0
 11
6.3953498588
 21
4.8567786237
 31
0.0
 11
6.3951359546
 21
4.856665881
 31
0.0
 11
6.3950529556
 21
4.8566100713
 31
0.0
 11
6.3949858305
 21
4.8565546387
 31
0.0
 11
6.3949345082
 21
4.8564995851
 31
0.0
 11
6.3948989175
 21
4.8564449126
 31
0.0
 11
6.3948789874
 21
4.856390623
 31
0.0
 11
6.3948746466
 21
4.8563367184
 31
0.0
  0
SPLINE
  5
50A
100
AcDbEntity
  8
0
100
AcDbSpline
 62
9
  6
CONTINUOUS
 70
0
 71
3
 72
15
 73
11
 74
9
 42
0.0000001
 43
0.0000001
 44
0.0000000001
 12
-0.0087769668
 22
0.0181990135
 32
0.0
 13
-0.0172303366
 23
0.0105524754
 33
0.0
 40
0.0
 40
0.0
 40
0.0
 40
0.0
 40
0.1285911917
 40
0.2551768286
 40
0.3802297407
 40
0.504240215
 40
0.6277114068
 40
0.7511540424
 40
0.8750806987
 40
1.0
 40
1.0
 40
1.0
 40
1.0
 10
6.7127383112
 20
5.231435026
 30
0.0
 10
6.7123620976
 20
5.2322151036
 30
0.0
 10
6.7115639211
 20
5.2337388802
 30
0.0
 10
6.7102210363
 20
5.2359217149
 30
0.0
 10
6.708745142
 20
5.2379792827
 30
0.0
 10
6.7071383686
 20
5.2399091641
 30
0.0
 10
6.7054028111
 20
5.2417091036
 30
0.0
 10
6.703540571
 20
5.2433768461
 30
0.0
 10
6.7015539478
 20
5.2449100627
 30
0.0
 10
6.7001551605
 20
5.2458363319
 30
0.0
 10
6.6994376933
 20
5.2462757345
 30
0.0
 11
6.7127383112
 21
5.231435026
 31
0.0
 11
6.7115314788
 21
5.2337359117
 31
0.0
 11
6.7101903334
 21
5.2359137371
 31
0.0
 11
6.7087169252
 21
5.237966347
 31
0.0
 11
6.7071133041
 21
5.2398915863
 31
0.0
 11
6.7053815203
 21
5.2416872999
 31
0.0
 11
6.7035236238
 21
5.2433513325
 31
0.0
 11
6.7015416648
 21
5.2448815291
 31
0.0
 11
6.6994376933
 21
5.2462757345
 31
0.0
  0
SPLINE
  5
50B
100
AcDbEntity
  8
0
100
AcDbSpline
 62
9
  6
CONTINUOUS
 70
0
 71
3
 72
12
 73
8
 74
6
 42
0.0000001
 43
0.0000001
 44
0.0000000001
 12
0.0062644182
 22
-0.0752033415
 32
0.0
 13
-0.0158178123
 23
-0.073787413
 33
0.0
 40
0.0
 40
0.0
 40
0.0
 40
0.0
 40
0.2529344546
 40
0.3787748564
 40
0.5041351959
 40
0.7532312562
 40
1.0
 40
1.0
 40
1.0
 40
1.0
 10
6.7814481718
 20
4.8717479615
 30
0.0
 10
6.7819763342
 20
4.8654074561
 30
0.0
 10
6.7824252098
 20
4.8558791354
 30
0.0
 10
6.7823325875
 20
4.8431961762
 30
0.0
 10
6.7817835045
 20
4.8306208218
 30
0.0
 10
6.7802481943
 20
4.8150552118
 30
0.0
 10
6.7781017539
 20
4.8027540438
 30
0.0
 10
6.77680064
 20
4.7966845681
 30
0.0
 11
6.7814481718
 21
4.8717479615
 31
0.0
 11
6.7823446328
 21
4.852681629
 31
0.0
 11
6.7822748936
 21
4.8431854898
 31
0.0
 11
6.781861646
 21
4.8337343522
 31
0.0
 11
6.7800100391
 21
4.8150280316
 31
0.0
 11
6.77680064
 21
4.7966845681
 31
0.0
  0
SPLINE
  5
50C
100
AcDbEntity
  8
0
100
AcDbSpline
 62
9
  6
CONTINUOUS
 70
0
 71
3
 72
14
 73
10
 74
8
 42
0.0000001
 43
0.0000001
 44
0.0000000001
 12
-0.0323244998
 22
0.001984635
 32
0.0
 13
-0.0323853681
 23
0.0
 33
0.0
 40
0.0
 40
0.0
 40
0.0
 40
0.0
 40
0.0930594899
 40
0.1956015257
 40
0.3065293457
 40
0.4247372121
 40
0.5499244976
 40
0.6850304738
 40
1.0
 40
1.0
 40
1.0
 40
1.0
 10
6.77680064
 20
4.7966845681
 30
0.0
 10
6.7757979395
 20
4.7967461311
 30
0.0
 10
6.7736890113
 20
4.7968535898
 30
0.0
 10
6.770382228
 20
4.7969768285
 30
0.0
 10
6.7668030463
 20
4.7970755899
 30
0.0
 10
6.7629789047
 20
4.7971554825
 30
0.0
 10
6.7588934701
 20
4.7972223145
 30
0.0
 10
6.7526838129
 20
4.7972926595
 30
0.0
 10
6.7478251322
 20
4.7973098095
 30
0.0
 10
6.7444249976
 20
4.7973098095
 30
0.0
 11
6.77680064
 21
4.7966845681
 31
0.0
 11
6.7737909814
 21
4.7968418574
 31
0.0
 11
6.7704725287
 21
4.7969683204
 31
0.0
 11
6.7668815166
 21
4.7970695404
 31
0.0
 11
6.7630541803
 21
4.797151101
 31
0.0
 11
6.7590004844
 21
4.7972172946
 31
0.0
 11
6.7546253128
 21
4.7972672512
 31
0.0
 11
6.7444249976
 21
4.7973098095
 31
0.0
  0
SPLINE
  5
50D
100
AcDbEntity
  8
0
100
AcDbSpline
 62
9
  6
CONTINUOUS
 70
0
 71
3
 72
11
 73
7
 74
5
 42
0.0000001
 43
0.0000001
 44
0.0000000001
 12
0.0
 22
-0.0756344071
 32
0.0
 13
-0.0164301359
 23
-0.0738282749
 33
0.0
 40
0.0
 40
0.0
 40
0.0
 40
0.0
 40
0.2518047309
 40
0.5028810236
 40
0.7525135779
 40
1.0
 40
1.0
 40
1.0
 40
1.0
 10
6.7525791138
 20
4.8723621359
 30
0.0
 10
6.7525791138
 20
4.8660137687
 30
0.0
 10
6.7522352579
 20
4.8533327815
 30
0.0
 10
6.7506988741
 20
4.8344141947
 30
0.0
 10
6.7481541427
 20
4.8157144492
 30
0.0
 10
6.7457804094
 20
4.8034003081
 30
0.0
 10
6.7444249976
 20
4.7973098095
 30
0.0
 11
6.7525791138
 21
4.8723621359
 31
0.0
 11
6.7520635497
 21
4.853324014
 31
0.0
 11
6.7505247665
 21
4.8343964548
 31
0.0
 11
6.7479746279
 21
4.8156886546
 31
0.0
 11
6.7444249976
 21
4.7973098095
 31
0.0
  0
SPLINE
  5
50E
100
AcDbEntity
  8
0
100
AcDbSpline
 62
9
  6
CONTINUOUS
 70
0
 71
3
 72
12
 73
8
 74
6
 42
0.0000001
 43
0.0000001
 44
0.0000000001
 12
-0.054934146
 22
0.0
 32
0.0
 13
-0.0549249042
 23
-0.0010076186
 33
0.0
 40
0.0
 40
0.0
 40
0.0
 40
0.0
 40
0.2098833497
 40
0.4341458007
 40
0.5565803006
 40
0.6895649042
 40
1.0
 40
1.0
 40
1.0
 40
1.0
 10
6.7444249976
 20
4.7973098095
 30
0.0
 10
6.7405817434
 20
4.7973098095
 30
0.0
 10
6.7326319208
 20
4.7972770624
 30
0.0
 10
6.7224406492
 20
4.7971753122
 30
0.0
 10
6.7136576573
 20
4.7970691168
 30
0.0
 10
6.703297076
 20
4.7969254092
 30
0.0
 10
6.6951785736
 20
4.7967888348
 30
0.0
 10
6.6894950343
 20
4.7966845681
 30
0.0
 11
6.7444249976
 21
4.7973098095
 31
0.0
 11
6.7328953135
 21
4.7972672512
 31
0.0
 11
6.7205761948
 21
4.797151101
 31
0.0
 11
6.7138508547
 21
4.7970695404
 31
0.0
 11
6.7065461603
 21
4.7969683204
 31
0.0
 11
6.6894950343
 21
4.7966845681
 31
0.0
  0
SPLINE
  5
50F
100
AcDbEntity
  8
0
100
AcDbSpline
 62
9
  6
CONTINUOUS
 70
0
 71
3
 72
17
 73
13
 74
11
 42
0.0000001
 43
0.0000001
 44
0.0000000001
 12
0.1209053554
 22
-0.0909889057
 32
0.0
 13
0.0646863605
 23
-0.1367945931
 33
0.0
 40
0.0
 40
0.0
 40
0.0
 40
0.0
 40
0.1157997919
 40
0.1749005317
 40
0.2347852958
 40
0.2954241996
 40
0.3567825124
 40
0.4814845268
 40
0.6085574207
 40
0.737612385
 40
0.8682354819
 40
1.0
 40
1.0
 40
1.0
 40
1.0
 10
6.6071233316
 20
5.364384964
 30
0.0
 10
6.6117902699
 20
5.3608727985
 30
0.0
 10
6.6186512744
 20
5.3553118093
 30
0.0
 10
6.6274453167
 20
5.347378037
 30
0.0
 10
6.6339608986
 20
5.3410798557
 30
0.0
 10
6.6403437247
 20
5.3344880778
 30
0.0
 10
6.6487108262
 20
5.3252754802
 30
0.0
 10
6.6587800803
 20
5.3130935768
 30
0.0
 10
6.670138197
 20
5.2975900939
 30
0.0
 10
6.6807729579
 20
5.2812244038
 30
0.0
 10
6.6906194174
 20
5.2641003263
 30
0.0
 10
6.6965965709
 20
5.2522839591
 30
0.0
 10
6.6994376933
 20
5.2462757345
 30
0.0
 11
6.6071233316
 21
5.364384964
 31
0.0
 11
6.6207395804
 21
5.3533559866
 31
0.0
 11
6.627381243
 21
5.3473672061
 31
0.0
 11
6.6338984284
 21
5.3410712169
 31
0.0
 11
6.640283002
 21
5.3344809544
 31
0.0
 11
6.6465268406
 21
5.3276093896
 31
0.0
 11
6.6585598198
 21
5.313074237
 31
0.0
 11
6.6699323804
 21
5.2975695272
 31
0.0
 11
6.6805795367
 21
5.2811990281
 31
0.0
 11
6.6904363029
 21
5.2640665079
 31
0.0
 11
6.6994376933
 21
5.2462757345
 31
0.0
  0
SPLINE
  5
510
100
AcDbEntity
  8
0
100
AcDbSpline
 62
9
  6
CONTINUOUS
 70
0
 71
3
 72
9
 73
5
 74
3
 42
0.0000001
 43
0.0000001
 44
0.0000000001
 12
-0.0082645599
 22
0.0015077384
 32
0.0
 13
-0.0084009658
 23
0.0
 33
0.0
 40
0.0
 40
0.0
 40
0.0
 40
0.0
 40
0.4944883816
 40
1.0
 40
1.0
 40
1.0
 40
1.0
 10
6.508776445
 20
5.4097515832
 30
0.0
 10
6.5074142021
 20
5.4100001029
 30
0.0
 10
6.5046345526
 20
5.410374472
 30
0.0
 10
6.5018327204
 20
5.4104960446
 30
0.0
 10
6.5004171252
 20
5.4104960446
 30
0.0
 11
6.508776445
 21
5.4097515832
 31
0.0
 11
6.5046597692
 21
5.4103085317
 31
0.0
 11
6.5004171252
 21
5.4104960446
 31
0.0
  0
SPLINE
  5
511
100
AcDbEntity
  8
0
100
AcDbSpline
 62
9
  6
CONTINUOUS
 70
0
 71
3
 72
66
 73
62
 74
60
 42
0.0000001
 43
0.0000001
 44
0.0000000001
 12
-0.1797150055
 22
-0.168726374
 32
0.0
 13
-0.0014744056
 23
0.246503344
 33
0.0
 40
0.0
 40
0.0
 40
0.0
 40
0.0
 40
0.0328441091
 40
0.049126596
 40
0.065308794
 40
0.0973291076
 40
0.1288246863
 40
0.144342446
 40
0.1596849131
 40
0.1748270514
 40
0.1897484824
 40
0.2044252678
 40
0.2188368417
 40
0.2329621447
 40
0.2399124984
 40
0.2467867178
 40
0.2535856772
 40
0.2603114193
 40
0.2669675808
 40
0.2735631271
 40
0.2866176978
 40
0.299564486
 40
0.3124774505
 40
0.3254129405
 40
0.3384155177
 40
0.3515152922
 40
0.3780810379
 40
0.4052219254
 40
0.4190249378
 40
0.4329834408
 40
0.4470998676
 40
0.4613754905
 40
0.4758097843
 40
0.4904032488
 40
0.5200704341
 40
0.5503824169
 40
0.581342029
 40
0.597066813
 40
0.6129534674
 40
0.6290018397
 40
0.6452126039
 40
0.6615822933
 40
0.6781056258
 40
0.694780688
 40
0.7116033643
 40
0.728565084
 40
0.7370967228
 40
0.7456621009
 40
0.7628969376
 40
0.7802751191
 40
0.7977973984
 40
0.8154625465
 40
0.8332731617
 40
0.8512360763
 40
0.8693545371
 40
0.8876291252
 40
0.906057332
 40
0.9246321283
 40
0.9621563866
 40
0.9810559831
 40
1.0
 40
1.0
 40
1.0
 40
1.0
 10
6.2477893962
 20
5.1668155044
 30
0.0
 10
6.2458218698
 20
5.1649682819
 30
0.0
 10
6.2428155649
 20
5.1622714649
 30
0.0
 10
6.2386934568
 20
5.1588348099
 30
0.0
 10
6.2345399905
 20
5.1555439021
 30
0.0
 10
6.2292478816
 20
5.1516807579
 30
0.0
 10
6.2237813606
 20
5.1481657065
 30
0.0
 10
6.2193303561
 20
5.1456256714
 30
0.0
 10
6.2159770046
 20
5.1438788923
 30
0.0
 10
6.212595935
 20
5.1422983636
 30
0.0
 10
6.2091934494
 20
5.1409020704
 30
0.0
 10
6.2057770031
 20
5.1397105896
 30
0.0
 10
6.2023570472
 20
5.1387467027
 30
0.0
 10
6.199499734
 20
5.1381501984
 30
0.0
 10
6.1972271252
 20
5.1378150747
 30
0.0
 10
6.1955411907
 20
5.1376384857
 30
0.0
 10
6.1938675378
 20
5.137537114
 30
0.0
 10
6.192208866
 20
5.1375126706
 30
0.0
 10
6.1905675713
 20
5.1375675559
 30
0.0
 10
6.1884125974
 20
5.1377450673
 30
0.0
 10
6.1857612961
 20
5.1381536886
 30
0.0
 10
6.1826530985
 20
5.1389202982
 30
0.0
 10
6.1796278365
 20
5.1399354537
 30
0.0
 10
6.1766825752
 20
5.141173762
 30
0.0
 10
6.1738135725
 20
5.1426132502
 30
0.0
 10
6.1700658884
 20
5.1447816738
 30
0.0
 10
6.1655421904
 20
5.1479075921
 30
0.0
 10
6.1612553856
 20
5.1514364241
 30
0.0
 10
6.1579243241
 20
5.1544796579
 30
0.0
 10
6.155456976
 20
5.1568790372
 30
0.0
 10
6.1530331991
 20
5.1593766736
 30
0.0
 10
6.1506509873
 20
5.1619672757
 30
0.0
 10
6.1483078284
 20
5.1646455094
 30
0.0
 10
6.1452179541
 20
5.1683491298
 30
0.0
 10
6.1414534439
 20
5.1731866272
 30
0.0
 10
6.1371111536
 20
5.1792702387
 30
0.0
 10
6.1336510371
 20
5.1845693543
 30
0.0
 10
6.1309753751
 20
5.1889600499
 30
0.0
 10
6.1290107934
 20
5.192348189
 30
0.0
 10
6.1271043788
 20
5.1958150397
 30
0.0
 10
6.1252611481
 20
5.1993607346
 30
0.0
 10
6.1234904205
 20
5.2029867628
 30
0.0
 10
6.1218050023
 20
5.2066952777
 30
0.0
 10
6.1202175399
 20
5.2104872709
 30
0.0
 10
6.1187407793
 20
5.2143623802
 30
0.0
 10
6.1176147347
 20
5.2176529225
 30
0.0
 10
6.1167815324
 20
5.2203247417
 30
0.0
 10
6.1159915479
 20
5.2230330403
 30
0.0
 10
6.1150890566
 20
5.2264650601
 30
0.0
 10
6.1141363222
 20
5.2306424041
 30
0.0
 10
6.1133073383
 20
5.2348821016
 30
0.0
 10
6.1126066874
 20
5.2391809108
 30
0.0
 10
6.1120329846
 20
5.2435348862
 30
0.0
 10
6.1115684186
 20
5.2479391327
 30
0.0
 10
6.1111991887
 20
5.252390563
 30
0.0
 10
6.1109152868
 20
5.2568864767
 30
0.0
 10
6.1107036164
 20
5.2614238217
 30
0.0
 10
6.1104983469
 20
5.2675443716
 30
0.0
 10
6.1103924849
 20
5.2737063995
 30
0.0
 10
6.1103393195
 20
5.2798990755
 30
0.0
 10
6.1103217623
 20
5.2830086137
 30
0.0
 10
6.1103124519
 20
5.2845652015
 30
0.0
 11
6.2477893962
 21
5.1668155044
 31
0.0
 11
6.2417598685
 21
5.1614122354
 31
0.0
 11
6.2386765709
 21
5.1588425002
 31
0.0
 11
6.235549298
 21
5.156366095
 31
0.0
 11
6.2291684035
 21
5.1517198418
 31
0.0
 11
6.2226295131
 21
5.1475340178
 31
0.0
 11
6.2193060265
 21
5.1456400908
 31
0.0
 11
6.2159502956
 21
5.1438957069
 31
0.0
 11
6.2125674001
 21
5.1423181368
 31
0.0
 11
6.2091629615
 21
5.1409255458
 31
0.0
 11
6.2057452227
 21
5.1397387176
 31
0.0
 11
6.2023243766
 21
5.1387803188
 31
0.0
 11
6.198914519
 21
5.1380752147
 31
0.0
 11
6.1972194044
 21
5.1378261392
 31
0.0
 11
6.1955340082
 21
5.1376502589
 31
0.0
 11
6.1938610378
 21
5.1375495954
 31
0.0
 11
6.1922032586
 21
5.1375259677
 31
0.0
 11
6.1905633896
 21
5.1375810973
 31
0.0
 11
6.1889430016
 21
5.1377142954
 31
0.0
 11
6.1857621194
 21
5.1382019973
 31
0.0
 11
6.1826626645
 21
5.1389628832
 31
0.0
 11
6.1796435988
 21
5.1399716744
 31
0.0
 11
6.176702603
 21
5.1412038848
 31
0.0
 11
6.1738358478
 21
5.1426375001
 31
0.0
 11
6.1710389772
 21
5.1442515701
 31
0.0
 11
6.165636515
 21
5.1479527023
 31
0.0
 11
6.160459298
 21
5.1521904377
 31
0.0
 11
6.1579458011
 21
5.1544838362
 31
0.0
 11
6.1554779835
 21
5.1568816531
 31
0.0
 11
6.1530535847
 21
5.1593779221
 31
0.0
 11
6.1506705647
 21
5.1619673121
 31
0.0
 11
6.1483269733
 21
5.1646446466
 31
0.0
 11
6.1460218811
 21
5.1674065032
 31
0.0
 11
6.1415260767
 21
5.1731745626
 31
0.0
 11
6.1371842294
 21
5.1792557812
 31
0.0
 11
6.1330110949
 21
5.185645545
 31
0.0
 11
6.1309943513
 21
5.1889558775
 31
0.0
 11
6.129030296
 21
5.1923439418
 31
0.0
 11
6.1271243226
 21
5.1958105804
 31
0.0
 11
6.1252820386
 21
5.1993566539
 31
0.0
 11
6.1235127335
 21
5.2029833391
 31
0.0
 11
6.1218287985
 21
5.2066920784
 31
0.0
 11
6.1202427241
 21
5.2104842865
 31
0.0
 11
6.1187670965
 21
5.2143597826
 31
0.0
 11
6.117414633
 21
5.2183161998
 31
0.0
 11
6.1167885457
 21
5.2203239617
 31
0.0
 11
6.1161970309
 21
5.222350845
 31
0.0
 11
6.1151145985
 21
5.2264591622
 31
0.0
 11
6.1141606215
 21
5.2306354469
 31
0.0
 11
6.1133318429
 21
5.2348745683
 31
0.0
 11
6.1126304659
 21
5.2391723091
 31
0.0
 11
6.1120533778
 21
5.2435246719
 31
0.0
 11
6.1115861023
 21
5.2479279454
 31
0.0
 11
6.1112148093
 21
5.2523788267
 31
0.0
 11
6.1109283611
 21
5.2568745379
 31
0.0
 11
6.1107140431
 21
5.2614121754
 31
0.0
 11
6.1105587975
 21
5.2659883741
 31
0.0
 11
6.1103838169
 21
5.2752367395
 31
0.0
 11
6.11034163
 21
5.2798954456
 31
0.0
 11
6.1103124519
 21
5.2845652015
 31
0.0
  0
SPLINE
  5
512
100
AcDbEntity
  8
0
100
AcDbSpline
 62
9
  6
CONTINUOUS
 70
0
 71
3
 72
11
 73
7
 74
5
 42
0.0000001
 43
0.0000001
 44
0.0000000001
 12
-0.0146699076
 22
-0.0753253328
 32
0.0
 13
-0.0175813934
 23
-0.0746994415
 33
0.0
 40
0.0
 40
0.0
 40
0.0
 40
0.0
 40
0.2532897066
 40
0.5053988597
 40
0.7548055163
 40
1.0
 40
1.0
 40
1.0
 40
1.0
 10
6.7054297314
 20
4.8717479615
 30
0.0
 10
6.7041911526
 20
4.865388251
 30
0.0
 10
6.7016796594
 20
4.8527062258
 30
0.0
 10
6.6977805819
 20
4.8337957047
 30
0.0
 10
6.693745632
 20
4.8151254373
 30
0.0
 10
6.6909319878
 20
4.8027898651
 30
0.0
 10
6.6894950343
 20
4.7966845681
 30
0.0
 11
6.7054297314
 21
4.8717479615
 31
0.0
 11
6.7016488689
 21
4.852681629
 31
0.0
 11
6.6977364637
 21
4.8337343522
 31
0.0
 11
6.693687018
 21
4.8150280316
 31
0.0
 11
6.6894950343
 21
4.7966845681
 31
0.0
  0
SPLINE
  5
513
100
AcDbEntity
  8
0
100
AcDbSpline
 62
9
  6
CONTINUOUS
 70
0
 71
3
 72
19
 73
15
 74
13
 42
0.0000001
 43
0.0000001
 44
0.0000000001
 12
-0.2450357443
 22
-0.0044952756
 32
0.0
 13
-0.2449246141
 23
-0.0086404227
 33
0.0
 40
0.0
 40
0.0
 40
0.0
 40
0.0
 40
0.0894397729
 40
0.1440862796
 40
0.204453212
 40
0.2696626715
 40
0.3387512209
 40
0.4845075423
 40
0.5587984947
 40
0.6323716924
 40
0.7728109968
 40
0.8973757129
 40
0.9516728952
 40
1.0
 40
1.0
 40
1.0
 40
1.0
 10
6.6894950343
 20
4.7966845681
 30
0.0
 10
6.6821897205
 20
4.7965505493
 30
0.0
 10
6.6704212318
 20
4.7963194383
 30
0.0
 10
6.6537228075
 20
4.7959614272
 30
0.0
 10
6.6390038199
 20
4.795624954
 30
0.0
 10
6.6231058689
 20
4.7952389218
 30
0.0
 10
6.6002351456
 20
4.7946502893
 30
0.0
 10
6.5766242863
 20
4.7939853256
 30
0.0
 10
6.5526487153
 20
4.793259871
 30
0.0
 10
6.5291083434
 20
4.7925139193
 30
0.0
 10
6.5014647912
 20
4.7915841724
 30
0.0
 10
6.4753964136
 20
4.7906683359
 30
0.0
 10
6.4568485623
 20
4.7900081219
 30
0.0
 10
6.4484702427
 20
4.7897101454
 30
0.0
 10
6.4445247435
 20
4.7895709565
 30
0.0
 11
6.6894950343
 21
4.7966845681
 31
0.0
 11
6.6675796058
 21
4.7962554645
 31
0.0
 11
6.6541900815
 21
4.7959684343
 31
0.0
 11
6.6393993934
 21
4.7956306265
 31
0.0
 11
6.6234227616
 21
4.795242853
 31
0.0
 11
6.6064963587
 21
4.794807035
 31
0.0
 11
6.5707889123
 21
4.7938044683
 31
0.0
 11
6.5525902415
 21
4.7932537432
 31
0.0
 11
6.5345681827
 21
4.7926829147
 31
0.0
 11
6.5001690081
 21
4.7915314844
 31
0.0
 11
6.4696597506
 21
4.7904635152
 31
0.0
 11
6.4563611589
 21
4.789990843
 31
0.0
 11
6.4445247435
 21
4.7895709565
 31
0.0
  0
SPLINE
  5
514
100
AcDbEntity
  8
0
100
AcDbSpline
 62
9
  6
CONTINUOUS
 70
0
 71
3
 72
32
 73
28
 74
26
 42
0.0000001
 43
0.0000001
 44
0.0000000001
 12
-0.1751900142
 22
-0.0658743768
 32
0.0
 13
0.0
 23
0.1871656342
 33
0.0
 40
0.0
 40
0.0
 40
0.0
 40
0.0
 40
0.0300136835
 40
0.0598477575
 40
0.0895247236
 40
0.1190763872
 40
0.1485450044
 40
0.1632667964
 40
0.1779889398
 40
0.2074601634
 40
0.2370165237
 40
0.2666997947
 40
0.2965413488
 40
0.3567522904
 40
0.4177666813
 40
0.4795810909
 40
0.5421386783
 40
0.6053636381
 40
0.6691934947
 40
0.7336098342
 40
0.7986677767
 40
0.8314959248
 40
0.8645530811
 40
0.8978787099
 40
0.9315213861
 40
0.9655392005
 40
1.0
 40
1.0
 40
1.0
 40
1.0
 10
6.2783868508
 20
5.1866836748
 30
0.0
 10
6.2766341516
 20
5.1860246306
 30
0.0
 10
6.2730986574
 20
5.1848154043
 30
0.0
 10
6.2677084005
 20
5.1833387973
 30
0.0
 10
6.2622624378
 20
5.1822160768
 30
0.0
 10
6.2567767511
 20
5.181458653
 30
0.0
 10
6.2521830254
 20
5.1811412115
 30
0.0
 10
6.248507367
 20
5.1810814772
 30
0.0
 10
6.2448317522
 20
5.1811526685
 30
0.0
 10
6.2402385404
 20
5.1814840949
 30
0.0
 10
6.2347543052
 20
5.1822577947
 30
0.0
 10
6.2293103575
 20
5.1833963388
 30
0.0
 10
6.2221070904
 20
5.1853909934
 30
0.0
 10
6.213274517
 20
5.1887509971
 30
0.0
 10
6.2031293347
 20
5.194046065
 30
0.0
 10
6.1935218362
 20
5.2005283486
 30
0.0
 10
6.1845751338
 20
5.2081095831
 30
0.0
 10
6.17641173
 20
5.2167028241
 30
0.0
 10
6.1691555142
 20
5.2262221
 30
0.0
 10
6.1629318701
 20
5.2365805929
 30
0.0
 10
6.1587226887
 20
5.2458171241
 30
0.0
 10
6.1559977701
 20
5.2535228323
 30
0.0
 10
6.1542846839
 20
5.2594747348
 30
0.0
 10
6.1529249026
 20
5.265569165
 30
0.0
 10
6.151934131
 20
5.2717953314
 30
0.0
 10
6.1513282496
 20
5.2781416806
 30
0.0
 10
6.1511924628
 20
5.2824152308
 30
0.0
 10
6.1511924628
 20
5.2845651899
 30
0.0
 11
6.2783868508
 21
5.1866836748
 31
0.0
 11
6.2730709646
 21
5.1848676357
 31
0.0
 11
6.2676849148
 21
5.1833943549
 31
0.0
 11
6.2622443699
 21
5.182274966
 31
0.0
 11
6.2567649981
 21
5.1815206027
 31
0.0
 11
6.2512624679
 21
5.1811423987
 31
0.0
 11
6.2485074147
 21
5.1810978356
 31
0.0
 11
6.2457524475
 21
5.1811509599
 31
0.0
 11
6.2402506055
 21
5.1815459196
 31
0.0
 11
6.2347726101
 21
5.1823165495
 31
0.0
 11
6.2293341298
 21
5.1834517161
 31
0.0
 11
6.2239508328
 21
5.1849402856
 31
0.0
 11
6.2134124624
 21
5.1889330985
 31
0.0
 11
6.2032828458
 21
5.194205919
 31
0.0
 11
6.1936873301
 21
5.2006696776
 31
0.0
 11
6.184751262
 21
5.208235305
 31
0.0
 11
6.1765999886
 21
5.2168137316
 31
0.0
 11
6.1693588568
 21
5.2263158881
 31
0.0
 11
6.1631532134
 21
5.2366527051
 31
0.0
 11
6.1581084054
 21
5.2477351132
 31
0.0
 11
6.1560604855
 21
5.2535280797
 31
0.0
 11
6.1543497796
 21
5.259474043
 31
0.0
 11
6.1529919561
 21
5.2655618693
 31
0.0
 11
6.1520026831
 21
5.271780425
 31
0.0
 11
6.1513976293
 21
5.2781185764
 31
0.0
 11
6.1511924628
 21
5.2845651899
 31
0.0
  0
SPLINE
  5
515
100
AcDbEntity
  8
0
100
AcDbSpline
 62
9
  6
CONTINUOUS
 70
0
 71
3
 72
34
 73
30
 74
28
 42
0.0000001
 43
0.0000001
 44
0.0000000001
 12
-0.0289528464
 22
-0.0010213952
 32
0.0
 13
0.010919158
 23
-0.0268343539
 33
0.0
 40
0.0
 40
0.0
 40
0.0
 40
0.0
 40
0.2447340101
 40
0.3532763103
 40
0.4528045947
 40
0.5434708243
 40
0.6254270813
 40
0.6988256201
 40
0.7638189491
 40
0.8205599668
 40
0.8692022036
 40
0.8905346069
 40
0.9099002738
 40
0.9273162563
 40
0.942798079
 40
0.9563616402
 40
0.9680235168
 40
0.977801474
 40
0.9819902379
 40
0.9857158813
 40
0.9889817336
 40
0.9917918567
 40
0.9941515972
 40
0.99606876
 40
0.9975564423
 40
0.998641082
 40
0.9993895994
 40
0.9996942208
 40
1.0
 40
1.0
 40
1.0
 40
1.0
 10
6.4445247435
 20
4.7895709565
 30
0.0
 10
6.4421628281
 20
4.7894876331
 30
0.0
 10
6.4387535121
 20
4.7893633801
 30
0.0
 10
6.4343841303
 20
4.7891926937
 30
0.0
 10
6.4315016671
 20
4.7890744005
 30
0.0
 10
6.4288759839
 20
4.7889605648
 30
0.0
 10
6.4265026893
 20
4.7888511164
 30
0.0
 10
6.4243773915
 20
4.7887459927
 30
0.0
 10
6.4224956959
 20
4.7886451464
 30
0.0
 10
6.4208532091
 20
4.7885485176
 30
0.0
 10
6.4196321325
 20
4.7884683962
 30
0.0
 10
6.4187716592
 20
4.788405639
 30
0.0
 10
6.4182121766
 20
4.7883616647
 30
0.0
 10
6.4177092982
 20
4.7883186969
 30
0.0
 10
6.4172625836
 20
4.7882767307
 30
0.0
 10
6.4168716035
 20
4.7882357825
 30
0.0
 10
6.4165359319
 20
4.7881958556
 30
0.0
 10
6.4162907408
 20
4.7881619748
 30
0.0
 10
6.416122043
 20
4.7881348707
 30
0.0
 10
6.4160157563
 20
4.7881158572
 30
0.0
 10
6.415922968
 20
4.7880971015
 30
0.0
 10
6.4158436156
 20
4.7880786223
 30
0.0
 10
6.4157776073
 20
4.7880604152
 30
0.0
 10
6.4157248555
 20
4.7880425792
 30
0.0
 10
6.4156850662
 20
4.7880249561
 30
0.0
 10
6.4156579181
 20
4.788007895
 30
0.0
 10
6.4156438483
 20
4.7879914474
 30
0.0
 10
6.4156414912
 20
4.7879782062
 30
0.0
 10
6.4156428579
 20
4.7879723062
 30
0.0
 10
6.4156439709
 20
4.7879695711
 30
0.0
 11
6.4445247435
 21
4.7895709565
 31
0.0
 11
6.4374393493
 21
4.7893112005
 31
0.0
 11
6.4342971916
 21
4.7891882186
 31
0.0
 11
6.4314162075
 21
4.7890697297
 31
0.0
 11
6.4287920074
 21
4.7889556552
 31
0.0
 11
6.4264202017
 21
4.7888459169
 31
0.0
 11
6.4242964009
 21
4.7887404362
 31
0.0
 11
6.4224162154
 21
4.7886391347
 31
0.0
 11
6.4207752558
 21
4.7885419342
 31
0.0
 11
6.4193691324
 21
4.7884487561
 31
0.0
 11
6.4187527625
 21
4.788403651
 31
0.0
 11
6.4181934607
 21
4.7883595221
 31
0.0
 11
6.4176907544
 21
4.7883163589
 31
0.0
 11
6.4172442232
 21
4.7882741508
 31
0.0
 11
6.4168534478
 21
4.7882328869
 31
0.0
 11
6.416518009
 21
4.7881925564
 31
0.0
 11
6.4162374877
 21
4.7881531486
 31
0.0
 11
6.4161176901
 21
4.7881337873
 31
0.0
 11
6.4160114647
 21
4.7881146526
 31
0.0
 11
6.415918759
 21
4.7880957431
 31
0.0
 11
6.4158395207
 21
4.7880770576
 31
0.0
 11
6.4157736973
 21
4.7880585946
 31
0.0
 11
6.4157212365
 21
4.7880403529
 31
0.0
 11
6.4156820858
 21
4.788022331
 31
0.0
 11
6.415656193
 21
4.7880045277
 31
0.0
 11
6.4156435054
 21
4.7879869415
 31
0.0
 11
6.4156420973
 21
4.7879782294
 31
0.0
 11
6.4156439709
 21
4.7879695711
 31
0.0
  0
SPLINE
  5
516
100
AcDbEntity
  8
0
100
AcDbSpline
 62
9
  6
CONTINUOUS
 70
0
 71
3
 72
15
 73
11
 74
9
 42
0.0000001
 43
0.0000001
 44
0.0000000001
 12
-0.0155158731
 22
0.029359026
 32
0.0
 13
0.0071503797
 23
0.0324278707
 33
0.0
 40
0.0
 40
0.0
 40
0.0
 40
0.0
 40
0.1043323465
 40
0.2127522095
 40
0.3259204866
 40
0.4447179654
 40
0.5702313626
 40
0.7037046641
 40
0.8464874416
 40
1.0
 40
1.0
 40
1.0
 40
1.0
 10
6.3345441009
 20
5.1252478794
 30
0.0
 10
6.3340044984
 20
5.1262689114
 30
0.0
 10
6.3329884966
 20
5.128396911
 30
0.0
 10
6.331717083
 20
5.1317778282
 30
0.0
 10
6.3307121129
 20
5.1354145812
 30
0.0
 10
6.3300157059
 20
5.1393155871
 30
0.0
 10
6.3296674071
 20
5.1434887248
 30
0.0
 10
6.3297035707
 20
5.1479417785
 30
0.0
 10
6.3301606074
 20
5.1526824921
 30
0.0
 10
6.3307469322
 20
5.1559135872
 30
0.0
 10
6.3311128233
 20
5.157572949
 30
0.0
 11
6.3345441009
 21
5.1252478794
 31
0.0
 11
6.3330527607
 21
5.1283750186
 31
0.0
 11
6.3317859253
 21
5.1317450568
 31
0.0
 11
6.3307841835
 21
5.1353670438
 31
0.0
 11
6.3300880659
 21
5.1392500292
 31
0.0
 11
6.3297363013
 21
5.1434030627
 31
0.0
 11
6.3297655075
 21
5.147835194
 31
0.0
 11
6.3302121822
 21
5.1525554729
 31
0.0
 11
6.3311128233
 21
5.157572949
 31
0.0
  0
SPLINE
  5
517
100
AcDbEntity
  8
0
100
AcDbSpline
 62
9
  6
CONTINUOUS
 70
0
 71
3
 72
22
 73
18
 74
16
 42
0.0000001
 43
0.0000001
 44
0.0000000001
 12
-0.0052267012
 22
0.0302780259
 32
0.0
 13
0.0214787295
 23
0.0219713777
 33
0.0
 40
0.0
 40
0.0
 40
0.0
 40
0.0
 40
0.0352569168
 40
0.0724292131
 40
0.1538982754
 40
0.1990080801
 40
0.2475187707
 40
0.2998123814
 40
0.3562674576
 40
0.4172568114
 40
0.4831445372
 40
0.5542772823
 40
0.6309889172
 40
0.7136040796
 40
0.8024392093
 40
0.8978035383
 40
1.0
 40
1.0
 40
1.0
 40
1.0
 10
6.3804160114
 20
4.9902516318
 30
0.0
 10
6.3803545857
 20
4.9906074684
 30
0.0
 10
6.3802648261
 20
4.9913452245
 30
0.0
 10
6.3802208129
 20
4.9929225712
 30
0.0
 10
6.3804015909
 20
4.9945993352
 30
0.0
 10
6.3807961071
 20
4.9963496678
 30
0.0
 10
6.3812310768
 20
4.9977808886
 30
0.0
 10
6.381803448
 20
4.9992875645
 30
0.0
 10
6.3825215401
 20
5.0008719242
 30
0.0
 10
6.3833936623
 20
5.0025358278
 30
0.0
 10
6.3844280972
 20
5.0042811496
 30
0.0
 10
6.3856324683
 20
5.0061099704
 30
0.0
 10
6.3870143722
 20
5.008024313
 30
0.0
 10
6.3885814076
 20
5.0100261597
 30
0.0
 10
6.3903411877
 20
5.0121174937
 30
0.0
 10
6.392301308
 20
5.0143002666
 30
0.0
 10
6.3936970771
 20
5.0157656218
 30
0.0
 10
6.3944287605
 20
5.0165140875
 30
0.0
 11
6.3804160114
 21
4.9902516318
 31
0.0
 11
6.3802835603
 21
4.9913268026
 31
0.0
 11
6.3802496698
 21
4.9924684497
 31
0.0
 11
6.3805019919
 21
4.9949589056
 31
0.0
 11
6.3808042627
 21
4.9963115807
 31
0.0
 11
6.3812351766
 21
4.9977384648
 31
0.0
 11
6.3818031613
 21
4.9992414909
 31
0.0
 11
6.3825166447
 21
5.0008225923
 31
0.0
 11
6.3833840546
 21
5.002483702
 31
0.0
 11
6.3844137116
 21
5.0042267532
 31
0.0
 11
6.3856133981
 21
5.006053679
 31
0.0
 11
6.3869907281
 21
5.0079664126
 31
0.0
 11
6.3885533155
 21
5.0099668871
 31
0.0
 11
6.3903087741
 21
5.0120570357
 31
0.0
 11
6.3922647178
 21
5.0142387914
 31
0.0
 11
6.3944287605
 21
5.0165140875
 31
0.0
  0
SPLINE
  5
518
100
AcDbEntity
  8
0
100
AcDbSpline
 62
9
  6
CONTINUOUS
 70
0
 71
3
 72
25
 73
21
 74
19
 42
0.0000001
 43
0.0000001
 44
0.0000000001
 12
0.0027426991
 22
0.0110242211
 32
0.0
 13
-0.0113389235
 23
0.0006961786
 33
0.0
 40
0.0
 40
0.0
 40
0.0
 40
0.0
 40
0.0067659316
 40
0.0140199364
 40
0.0227940646
 40
0.0336111325
 40
0.0466837997
 40
0.0620757363
 40
0.0797787251
 40
0.0997474198
 40
0.1462008845
 40
0.2007940129
 40
0.2627871632
 40
0.3313664567
 40
0.4055872667
 40
0.4844694144
 40
0.5670243697
 40
0.6522582647
 40
0.8267697401
 40
1.0
 40
1.0
 40
1.0
 40
1.0
 10
6.7878475912
 20
4.794977619
 30
0.0
 10
6.7878537769
 20
4.795002482
 30
0.0
 10
6.7878549305
 20
4.7950578757
 30
0.0
 10
6.7878163933
 20
4.7951376028
 30
0.0
 10
6.7877453767
 20
4.7952116546
 30
0.0
 10
6.7876438924
 20
4.7952831802
 30
0.0
 10
6.7875123057
 20
4.7953530907
 30
0.0
 10
6.7873513246
 20
4.7954216509
 30
0.0
 10
6.7871618643
 20
4.7954888738
 30
0.0
 10
6.7868569398
 20
4.7955813741
 30
0.0
 10
6.7864114771
 20
4.7956901564
 30
0.0
 10
6.7858056934
 20
4.795809865
 30
0.0
 10
6.7851137432
 20
4.795923838
 30
0.0
 10
6.7843457464
 20
4.7960318276
 30
0.0
 10
6.7835124801
 20
4.796133879
 30
0.0
 10
6.7826252689
 20
4.7962299922
 30
0.0
 10
6.7816955355
 20
4.7963202015
 30
0.0
 10
6.7804042771
 20
4.7964335377
 30
0.0
 10
6.7787694034
 20
4.7965582757
 30
0.0
 10
6.7774553882
 20
4.7966443684
 30
0.0
 10
6.77680064
 20
4.7966845681
 30
0.0
 11
6.7878475912
 21
4.794977619
 31
0.0
 11
6.7878491013
 21
4.795054467
 31
0.0
 11
6.7878158289
 21
4.7951298589
 31
0.0
 11
6.7877489676
 21
4.7952037843
 31
0.0
 11
6.7876497107
 21
4.7952762328
 31
0.0
 11
6.787519252
 21
4.7953471938
 31
0.0
 11
6.7873587848
 21
4.795416657
 31
0.0
 11
6.7871695028
 21
4.7954846119
 31
0.0
 11
6.7869525994
 21
4.7955510481
 31
0.0
 11
6.7864407025
 21
4.7956793226
 31
0.0
 11
6.7858326423
 21
4.795801397
 31
0.0
 11
6.7851379672
 21
4.7959171878
 31
0.0
 11
6.7843666153
 21
4.7960266474
 31
0.0
 11
6.7835297856
 21
4.7961298442
 31
0.0
 11
6.7826389308
 21
4.7962268699
 31
0.0
 11
6.7817055039
 21
4.7963178162
 31
0.0
 11
6.7807409578
 21
4.7964027749
 31
0.0
 11
6.7787643198
 21
4.7965550963
 31
0.0
 11
6.77680064
 21
4.7966845681
 31
0.0
  0
SPLINE
  5
519
100
AcDbEntity
  8
0
100
AcDbSpline
 62
6
  6
CONTINUOUS
 70
0
 71
3
 72
24
 73
20
 74
18
 42
0.0000001
 43
0.0000001
 44
0.0000000001
 12
-0.000703174
 22
0.0140354673
 32
0.0
 13
-0.0140186801
 23
0.0009825509
 33
0.0
 40
0.0
 40
0.0
 40
0.0
 40
0.0
 40
0.0066234328
 40
0.0137888016
 40
0.0219049437
 40
0.0312563119
 40
0.0420295175
 40
0.0543463294
 40
0.0838976153
 40
0.1203203734
 40
0.1638142871
 40
0.2144925351
 40
0.2724235915
 40
0.3376507748
 40
0.4102022545
 40
0.4900965658
 40
0.5773458381
 40
0.7739343067
 40
1.0
 40
1.0
 40
1.0
 40
1.0
 10
6.7950582364
 20
4.869310535
 30
0.0
 10
6.7950566839
 20
4.8693415226
 30
0.0
 10
6.7950437147
 20
4.8694058439
 30
0.0
 10
6.7949969651
 20
4.869498241
 30
0.0
 10
6.7949239421
 20
4.8695884325
 30
0.0
 10
6.7948250876
 20
4.8696769541
 30
0.0
 10
6.7947003897
 20
4.8697642852
 30
0.0
 10
6.7944861465
 20
4.8698868911
 30
0.0
 10
6.7941491135
 20
4.8700337761
 30
0.0
 10
6.7936629901
 20
4.8701979256
 30
0.0
 10
6.7930724567
 20
4.8703587729
 30
0.0
 10
6.7923774039
 20
4.8705161854
 30
0.0
 10
6.7915776194
 20
4.8706699339
 30
0.0
 10
6.7906731101
 20
4.8708198687
 30
0.0
 10
6.7896638967
 20
4.8709658497
 30
0.0
 10
6.7885500409
 20
4.8711077782
 30
0.0
 10
6.7868569241
 20
4.871299144
 30
0.0
 10
6.7844787182
 20
4.87152348
 30
0.0
 10
6.7825045599
 20
4.8716747148
 30
0.0
 10
6.781448179
 20
4.8717487551
 30
0.0
 11
6.7950582364
 21
4.869310535
 31
0.0
 11
6.7950404268
 21
4.8694018948
 31
0.0
 11
6.7949962048
 21
4.8694923603
 31
0.0
 11
6.7949255827
 21
4.8695819228
 31
0.0
 11
6.7948285726
 21
4.8696705741
 31
0.0
 11
6.7947051866
 21
4.8697583058
 31
0.0
 11
6.794555437
 21
4.8698451094
 31
0.0
 11
6.7941768956
 21
4.870015899
 31
0.0
 11
6.7936930455
 21
4.8701828756
 31
0.0
 11
6.7931039843
 21
4.8703459721
 31
0.0
 11
6.7924098092
 21
4.8705051214
 31
0.0
 11
6.7916106178
 21
4.8706602563
 31
0.0
 11
6.7907065072
 21
4.8708113095
 31
0.0
 11
6.789697575
 21
4.870958214
 31
0.0
 11
6.7885839184
 21
4.8711009026
 31
0.0
 11
6.7873656349
 21
4.871239308
 31
0.0
 11
6.7846155766
 21
4.8715030008
 31
0.0
 11
6.781448179
 21
4.8717487551
 31
0.0
  0
SPLINE
  5
51A
100
AcDbEntity
  8
0
100
AcDbSpline
 62
9
  6
CONTINUOUS
 70
0
 71
3
 72
11
 73
7
 74
5
 42
0.0000001
 43
0.0000001
 44
0.0000000001
 12
-0.0177193361
 22
-0.0826576991
 32
0.0
 13
-0.0469235079
 23
-0.0703168152
 33
0.0
 40
0.0
 40
0.0
 40
0.0
 40
0.0
 40
0.253660027
 40
0.5048242029
 40
0.7535652806
 40
1.0
 40
1.0
 40
1.0
 40
1.0
 10
6.77680064
 20
4.7966845681
 30
0.0
 10
6.7753024109
 20
4.7896955834
 30
0.0
 10
6.7716801713
 20
4.7759146549
 30
0.0
 10
6.7643955342
 20
4.7559373605
 30
0.0
 10
6.7553606207
 20
4.7369128885
 30
0.0
 10
6.7481844617
 20
4.7249161779
 30
0.0
 10
6.7443299345
 20
4.7191400097
 30
0.0
 11
6.77680064
 21
4.7966845681
 31
0.0
 11
6.771344685
 21
4.7759469709
 31
0.0
 11
6.7640643649
 21
4.7560018396
 31
0.0
 11
6.7550345059
 21
4.7370119329
 31
0.0
 11
6.7443299345
 21
4.7191400097
 31
0.0
  0
LINE
  5
51B
100
AcDbEntity
  8
0
100
AcDbLine
 62
9
  6
CONTINUOUS
 10
6.7443299345
 20
4.7191400097
 11
6.7154981252
 21
4.7191622041
  0
SPLINE
  5
51C
100
AcDbEntity
  8
0
100
AcDbSpline
 62
9
  6
CONTINUOUS
 70
0
 71
3
 72
29
 73
25
 74
23
 42
0.0000001
 43
0.0000001
 44
0.0000000001
 12
0.0048684044
 22
0.0066975961
 32
0.0
 13
-0.0082795089
 23
0.0000942791
 33
0.0
 40
0.0
 40
0.0
 40
0.0
 40
0.0
 40
0.0020112056
 40
0.003780351
 40
0.0077249576
 40
0.0103833807
 40
0.0136146672
 40
0.0219230338
 40
0.0327682008
 40
0.0461396901
 40
0.0619871645
 40
0.0802431086
 40
0.1008314787
 40
0.1236715415
 40
0.1486797792
 40
0.1757709187
 40
0.2358532219
 40
0.3031596754
 40
0.3768510086
 40
0.4560791642
 40
0.5399935428
 40
0.6277419396
 40
0.8113265711
 40
1.0
 40
1.0
 40
1.0
 40
1.0
 10
6.752517788
 20
4.718608178
 30
0.0
 10
6.7525210518
 20
4.718612668
 30
0.0
 10
6.7525262662
 20
4.7186219637
 30
0.0
 10
6.7525284993
 20
4.7186439417
 30
0.0
 10
6.7525141665
 20
4.718664808
 30
0.0
 10
6.7524929457
 20
4.7186813795
 30
0.0
 10
6.7524589588
 20
4.7187012992
 30
0.0
 10
6.7524013838
 20
4.7187241898
 30
0.0
 10
6.7523152037
 20
4.7187495361
 30
0.0
 10
6.7522073533
 20
4.7187741761
 30
0.0
 10
6.7520785138
 20
4.7187981627
 30
0.0
 10
6.7519293443
 20
4.7188213923
 30
0.0
 10
6.7517605715
 20
4.7188438479
 30
0.0
 10
6.7515729228
 20
4.7188655013
 30
0.0
 10
6.7513671359
 20
4.7188863408
 30
0.0
 10
6.7510587438
 20
4.7189139847
 30
0.0
 10
6.750633541
 20
4.7189457701
 30
0.0
 10
6.7500795724
 20
4.7189795153
 30
0.0
 10
6.7494725057
 20
4.719010089
 30
0.0
 10
6.7488194114
 20
4.7190375393
 30
0.0
 10
6.7481273736
 20
4.719061926
 30
0.0
 10
6.7471473086
 20
4.7190908738
 30
0.0
 10
6.7458779788
 20
4.7191190306
 30
0.0
 10
6.7448506423
 20
4.7191340803
 30
0.0
 10
6.7443299345
 20
4.7191400097
 30
0.0
 11
6.752517788
 21
4.718608178
 31
0.0
 11
6.7525254335
 21
4.718622972
 31
0.0
 11
6.7525267743
 21
4.7186375592
 31
0.0
 11
6.7525109139
 21
4.7186661113
 31
0.0
 11
6.7524938987
 21
4.7186800757
 31
0.0
 11
6.7524709508
 21
4.718693832
 31
0.0
 11
6.7524076289
 21
4.7187207188
 31
0.0
 11
6.7523216922
 21
4.7187467695
 31
0.0
 11
6.7522138845
 21
4.7187719817
 31
0.0
 11
6.7520849498
 21
4.7187963529
 31
0.0
 11
6.751935632
 21
4.7188198809
 31
0.0
 11
6.7517666751
 21
4.7188425632
 31
0.0
 11
6.751578823
 21
4.7188643975
 31
0.0
 11
6.7513728196
 21
4.7188853814
 31
0.0
 11
6.7511494089
 21
4.7189055126
 31
0.0
 11
6.7506533549
 21
4.7189432086
 31
0.0
 11
6.7500971112
 21
4.7189775123
 31
0.0
 11
6.7494877313
 21
4.7190085063
 31
0.0
 11
6.7488323066
 21
4.7190362765
 31
0.0
 11
6.7481379284
 21
4.7190609087
 31
0.0
 11
6.7474116883
 21
4.7190824891
 31
0.0
 11
6.7458919873
 21
4.7191168376
 31
0.0
 11
6.7443299345
 21
4.7191400097
 31
0.0
  0
SPLINE
  5
51D
100
AcDbEntity
  8
0
100
AcDbSpline
 62
9
  6
CONTINUOUS
 70
0
 71
3
 72
11
 73
7
 74
5
 42
0.0000001
 43
0.0000001
 44
0.0000000001
 12
-0.0181576822
 22
-0.0815909472
 32
0.0
 13
-0.0401883808
 23
-0.0732917331
 33
0.0
 40
0.0
 40
0.0
 40
0.0
 40
0.0
 40
0.257223579
 40
0.5101306951
 40
0.7579536004
 40
1.0
 40
1.0
 40
1.0
 40
1.0
 10
6.7444249976
 20
4.7973098095
 30
0.0
 10
6.7428681362
 20
4.7903141044
 30
0.0
 10
6.7393231637
 20
4.7765370412
 30
0.0
 10
6.7326888916
 20
4.7564709484
 30
0.0
 10
6.7248332457
 20
4.7373063509
 30
0.0
 10
6.7187406095
 20
4.7250755375
 30
0.0
 10
6.7154981252
 20
4.7191622041
 30
0.0
 11
6.7444249976
 21
4.7973098095
 31
0.0
 11
6.7390592244
 21
4.7764895826
 31
0.0
 11
6.7324115012
 21
4.7564222827
 31
0.0
 11
6.7245388081
 21
4.7372618448
 31
0.0
 11
6.7154981252
 21
4.7191622041
 31
0.0
  0
LINE
  5
51E
100
AcDbEntity
  8
0
100
AcDbLine
 62
9
  6
CONTINUOUS
 10
6.7154981252
 20
4.7191622041
 11
6.6674265733
 21
4.7191400097
  0
SPLINE
  5
51F
100
AcDbEntity
  8
0
100
AcDbSpline
 62
9
  6
CONTINUOUS
 70
0
 71
3
 72
13
 73
9
 74
7
 42
0.0000001
 43
0.0000001
 44
0.0000000001
 12
-0.0184793925
 22
-0.0785148403
 32
0.0
 13
-0.0268068618
 23
-0.076075359
 33
0.0
 40
0.0
 40
0.0
 40
0.0
 40
0.0
 40
0.2647550334
 40
0.5208518134
 40
0.6450949134
 40
0.7665080308
 40
0.8848785775
 40
1.0
 40
1.0
 40
1.0
 40
1.0
 10
6.6894950343
 20
4.7966845681
 30
0.0
 10
6.6878641969
 20
4.7897555017
 30
0.0
 10
6.6845288633
 20
4.7761533998
 30
0.0
 10
6.6800285877
 20
4.7594010224
 30
0.0
 10
6.6762725919
 20
4.746443542
 30
0.0
 10
6.6734138586
 20
4.737082453
 30
0.0
 10
6.6704846899
 20
4.7280005035
 30
0.0
 10
6.6684552547
 20
4.7220593109
 30
0.0
 10
6.6674265733
 20
4.7191400097
 30
0.0
 11
6.6894950343
 21
4.7966845681
 31
0.0
 11
6.684396369
 21
4.7759469709
 31
0.0
 11
6.679020882
 21
4.7560018396
 31
0.0
 11
6.6762283249
 21
4.7463773107
 31
0.0
 11
6.6733653558
 21
4.7370119329
 31
0.0
 11
6.6704315727
 21
4.7279260509
 31
0.0
 11
6.6674265733
 21
4.7191400097
 31
0.0
  0
SPLINE
  5
520
100
AcDbEntity
  8
0
100
AcDbSpline
 62
9
  6
CONTINUOUS
 70
0
 71
3
 72
19
 73
15
 74
13
 42
0.0000001
 43
0.0000001
 44
0.0000000001
 12
-0.1853531171
 22
-0.0006399438
 32
0.0
 13
-0.1853194374
 23
-0.0035907787
 33
0.0
 40
0.0
 40
0.0
 40
0.0
 40
0.0
 40
0.0444609215
 40
0.0951980715
 40
0.1516036009
 40
0.2130449944
 40
0.2787146142
 40
0.3477291263
 40
0.4920787426
 40
0.6375740661
 40
0.7755349141
 40
0.8982360273
 40
0.9519717928
 40
1.0
 40
1.0
 40
1.0
 40
1.0
 10
6.6674265733
 20
4.7191400097
 30
0.0
 10
6.6646795832
 20
4.7191305255
 30
0.0
 10
6.6587978551
 20
4.7191026775
 30
0.0
 10
6.6494312762
 20
4.719039105
 30
0.0
 10
6.6390157407
 20
4.7189484994
 30
0.0
 10
6.627677846
 20
4.7188286486
 30
0.0
 10
6.6155611929
 20
4.718679541
 30
0.0
 10
6.598322837
 20
4.7184389068
 30
0.0
 10
6.5761537877
 20
4.7180724916
 30
0.0
 10
6.5497267642
 20
4.7175650691
 30
0.0
 10
6.524638134
 20
4.7170302066
 30
0.0
 10
6.5052178287
 20
4.7166039991
 30
0.0
 10
6.4913524424
 20
4.7163092931
 30
0.0
 10
6.4850662729
 20
4.7161817656
 30
0.0
 10
6.4820994194
 20
4.7161242794
 30
0.0
 11
6.6674265733
 21
4.7191400097
 31
0.0
 11
6.659185642
 21
4.7191018804
 31
0.0
 11
6.6497815097
 21
4.719038644
 31
0.0
 11
6.6393268989
 21
4.7189480842
 31
0.0
 11
6.6279391079
 21
4.7188282266
 31
0.0
 11
6.6157678837
 21
4.7186788143
 31
0.0
 11
6.6029769977
 21
4.7185003325
 31
0.0
 11
6.576224781
 21
4.7180617961
 31
0.0
 11
6.5492615346
 21
4.7175463656
 31
0.0
 11
6.5236955919
 21
4.717007282
 31
0.0
 11
6.5009577693
 21
4.7165141516
 31
0.0
 11
6.4909998462
 21
4.7163034951
 31
0.0
 11
6.4820994194
 21
4.7161242794
 31
0.0
  0
SPLINE
  5
521
100
AcDbEntity
  8
0
100
AcDbSpline
 62
9
  6
CONTINUOUS
 70
0
 71
3
 72
11
 73
7
 74
5
 42
0.0000001
 43
0.0000001
 44
0.0000000001
 12
0.0261724579
 22
-0.0785506077
 32
0.0
 13
0.0487187543
 23
-0.0669453397
 33
0.0
 40
0.0
 40
0.0
 40
0.0
 40
0.0
 40
0.2536994214
 40
0.4427156241
 40
0.630319687
 40
1.0
 40
1.0
 40
1.0
 40
1.0
 10
6.4445247435
 20
4.7895709565
 30
0.0
 10
6.446738056
 20
4.7829282086
 30
0.0
 10
6.4510422589
 20
4.7714776938
 30
0.0
 10
6.4582305442
 20
4.7556264729
 30
0.0
 10
6.4677927624
 20
4.7373754627
 30
0.0
 10
6.4760959646
 20
4.7243737374
 30
0.0
 10
6.4820994194
 20
4.7161242794
 30
0.0
 11
6.4445247435
 21
4.7895709565
 31
0.0
 11
6.451915649
 21
4.7699088564
 31
0.0
 11
6.458380275
 21
4.7556566622
 31
0.0
 11
6.4655916289
 21
4.7418992304
 31
0.0
 11
6.4820994194
 21
4.7161242794
 31
0.0
  0
LINE
  5
522
100
AcDbEntity
  8
0
100
AcDbLine
 62
9
  6
CONTINUOUS
 10
6.4820994194
 20
4.7161242794
 11
6.4591378311
 21
4.7155129341
  0
SPLINE
  5
523
100
AcDbEntity
  8
0
100
AcDbSpline
 62
9
  6
CONTINUOUS
 70
0
 71
3
 72
29
 73
25
 74
23
 42
0.0000001
 43
0.0000001
 44
0.0000000001
 12
0.0049006119
 22
0.0064736882
 32
0.0
 13
-0.0081192002
 23
0.0000567741
 33
0.0
 40
0.0
 40
0.0
 40
0.0
 40
0.0
 40
0.0018903672
 40
0.0035385765
 40
0.0073063543
 40
0.0099106976
 40
0.0131022681
 40
0.0213571676
 40
0.0321665828
 40
0.0455109032
 40
0.0613354865
 40
0.0795706857
 40
0.1001394256
 40
0.1229605511
 40
0.1479504861
 40
0.175024129
 40
0.235075066
 40
0.3023565544
 40
0.3760347542
 40
0.4552681191
 40
0.5392128911
 40
0.6270239162
 40
0.8108594036
 40
1.0
 40
1.0
 40
1.0
 40
1.0
 10
6.7501781453
 20
4.7154597372
 30
0.0
 10
6.7501812333
 20
4.7154638164
 30
0.0
 10
6.7501861942
 20
4.7154722833
 30
0.0
 10
6.75018798
 20
4.7154927988
 30
0.0
 10
6.750173312
 20
4.7155117271
 30
0.0
 10
6.7501525053
 20
4.7155266478
 30
0.0
 10
6.750118841
 20
4.7155448026
 30
0.0
 10
6.750062158
 20
4.7155655516
 30
0.0
 10
6.7499774376
 20
4.7155885063
 30
0.0
 10
6.7498715087
 20
4.7156107567
 30
0.0
 10
6.7497450234
 20
4.7156323631
 30
0.0
 10
6.7495986375
 20
4.7156532223
 30
0.0
 10
6.7494330577
 20
4.7156733206
 30
0.0
 10
6.7492489939
 20
4.7156926318
 30
0.0
 10
6.7490471636
 20
4.7157111459
 30
0.0
 10
6.7487447121
 20
4.715735604
 30
0.0
 10
6.7483277313
 20
4.715763517
 30
0.0
 10
6.7477844838
 20
4.7157928398
 30
0.0
 10
6.7471891086
 20
4.7158190769
 30
0.0
 10
6.74654848
 20
4.7158422836
 30
0.0
 10
6.745869484
 20
4.7158625258
 30
0.0
 10
6.7449073711
 20
4.7158860102
 30
0.0
 10
6.7436604399
 20
4.7159077197
 30
0.0
 10
6.7426510367
 20
4.7159179832
 30
0.0
 10
6.7421391466
 20
4.7159215626
 30
0.0
 11
6.7501781453
 21
4.7154597372
 31
0.0
 11
6.7501853647
 21
4.715473282
 31
0.0
 11
6.750186422
 21
4.7154866226
 31
0.0
 11
6.7501704118
 21
4.7155126908
 31
0.0
 11
6.7501535251
 21
4.7155254179
 31
0.0
 11
6.7501308379
 21
4.7155379402
 31
0.0
 11
6.7500684236
 21
4.7155623694
 31
0.0
 11
6.7499838923
 21
4.7155859769
 31
0.0
 11
6.7498779671
 21
4.7156087611
 31
0.0
 11
6.7497513715
 21
4.7156307207
 31
0.0
 11
6.7496048286
 21
4.715651854
 31
0.0
 11
6.7494390619
 21
4.7156721597
 31
0.0
 11
6.7492547945
 21
4.7156916361
 31
0.0
 11
6.7490527498
 21
4.7157102819
 31
0.0
 11
6.7488336511
 21
4.7157280954
 31
0.0
 11
6.7483472002
 21
4.7157612215
 31
0.0
 11
6.7478017298
 21
4.7157910485
 31
0.0
 11
6.7472040995
 21
4.7158176632
 31
0.0
 11
6.7465612012
 21
4.7158411553
 31
0.0
 11
6.7458799273
 21
4.7158616147
 31
0.0
 11
6.7451671698
 21
4.7158791311
 31
0.0
 11
6.7436747725
 21
4.7159056942
 31
0.0
 11
6.7421391466
 21
4.7159215626
 31
0.0
  0
LINE
  5
524
100
AcDbEntity
  8
0
100
AcDbLine
 62
9
  6
CONTINUOUS
 10
6.7421391466
 20
4.7159215626
 11
6.7136754956
 21
4.7158947934
  0
LINE
  5
525
100
AcDbEntity
  8
0
100
AcDbLine
 62
9
  6
CONTINUOUS
 10
6.7136754956
 20
4.7158947934
 11
6.6662789697
 21
4.7159215626
  0
SPLINE
  5
526
100
AcDbEntity
  8
0
100
AcDbSpline
 62
9
  6
CONTINUOUS
 70
0
 71
3
 72
19
 73
15
 74
13
 42
0.0000001
 43
0.0000001
 44
0.0000000001
 12
-0.1819525533
 22
-0.0003864314
 32
0.0
 13
-0.1819183606
 23
-0.0035483898
 33
0.0
 40
0.0
 40
0.0
 40
0.0
 40
0.0
 40
0.044557105
 40
0.0953620344
 40
0.1518091959
 40
0.2132684533
 40
0.2789354181
 40
0.347930381
 40
0.4922056171
 40
0.6376106494
 40
0.7755023961
 40
0.898187305
 40
0.9519395683
 40
1.0
 40
1.0
 40
1.0
 40
1.0
 10
6.6662789697
 20
4.7159215626
 30
0.0
 10
6.6635765433
 20
4.7159158232
 30
0.0
 10
6.6577927703
 20
4.7158957104
 30
0.0
 10
6.6485855329
 20
4.7158438333
 30
0.0
 10
6.6383533142
 20
4.7157657192
 30
0.0
 10
6.6272199119
 20
4.7156590216
 30
0.0
 10
6.6153257333
 20
4.7155235753
 30
0.0
 10
6.5984093632
 20
4.7153018968
 30
0.0
 10
6.5766580176
 20
4.7149589857
 30
0.0
 10
6.5507297892
 20
4.7144778486
 30
0.0
 10
6.5261119181
 20
4.7139655426
 30
0.0
 10
6.5070520224
 20
4.7135530493
 30
0.0
 10
6.4934390665
 20
4.7132650645
 30
0.0
 10
6.4872652996
 20
4.713139563
 30
0.0
 10
6.4843509413
 20
4.7130827173
 30
0.0
 11
6.6662789697
 21
4.7159215626
 31
0.0
 11
6.6581717182
 21
4.7158943047
 31
0.0
 11
6.648927754
 21
4.7158428427
 31
0.0
 11
6.6386573218
 21
4.7157648451
 31
0.0
 11
6.6274751361
 21
4.7156582167
 31
0.0
 11
6.6155276076
 21
4.7155225402
 31
0.0
 11
6.6029748464
 21
4.7153581232
 31
0.0
 11
6.5767267449
 21
4.7149479057
 31
0.0
 11
6.5502743824
 21
4.7144591983
 31
0.0
 11
6.5251898878
 21
4.7139426753
 31
0.0
 11
6.5028721141
 21
4.7134651059
 31
0.0
 11
6.4930938985
 21
4.7132591856
 31
0.0
 11
6.4843509413
 21
4.7130827173
 31
0.0
  0
LINE
  5
527
100
AcDbEntity
  8
0
100
AcDbLine
 62
9
  6
CONTINUOUS
 10
6.6059247382
 20
4.6425677568
 11
6.6055830032
 21
4.6425651899
  0
LINE
  5
528
100
AcDbEntity
  8
0
100
AcDbLine
 62
9
  6
CONTINUOUS
 10
6.7148088981
 20
4.6796971633
 11
6.7086906596
 21
4.6796103568
  0
LINE
  5
529
100
AcDbEntity
  8
0
100
AcDbLine
 62
9
  6
CONTINUOUS
 10
6.4843509413
 20
4.7130827173
 11
6.4617115984
 21
4.7124598673
  0
SPLINE
  5
52A
100
AcDbEntity
  8
0
100
AcDbSpline
 62
9
  6
CONTINUOUS
 70
0
 71
3
 72
11
 73
7
 74
5
 42
0.0000001
 43
0.0000001
 44
0.0000000001
 12
-0.02237378
 22
-0.00074021
 32
0.0
 13
-0.0223860211
 23
-0.0
 33
0.0
 40
0.0
 40
0.0
 40
0.0
 40
0.0
 40
0.1892812618
 40
0.419308242
 40
0.6854069639
 40
1.0
 40
1.0
 40
1.0
 40
1.0
 10
6.7086906596
 20
4.6796103568
 30
0.0
 10
6.7072790138
 20
4.6795636542
 30
0.0
 10
6.7041516644
 20
4.6794653631
 30
0.0
 10
6.699038557
 20
4.679342259
 30
0.0
 10
6.6929893994
 20
4.6792611132
 30
0.0
 10
6.6886562356
 20
4.6792456658
 30
0.0
 10
6.6863087402
 20
4.6792456658
 30
0.0
 11
6.7086906596
 21
4.6796103568
 31
0.0
 11
6.7044554233
 21
4.6794795972
 31
0.0
 11
6.6993074889
 21
4.6793572182
 31
0.0
 11
6.6933511657
 21
4.6792749282
 31
0.0
 11
6.6863087402
 21
4.6792456658
 31
0.0
  0
SPLINE
  5
52B
100
AcDbEntity
  8
0
100
AcDbSpline
 62
9
  6
CONTINUOUS
 70
0
 71
3
 72
11
 73
7
 74
5
 42
0.0000001
 43
0.0000001
 44
0.0000000001
 12
-0.0226337334
 22
-0.0398879717
 32
0.0
 13
-0.0322131842
 23
-0.0326442481
 33
0.0
 40
0.0
 40
0.0
 40
0.0
 40
0.0
 40
0.2585595146
 40
0.511485138
 40
0.7586496696
 40
1.0
 40
1.0
 40
1.0
 40
1.0
 10
6.7136754956
 20
4.7158947934
 30
0.0
 10
6.7117247732
 20
4.7124569885
 30
0.0
 10
6.7076618376
 20
4.705769437
 30
0.0
 10
6.701028446
 20
4.696246631
 30
0.0
 10
6.6939526485
 20
4.6873815336
 30
0.0
 10
6.6889002944
 20
4.6818718991
 30
0.0
 10
6.6863087402
 20
4.6792456658
 30
0.0
 11
6.7136754956
 21
4.7158947934
 31
0.0
 11
6.7075124866
 21
4.7057640629
 31
0.0
 11
6.7008757845
 21
4.6962505207
 31
0.0
 11
6.6937972491
 21
4.687396833
 31
0.0
 11
6.6863087402
 21
4.6792456658
 31
0.0
  0
LINE
  5
52C
100
AcDbEntity
  8
0
100
AcDbLine
 62
9
  6
CONTINUOUS
 10
6.6863087402
 20
4.6792456658
 11
6.6499755909
 21
4.6796103568
  0
SPLINE
  5
52D
100
AcDbEntity
  8
0
100
AcDbSpline
 62
9
  6
CONTINUOUS
 70
0
 71
3
 72
11
 73
7
 74
5
 42
0.0000001
 43
0.0000001
 44
0.0000000001
 12
-0.0135248332
 22
-0.0374815504
 32
0.0
 13
-0.0196523788
 23
-0.0346636948
 33
0.0
 40
0.0
 40
0.0
 40
0.0
 40
0.0
 40
0.2682182049
 40
0.5246533819
 40
0.7687418299
 40
1.0
 40
1.0
 40
1.0
 40
1.0
 10
6.6662789697
 20
4.7159215626
 30
0.0
 10
6.6650697675
 20
4.7125704846
 30
0.0
 10
6.6625946217
 20
4.7060543977
 30
0.0
 10
6.6586132615
 20
4.6966490683
 30
0.0
 10
6.6544550437
 20
4.687860454
 30
0.0
 10
6.6514905152
 20
4.6822824443
 30
0.0
 10
6.6499755909
 20
4.6796103568
 30
0.0
 11
6.6662789697
 21
4.7159215626
 31
0.0
 11
6.662475768
 21
4.7059334345
 31
0.0
 11
6.6584831987
 21
4.6965275468
 31
0.0
 11
6.6543126701
 21
4.6877408656
 31
0.0
 11
6.6499755909
 21
4.6796103568
 31
0.0
  0
SPLINE
  5
52E
100
AcDbEntity
  8
0
100
AcDbSpline
 62
9
  6
CONTINUOUS
 70
0
 71
3
 72
17
 73
13
 74
11
 42
0.0000001
 43
0.0000001
 44
0.0000000001
 12
-0.1332483214
 22
0.0013986369
 32
0.0
 13
-0.1332312361
 23
-0.0025512895
 33
0.0
 40
0.0
 40
0.0
 40
0.0
 40
0.0
 40
0.045508469
 40
0.0969628063
 40
0.2153692263
 40
0.2809513043
 40
0.3496908662
 40
0.49311522
 40
0.6375579156
 40
0.7747836464
 40
0.8974487285
 40
1.0
 40
1.0
 40
1.0
 40
1.0
 10
6.6499755909
 20
4.6796103568
 30
0.0
 10
6.6479542818
 20
4.6796315734
 30
0.0
 10
6.6436474829
 20
4.6796685088
 30
0.0
 10
6.6340812305
 20
4.6797216347
 30
0.0
 10
6.6236231509
 20
4.6797348184
 30
0.0
 10
6.6123973581
 20
4.679710047
 30
0.0
 10
6.6000603953
 20
4.6796547867
 30
0.0
 10
6.5842208928
 20
4.679529006
 30
0.0
 10
6.5653401525
 20
4.6793069152
 30
0.0
 10
6.5473822835
 20
4.6790342994
 30
0.0
 10
6.5312856494
 20
4.6787488589
 30
0.0
 10
6.5212837307
 20
4.6785556043
 30
0.0
 10
6.5167293865
 20
4.6784683916
 30
0.0
 11
6.6499755909
 21
4.6796103568
 31
0.0
 11
6.6439115615
 21
4.6796633765
 31
0.0
 11
6.6370550893
 21
4.6797021474
 31
0.0
 11
6.6212767816
 21
4.6797260405
 31
0.0
 11
6.6125376189
 21
4.6797071243
 31
0.0
 11
6.6033777744
 21
4.6796662217
 31
0.0
 11
6.584266248
 21
4.679517236
 31
0.0
 11
6.56501976
 21
4.6792919019
 31
0.0
 11
6.5467357319
 21
4.6790162718
 31
0.0
 11
6.530392452
 21
4.6787283058
 31
0.0
 11
6.5167293865
 21
4.6784683916
 31
0.0
  0
SPLINE
  5
52F
100
AcDbEntity
  8
0
100
AcDbSpline
 62
9
  6
CONTINUOUS
 70
0
 71
3
 72
9
 73
5
 74
3
 42
0.0000001
 43
0.0000001
 44
0.0000000001
 12
0.0285520698
 22
-0.0379200405
 32
0.0
 13
0.0360675833
 23
-0.0308590277
 33
0.0
 40
0.0
 40
0.0
 40
0.0
 40
0.0
 40
0.5057672305
 40
1.0
 40
1.0
 40
1.0
 40
1.0
 10
6.4843509413
 20
4.7130827173
 30
0.0
 10
6.4891645083
 20
4.7066898126
 30
0.0
 10
6.4993484191
 20
4.6945369464
 30
0.0
 10
6.5107874593
 20
4.6835522392
 30
0.0
 10
6.5167293865
 20
4.6784683916
 30
0.0
 11
6.4843509413
 21
4.7130827173
 31
0.0
 11
6.4997869477
 21
4.6946955853
 31
0.0
 11
6.5167293865
 21
4.6784683916
 31
0.0
  0
SPLINE
  5
530
100
AcDbEntity
  8
0
100
AcDbSpline
 62
9
  6
CONTINUOUS
 70
0
 71
3
 72
34
 73
30
 74
28
 42
0.0000001
 43
0.0000001
 44
0.0000000001
 12
-0.0174901785
 22
-0.0003349253
 32
0.0
 13
0.0141670364
 23
-0.0102622414
 33
0.0
 40
0.0
 40
0.0
 40
0.0
 40
0.0
 40
0.2446219976
 40
0.4531699903
 40
0.6265929335
 40
0.7004293433
 40
0.7658408206
 40
0.8229464191
 40
0.8484218114
 40
0.8718654107
 40
0.8932898806
 40
0.9127059025
 40
0.9301241684
 40
0.9455554993
 40
0.9590109197
 40
0.9705017945
 40
0.9800401027
 40
0.9840811631
 40
0.9876392276
 40
0.9907164235
 40
0.9933153355
 40
0.9954394117
 40
0.99709394
 40
0.9982888903
 40
0.9987214361
 40
0.9990526101
 40
0.9992991395
 40
0.9994998429
 40
1.0
 40
1.0
 40
1.0
 40
1.0
 10
6.5167293865
 20
4.6784683916
 30
0.0
 10
6.5153032257
 20
4.6784410816
 30
0.0
 10
6.512661258
 20
4.6783883085
 30
0.0
 10
6.5090084174
 20
4.6783069232
 30
0.0
 10
6.5063513915
 20
4.6782396085
 30
0.0
 10
6.5045289232
 20
4.6781870625
 30
0.0
 10
6.5033845314
 20
4.6781508704
 30
0.0
 10
6.5025220972
 20
4.6781205837
 30
0.0
 10
6.5019043162
 20
4.6780966716
 30
0.0
 10
6.5014944853
 20
4.6780796969
 30
0.0
 10
6.5011200081
 20
4.6780629936
 30
0.0
 10
6.5007806904
 20
4.6780465625
 30
0.0
 10
6.5004763499
 20
4.6780304081
 30
0.0
 10
6.5002068046
 20
4.6780145355
 30
0.0
 10
6.4999718703
 20
4.6779989575
 30
0.0
 10
6.4997713639
 20
4.6779836808
 30
0.0
 10
6.4996257527
 20
4.677970617
 30
0.0
 10
6.4995263763
 20
4.6779600856
 30
0.0
 10
6.499464558
 20
4.6779527076
 30
0.0
 10
6.4994112042
 20
4.6779454157
 30
0.0
 10
6.499366291
 20
4.6779382129
 30
0.0
 10
6.4993297672
 20
4.6779311335
 30
0.0
 10
6.4993016109
 20
4.6779241661
 30
0.0
 10
6.4992834007
 20
4.6779180825
 30
0.0
 10
6.4992731817
 20
4.6779129009
 30
0.0
 10
6.4992683915
 20
4.6779094437
 30
0.0
 10
6.4992654168
 20
4.6779058474
 30
0.0
 10
6.4992646058
 20
4.6779000149
 30
0.0
 10
6.4992682004
 20
4.677896736
 30
0.0
 10
6.4992705623
 20
4.677895025
 30
0.0
 11
6.5167293865
 21
4.6784683916
 31
0.0
 11
6.5124509851
 21
4.6783823339
 31
0.0
 11
6.5088036964
 21
4.6783003346
 31
0.0
 11
6.5057709427
 21
4.6782224233
 31
0.0
 11
6.5044798359
 21
4.6781850098
 31
0.0
 11
6.5033361462
 21
4.6781486295
 31
0.0
 11
6.5023378014
 21
4.6781132859
 31
0.0
 11
6.5018924858
 21
4.678096004
 31
0.0
 11
6.5014827313
 21
4.6780789828
 31
0.0
 11
6.5011083197
 21
4.6780622222
 31
0.0
 11
6.5007690688
 21
4.6780457222
 31
0.0
 11
6.5004647974
 21
4.6780294827
 31
0.0
 11
6.5001953245
 21
4.6780135035
 31
0.0
 11
6.4999604692
 21
4.6779977845
 31
0.0
 11
6.4997600502
 21
4.6779823255
 31
0.0
 11
6.4995938866
 21
4.6779671264
 31
0.0
 11
6.4995235939
 21
4.6779596243
 31
0.0
 11
6.4994617973
 21
4.6779521871
 31
0.0
 11
6.4994084739
 21
4.6779448149
 31
0.0
 11
6.4993636012
 21
4.6779375075
 31
0.0
 11
6.4993271566
 21
4.677930265
 31
0.0
 11
6.4992991174
 21
4.6779230873
 31
0.0
 11
6.499279461
 21
4.6779159745
 31
0.0
 11
6.4992727693
 21
4.6779124425
 31
0.0
 11
6.4992681648
 21
4.6779089266
 31
0.0
 11
6.4992656447
 21
4.6779054269
 31
0.0
 11
6.4992652061
 21
4.6779019434
 31
0.0
 11
6.4992705623
 21
4.677895025
 31
0.0
  0
SPLINE
  5
531
100
AcDbEntity
  8
0
100
AcDbSpline
 62
9
  6
CONTINUOUS
 70
0
 71
3
 72
15
 73
11
 74
9
 42
0.0000001
 43
0.0000001
 44
0.0000000001
 12
-0.0797468776
 22
-0.0654138849
 32
0.0
 13
-0.102967448
 23
-0.0060204213
 33
0.0
 40
0.0
 40
0.0
 40
0.0
 40
0.0
 40
0.1251988683
 40
0.2501214119
 40
0.374905406
 40
0.4996576532
 40
0.6244646062
 40
0.749403169
 40
0.8745515419
 40
1.0
 40
1.0
 40
1.0
 40
1.0
 10
6.7086906596
 20
4.6796103568
 30
0.0
 10
6.7053625866
 20
4.676880442
 30
0.0
 10
6.6984887345
 20
4.6716947229
 30
0.0
 10
6.6875991183
 20
4.6647742553
 30
0.0
 10
6.6762099545
 20
4.6587425778
 30
0.0
 10
6.6643881371
 20
4.6536215584
 30
0.0
 10
6.6521994385
 20
4.6494322995
 30
0.0
 10
6.6397094859
 20
4.6461962791
 30
0.0
 10
6.6269851168
 20
4.6439351504
 30
0.0
 10
6.618400032
 20
4.6430932958
 30
0.0
 10
6.6140943294
 20
4.6428415449
 30
0.0
 11
6.7086906596
 21
4.6796103568
 31
0.0
 11
6.6983831117
 21
4.6718314754
 31
0.0
 11
6.687509556
 21
4.664918658
 31
0.0
 11
6.6761362831
 21
4.6588935553
 31
0.0
 11
6.6643295834
 21
4.6537778184
 31
0.0
 11
6.6521557476
 21
4.649593098
 31
0.0
 11
6.6396810663
 21
4.646361045
 31
0.0
 11
6.6269718301
 21
4.6441033104
 31
0.0
 11
6.6140943294
 21
4.6428415449
 31
0.0
  0
SPLINE
  5
532
100
AcDbEntity
  8
0
100
AcDbSpline
 62
9
  6
CONTINUOUS
 70
0
 71
3
 72
15
 73
11
 74
9
 42
0.0000001
 43
0.0000001
 44
0.0000000001
 12
-0.0288801533
 22
0.0
 32
0.0
 13
-0.0288094801
 23
-0.002019185
 33
0.0
 40
0.0
 40
0.0
 40
0.0
 40
0.0
 40
0.159761748
 40
0.3011532747
 40
0.4297259525
 40
0.5510312439
 40
0.6694531834
 40
0.784711038
 40
0.895367016
 40
1.0
 40
1.0
 40
1.0
 40
1.0
 10
4.7960146503
 20
4.8723624439
 30
0.0
 10
4.794476669
 20
4.8723624439
 30
0.0
 10
4.7915775469
 20
4.8723579754
 30
0.0
 10
4.7874407512
 20
4.8723340909
 30
0.0
 10
4.7836743108
 20
4.8722935054
 30
0.0
 10
4.7801292382
 20
4.8722363802
 30
0.0
 10
4.7767126268
 20
4.8721648641
 30
0.0
 10
4.7733991368
 20
4.8720688251
 30
0.0
 10
4.7702196376
 20
4.8719384955
 30
0.0
 10
4.7681504033
 20
4.8718186929
 30
0.0
 10
4.767145596
 20
4.8717482684
 30
0.0
 11
4.7960146503
 21
4.8723624439
 31
0.0
 11
4.7914007138
 21
4.8723542497
 31
0.0
 11
4.787317378
 21
4.872329813
 31
0.0
 11
4.7836043998
 21
4.8722893526
 31
0.0
 11
4.7801015362
 21
4.8722330875
 31
0.0
 11
4.7766822825
 21
4.8721595788
 31
0.0
 11
4.7733550852
 21
4.8720607572
 31
0.0
 11
4.7701621284
 21
4.8719268961
 31
0.0
 11
4.767145596
 21
4.8717482684
 31
0.0
  0
SPLINE
  5
533
100
AcDbEntity
  8
0
100
AcDbSpline
 62
9
  6
CONTINUOUS
 70
0
 71
3
 72
16
 73
12
 74
10
 42
0.0000001
 43
0.0000001
 44
0.0000000001
 12
-0.0256618089
 22
-0.0452633811
 32
0.0
 13
-0.0498383585
 23
-0.0149479139
 33
0.0
 40
0.0
 40
0.0
 40
0.0
 40
0.0
 40
0.1568385915
 40
0.3036064536
 40
0.4405553437
 40
0.5680837659
 40
0.6867830652
 40
0.7974941112
 40
0.9013701893
 40
0.9512374076
 40
1.0
 40
1.0
 40
1.0
 40
1.0
 10
6.6499755909
 20
4.6796103568
 30
0.0
 10
6.6486340035
 20
4.6772440085
 30
0.0
 10
6.6459238679
 20
4.6727257619
 30
0.0
 10
6.6416182399
 20
4.6664077055
 30
0.0
 10
6.6372139251
 20
4.6607895509
 30
0.0
 10
6.6327166526
 20
4.6558862531
 30
0.0
 10
6.628130803
 20
4.6517127988
 30
0.0
 10
6.6234611422
 20
4.6482857268
 30
0.0
 10
6.6194468996
 20
4.6460364335
 30
0.0
 10
6.6162157499
 20
4.644653138
 30
0.0
 10
6.6145958441
 20
4.6440972723
 30
0.0
 10
6.6137857615
 20
4.643854306
 30
0.0
 11
6.6499755909
 21
4.6796103568
 31
0.0
 11
6.6457653712
 21
4.672619706
 31
0.0
 11
6.6414511731
 21
4.6663185027
 31
0.0
 11
6.6370401989
 21
4.6607221867
 31
0.0
 11
6.6325396507
 21
4.6558461976
 31
0.0
 11
6.6279567307
 21
4.6517059752
 31
0.0
 11
6.623298641
 21
4.6483169593
 31
0.0
 11
6.6185725839
 21
4.6456945896
 31
0.0
 11
6.6161863183
 21
4.6446757221
 31
0.0
 11
6.6137857615
 21
4.643854306
 31
0.0
  0
SPLINE
  5
534
100
AcDbEntity
  8
0
100
AcDbSpline
 62
9
  6
CONTINUOUS
 70
0
 71
3
 72
8
 73
4
 74
2
 42
0.0000001
 43
0.0000001
 44
0.0000000001
 12
-0.0000506956
 22
-0.0000151599
 32
0.0
 13
-0.0000506956
 23
-0.0000151599
 33
0.0
 40
0.0
 40
0.0
 40
0.0
 40
0.0
 40
1.0
 40
1.0
 40
1.0
 40
1.0
 10
6.6137857615
 20
4.643854306
 30
0.0
 10
6.613768863
 20
4.6438492526
 30
0.0
 10
6.6137519644
 20
4.6438441993
 30
0.0
 10
6.6137350659
 20
4.643839146
 30
0.0
 11
6.6137857615
 21
4.643854306
 31
0.0
 11
6.6137350659
 21
4.643839146
 31
0.0
  0
SPLINE
  5
535
100
AcDbEntity
  8
0
100
AcDbSpline
 62
9
  6
CONTINUOUS
 70
0
 71
3
 72
9
 73
5
 74
3
 42
0.0000001
 43
0.0000001
 44
0.0000000001
 12
-0.0076120584
 22
-0.0022695267
 32
0.0
 13
-0.0079403711
 23
-0.0002114044
 33
0.0
 40
0.0
 40
0.0
 40
0.0
 40
0.0
 40
0.5033613801
 40
1.0
 40
1.0
 40
1.0
 40
1.0
 10
6.6137350659
 20
4.643839146
 30
0.0
 10
6.6124578605
 20
4.6434583487
 30
0.0
 10
6.6098705807
 20
4.6428583234
 30
0.0
 10
6.6072256245
 20
4.6426070707
 30
0.0
 10
6.6059111262
 20
4.6425720735
 30
0.0
 11
6.6137350659
 21
4.643839146
 31
0.0
 11
6.6098385734
 21
4.642942659
 31
0.0
 11
6.6059111262
 21
4.6425720735
 31
0.0
  0
SPLINE
  5
536
100
AcDbEntity
  8
0
100
AcDbSpline
 62
9
  6
CONTINUOUS
 70
0
 71
3
 72
15
 73
11
 74
9
 42
0.0000001
 43
0.0000001
 44
0.0000000001
 12
0.0742756678
 22
-0.0635494447
 32
0.0
 13
0.0977482527
 23
-0.0008281525
 33
0.0
 40
0.0
 40
0.0
 40
0.0
 40
0.0
 40
0.1337371487
 40
0.2648379548
 40
0.393339955
 40
0.5192921596
 40
0.6427723788
 40
0.7639062019
 40
0.8828875014
 40
1.0
 40
1.0
 40
1.0
 40
1.0
 10
6.5167293865
 20
4.6784683916
 30
0.0
 10
6.5200405251
 20
4.6756354177
 30
0.0
 10
6.5268167545
 20
4.6702753576
 30
0.0
 10
6.5374753981
 20
4.6631346567
 30
0.0
 10
6.5484541707
 20
4.6569988555
 30
0.0
 10
6.5596777082
 20
4.6518959424
 30
0.0
 10
6.5710716265
 20
4.6478533575
 30
0.0
 10
6.5825619969
 20
4.64489913
 30
0.0
 10
6.5940728837
 20
4.6430617089
 30
0.0
 10
6.6017671558
 20
4.6425975189
 30
0.0
 10
6.6055830032
 20
4.6425651899
 30
0.0
 11
6.5167293865
 21
4.6784683916
 31
0.0
 11
6.5269862846
 21
4.6703628094
 31
0.0
 11
6.5376370164
 21
4.6632357685
 31
0.0
 11
6.5486060657
 21
4.6571148098
 31
0.0
 11
6.5598179161
 21
4.6520274746
 31
0.0
 11
6.5711970514
 21
4.6480013039
 31
0.0
 11
6.5826679552
 21
4.6450638388
 31
0.0
 11
6.5941551112
 21
4.6432426204
 31
0.0
 11
6.6055830032
 21
4.6425651899
 31
0.0
  0
SPLINE
  5
537
100
AcDbEntity
  8
0
100
AcDbSpline
 62
9
  6
CONTINUOUS
 70
0
 71
3
 72
26
 73
22
 74
20
 42
0.0000001
 43
0.0000001
 44
0.0000000001
 12
-0.082781812
 22
0.0491288756
 32
0.0
 13
0.0220870401
 23
0.0936943833
 33
0.0
 40
0.0
 40
0.0
 40
0.0
 40
0.0
 40
0.0549421948
 40
0.0824992862
 40
0.1101522461
 40
0.165857095
 40
0.2223047514
 40
0.2508783255
 40
0.2797108242
 40
0.3088239067
 40
0.3382378294
 40
0.3980187199
 40
0.4591690661
 40
0.5217583482
 40
0.5858312954
 40
0.6514042052
 40
0.7184668183
 40
0.7869880974
 40
0.8568698849
 40
0.9279380614
 40
1.0
 40
1.0
 40
1.0
 40
1.0
 10
6.2336991498
 20
5.4443236123
 30
0.0
 10
6.2321830783
 20
5.4452233617
 30
0.0
 10
6.229972221
 20
5.4466897881
 30
0.0
 10
6.2271797518
 20
5.4488582138
 30
0.0
 10
6.2244791206
 20
5.4511782523
 30
0.0
 10
6.2212969777
 20
5.4543509736
 30
0.0
 10
6.2184150423
 20
5.4578364779
 30
0.0
 10
6.216287322
 20
5.4608075018
 30
0.0
 10
6.2147752042
 20
5.4631369233
 30
0.0
 10
6.213355775
 20
5.4655552331
 30
0.0
 10
6.211580574
 20
5.468911976
 30
0.0
 10
6.2096053582
 20
5.4733201872
 30
0.0
 10
6.2076452216
 20
5.4788796057
 30
0.0
 10
6.2060920135
 20
5.4847086694
 30
0.0
 10
6.204956384
 20
5.490777225
 30
0.0
 10
6.2042418478
 20
5.4970537049
 30
0.0
 10
6.2039514657
 20
5.5035066429
 30
0.0
 10
6.2040895361
 20
5.5101026548
 30
0.0
 10
6.2046542884
 20
5.5168046196
 30
0.0
 10
6.2056383669
 20
5.5235722892
 30
0.0
 10
6.2065646628
 20
5.5280736969
 30
0.0
 10
6.2070952077
 20
5.5303242965
 30
0.0
 11
6.2336991498
 21
5.4443236123
 31
0.0
 11
6.2292913055
 21
5.4472464711
 31
0.0
 11
6.2271959687
 21
5.4488732663
 31
0.0
 11
6.2251767097
 21
5.4506077802
 31
0.0
 11
6.2213770281
 21
5.4543915047
 31
0.0
 11
6.2179113235
 21
5.4585765986
 31
0.0
 11
6.2163093832
 21
5.4608125308
 31
0.0
 11
6.2147977416
 21
5.4631402509
 31
0.0
 11
6.213378667
 21
5.4655569072
 31
0.0
 11
6.2120543382
 21
5.468059568
 31
0.0
 11
6.2096959628
 21
5.4733087751
 31
0.0
 11
6.2077334427
 21
5.4788584818
 31
0.0
 11
6.2061773506
 21
5.484679069
 31
0.0
 11
6.205037286
 21
5.4907406122
 31
0.0
 11
6.2043182194
 21
5.4970117358
 31
0.0
 11
6.2040237453
 21
5.503460633
 31
0.0
 11
6.204157287
 21
5.5100553127
 31
0.0
 11
6.2047177413
 21
5.5167589229
 31
0.0
 11
6.2056991237
 21
5.523529369
 31
0.0
 11
6.2070952077
 21
5.5303242965
 31
0.0
  0
SPLINE
  5
538
100
AcDbEntity
  8
0
100
AcDbSpline
 62
9
  6
CONTINUOUS
 70
0
 71
3
 72
15
 73
11
 74
9
 42
0.0000001
 43
0.0000001
 44
0.0000000001
 12
-0.1651600325
 22
-0.3492699123
 32
0.0
 13
-0.0015378353
 23
-0.3863482148
 33
0.0
 40
0.0
 40
0.0
 40
0.0
 40
0.0
 40
0.1202169548
 40
0.2423069719
 40
0.3660392554
 40
0.4911579846
 40
0.6173915223
 40
0.7444607966
 40
0.87208716
 40
1.0
 40
1.0
 40
1.0
 40
1.0
 10
4.8491560708
 20
5.2462757345
 30
0.0
 10
4.8425377254
 20
5.2322796794
 30
0.0
 10
4.8300646549
 20
5.2036516648
 30
0.0
 10
4.8137745871
 20
5.1593902072
 30
0.0
 10
4.7998018059
 20
5.1136825218
 30
0.0
 10
4.7882039137
 20
5.0667668739
 30
0.0
 10
4.7790375718
 20
5.0188790594
 30
0.0
 10
4.7723600714
 20
4.9702550533
 30
0.0
 10
4.7682288583
 20
4.9211330542
 30
0.0
 10
4.767211162
 20
4.8882209273
 30
0.0
 10
4.7671455924
 20
4.8717479615
 30
0.0
 11
4.8491560708
 21
5.2462757345
 31
0.0
 11
4.8305769523
 21
5.2037076145
 31
0.0
 11
4.8142621374
 21
5.1594492688
 31
0.0
 11
4.8002691614
 21
5.1137389741
 31
0.0
 11
4.7886555593
 21
5.0668150076
 31
0.0
 11
4.7794788662
 21
5.0189156461
 31
0.0
 11
4.7727966173
 21
4.9702791666
 31
0.0
 11
4.7686663476
 21
4.9211438461
 31
0.0
 11
4.7671455924
 21
4.8717479615
 31
0.0
  0
ENDSEC
  0
SECTION
  2
OBJECTS
  0
DICTIONARY
  5
C
100
AcDbDictionary
280
0
281
1
  3
ACAD_GROUP
350
D
  3
ACAD_MLINESTYLE
350
17
  3
ACAD_LAYOUT
350
1A
  3
ACAD_PLOTSETTINGS
350
19
  3
ACAD_PLOTSTYLENAME
350
E
  0
DICTIONARY
  5
D
102
{ACAD_REACTORS
330
C
102
}
100
AcDbDictionary
280
0
281
1
  0
ACDBDICTIONARYWDFLT
  5
E
102
{ACAD_REACTORS
330
C
102
}
100
AcDbDictionary
281
1
  3
Normal
350
F
100
AcDbDictionaryWithDefault
340
F
  0
DICTIONARY
  5
17
102
{ACAD_REACTORS
330
C
102
}
100
AcDbDictionary
280
0
281
1
  3
Standard
350
18
  0
DICTIONARY
  5
19
102
{ACAD_REACTORS
330
C
102
}
100
AcDbDictionary
281
1
  0
DICTIONARY
  5
1A
102
{ACAD_REACTORS
330
C
102
}
100
AcDbDictionary
281
1
  3
Model
350
539
  3
Layout1
350
53A
  0
ACDBPLACEHOLDER
  5
F
102
{ACAD_REACTORS
330
E
102
}
  0
MLINESTYLE
  5
18
102
{ACAD_REACTORS
330
17
102
}
100
AcDbMlineStyle
  2
STANDARD
 70
0
  3

 62
256
 51
90.0
 52
90.0
 71
2
 49
0.5
 62
256
  6
BYLAYER
 49
-0.5
 62
256
  6
BYLAYER
  0
LAYOUT
  5
539
102
{ACAD_REACTORS
330
1A
102
}
100
AcDbPlotSettings
  1

  2
none_device
  4
ISO_A4_(297.00_x_210.00_MM)
  6

 40
0.0
 41
0.0
 42
0.0
 43
0.0
 44
297.0
 45
210.0
 46
0.0
 47
0.0
 48
0.0
 49
0.0
140
0.0
141
0.0
142
1.0
143
1.0
 70
1024
 72
0
 73
0
 74
0
  7

 75
0
147
1.0
148
0.0
149
0.0
100
AcDbLayout
  1
Model
 70
0
 71
0
 10
0.0
 20
0.0
 11
11.6929133858
 21
8.2677165354
 12
0.0
 22
0.0
 32
0.0
 14
0.0
 24
0.0
 34
0.0
 15
0.0
 25
0.0
 35
0.0
146
0.0
 13
0.0
 23
0.0
 33
0.0
 16
1.0
 26
0.0
 36
0.0
 17
0.0
 27
1.0
 37
0.0
 76
0
330
203
345
0
346
0
  0
LAYOUT
  5
53A
102
{ACAD_REACTORS
330
1A
102
}
100
AcDbPlotSettings
  1

  2
none_device
  4
ISO_A4_(297.00_x_210.00_MM)
  6

 40
0.0
 41
0.0
 42
0.0
 43
0.0
 44
297.0
 45
210.0
 46
0.0
 47
0.0
 48
0.0
 49
0.0
140
0.0
141
0.0
142
1.0
143
1.0
 70
0
 72
0
 73
0
 74
0
  7

 75
0
147
1.0
148
0.0
149
0.0
100
AcDbLayout
  1
Layout1
 70
0
 71
1
 10
0.0
 20
0.0
 11
11.6929133858
 21
8.2677165354
 12
0.0
 22
0.0
 32
0.0
 14
0.0
 24
0.0
 34
0.0
 15
0.0
 25
0.0
 35
0.0
146
0.0
 13
0.0
 23
0.0
 33
0.0
 16
1.0
 26
0.0
 36
0.0
 17
0.0
 27
1.0
 37
0.0
 76
0
330
204
345
0
346
0
  0
ENDSEC
  0
EOF
