  0
SECTION
  2
HEADER
  9
$ACADVER
  1
AC1015
  9
$DWGCODEPAGE
  3
ANSI_1252
  9
$EXTMAX
 10
11.6929133858
 20
8.2677165354
 30
0.0
  9
$EXTMIN
 10
0.0
 20
0.0
 30
0.0
  9
$LIMMIN
 10
0.0
 20
0.0
  9
$LIMMAX
 10
11.6929133858
 20
8.2677165354
  9
$VIEWCTR
 10
5.8464566929
 20
4.1338582677
  9
$VIEWSIZE
 40
8.2677165354
  9
$CLAYER
  8
0
  9
$LTSCALE
 40
0.6431102362
  9
$CELTYPE
  6
BYLAYER
  9
$DIMSCALE
 40
1.0
  9
$DIMASZ
 40
0.1
  9
$DIMEXO
 40
0.0730807087
  9
$DIMDLI
 40
0.4443307087
  9
$DIMEXE
 40
0.2104724409
  9
$DIMCEN
 40
0.1052362205
  9
$DIMLFAC
 40
1.0
  9
$DIMBLK
  1
_FILLED
  9
$DIMTXT
 40
0.08
  9
$DIMTOL
 70
1
  9
$DIMLIM
 70
0
  9
$DIMTFAC
 40
1.0
  9
$DIMTP
 40
0.01
  9
$DIMTM
 40
0.01
  9
$PDMODE
 70
3
  9
$PDSIZE
 40
0.06
  9
$HANDSEED
  5
4E9
  9
$TILEMODE
 70
1
  9
$MEASUREMENT
 70
0
  9
$INSUNITS
 70
1
  0
ENDSEC
  0
SECTION
  2
CLASSES
  0
CLASS
  1
ACDBDICTIONARYWDFLT
  2
AcDbDictionaryWithDefault
  3
AutoCAD 2000
 90
0
280
0
281
0
  0
CLASS
  1
ACDBPLACEHOLDER
  2
AcDbPlaceHolder
  3
AutoCAD 2000
 90
0
280
0
281
0
  0
CLASS
  1
LAYOUT
  2
AcDbLayout
  3
AutoCAD 2000
 90
0
280
0
281
0
  0
ENDSEC
  0
SECTION
  2
TABLES
  0
TABLE
  2
VPORT
  5
8
100
AcDbSymbolTable
 70
2
  0
VPORT
  5
1F4
100
AcDbSymbolTableRecord
100
AcDbViewportTableRecord
  2
*ACTIVE
 70
0
 10
0.0
 20
0.0
 11
1.0
 21
1.0
 12
5.8464566929
 22
4.1338582677
 13
0.0
 23
0.0
 14
1.0
 24
1.0
 15
0.0
 25
0.0
 16
0.0
 26
0.0
 36
1.0
 17
0.0
 27
0.0
 37
0.0
 40
8.2677165354
 41
1.4142857143
 42
50.0
 43
0.0
 44
0.0
 50
0.0
 51
0.0
 71
0
 72
100
 73
1
 74
1
 75
0
 76
0
 77
0
 78
0
  0
ENDTAB
  0
TABLE
  2
LTYPE
  5
5
100
AcDbSymbolTable
 70
6
  0
LTYPE
  5
14
100
AcDbSymbolTableRecord
100
AcDbLinetypeTableRecord
  2
BYBLOCK
 70
0
  3

 72
65
 73
0
 40
0.0
  0
LTYPE
  5
15
100
AcDbSymbolTableRecord
100
AcDbLinetypeTableRecord
  2
BYLAYER
 70
0
  3

 72
65
 73
0
 40
0.0
  0
LTYPE
  5
16
100
AcDbSymbolTableRecord
100
AcDbLinetypeTableRecord
  2
CONTINUOUS
 70
64
  3
Solid line
 72
65
 73
0
 40
0.0
  0
LTYPE
  5
1F5
100
AcDbSymbolTableRecord
100
AcDbLinetypeTableRecord
  2
CENTER
 70
64
  3
____ _ ____ _ ____ _ ____ _ ____ _ ____ _ ____
 72
65
 73
4
 40
0.6
 49
0.375
 74
0
 49
-0.075
 74
0
 49
0.075
 74
0
 49
-0.075
 74
0
  0
LTYPE
  5
1F6
100
AcDbSymbolTableRecord
100
AcDbLinetypeTableRecord
  2
HIDDEN
 70
64
  3
- - - - - - - - - - - - - - - - - - - -
 72
65
 73
2
 40
0.2
 49
0.1
 74
0
 49
-0.1
 74
0
  0
LTYPE
  5
1F7
100
AcDbSymbolTableRecord
100
AcDbLinetypeTableRecord
  2
PHANTOM
 70
64
  3
_____ _ _ _____ _ _ _____ _ _ _____
 72
65
 73
6
 40
0.8
 49
0.45
 74
0
 49
-0.05
 74
0
 49
0.1
 74
0
 49
-0.05
 74
0
 49
0.1
 74
0
 49
-0.05
 74
0
  0
LTYPE
  5
1F8
100
AcDbSymbolTableRecord
100
AcDbLinetypeTableRecord
  2
DOT
 70
64
  3
. . . . . . . . . . . . . . . . . . . .
 72
65
 73
2
 40
0.2
 49
0.1
 74
0
 49
-0.1
 74
0
  0
LTYPE
  5
1F9
100
AcDbSymbolTableRecord
100
AcDbLinetypeTableRecord
  2
DASHED
 70
64
  3
- - - - - - - - - - - - - - - - - - - -
 72
65
 73
2
 40
0.2
 49
0.1
 74
0
 49
-0.1
 74
0
  0
ENDTAB
  0
TABLE
  2
LAYER
  5
2
100
AcDbSymbolTable
 70
36
  0
LAYER
  5
10
100
AcDbSymbolTableRecord
100
AcDbLayerTableRecord
  2
0
 70
0
 62
7
  6
CONTINUOUS
370
-3
390
F
  0
LAYER
  5
1FA
100
AcDbSymbolTableRecord
100
AcDbLayerTableRecord
  2
DEFAULT_1
 70
0
 62
7
  6
CENTER
370
-3
390
F
  0
LAYER
  5
1FB
100
AcDbSymbolTableRecord
100
AcDbLayerTableRecord
  2
DEFAULT_2
 70
0
 62
8
  6
HIDDEN
370
-3
390
F
  0
LAYER
  5
1FC
100
AcDbSymbolTableRecord
100
AcDbLayerTableRecord
  2
DEFAULT_3
 70
0
 62
7
  6
PHANTOM
370
-3
390
F
  0
LAYER
  5
1FD
100
AcDbSymbolTableRecord
100
AcDbLayerTableRecord
  2
DEFAULT_COORDINATE_SYSTEM
 70
0
 62
7
  6
CONTINUOUS
370
-3
390
F
  0
LAYER
  5
1FE
100
AcDbSymbolTableRecord
100
AcDbLayerTableRecord
  2
DEFAULT_DATUM_AXES
 70
0
 62
7
  6
CONTINUOUS
370
-3
390
F
  0
LAYER
  5
1FF
100
AcDbSymbolTableRecord
100
AcDbLayerTableRecord
  2
DEFAULT_DATUM_CURVES
 70
0
 62
7
  6
CONTINUOUS
370
-3
390
F
  0
LAYER
  5
200
100
AcDbSymbolTableRecord
100
AcDbLayerTableRecord
  2
DEFAULT_DATUM_PLANES
 70
0
 62
7
  6
CONTINUOUS
370
-3
390
F
  0
ENDTAB
  0
TABLE
  2
STYLE
  5
3
100
AcDbSymbolTable
 70
1
  0
STYLE
  5
11
100
AcDbSymbolTableRecord
100
AcDbTextStyleTableRecord
  2
STANDARD
 70
0
 40
0.0
 41
0.8
 50
0.0
 71
0
 42
0.2
  3
txt
  4

  0
STYLE
  5
201
100
AcDbSymbolTableRecord
100
AcDbTextStyleTableRecord
  2
TEXTSTYLE_1
 70
0
 40
0.0
 41
0.8
 50
0.0
 71
0
 42
0.2
  3
gdt
  4

  0
ENDTAB
  0
TABLE
  2
VIEW
  5
6
100
AcDbSymbolTable
 70
0
  0
ENDTAB
  0
TABLE
  2
UCS
  5
7
100
AcDbSymbolTable
 70
0
  0
ENDTAB
  0
TABLE
  2
APPID
  5
9
100
AcDbSymbolTable
 70
1
  0
APPID
  5
202
100
AcDbSymbolTableRecord
100
AcDbRegAppTableRecord
  2
ACAD
 70
0
  0
ENDTAB
  0
TABLE
  2
BLOCK_RECORD
  5
1
100
AcDbSymbolTable
 70
0
  0
BLOCK_RECORD
  5
203
100
AcDbSymbolTableRecord
100
AcDbBlockTableRecord
  2
*Model_Space
  0
BLOCK_RECORD
  5
204
100
AcDbSymbolTableRecord
100
AcDbBlockTableRecord
  2
*Paper_Space
  0
ENDTAB
  0
TABLE
  2
DIMSTYLE
  5
A
100
AcDbSymbolTable
 70
1
100
AcDbDimStyleTable
 71
0
  0
DIMSTYLE
105
205
100
AcDbSymbolTableRecord
100
AcDbDimStyleTableRecord
  2
STANDARD
 70
0
  3

  4

 40
1.0
 41
0.1
 42
0.0625
 43
0.38
 44
0.18
 45
0.0
 46
0.0
 47
0.01
 48
0.01
140
0.08
141
0.09
142
0.0
143
25.4
144
1.0
145
0.0
146
1.0
147
0.09
 71
1.0
 72
0.0
 73
1
 74
1
 75
0
 76
0
 77
0
 78
4
170
0
171
2
172
0
173
0
174
0
175
0
176
0
177
0
178
0
270
2
271
2
272
2
273
2
274
2
275
0
280
0
281
0
282
0
283
1
284
4
285
0
286
0
287
3
288
0
340
11
  0
ENDTAB
  0
ENDSEC
  0
SECTION
  2
BLOCKS
  0
BLOCK
  5
20
100
AcDbEntity
  8
0
100
AcDbBlockBegin
  2
*Model_Space
 70
0
 10
0.0
 20
0.0
 30
0.0
  3
*Model_Space
  1

  0
ENDBLK
  5
21
100
AcDbEntity
  8
0
100
AcDbBlockEnd
  0
BLOCK
  5
1C
100
AcDbEntity
  8
0
100
AcDbBlockBegin
  2
*Paper_Space
 70
0
 10
0.0
 20
0.0
 30
0.0
  3
*Paper_Space
  1

  0
ENDBLK
  5
1D
100
AcDbEntity
  8
0
100
AcDbBlockEnd
  0
ENDSEC
  0
SECTION
  2
ENTITIES
  0
LWPOLYLINE
  5
206
100
AcDbEntity
  8
0
100
AcDbPolyline
 62
6
  6
CONTINUOUS
 90
3
 70
0
 10
4.7268136903
 20
5.2709351002
 10
4.7198326317
 20
5.2577327753
 10
4.7151932363
 20
5.2457313842
  0
LWPOLYLINE
  5
207
100
AcDbEntity
  8
0
100
AcDbPolyline
 62
6
  6
CONTINUOUS
 90
4
 70
0
 10
4.7306338568
 20
5.2768207773
 10
4.7249965114
 20
5.2679516794
 10
4.7204339846
 20
5.2592020571
 10
4.716819667
 20
5.2505197486
  0
LINE
  5
208
100
AcDbEntity
  8
0
100
AcDbLine
 62
6
  6
CONTINUOUS
 10
4.7353841409
 20
5.2831524014
 11
4.7268136903
 21
5.2709351002
  0
LINE
  5
209
100
AcDbEntity
  8
0
100
AcDbLine
 62
6
  6
CONTINUOUS
 10
4.7344423228
 20
5.2820171193
 11
4.7306338568
 21
5.2768207773
  0
LINE
  5
20A
100
AcDbEntity
  8
0
100
AcDbLine
 62
6
  6
CONTINUOUS
 10
4.744052593
 20
5.2928427206
 11
4.7353841409
 21
5.2831524014
  0
LINE
  5
20B
100
AcDbEntity
  8
0
100
AcDbLine
 62
6
  6
CONTINUOUS
 10
4.7536059718
 20
5.3014014974
 11
4.744052593
 21
5.2928427206
  0
LINE
  5
20C
100
AcDbEntity
  8
0
100
AcDbLine
 62
6
  6
CONTINUOUS
 10
4.7658098189
 20
5.3099894512
 11
4.7536059718
 21
5.3014014974
  0
LWPOLYLINE
  5
20D
100
AcDbEntity
  8
0
100
AcDbPolyline
 62
6
  6
CONTINUOUS
 90
3
 70
0
 10
4.7687708839
 20
5.3117984393
 10
4.7599212883
 20
5.3061553119
 10
4.7547523939
 20
5.3023549621
  0
LINE
  5
20E
100
AcDbEntity
  8
0
100
AcDbLine
 62
6
  6
CONTINUOUS
 10
4.7790028373
 20
5.3169905417
 11
4.7658098189
 21
5.3099894512
  0
LWPOLYLINE
  5
20F
100
AcDbEntity
  8
0
100
AcDbPolyline
 62
6
  6
CONTINUOUS
 90
3
 70
0
 10
4.7659602135
 20
3.3190393543
 10
4.7791625383
 20
3.3120582958
 10
4.7911639294
 20
3.3074189004
  0
LWPOLYLINE
  5
210
100
AcDbEntity
  8
0
100
AcDbPolyline
 62
6
  6
CONTINUOUS
 90
4
 70
0
 10
4.7600745363
 20
3.3228595208
 10
4.7689436342
 20
3.3172221754
 10
4.7776932565
 20
3.3126596487
 10
4.7863755651
 20
3.309045331
  0
LINE
  5
211
100
AcDbEntity
  8
0
100
AcDbLine
 62
6
  6
CONTINUOUS
 10
4.7537429122
 20
3.3276098049
 11
4.7659602135
 21
3.3190393543
  0
LINE
  5
212
100
AcDbEntity
  8
0
100
AcDbLine
 62
6
  6
CONTINUOUS
 10
4.7548768988
 20
3.3266689949
 11
4.7600745363
 21
3.3228595208
  0
LINE
  5
213
100
AcDbEntity
  8
0
100
AcDbLine
 62
6
  6
CONTINUOUS
 10
4.744052593
 20
3.3362782571
 11
4.7537429122
 21
3.3276098049
  0
LINE
  5
214
100
AcDbEntity
  8
0
100
AcDbLine
 62
6
  6
CONTINUOUS
 10
4.7354938162
 20
3.3458316359
 11
4.744052593
 21
3.3362782571
  0
LINE
  5
215
100
AcDbEntity
  8
0
100
AcDbLine
 62
6
  6
CONTINUOUS
 10
4.7269058624
 20
3.358035483
 11
4.7354938162
 21
3.3458316359
  0
LWPOLYLINE
  5
216
100
AcDbEntity
  8
0
100
AcDbPolyline
 62
6
  6
CONTINUOUS
 90
3
 70
0
 10
4.7250968743
 20
3.360996548
 10
4.7307400017
 20
3.3521469524
 10
4.7345410295
 20
3.3469771893
  0
LINE
  5
217
100
AcDbEntity
  8
0
100
AcDbLine
 62
6
  6
CONTINUOUS
 10
4.7199047719
 20
3.3712285014
 11
4.7269058624
 21
3.358035483
  0
LINE
  5
218
100
AcDbEntity
  8
0
100
AcDbLine
 62
9
  6
CONTINUOUS
 10
4.7151932363
 20
5.2457313842
 11
4.7151835351
 21
5.2456933382
  0
LINE
  5
219
100
AcDbEntity
  8
0
100
AcDbLine
 62
6
  6
CONTINUOUS
 10
4.7147927706
 20
5.2446473845
 11
4.7075643377
 21
5.2175885289
  0
LWPOLYLINE
  5
21A
100
AcDbEntity
  8
0
100
AcDbPolyline
 62
6
  6
CONTINUOUS
 90
7
 70
0
 10
4.7151932523
 20
5.2457314336
 10
4.709679865
 20
5.2263745876
 10
4.7052547565
 20
5.2047270191
 10
4.702525784
 20
5.1825459009
 10
4.7015606502
 20
5.1600501763
 10
4.7023930562
 20
5.1374771945
 10
4.7036832229
 20
5.1245789527
  0
LINE
  5
21B
100
AcDbEntity
  8
0
100
AcDbLine
 62
9
  6
CONTINUOUS
 10
4.7147962597
 20
5.2446582685
 11
4.7147927706
 21
5.2446473845
  0
LINE
  5
21C
100
AcDbEntity
  8
0
100
AcDbLine
 62
6
  6
CONTINUOUS
 10
4.716819667
 20
5.2505197486
 11
4.7147962597
 21
5.2446582685
  0
LINE
  5
21D
100
AcDbEntity
  8
0
100
AcDbLine
 62
9
  6
CONTINUOUS
 10
4.7151835351
 20
5.2456933382
 11
4.7147962597
 21
5.2446582685
  0
LINE
  5
21E
100
AcDbEntity
  8
0
100
AcDbLine
 62
6
  6
CONTINUOUS
 10
4.7911639317
 20
5.3217020781
 11
4.7790028373
 21
5.3169905417
  0
LINE
  5
21F
100
AcDbEntity
  8
0
100
AcDbLine
 62
9
  6
CONTINUOUS
 10
4.7912019754
 20
5.3217117785
 11
4.7922371793
 21
5.322099097
  0
LWPOLYLINE
  5
220
100
AcDbEntity
  8
0
100
AcDbPolyline
 62
6
  6
CONTINUOUS
 90
4
 70
0
 10
4.7922371793
 20
5.322099097
 10
4.7861723627
 20
5.3199999886
 10
4.7775043374
 20
5.3163732403
 10
4.7687708839
 20
5.3117984393
  0
LINE
  5
221
100
AcDbEntity
  8
0
100
AcDbLine
 62
9
  6
CONTINUOUS
 10
4.7922371793
 20
5.322099097
 11
4.7922483572
 21
5.32210268
  0
LINE
  5
222
100
AcDbEntity
  8
0
100
AcDbLine
 62
6
  6
CONTINUOUS
 10
4.8104030105
 20
5.3271864627
 11
4.7911638736
 21
5.3217020592
  0
LINE
  5
223
100
AcDbEntity
  8
0
100
AcDbLine
 62
6
  6
CONTINUOUS
 10
6.6254426841
 20
3.2998071452
 11
6.6524212924
 21
3.3070182977
  0
LINE
  5
224
100
AcDbEntity
  8
0
100
AcDbLine
 62
9
  6
CONTINUOUS
 10
6.6535057179
 20
3.3074188996
 11
6.6534676741
 21
3.3074091992
  0
LINE
  5
225
100
AcDbEntity
  8
0
100
AcDbLine
 62
9
  6
CONTINUOUS
 10
4.7911639294
 20
3.3074189004
 11
4.7912019754
 21
3.3074091992
  0
LINE
  5
226
100
AcDbEntity
  8
0
100
AcDbLine
 62
6
  6
CONTINUOUS
 10
4.7922479291
 20
3.3070184347
 11
4.8193066192
 21
3.2997900373
  0
LWPOLYLINE
  5
227
100
AcDbEntity
  8
0
100
AcDbPolyline
 62
6
  6
CONTINUOUS
 90
7
 70
0
 10
4.79116388
 20
3.3074189164
 10
4.8105208434
 20
3.3019055002
 10
4.8321685424
 20
3.29748038
 10
4.854349801
 20
3.2947514159
 10
4.8768456718
 20
3.2937863127
 10
4.8994188008
 20
3.2946187727
 10
4.9123122818
 20
3.2959083842
  0
LINE
  5
228
100
AcDbEntity
  8
0
100
AcDbLine
 62
9
  6
CONTINUOUS
 10
4.7922370451
 20
3.3070219237
 11
4.7922479291
 21
3.3070184347
  0
LINE
  5
229
100
AcDbEntity
  8
0
100
AcDbLine
 62
6
  6
CONTINUOUS
 10
4.7863755651
 20
3.309045331
 11
4.7922370451
 21
3.3070219237
  0
LINE
  5
22A
100
AcDbEntity
  8
0
100
AcDbLine
 62
9
  6
CONTINUOUS
 10
4.7912019754
 20
3.3074091992
 11
4.7922370451
 21
3.3070219237
  0
LINE
  5
22B
100
AcDbEntity
  8
0
100
AcDbLine
 62
6
  6
CONTINUOUS
 10
4.7151932356
 20
3.3833895957
 11
4.7199047719
 21
3.3712285014
  0
LINE
  5
22C
100
AcDbEntity
  8
0
100
AcDbLine
 62
9
  6
CONTINUOUS
 10
4.7151835351
 20
3.3834276395
 11
4.7147962166
 21
3.3844628433
  0
LWPOLYLINE
  5
22D
100
AcDbEntity
  8
0
100
AcDbPolyline
 62
6
  6
CONTINUOUS
 90
4
 70
0
 10
4.7147962166
 20
3.3844628433
 10
4.716895325
 20
3.3783980268
 10
4.7205220734
 20
3.3697300015
 10
4.7250968743
 20
3.360996548
  0
LINE
  5
22E
100
AcDbEntity
  8
0
100
AcDbLine
 62
9
  6
CONTINUOUS
 10
4.7147962166
 20
3.3844628433
 11
4.7147926336
 21
3.3844740212
  0
LINE
  5
22F
100
AcDbEntity
  8
0
100
AcDbLine
 62
6
  6
CONTINUOUS
 10
4.7097088795
 20
3.4026285588
 11
4.7151932544
 21
3.3833895377
  0
LINE
  5
230
100
AcDbEntity
  8
0
100
AcDbLine
 62
6
  6
CONTINUOUS
 10
4.707581493
 20
3.4114525744
 11
4.7147926336
 21
3.3844740212
  0
LINE
  5
231
100
AcDbEntity
  8
0
100
AcDbLine
 62
9
  6
CONTINUOUS
 10
4.7151932356
 20
3.3833895957
 11
4.7151835351
 21
3.3834276395
  0
LINE
  5
232
100
AcDbEntity
  8
0
100
AcDbLine
 62
6
  6
CONTINUOUS
 10
4.7075643377
 20
5.2175885289
 11
4.7031995159
 21
5.1911676455
  0
LINE
  5
233
100
AcDbEntity
  8
0
100
AcDbLine
 62
6
  6
CONTINUOUS
 10
6.5990352159
 20
3.2954361015
 11
6.6254426841
 21
3.2998071452
  0
LINE
  5
234
100
AcDbEntity
  8
0
100
AcDbLine
 62
6
  6
CONTINUOUS
 10
4.8193066192
 20
3.2997900373
 11
4.8457273745
 21
3.2954252143
  0
LINE
  5
235
100
AcDbEntity
  8
0
100
AcDbLine
 62
6
  6
CONTINUOUS
 10
4.7032104489
 20
3.43786
 11
4.707581493
 21
3.4114525744
  0
LINE
  5
236
100
AcDbEntity
  8
0
100
AcDbLine
 62
6
  6
CONTINUOUS
 10
4.7013503751
 20
3.463976558
 11
4.7032104489
 21
3.43786
  0
LWPOLYLINE
  5
237
100
AcDbEntity
  8
0
100
AcDbPolyline
 62
6
  6
CONTINUOUS
 90
3
 70
0
 10
4.7031995159
 20
5.1911676455
 10
4.7013480024
 20
5.1650490899
 10
4.7020746227
 20
5.137162394
  0
LINE
  5
238
100
AcDbEntity
  8
0
100
AcDbLine
 62
6
  6
CONTINUOUS
 10
6.5729185973
 20
3.2935760352
 11
6.5990352159
 21
3.2954361015
  0
LWPOLYLINE
  5
239
100
AcDbEntity
  8
0
100
AcDbPolyline
 62
6
  6
CONTINUOUS
 90
3
 70
0
 10
4.8457273745
 20
3.2954252143
 10
4.8718457485
 20
3.2935736783
 10
4.8997322878
 20
3.2943002379
  0
LWPOLYLINE
  5
23A
100
AcDbEntity
  8
0
100
AcDbPolyline
 62
6
  6
CONTINUOUS
 90
6
 70
0
 10
4.7036828279
 20
3.5045388198
 10
4.70239142
 20
3.4916225023
 10
4.7015607899
 20
3.4690261837
 10
4.7025315104
 20
3.4465061275
 10
4.7052700852
 20
3.4243003625
 10
4.7097088795
 20
3.4026285588
  0
LWPOLYLINE
  5
23B
100
AcDbEntity
  8
0
100
AcDbPolyline
 62
6
  6
CONTINUOUS
 90
3
 70
0
 10
4.7056010043
 20
3.5195832497
 10
4.7020681473
 20
3.4918746908
 10
4.7013503751
 20
3.463976558
  0
LWPOLYLINE
  5
23C
100
AcDbEntity
  8
0
100
AcDbPolyline
 62
6
  6
CONTINUOUS
 90
7
 70
0
 10
4.8997322878
 20
3.2943002379
 10
4.9274243377
 20
3.297838588
 10
4.9544482295
 20
3.3040889586
 10
4.9805654574
 20
3.3130335529
 10
5.0054190509
 20
3.3243788436
 10
5.0286093063
 20
3.3378028687
 10
5.0440002547
 20
3.3484273189
  0
LWPOLYLINE
  5
23D
100
AcDbEntity
  8
0
100
AcDbPolyline
 62
6
  6
CONTINUOUS
 90
6
 70
0
 10
6.5323570042
 20
3.295908429
 10
6.5452721795
 20
3.2946171326
 10
6.5678686346
 20
3.2937864524
 10
6.5903888261
 20
3.2947571446
 10
6.6125947212
 20
3.2974957116
 10
6.634266646
 20
3.3019345167
  0
LWPOLYLINE
  5
23E
100
AcDbEntity
  8
0
100
AcDbPolyline
 62
6
  6
CONTINUOUS
 90
3
 70
0
 10
6.517311806
 20
3.2978267145
 10
6.5450204123
 20
3.2942938276
 10
6.5729185973
 20
3.2935760352
  0
LWPOLYLINE
  5
23F
100
AcDbEntity
  8
0
100
AcDbPolyline
 62
6
  6
CONTINUOUS
 90
7
 70
0
 10
4.7020746227
 20
5.137162394
 10
4.7056130622
 20
5.1094702021
 10
4.7118635537
 20
5.0824461792
 10
4.7208082985
 20
5.0563288302
 10
4.7321537587
 20
5.0314751409
 10
4.7455779746
 20
5.0082848121
 10
4.7562023018
 20
4.992894182
  0
LINE
  5
240
100
AcDbEntity
  8
0
100
AcDbLine
 62
9
  6
CONTINUOUS
 10
5.1505672965
 20
4.6914560695
 11
5.3454392441
 21
4.8863280171
  0
LINE
  5
241
100
AcDbEntity
  8
0
100
AcDbLine
 62
9
  6
CONTINUOUS
 10
5.3454392441
 20
3.7427929606
 11
5.1505672965
 21
3.9376649082
  0
LINE
  5
242
100
AcDbEntity
  8
0
100
AcDbLine
 62
6
  6
CONTINUOUS
 10
5.4767861339
 20
3.8109923711
 11
5.4874609074
 21
3.8082205347
  0
LINE
  5
243
100
AcDbEntity
  8
0
100
AcDbLine
 62
6
  6
CONTINUOUS
 10
5.4874609074
 20
3.8082205347
 11
5.4964446985
 21
3.8048679405
  0
LWPOLYLINE
  5
244
100
AcDbEntity
  8
0
100
AcDbPolyline
 62
6
  6
CONTINUOUS
 90
3
 70
0
 10
5.4620320759
 20
3.8128382747
 10
5.465267796
 20
3.812623542
 10
5.4767861339
 20
3.8109923711
  0
LWPOLYLINE
  5
245
100
AcDbEntity
  8
0
100
AcDbPolyline
 62
6
  6
CONTINUOUS
 90
6
 70
0
 10
4.7562021268
 20
3.6362265585
 10
4.7455754446
 20
3.6208322385
 10
4.7321465075
 20
3.5976317917
 10
4.7207964753
 20
3.5727625324
 10
4.7118495619
 20
3.5466259208
 10
4.7056010043
 20
3.5195832497
  0
LINE
  5
246
100
AcDbEntity
  8
0
100
AcDbLine
 62
7
  6
CONTINUOUS
 10
5.7115728439
 20
3.9825604888
 11
5.7276475612
 21
3.9825604888
  0
LINE
  5
247
100
AcDbEntity
  8
0
100
AcDbLine
 62
7
  6
CONTINUOUS
 10
5.6474510664
 20
3.9935233777
 11
5.6590999348
 21
3.9910473342
  0
LINE
  5
248
100
AcDbEntity
  8
0
100
AcDbLine
 62
7
  6
CONTINUOUS
 10
5.5774365077
 20
3.9915721335
 11
5.5856584168
 21
3.9879115037
  0
LINE
  5
249
100
AcDbEntity
  8
0
100
AcDbLine
 62
7
  6
CONTINUOUS
 10
5.5954200962
 20
4.0098365947
 11
5.5871981871
 21
4.0134972245
  0
LINE
  5
24A
100
AcDbEntity
  8
0
100
AcDbLine
 62
7
  6
CONTINUOUS
 10
5.589638607
 20
4.0189784972
 11
5.5955766524
 21
4.016334709
  0
LWPOLYLINE
  5
24B
100
AcDbEntity
  8
0
100
AcDbPolyline
 62
6
  6
CONTINUOUS
 90
6
 70
0
 10
6.4006692685
 20
3.3484274121
 10
6.4160626767
 20
3.3378013654
 10
6.439263148
 20
3.3243723646
 10
6.4641324392
 20
3.313022276
 10
6.4902690911
 20
3.3040753123
 10
6.517311806
 20
3.2978267145
  0
LINE
  5
24C
100
AcDbEntity
  8
0
100
AcDbLine
 62
7
  6
CONTINUOUS
 10
5.4053348248
 20
4.2445604888
 11
5.4053348248
 21
4.2645604888
  0
LINE
  5
24D
100
AcDbEntity
  8
0
100
AcDbLine
 62
7
  6
CONTINUOUS
 10
5.4088348248
 20
4.3695604888
 11
5.4088348248
 21
4.3845604888
  0
LINE
  5
24E
100
AcDbEntity
  8
0
100
AcDbLine
 62
7
  6
CONTINUOUS
 10
5.4238348248
 20
4.2854111483
 11
5.4238348248
 21
4.3494358771
  0
LINE
  5
24F
100
AcDbEntity
  8
0
100
AcDbLine
 62
7
  6
CONTINUOUS
 10
5.4518348248
 20
4.3545604888
 11
5.4518348248
 21
4.3325604888
  0
LINE
  5
250
100
AcDbEntity
  8
0
100
AcDbLine
 62
7
  6
CONTINUOUS
 10
5.4518348248
 20
4.2965604888
 11
5.4518348248
 21
4.2854111483
  0
LINE
  5
251
100
AcDbEntity
  8
0
100
AcDbLine
 62
7
  6
CONTINUOUS
 10
5.4703348248
 20
4.2645604888
 11
5.4703348248
 21
4.2445604888
  0
LINE
  5
252
100
AcDbEntity
  8
0
100
AcDbLine
 62
7
  6
CONTINUOUS
 10
5.4803348248
 20
4.2895604888
 11
5.4803348248
 21
4.2965604888
  0
LINE
  5
253
100
AcDbEntity
  8
0
100
AcDbLine
 62
7
  6
CONTINUOUS
 10
5.4803348248
 20
4.3325604888
 11
5.4803348248
 21
4.3395604888
  0
LINE
  5
254
100
AcDbEntity
  8
0
100
AcDbLine
 62
7
  6
CONTINUOUS
 10
5.4933348248
 20
4.3395604888
 11
5.4933348248
 21
4.2895604888
  0
LINE
  5
255
100
AcDbEntity
  8
0
100
AcDbLine
 62
6
  6
CONTINUOUS
 10
4.7560654087
 20
3.6360011841
 11
4.7749663691
 21
3.6590421336
  0
LINE
  5
256
100
AcDbEntity
  8
0
100
AcDbLine
 62
6
  6
CONTINUOUS
 10
6.37785318
 20
5.2619289445
 11
6.4009500175
 21
5.2808709271
  0
LINE
  5
257
100
AcDbEntity
  8
0
100
AcDbLine
 62
7
  6
CONTINUOUS
 10
5.5732845951
 20
4.5758534835
 11
5.5595106893
 21
4.5658461551
  0
LINE
  5
258
100
AcDbEntity
  8
0
100
AcDbLine
 62
7
  6
CONTINUOUS
 10
5.5401148984
 20
4.5517542881
 11
5.5223165245
 21
4.5388230126
  0
LINE
  5
259
100
AcDbEntity
  8
0
100
AcDbLine
 62
7
  6
CONTINUOUS
 10
5.6325798658
 20
4.6007790196
 11
5.5843663054
 21
4.5812994767
  0
LINE
  5
25A
100
AcDbEntity
  8
0
100
AcDbLine
 62
7
  6
CONTINUOUS
 10
5.6639196975
 20
4.0137225345
 11
5.652270829
 21
4.016198578
  0
LINE
  5
25B
100
AcDbEntity
  8
0
100
AcDbLine
 62
7
  6
CONTINUOUS
 10
5.6345294799
 20
4.0265219126
 11
5.6716990887
 21
4.0186212683
  0
LINE
  5
25C
100
AcDbEntity
  8
0
100
AcDbLine
 62
7
  6
CONTINUOUS
 10
5.6033046486
 20
4.0336920727
 11
5.5973666032
 21
4.0363358609
  0
LINE
  5
25D
100
AcDbEntity
  8
0
100
AcDbLine
 62
7
  6
CONTINUOUS
 10
5.5820429227
 20
4.0486315844
 11
5.6117331501
 21
4.0354126435
  0
LINE
  5
25E
100
AcDbEntity
  8
0
100
AcDbLine
 62
6
  6
CONTINUOUS
 10
6.4008644029
 20
3.3483128988
 11
6.37785318
 21
3.3671920332
  0
LINE
  5
25F
100
AcDbEntity
  8
0
100
AcDbLine
 62
6
  6
CONTINUOUS
 10
4.7749663691
 20
4.9700788441
 11
4.7560243971
 21
4.9931756671
  0
LINE
  5
260
100
AcDbEntity
  8
0
100
AcDbLine
 62
7
  6
CONTINUOUS
 10
5.5483348248
 20
4.2445604888
 11
5.5483348248
 21
4.2645604888
  0
LINE
  5
261
100
AcDbEntity
  8
0
100
AcDbLine
 62
7
  6
CONTINUOUS
 10
5.5483348248
 20
4.3695604888
 11
5.5483348248
 21
4.3845604888
  0
LINE
  5
262
100
AcDbEntity
  8
0
100
AcDbLine
 62
7
  6
CONTINUOUS
 10
5.5608348248
 20
4.2862111239
 11
5.5608348248
 21
4.3479098538
  0
LINE
  5
263
100
AcDbEntity
  8
0
100
AcDbLine
 62
7
  6
CONTINUOUS
 10
5.5908348248
 20
4.3665604888
 11
5.5908348248
 21
4.3185604888
  0
LINE
  5
264
100
AcDbEntity
  8
0
100
AcDbLine
 62
7
  6
CONTINUOUS
 10
5.5908348248
 20
4.2965604888
 11
5.5908348248
 21
4.2862111239
  0
LINE
  5
265
100
AcDbEntity
  8
0
100
AcDbLine
 62
7
  6
CONTINUOUS
 10
5.6033348248
 20
4.2645604888
 11
5.6033348248
 21
4.2445604888
  0
LWPOLYLINE
  5
266
100
AcDbEntity
  8
0
100
AcDbPolyline
 62
6
  6
CONTINUOUS
 90
12
 70
0
 10
6.3711115307
 20
5.2551421229
 10
6.3694332777
 20
5.253238135
 10
6.3666492584
 20
5.2498721439
 10
6.3643670154
 20
5.2469048806
 10
6.3625078339
 20
5.2443434095
 10
6.3609330431
 20
5.2420747903
 10
6.3595169435
 20
5.2399638628
 10
6.3581719032
 20
5.2379052676
 10
6.3568389561
 20
5.2358230173
 10
6.3554705757
 20
5.2336511967
 10
6.3540309314
 20
5.2313380252
 10
6.3508298738
 20
5.2261272667
  0
LINE
  5
267
100
AcDbEntity
  8
0
100
AcDbLine
 62
6
  6
CONTINUOUS
 10
6.3711115307
 20
5.2551421229
 11
6.37785318
 21
5.2619289445
  0
LINE
  5
268
100
AcDbEntity
  8
0
100
AcDbLine
 62
6
  6
CONTINUOUS
 10
6.0583482281
 20
4.8454458397
 11
6.0995262204
 21
4.886623956
  0
LINE
  5
269
100
AcDbEntity
  8
0
100
AcDbLine
 62
6
  6
CONTINUOUS
 10
5.1914476477
 20
3.9785452595
 11
5.1503161422
 21
3.9374138487
  0
LINE
  5
26A
100
AcDbEntity
  8
0
100
AcDbLine
 62
6
  6
CONTINUOUS
 10
4.7749663691
 20
3.6590421336
 11
4.781727314
 21
3.6657604219
  0
LINE
  5
26B
100
AcDbEntity
  8
0
100
AcDbLine
 62
7
  6
CONTINUOUS
 10
5.5353348248
 20
4.3646401754
 11
5.5224719242
 21
4.3520486787
  0
LWPOLYLINE
  5
26C
100
AcDbEntity
  8
0
100
AcDbPolyline
 62
6
  6
CONTINUOUS
 90
5
 70
0
 10
5.1503161422
 20
3.9374138487
 10
5.1330587293
 20
3.9205911103
 10
5.1127191619
 20
3.9017243627
 10
5.0912246941
 20
3.88274141
 10
5.0687574387
 20
3.8637982863
  0
LWPOLYLINE
  5
26D
100
AcDbEntity
  8
0
100
AcDbPolyline
 62
6
  6
CONTINUOUS
 90
12
 70
0
 10
4.7817531907
 20
4.9633371948
 10
4.7836571786
 20
4.9616589418
 10
4.7870231697
 20
4.9588749225
 10
4.789990433
 20
4.9565926795
 10
4.7925519042
 20
4.954733498
 10
4.7948205233
 20
4.9531587072
 10
4.7969314508
 20
4.9517426076
 10
4.798990046
 20
4.9503975673
 10
4.8010722963
 20
4.9490646202
 10
4.8032441169
 20
4.9476962398
 10
4.8055572884
 20
4.9462565955
 10
4.810768047
 20
4.9430555379
  0
LINE
  5
26E
100
AcDbEntity
  8
0
100
AcDbLine
 62
6
  6
CONTINUOUS
 10
4.7817531907
 20
4.9633371948
 11
4.7749663691
 21
4.9700788441
  0
LINE
  5
26F
100
AcDbEntity
  8
0
100
AcDbLine
 62
6
  6
CONTINUOUS
 10
5.1914445711
 20
4.6505787949
 11
5.1502713572
 21
4.691751885
  0
LINE
  5
270
100
AcDbEntity
  8
0
100
AcDbLine
 62
6
  6
CONTINUOUS
 10
6.0583503822
 20
3.7836729837
 11
6.0994813761
 21
3.7425418951
  0
LINE
  5
271
100
AcDbEntity
  8
0
100
AcDbLine
 62
6
  6
CONTINUOUS
 10
6.37785318
 20
3.3671920332
 11
6.3711349465
 21
3.3739529175
  0
LINE
  5
272
100
AcDbEntity
  8
0
100
AcDbLine
 62
7
  6
CONTINUOUS
 10
5.5158348248
 20
4.3845604888
 11
5.5353348248
 21
4.3646401754
  0
LWPOLYLINE
  5
273
100
AcDbEntity
  8
0
100
AcDbPolyline
 62
6
  6
CONTINUOUS
 90
5
 70
0
 10
6.0994813761
 20
3.7425418951
 10
6.1163309841
 20
3.7252562543
 10
6.1352251422
 20
3.7048849267
 10
6.1542354696
 20
3.6833557932
 10
6.1732052505
 20
3.6608518311
  0
LINE
  5
274
100
AcDbEntity
  8
0
100
AcDbLine
 62
7
  6
CONTINUOUS
 10
5.6483348248
 20
4.2445604888
 11
5.6026131935
 21
4.2985002991
  0
LINE
  5
275
100
AcDbEntity
  8
0
100
AcDbLine
 62
7
  6
CONTINUOUS
 10
5.7276475612
 20
3.9825604888
 11
5.7196102026
 21
4.0046429503
  0
LINE
  5
276
100
AcDbEntity
  8
0
100
AcDbLine
 62
7
  6
CONTINUOUS
 10
5.6883348248
 20
4.2645604888
 11
5.6883348248
 21
4.2445604888
  0
LINE
  5
277
100
AcDbEntity
  8
0
100
AcDbLine
 62
7
  6
CONTINUOUS
 10
5.6312864203
 20
3.984810978
 11
5.6366811967
 21
4.0101914053
  0
LINE
  5
278
100
AcDbEntity
  8
0
100
AcDbLine
 62
7
  6
CONTINUOUS
 10
5.6510847697
 20
4.015428342
 11
5.6466808305
 21
3.9947094369
  0
LINE
  5
279
100
AcDbEntity
  8
0
100
AcDbLine
 62
7
  6
CONTINUOUS
 10
5.594726039
 20
4.0353222433
 11
5.5886249893
 21
4.0216190614
  0
LINE
  5
27A
100
AcDbEntity
  8
0
100
AcDbLine
 62
7
  6
CONTINUOUS
 10
5.5845576229
 20
4.0124836068
 11
5.57642289
 21
3.9942126977
  0
LINE
  5
27B
100
AcDbEntity
  8
0
100
AcDbLine
 62
9
  6
CONTINUOUS
 10
5.1070853666
 20
3.4248080804
 11
5.1070860086
 21
3.4248091365
  0
LINE
  5
27C
100
AcDbEntity
  8
0
100
AcDbLine
 62
6
  6
CONTINUOUS
 10
5.0938650917
 20
3.4030242279
 11
5.1070853666
 21
3.4248080804
  0
LINE
  5
27D
100
AcDbEntity
  8
0
100
AcDbLine
 62
6
  6
CONTINUOUS
 10
5.1070860086
 20
3.4248091365
 11
5.1146505241
 21
3.4371685094
  0
LWPOLYLINE
  5
27E
100
AcDbEntity
  8
0
100
AcDbPolyline
 62
6
  6
CONTINUOUS
 90
5
 70
0
 10
5.1146505241
 20
3.4371685094
 10
5.1246318741
 20
3.4532527762
 10
5.1365574722
 20
3.4721633132
 10
5.1505443891
 20
3.4939184773
 10
5.1655266538
 20
3.5166920123
  0
LINE
  5
27F
100
AcDbEntity
  8
0
100
AcDbLine
 62
6
  6
CONTINUOUS
 10
5.1954030959
 20
3.5604126852
 11
5.186872436
 21
3.5481627224
  0
LINE
  5
280
100
AcDbEntity
  8
0
100
AcDbLine
 62
6
  6
CONTINUOUS
 10
6.2492665537
 20
5.0687082925
 11
6.2577962294
 21
5.0809568306
  0
LINE
  5
281
100
AcDbEntity
  8
0
100
AcDbLine
 62
9
  6
CONTINUOUS
 10
6.3424667032
 20
5.2109059208
 11
6.3376116289
 21
5.2043497164
  0
LINE
  5
282
100
AcDbEntity
  8
0
100
AcDbLine
 62
7
  6
CONTINUOUS
 10
5.9137678095
 20
4.5701412859
 11
5.9334946312
 21
4.5953904662
  0
LINE
  5
283
100
AcDbEntity
  8
0
100
AcDbLine
 62
7
  6
CONTINUOUS
 10
5.9437387709
 20
4.587386867
 11
5.9240119493
 21
4.5621376867
  0
LWPOLYLINE
  5
284
100
AcDbEntity
  8
0
100
AcDbPolyline
 62
6
  6
CONTINUOUS
 90
5
 70
0
 10
6.1770205523
 20
4.9729181858
 10
6.1571130768
 20
4.9491134405
 10
6.1371375362
 20
4.9263552567
 10
6.1172758663
 20
4.90485887
 10
6.0995263996
 20
4.8866241431
  0
LINE
  5
285
100
AcDbEntity
  8
0
100
AcDbLine
 62
9
  6
CONTINUOUS
 10
5.3281226356
 20
3.9203482997
 11
4.744052593
 21
3.3362782571
  0
LINE
  5
286
100
AcDbEntity
  8
0
100
AcDbLine
 62
9
  6
CONTINUOUS
 10
6.1165470141
 20
4.7087726782
 11
6.7006170565
 21
5.2928427206
  0
LINE
  5
287
100
AcDbEntity
  8
0
100
AcDbLine
 62
9
  6
CONTINUOUS
 10
4.8325824163
 20
3.6993110306
 11
4.8259893928
 21
3.6944286104
  0
LINE
  5
288
100
AcDbEntity
  8
0
100
AcDbLine
 62
6
  6
CONTINUOUS
 10
6.476478442
 20
4.8414893328
 11
6.4887419224
 21
4.8500298737
  0
LINE
  5
289
100
AcDbEntity
  8
0
100
AcDbLine
 62
6
  6
CONTINUOUS
 10
4.9681901607
 20
3.787630923
 11
4.9559261457
 21
3.7790900112
  0
LWPOLYLINE
  5
28A
100
AcDbEntity
  8
0
100
AcDbPolyline
 62
6
  6
CONTINUOUS
 90
4
 70
0
 10
6.5202032551
 20
4.8713687302
 10
6.5429849515
 20
4.8863565701
 10
6.5647473088
 20
4.9003485955
 10
6.5836655825
 20
4.9122798986
  0
LWPOLYLINE
  5
28B
100
AcDbEntity
  8
0
100
AcDbPolyline
 62
6
  6
CONTINUOUS
 90
10
 70
0
 10
6.6414255326
 20
4.9476962398
 10
6.6435973532
 20
4.9490646202
 10
6.6456796035
 20
4.9503975673
 10
6.6477381987
 20
4.9517426076
 10
6.6498491262
 20
4.9531587072
 10
6.6521177454
 20
4.954733498
 10
6.6546792165
 20
4.9565926795
 10
6.6576464798
 20
4.9588749225
 10
6.6610124709
 20
4.9616589418
 10
6.6629164582
 20
4.9633371942
  0
LINE
  5
28C
100
AcDbEntity
  8
0
100
AcDbLine
 62
6
  6
CONTINUOUS
 10
6.5836655825
 20
4.9122798986
 11
6.5997575331
 21
4.9222671668
  0
LINE
  5
28D
100
AcDbEntity
  8
0
100
AcDbLine
 62
6
  6
CONTINUOUS
 10
6.6366168344
 20
4.9447179649
 11
6.6414255326
 21
4.9476962398
  0
LINE
  5
28E
100
AcDbEntity
  8
0
100
AcDbLine
 62
9
  6
CONTINUOUS
 10
6.6121229666
 20
4.9298366329
 11
6.6121240523
 21
4.929837293
  0
LINE
  5
28F
100
AcDbEntity
  8
0
100
AcDbLine
 62
6
  6
CONTINUOUS
 10
6.6276726977
 20
4.9392672557
 11
6.6366168344
 21
4.9447179649
  0
LINE
  5
290
100
AcDbEntity
  8
0
100
AcDbLine
 62
6
  6
CONTINUOUS
 10
6.5997575331
 20
4.9222671668
 11
6.6201740972
 21
4.934722816
  0
LINE
  5
291
100
AcDbEntity
  8
0
100
AcDbLine
 62
6
  6
CONTINUOUS
 10
6.6201740972
 20
4.934722816
 11
6.6276726977
 21
4.9392672557
  0
LINE
  5
292
100
AcDbEntity
  8
0
100
AcDbLine
 62
7
  6
CONTINUOUS
 10
5.9823348248
 20
4.2445604888
 11
5.9123348248
 21
4.2445604888
  0
LINE
  5
293
100
AcDbEntity
  8
0
100
AcDbLine
 62
7
  6
CONTINUOUS
 10
5.9023348248
 20
4.2445604888
 11
5.8373348248
 21
4.2445604888
  0
LINE
  5
294
100
AcDbEntity
  8
0
100
AcDbLine
 62
7
  6
CONTINUOUS
 10
5.6883348248
 20
4.2445604888
 11
5.6483348248
 21
4.2445604888
  0
LINE
  5
295
100
AcDbEntity
  8
0
100
AcDbLine
 62
7
  6
CONTINUOUS
 10
5.6033348248
 20
4.2445604888
 11
5.5483348248
 21
4.2445604888
  0
LINE
  5
296
100
AcDbEntity
  8
0
100
AcDbLine
 62
7
  6
CONTINUOUS
 10
5.4703348248
 20
4.2445604888
 11
5.4053348248
 21
4.2445604888
  0
LINE
  5
297
100
AcDbEntity
  8
0
100
AcDbLine
 62
7
  6
CONTINUOUS
 10
5.9623348248
 20
4.2645604888
 11
5.9823348248
 21
4.2645604888
  0
LINE
  5
298
100
AcDbEntity
  8
0
100
AcDbLine
 62
7
  6
CONTINUOUS
 10
5.4933348248
 20
4.2895604888
 11
5.4803348248
 21
4.2895604888
  0
LINE
  5
299
100
AcDbEntity
  8
0
100
AcDbLine
 62
7
  6
CONTINUOUS
 10
5.6003247145
 20
4.2995604888
 11
5.5938348248
 21
4.2995604888
  0
LINE
  5
29A
100
AcDbEntity
  8
0
100
AcDbLine
 62
7
  6
CONTINUOUS
 10
5.4703348248
 20
4.3065604888
 11
5.4618348248
 21
4.3065604888
  0
LINE
  5
29B
100
AcDbEntity
  8
0
100
AcDbLine
 62
7
  6
CONTINUOUS
 10
5.5938348248
 20
4.3155604888
 11
5.6213348248
 21
4.3155604888
  0
LINE
  5
29C
100
AcDbEntity
  8
0
100
AcDbLine
 62
7
  6
CONTINUOUS
 10
5.4618348248
 20
4.3225604888
 11
5.4703348248
 21
4.3225604888
  0
LINE
  5
29D
100
AcDbEntity
  8
0
100
AcDbLine
 62
9
  6
CONTINUOUS
 10
6.6120871641
 20
3.6993110838
 11
6.6120861081
 21
3.6993117258
  0
LINE
  5
29E
100
AcDbEntity
  8
0
100
AcDbLine
 62
6
  6
CONTINUOUS
 10
6.6338710641
 20
3.6860907816
 11
6.6120871641
 21
3.6993110838
  0
LINE
  5
29F
100
AcDbEntity
  8
0
100
AcDbLine
 62
6
  6
CONTINUOUS
 10
6.6120861081
 20
3.6993117258
 11
6.5997267387
 21
3.7068762367
  0
LWPOLYLINE
  5
2A0
100
AcDbEntity
  8
0
100
AcDbPolyline
 62
6
  6
CONTINUOUS
 90
5
 70
0
 10
6.5997267387
 20
3.7068762367
 10
6.5836424839
 20
3.7168575768
 10
6.5647319628
 20
3.7287831628
 10
6.5429768157
 20
3.7427700675
 10
6.520203174
 20
3.757752402
  0
LINE
  5
2A1
100
AcDbEntity
  8
0
100
AcDbLine
 62
6
  6
CONTINUOUS
 10
6.4764826284
 20
3.7876287599
 11
6.48873238
 21
3.7790982457
  0
LINE
  5
2A2
100
AcDbEntity
  8
0
100
AcDbLine
 62
6
  6
CONTINUOUS
 10
4.9681870211
 20
4.8414922178
 11
4.9559384828
 21
4.8500218936
  0
LINE
  5
2A3
100
AcDbEntity
  8
0
100
AcDbLine
 62
7
  6
CONTINUOUS
 10
5.6308348248
 20
4.3009221652
 11
5.6734904893
 21
4.2694446815
  0
LINE
  5
2A4
100
AcDbEntity
  8
0
100
AcDbLine
 62
9
  6
CONTINUOUS
 10
4.8259893928
 20
4.9346923673
 11
4.8325455973
 21
4.929837293
  0
LWPOLYLINE
  5
2A5
100
AcDbEntity
  8
0
100
AcDbPolyline
 62
6
  6
CONTINUOUS
 90
5
 70
0
 10
5.0639771847
 20
4.7692461699
 10
5.0877819141
 20
4.7493387058
 10
5.1105400829
 20
4.7293631769
 10
5.1320364558
 20
4.7095015189
 10
5.15027117
 20
4.6917520641
  0
LINE
  5
2A6
100
AcDbEntity
  8
0
100
AcDbLine
 62
9
  6
CONTINUOUS
 10
5.3281226354
 20
4.7087726782
 11
4.744052593
 21
5.2928427206
  0
LINE
  5
2A7
100
AcDbEntity
  8
0
100
AcDbLine
 62
9
  6
CONTINUOUS
 10
6.1165470146
 20
3.920348299
 11
6.7006170565
 21
3.3362782571
  0
LINE
  5
2A8
100
AcDbEntity
  8
0
100
AcDbLine
 62
9
  6
CONTINUOUS
 10
6.3375842298
 20
3.4248081495
 11
6.3424667032
 21
3.4182150569
  0
LINE
  5
2A9
100
AcDbEntity
  8
0
100
AcDbLine
 62
6
  6
CONTINUOUS
 10
5.1954059818
 20
5.0687041047
 11
5.1868654407
 21
5.0809675854
  0
LINE
  5
2AA
100
AcDbEntity
  8
0
100
AcDbLine
 62
6
  6
CONTINUOUS
 10
6.249263994
 20
3.5604163999
 11
6.2578049681
 21
3.5481522936
  0
LWPOLYLINE
  5
2AB
100
AcDbEntity
  8
0
100
AcDbPolyline
 62
6
  6
CONTINUOUS
 90
4
 70
0
 10
5.1655265834
 20
5.1124289192
 10
5.1505387435
 20
5.1352106156
 10
5.1365467181
 20
5.1569729729
 10
5.124615415
 20
5.1758912466
  0
LWPOLYLINE
  5
2AC
100
AcDbEntity
  8
0
100
AcDbPolyline
 62
6
  6
CONTINUOUS
 90
10
 70
0
 10
5.0891990738
 20
5.2336511967
 10
5.0878306934
 20
5.2358230173
 10
5.0864977463
 20
5.2379052676
 10
5.085152706
 20
5.2399638628
 10
5.0837366064
 20
5.2420747903
 10
5.0821618156
 20
5.2443434095
 10
5.0803026341
 20
5.2469048806
 10
5.0780203912
 20
5.2498721439
 10
5.0752363718
 20
5.253238135
 10
5.0735581194
 20
5.2551421223
  0
LINE
  5
2AD
100
AcDbEntity
  8
0
100
AcDbLine
 62
6
  6
CONTINUOUS
 10
5.124615415
 20
5.1758912466
 11
5.1146281468
 21
5.1919831971
  0
LINE
  5
2AE
100
AcDbEntity
  8
0
100
AcDbLine
 62
6
  6
CONTINUOUS
 10
5.0921773487
 20
5.2288424985
 11
5.0891990738
 21
5.2336511967
  0
LINE
  5
2AF
100
AcDbEntity
  8
0
100
AcDbLine
 62
9
  6
CONTINUOUS
 10
5.1070586807
 20
5.2043486307
 11
5.1070580206
 21
5.2043497164
  0
LINE
  5
2B0
100
AcDbEntity
  8
0
100
AcDbLine
 62
6
  6
CONTINUOUS
 10
5.0976280579
 20
5.2198983618
 11
5.0921773487
 21
5.2288424985
  0
LINE
  5
2B1
100
AcDbEntity
  8
0
100
AcDbLine
 62
6
  6
CONTINUOUS
 10
5.1146281468
 20
5.1919831971
 11
5.1021724976
 21
5.2123997613
  0
LINE
  5
2B2
100
AcDbEntity
  8
0
100
AcDbLine
 62
6
  6
CONTINUOUS
 10
5.1021724976
 20
5.2123997613
 11
5.0976280579
 21
5.2198983618
  0
LINE
  5
2B3
100
AcDbEntity
  8
0
100
AcDbLine
 62
7
  6
CONTINUOUS
 10
5.8373348248
 20
4.2445604888
 11
5.8373348248
 21
4.2645604888
  0
LINE
  5
2B4
100
AcDbEntity
  8
0
100
AcDbLine
 62
7
  6
CONTINUOUS
 10
5.8373348248
 20
4.3695604888
 11
5.8373348248
 21
4.3845604888
  0
LINE
  5
2B5
100
AcDbEntity
  8
0
100
AcDbLine
 62
7
  6
CONTINUOUS
 10
5.7196102026
 20
4.0046429503
 11
5.7115728439
 21
3.9825604888
  0
LINE
  5
2B6
100
AcDbEntity
  8
0
100
AcDbLine
 62
9
  6
CONTINUOUS
 10
6.3376116289
 20
5.2043497164
 11
6.3376109688
 21
5.2043486307
  0
LINE
  5
2B7
100
AcDbEntity
  8
0
100
AcDbLine
 62
6
  6
CONTINUOUS
 10
6.3508298738
 20
5.2261272667
 11
6.3376116289
 21
5.2043497164
  0
LINE
  5
2B8
100
AcDbEntity
  8
0
100
AcDbLine
 62
6
  6
CONTINUOUS
 10
6.3376109688
 20
5.2043486307
 11
6.3300415027
 21
5.1919831971
  0
LWPOLYLINE
  5
2B9
100
AcDbEntity
  8
0
100
AcDbPolyline
 62
6
  6
CONTINUOUS
 90
5
 70
0
 10
6.3300415027
 20
5.1919831971
 10
6.3200542346
 20
5.1758912466
 10
6.3081229314
 20
5.1569729729
 10
6.294130906
 20
5.1352106156
 10
6.2791429822
 20
5.1124287917
  0
LINE
  5
2BA
100
AcDbEntity
  8
0
100
AcDbLine
 62
9
  6
CONTINUOUS
 10
5.1022029463
 20
3.4182150569
 11
5.1070853666
 21
3.4248080804
  0
LWPOLYLINE
  5
2BB
100
AcDbEntity
  8
0
100
AcDbPolyline
 62
6
  6
CONTINUOUS
 90
5
 70
0
 10
5.2679125248
 20
3.6565251038
 10
5.2877547545
 20
3.6802388837
 10
5.3076633384
 20
3.702911471
 10
5.3274583033
 20
3.7243300743
 10
5.3451506332
 20
3.7425042243
  0
LINE
  5
2BC
100
AcDbEntity
  8
0
100
AcDbLine
 62
9
  6
CONTINUOUS
 10
6.6121240523
 20
4.929837293
 11
6.6186802567
 21
4.9346923673
  0
LWPOLYLINE
  5
2BD
100
AcDbEntity
  8
0
100
AcDbPolyline
 62
6
  6
CONTINUOUS
 90
4
 70
0
 10
4.9244663482
 20
3.7577523179
 10
4.9016928132
 20
3.7427700531
 10
4.8799376491
 20
3.7287831363
 10
4.8610271121
 20
3.7168575382
  0
LWPOLYLINE
  5
2BE
100
AcDbEntity
  8
0
100
AcDbPolyline
 62
6
  6
CONTINUOUS
 90
10
 70
0
 10
4.8032580455
 20
3.681439252
 10
4.8010788717
 20
3.6800657696
 10
4.7989885482
 20
3.6787270142
 10
4.7969214246
 20
3.6773755531
 10
4.794801924
 20
3.67595259
 10
4.792525599
 20
3.6743709919
 10
4.7899590744
 20
3.6725062537
 10
4.7869920205
 20
3.6702218942
 10
4.7836314329
 20
3.6674399971
 10
4.781727314
 20
3.6657604219
  0
LINE
  5
2BF
100
AcDbEntity
  8
0
100
AcDbLine
 62
6
  6
CONTINUOUS
 10
4.8610271121
 20
3.7168575382
 11
4.8449428453
 21
3.7068761881
  0
LINE
  5
2C0
100
AcDbEntity
  8
0
100
AcDbLine
 62
6
  6
CONTINUOUS
 10
4.8080787887
 20
3.6844254928
 11
4.8032580455
 21
3.681439252
  0
LINE
  5
2C1
100
AcDbEntity
  8
0
100
AcDbLine
 62
9
  6
CONTINUOUS
 10
4.8325834724
 20
3.6993116727
 11
4.8325824163
 21
3.6993110306
  0
LINE
  5
2C2
100
AcDbEntity
  8
0
100
AcDbLine
 62
6
  6
CONTINUOUS
 10
4.8170334502
 20
3.6898824292
 11
4.8080787887
 21
3.6844254928
  0
LINE
  5
2C3
100
AcDbEntity
  8
0
100
AcDbLine
 62
6
  6
CONTINUOUS
 10
4.8449428453
 20
3.7068761881
 11
4.8245338949
 21
3.6944273187
  0
LINE
  5
2C4
100
AcDbEntity
  8
0
100
AcDbLine
 62
6
  6
CONTINUOUS
 10
4.8245338949
 20
3.6944273187
 11
4.8170334502
 21
3.6898824292
  0
LINE
  5
2C5
100
AcDbEntity
  8
0
100
AcDbLine
 62
7
  6
CONTINUOUS
 10
5.4803348248
 20
4.3395604888
 11
5.4933348248
 21
4.3395604888
  0
LINE
  5
2C6
100
AcDbEntity
  8
0
100
AcDbLine
 62
7
  6
CONTINUOUS
 10
5.5046067845
 20
4.3595604888
 11
5.4568348248
 21
4.3595604888
  0
LINE
  5
2C7
100
AcDbEntity
  8
0
100
AcDbLine
 62
7
  6
CONTINUOUS
 10
5.9823348248
 20
4.3695604888
 11
5.9623348248
 21
4.3695604888
  0
LINE
  5
2C8
100
AcDbEntity
  8
0
100
AcDbLine
 62
7
  6
CONTINUOUS
 10
5.6213348248
 20
4.3695604888
 11
5.5938348248
 21
4.3695604888
  0
LINE
  5
2C9
100
AcDbEntity
  8
0
100
AcDbLine
 62
7
  6
CONTINUOUS
 10
5.4088348248
 20
4.3845604888
 11
5.5158348248
 21
4.3845604888
  0
LINE
  5
2CA
100
AcDbEntity
  8
0
100
AcDbLine
 62
7
  6
CONTINUOUS
 10
5.5483348248
 20
4.3845604888
 11
5.6363348248
 21
4.3845604888
  0
LINE
  5
2CB
100
AcDbEntity
  8
0
100
AcDbLine
 62
7
  6
CONTINUOUS
 10
5.8373348248
 20
4.3845604888
 11
5.9023348248
 21
4.3845604888
  0
LINE
  5
2CC
100
AcDbEntity
  8
0
100
AcDbLine
 62
7
  6
CONTINUOUS
 10
5.9123348248
 20
4.3845604888
 11
5.9823348248
 21
4.3845604888
  0
LINE
  5
2CD
100
AcDbEntity
  8
0
100
AcDbLine
 62
9
  6
CONTINUOUS
 10
4.8325455973
 20
4.929837293
 11
4.8325466829
 21
4.9298366329
  0
LINE
  5
2CE
100
AcDbEntity
  8
0
100
AcDbLine
 62
6
  6
CONTINUOUS
 10
4.810768047
 20
4.9430555379
 11
4.8325455973
 21
4.929837293
  0
LINE
  5
2CF
100
AcDbEntity
  8
0
100
AcDbLine
 62
6
  6
CONTINUOUS
 10
4.8325466829
 20
4.9298366329
 11
4.8449121165
 21
4.9222671668
  0
LWPOLYLINE
  5
2D0
100
AcDbEntity
  8
0
100
AcDbPolyline
 62
6
  6
CONTINUOUS
 90
5
 70
0
 10
4.8449121165
 20
4.9222671668
 10
4.8610040671
 20
4.9122798986
 10
4.8799223407
 20
4.9003485955
 10
4.901684698
 20
4.8863565701
 10
4.9244665219
 20
4.8713686463
  0
LINE
  5
2D1
100
AcDbEntity
  8
0
100
AcDbLine
 62
9
  6
CONTINUOUS
 10
6.6186802567
 20
3.6944286104
 11
6.6120871641
 21
3.6993110838
  0
LWPOLYLINE
  5
2D2
100
AcDbEntity
  8
0
100
AcDbPolyline
 62
6
  6
CONTINUOUS
 90
5
 70
0
 10
6.3804385599
 20
3.8600823137
 10
6.3567056737
 20
3.8799382263
 10
6.3340150114
 20
3.8998609363
 10
6.3125798552
 20
3.9196700918
 10
6.2943923013
 20
3.9373750863
  0
LINE
  5
2D3
100
AcDbEntity
  8
0
100
AcDbLine
 62
9
  6
CONTINUOUS
 10
5.1070580206
 20
5.2043497164
 11
5.1022029463
 21
5.2109059208
  0
LINE
  5
2D4
100
AcDbEntity
  8
0
100
AcDbLine
 62
7
  6
CONTINUOUS
 10
5.5418803752
 20
4.6054672711
 11
5.556477428
 21
4.5853761515
  0
LWPOLYLINE
  5
2D5
100
AcDbEntity
  8
0
100
AcDbPolyline
 62
6
  6
CONTINUOUS
 90
4
 70
0
 10
6.2791429956
 20
3.5166920121
 10
6.2941252461
 20
3.4939184979
 10
6.3081121508
 20
3.4721633508
 10
6.3200377369
 20
3.4532528297
  0
LWPOLYLINE
  5
2D6
100
AcDbEntity
  8
0
100
AcDbPolyline
 62
6
  6
CONTINUOUS
 90
10
 70
0
 10
6.3554560629
 20
3.3954836915
 10
6.3568295543
 20
3.3933045057
 10
6.3581683183
 20
3.3912141714
 10
6.3595197873
 20
3.3891470386
 10
6.3609427581
 20
3.38702753
 10
6.3625243634
 20
3.3847511988
 10
6.3643891072
 20
3.3821846717
 10
6.3666734672
 20
3.379217623
 10
6.3694553615
 20
3.3758570445
 10
6.3711349465
 20
3.3739529175
  0
LINE
  5
2D7
100
AcDbEntity
  8
0
100
AcDbLine
 62
6
  6
CONTINUOUS
 10
6.3200377369
 20
3.4532528297
 11
6.3300190769
 21
3.4371685749
  0
LINE
  5
2D8
100
AcDbEntity
  8
0
100
AcDbLine
 62
6
  6
CONTINUOUS
 10
6.3524698037
 20
3.4003044611
 11
6.3554560629
 21
3.3954836915
  0
LINE
  5
2D9
100
AcDbEntity
  8
0
100
AcDbLine
 62
9
  6
CONTINUOUS
 10
6.3375835878
 20
3.4248092055
 11
6.3375842298
 21
3.4248081495
  0
LINE
  5
2DA
100
AcDbEntity
  8
0
100
AcDbLine
 62
6
  6
CONTINUOUS
 10
6.3470128437
 20
3.4092591596
 11
6.3524698037
 21
3.4003044611
  0
LINE
  5
2DB
100
AcDbEntity
  8
0
100
AcDbLine
 62
6
  6
CONTINUOUS
 10
6.3300190769
 20
3.4371685749
 11
6.3424679447
 21
3.4167596209
  0
LINE
  5
2DC
100
AcDbEntity
  8
0
100
AcDbLine
 62
6
  6
CONTINUOUS
 10
6.3424679447
 20
3.4167596209
 11
6.3470128437
 21
3.4092591596
  0
LINE
  5
2DD
100
AcDbEntity
  8
0
100
AcDbLine
 62
7
  6
CONTINUOUS
 10
5.6631405966
 20
4.6068996516
 11
5.6348442318
 21
4.6536050308
  0
LINE
  5
2DE
100
AcDbEntity
  8
0
100
AcDbLine
 62
7
  6
CONTINUOUS
 10
5.651055336
 20
4.6519356769
 11
5.6629429204
 21
4.6323142824
  0
LINE
  5
2DF
100
AcDbEntity
  8
0
100
AcDbLine
 62
7
  6
CONTINUOUS
 10
5.8548348248
 20
4.2884089689
 11
5.8548348248
 21
4.3457120088
  0
LINE
  5
2E0
100
AcDbEntity
  8
0
100
AcDbLine
 62
7
  6
CONTINUOUS
 10
5.8848348248
 20
4.3457120088
 11
5.8848348248
 21
4.2884089689
  0
LINE
  5
2E1
100
AcDbEntity
  8
0
100
AcDbLine
 62
7
  6
CONTINUOUS
 10
5.9023348248
 20
4.3845604888
 11
5.9023348248
 21
4.3695604888
  0
LINE
  5
2E2
100
AcDbEntity
  8
0
100
AcDbLine
 62
7
  6
CONTINUOUS
 10
5.9023348248
 20
4.2645604888
 11
5.9023348248
 21
4.2445604888
  0
LINE
  5
2E3
100
AcDbEntity
  8
0
100
AcDbLine
 62
7
  6
CONTINUOUS
 10
5.9123348248
 20
4.2445604888
 11
5.9123348248
 21
4.2645604888
  0
LINE
  5
2E4
100
AcDbEntity
  8
0
100
AcDbLine
 62
7
  6
CONTINUOUS
 10
5.9123348248
 20
4.3695604888
 11
5.9123348248
 21
4.3845604888
  0
LINE
  5
2E5
100
AcDbEntity
  8
0
100
AcDbLine
 62
7
  6
CONTINUOUS
 10
5.9203348248
 20
4.277826988
 11
5.9203348248
 21
4.3562939897
  0
LINE
  5
2E6
100
AcDbEntity
  8
0
100
AcDbLine
 62
7
  6
CONTINUOUS
 10
5.9573348248
 20
4.2695604888
 11
5.9573348248
 21
4.3645604888
  0
LWPOLYLINE
  5
2E7
100
AcDbEntity
  8
0
100
AcDbPolyline
 62
6
  6
CONTINUOUS
 90
12
 70
0
 10
5.0735347565
 20
3.3739529767
 10
5.075214333
 20
3.375857097
 10
5.0779962301
 20
3.3792176846
 10
5.0802805897
 20
3.3821847385
 10
5.0821453278
 20
3.384751263
 10
5.0837269259
 20
3.387027588
 10
5.085149889
 20
3.3891470887
 10
5.0865013501
 20
3.3912142123
 10
5.0878401055
 20
3.3933045358
 10
5.089213588
 20
3.3954837096
 10
5.0906575944
 20
3.3978033769
 10
5.0938650917
 20
3.4030242279
  0
LINE
  5
2E8
100
AcDbEntity
  8
0
100
AcDbLine
 62
6
  6
CONTINUOUS
 10
5.0735347565
 20
3.3739529767
 11
5.0668164695
 21
3.3671920332
  0
LINE
  5
2E9
100
AcDbEntity
  8
0
100
AcDbLine
 62
6
  6
CONTINUOUS
 10
5.3863117194
 20
3.7836654359
 11
5.3451508072
 21
3.7425044058
  0
LINE
  5
2EA
100
AcDbEntity
  8
0
100
AcDbLine
 62
6
  6
CONTINUOUS
 10
6.2532218924
 20
4.6505756089
 11
6.2943579309
 21
4.6917115492
  0
LINE
  5
2EB
100
AcDbEntity
  8
0
100
AcDbLine
 62
6
  6
CONTINUOUS
 10
6.6697032804
 20
4.9700788441
 11
6.6629164582
 21
4.9633371942
  0
LWPOLYLINE
  5
2EC
100
AcDbEntity
  8
0
100
AcDbPolyline
 62
6
  6
CONTINUOUS
 90
5
 70
0
 10
6.2943579309
 20
4.6917115492
 10
6.3117015891
 20
4.7086161531
 10
6.3321440798
 20
4.7275717325
 10
6.353751356
 20
4.7466437912
 10
6.3763383752
 20
4.7656739348
  0
LINE
  5
2ED
100
AcDbEntity
  8
0
100
AcDbLine
 62
7
  6
CONTINUOUS
 10
5.5008233152
 20
4.5973713606
 11
5.5516233261
 21
4.58184944
  0
LWPOLYLINE
  5
2EE
100
AcDbEntity
  8
0
100
AcDbPolyline
 62
6
  6
CONTINUOUS
 90
12
 70
0
 10
6.6629423968
 20
3.6657603665
 10
6.6610382691
 20
3.6674399522
 10
6.6576776906
 20
3.6702218465
 10
6.6547106419
 20
3.6725062064
 10
6.6521441148
 20
3.6743709502
 10
6.6498677836
 20
3.6759525555
 10
6.647748275
 20
3.6773755263
 10
6.6456811422
 20
3.6787269954
 10
6.643590808
 20
3.6800657593
 10
6.6414116221
 20
3.6814392507
 10
6.6390919418
 20
3.6828832664
 10
6.6338710641
 20
3.6860907816
  0
LINE
  5
2EF
100
AcDbEntity
  8
0
100
AcDbLine
 62
6
  6
CONTINUOUS
 10
6.6629423968
 20
3.6657603665
 11
6.6697032804
 21
3.6590421336
  0
LINE
  5
2F0
100
AcDbEntity
  8
0
100
AcDbLine
 62
6
  6
CONTINUOUS
 10
6.2532175448
 20
3.9785497164
 11
6.2943921126
 21
3.9373752674
  0
LINE
  5
2F1
100
AcDbEntity
  8
0
100
AcDbLine
 62
6
  6
CONTINUOUS
 10
5.3863194032
 20
4.845447858
 11
5.3451837656
 21
4.8865835938
  0
LINE
  5
2F2
100
AcDbEntity
  8
0
100
AcDbLine
 62
6
  6
CONTINUOUS
 10
5.0668164695
 20
5.2619289445
 11
5.0735581194
 21
5.2551421223
  0
LWPOLYLINE
  5
2F3
100
AcDbEntity
  8
0
100
AcDbPolyline
 62
6
  6
CONTINUOUS
 90
5
 70
0
 10
5.3451837656
 20
4.8865835938
 10
5.3282791074
 20
4.9039273091
 10
5.3093234736
 20
4.9243698628
 10
5.2902513605
 20
4.9459772079
 10
5.271221164
 20
4.9685642999
  0
LINE
  5
2F4
100
AcDbEntity
  8
0
100
AcDbLine
 62
7
  6
CONTINUOUS
 10
5.6706408341
 20
4.6651100532
 11
5.6880964356
 21
4.6362982078
  0
LINE
  5
2F5
100
AcDbEntity
  8
0
100
AcDbLine
 62
6
  6
CONTINUOUS
 10
6.6885770746
 20
4.9930827957
 11
6.6697032804
 21
4.9700788441
  0
LINE
  5
2F6
100
AcDbEntity
  8
0
100
AcDbLine
 62
6
  6
CONTINUOUS
 10
5.0668164695
 20
3.3671920332
 11
5.0438149936
 21
3.3483200593
  0
LINE
  5
2F7
100
AcDbEntity
  8
0
100
AcDbLine
 62
7
  6
CONTINUOUS
 10
5.8848655893
 20
4.5679569186
 11
5.8695860905
 21
4.5754092281
  0
LINE
  5
2F8
100
AcDbEntity
  8
0
100
AcDbLine
 62
7
  6
CONTINUOUS
 10
5.8525090036
 20
4.5837382798
 11
5.8309379465
 21
4.5942591874
  0
LINE
  5
2F9
100
AcDbEntity
  8
0
100
AcDbLine
 62
7
  6
CONTINUOUS
 10
5.9166617457
 20
4.542172105
 11
5.8961734661
 21
4.5581793034
  0
LINE
  5
2FA
100
AcDbEntity
  8
0
100
AcDbLine
 62
6
  6
CONTINUOUS
 10
5.0438125298
 20
5.2808027299
 11
5.0668164695
 21
5.2619289445
  0
LINE
  5
2FB
100
AcDbEntity
  8
0
100
AcDbLine
 62
6
  6
CONTINUOUS
 10
6.6697032804
 20
3.6590421336
 11
6.6885685328
 21
3.6360498087
  0
LWPOLYLINE
  5
2FC
100
AcDbEntity
  8
0
100
AcDbPolyline
 62
6
  6
CONTINUOUS
 90
6
 70
0
 10
6.6884679555
 20
4.9928950057
 10
6.6990939173
 20
5.0082882927
 10
6.7125229257
 20
5.031488767
 10
6.7238730212
 20
5.056358062
 10
6.7328199909
 20
5.0824947188
 10
6.7390685936
 20
5.109537439
  0
LWPOLYLINE
  5
2FD
100
AcDbEntity
  8
0
100
AcDbPolyline
 62
6
  6
CONTINUOUS
 90
6
 70
0
 10
5.0440003078
 20
5.2806936196
 10
5.028607021
 20
5.2913195813
 10
5.0054065467
 20
5.3047485897
 10
4.9805372517
 20
5.3160986852
 10
4.9544005949
 20
5.325045655
 10
4.9273578747
 20
5.3312942577
  0
LWPOLYLINE
  5
2FE
100
AcDbEntity
  8
0
100
AcDbPolyline
 62
6
  6
CONTINUOUS
 90
4
 70
0
 10
5.9504821756
 20
3.8056856238
 10
5.9573221177
 20
3.8082545472
 10
5.9685417597
 20
3.8111208257
 10
5.980525382
 20
3.8127083553
  0
LWPOLYLINE
  5
2FF
100
AcDbEntity
  8
0
100
AcDbPolyline
 62
6
  6
CONTINUOUS
 90
4
 70
0
 10
5.9982249244
 20
4.816719588
 10
5.9851025532
 20
4.8161900163
 10
5.9716896454
 20
4.8174380837
 10
5.9590667611
 20
4.8203268735
  0
LINE
  5
300
100
AcDbEntity
  8
0
100
AcDbLine
 62
6
  6
CONTINUOUS
 10
5.9590667611
 20
4.8203268735
 11
5.9475436335
 21
4.8245483641
  0
LINE
  5
301
100
AcDbEntity
  8
0
100
AcDbLine
 62
6
  6
CONTINUOUS
 10
6.2323714411
 20
4.5396656289
 11
6.2288392745
 21
4.548933528
  0
LWPOLYLINE
  5
302
100
AcDbEntity
  8
0
100
AcDbPolyline
 62
6
  6
CONTINUOUS
 90
4
 70
0
 10
6.2288392745
 20
4.548933528
 10
6.2259671165
 20
4.5598061036
 10
6.2242791539
 20
4.5715649366
 10
6.223959198
 20
4.5776125268
  0
LINE
  5
303
100
AcDbEntity
  8
0
100
AcDbLine
 62
9
  6
CONTINUOUS
 10
6.294102353
 20
3.9376649082
 11
6.0992304055
 21
3.7427929606
  0
LINE
  5
304
100
AcDbEntity
  8
0
100
AcDbLine
 62
9
  6
CONTINUOUS
 10
6.0992304055
 20
4.8863280171
 11
6.294102353
 21
4.6914560695
  0
LWPOLYLINE
  5
305
100
AcDbEntity
  8
0
100
AcDbPolyline
 62
6
  6
CONTINUOUS
 90
6
 70
0
 10
6.7409868648
 20
5.1245825075
 10
6.7422781779
 20
5.1374978033
 10
6.7431088613
 20
5.160094267
 10
6.742138171
 20
5.1826144671
 10
6.7393996044
 20
5.2048203706
 10
6.7349607986
 20
5.2264923032
  0
LWPOLYLINE
  5
306
100
AcDbEntity
  8
0
100
AcDbPolyline
 62
6
  6
CONTINUOUS
 90
3
 70
0
 10
6.7390685936
 20
5.109537439
 10
6.7426014841
 20
5.1372460509
 10
6.7433192789
 20
5.1651442423
  0
LWPOLYLINE
  5
307
100
AcDbEntity
  8
0
100
AcDbPolyline
 62
6
  6
CONTINUOUS
 90
7
 70
0
 10
6.5449367299
 20
5.3348206909
 10
6.5172445381
 20
5.3312822514
 10
6.4902205152
 20
5.32503176
 10
6.4641031662
 20
5.3160870152
 10
6.4392494769
 20
5.3047415549
 10
6.4160591481
 20
5.2913173391
 10
6.4006685178
 20
5.2806930117
  0
LWPOLYLINE
  5
308
100
AcDbEntity
  8
0
100
AcDbPolyline
 62
6
  6
CONTINUOUS
 90
6
 70
0
 10
4.9123128065
 20
5.3332125288
 10
4.8993975104
 20
5.334503842
 10
4.8768010467
 20
5.3353345254
 10
4.8542808465
 20
5.3343638351
 10
4.832074943
 20
5.3316252685
 10
4.8104030105
 20
5.3271864627
  0
LWPOLYLINE
  5
309
100
AcDbEntity
  8
0
100
AcDbPolyline
 62
6
  6
CONTINUOUS
 90
3
 70
0
 10
4.9273578747
 20
5.3312942577
 10
4.8996492627
 20
5.3348271481
 10
4.8717510714
 20
5.3355449429
  0
LWPOLYLINE
  5
30A
100
AcDbEntity
  8
0
100
AcDbPolyline
 62
6
  6
CONTINUOUS
 90
7
 70
0
 10
6.742595072
 20
3.4919579997
 10
6.7390567152
 20
3.5196500603
 10
6.7328063354
 20
3.546673962
 10
6.7238617298
 20
3.5727911991
 10
6.7125164262
 20
3.5976447998
 10
6.6990923867
 20
3.6208350608
 10
6.68846806
 20
3.6362258304
  0
LINE
  5
30B
100
AcDbEntity
  8
0
100
AcDbLine
 62
6
  6
CONTINUOUS
 10
6.7433192789
 20
5.1651442423
 11
6.7414592135
 21
5.1912608681
  0
LWPOLYLINE
  5
30C
100
AcDbEntity
  8
0
100
AcDbPolyline
 62
6
  6
CONTINUOUS
 90
3
 70
0
 10
6.7414701019
 20
3.4379530608
 10
6.7433216362
 20
3.4640714485
 10
6.742595072
 20
3.4919579997
  0
LINE
  5
30D
100
AcDbEntity
  8
0
100
AcDbLine
 62
6
  6
CONTINUOUS
 10
4.8717510714
 20
5.3355449429
 11
4.8456344455
 21
5.3336848775
  0
LWPOLYLINE
  5
30E
100
AcDbEntity
  8
0
100
AcDbPolyline
 62
6
  6
CONTINUOUS
 90
3
 70
0
 10
6.5989419814
 20
5.3336957978
 10
6.5728234259
 20
5.3355473112
 10
6.5449367299
 20
5.3348206909
  0
LINE
  5
30F
100
AcDbEntity
  8
0
100
AcDbLine
 62
6
  6
CONTINUOUS
 10
6.737105279
 20
3.4115322958
 11
6.7414701019
 21
3.4379530608
  0
LINE
  5
310
100
AcDbEntity
  8
0
100
AcDbLine
 62
9
  6
CONTINUOUS
 10
6.7294764133
 20
3.3833895935
 11
6.7294861145
 21
3.3834276395
  0
LINE
  5
311
100
AcDbEntity
  8
0
100
AcDbLine
 62
6
  6
CONTINUOUS
 10
6.7298768789
 20
3.3844735932
 11
6.737105279
 21
3.4115322958
  0
LWPOLYLINE
  5
312
100
AcDbEntity
  8
0
100
AcDbPolyline
 62
6
  6
CONTINUOUS
 90
7
 70
0
 10
6.7294763972
 20
3.3833895441
 10
6.7349898153
 20
3.4027465149
 10
6.7394149362
 20
3.4243942223
 10
6.7421438998
 20
3.4465754898
 10
6.743109001
 20
3.4690713698
 10
6.7422765376
 20
3.4916445082
 10
6.7409868731
 20
3.5045384029
  0
LINE
  5
313
100
AcDbEntity
  8
0
100
AcDbLine
 62
6
  6
CONTINUOUS
 10
6.634266646
 20
3.3019345167
 11
6.6535057759
 21
3.3074189185
  0
LINE
  5
314
100
AcDbEntity
  8
0
100
AcDbLine
 62
6
  6
CONTINUOUS
 10
4.8192269721
 20
5.3293138339
 11
4.7922483572
 21
5.32210268
  0
LINE
  5
315
100
AcDbEntity
  8
0
100
AcDbLine
 62
9
  6
CONTINUOUS
 10
4.7911639317
 20
5.3217020781
 11
4.7912019754
 21
5.3217117785
  0
LINE
  5
316
100
AcDbEntity
  8
0
100
AcDbLine
 62
6
  6
CONTINUOUS
 10
4.8456344455
 20
5.3336848775
 11
4.8192269721
 21
5.3293138339
  0
LINE
  5
317
100
AcDbEntity
  8
0
100
AcDbLine
 62
6
  6
CONTINUOUS
 10
6.6253628649
 20
5.3293309759
 11
6.5989419814
 21
5.3336957978
  0
LINE
  5
318
100
AcDbEntity
  8
0
100
AcDbLine
 62
9
  6
CONTINUOUS
 10
6.6535057201
 20
5.3217020773
 11
6.6534676741
 21
5.3217117785
  0
LINE
  5
319
100
AcDbEntity
  8
0
100
AcDbLine
 62
6
  6
CONTINUOUS
 10
6.6524217204
 20
5.322102543
 11
6.6253628649
 21
5.3293309759
  0
LWPOLYLINE
  5
31A
100
AcDbEntity
  8
0
100
AcDbPolyline
 62
6
  6
CONTINUOUS
 90
7
 70
0
 10
6.6535057695
 20
5.3217020613
 10
6.6341489236
 20
5.3272154486
 10
6.6125013551
 20
5.3316405571
 10
6.5903202369
 20
5.3343695296
 10
6.5678245123
 20
5.3353346634
 10
6.5452515306
 20
5.3345022574
 10
6.5323532879
 20
5.3332120906
  0
LINE
  5
31B
100
AcDbEntity
  8
0
100
AcDbLine
 62
6
  6
CONTINUOUS
 10
6.7349607986
 20
5.2264923032
 11
6.7294763951
 21
5.24573144
  0
LINE
  5
31C
100
AcDbEntity
  8
0
100
AcDbLine
 62
6
  6
CONTINUOUS
 10
6.7370881699
 20
5.2176683415
 11
6.7298770159
 21
5.2446469565
  0
LINE
  5
31D
100
AcDbEntity
  8
0
100
AcDbLine
 62
9
  6
CONTINUOUS
 10
6.729476414
 20
5.245731382
 11
6.7294861145
 21
5.2456933382
  0
LINE
  5
31E
100
AcDbEntity
  8
0
100
AcDbLine
 62
6
  6
CONTINUOUS
 10
6.7414592135
 20
5.1912608681
 11
6.7370881699
 21
5.2176683415
  0
LINE
  5
31F
100
AcDbEntity
  8
0
100
AcDbLine
 62
9
  6
CONTINUOUS
 10
6.7298733899
 20
3.3844627092
 11
6.7298768789
 21
3.3844735932
  0
LINE
  5
320
100
AcDbEntity
  8
0
100
AcDbLine
 62
6
  6
CONTINUOUS
 10
6.7278499826
 20
3.3786012291
 11
6.7298733899
 21
3.3844627092
  0
LINE
  5
321
100
AcDbEntity
  8
0
100
AcDbLine
 62
9
  6
CONTINUOUS
 10
6.7294861145
 20
3.3834276395
 11
6.7298733899
 21
3.3844627092
  0
LWPOLYLINE
  5
322
100
AcDbEntity
  8
0
100
AcDbPolyline
 62
6
  6
CONTINUOUS
 90
3
 70
0
 10
6.7178559593
 20
3.3581858775
 10
6.7248370178
 20
3.3713882024
 10
6.7294764133
 20
3.3833895935
  0
LINE
  5
323
100
AcDbEntity
  8
0
100
AcDbLine
 62
6
  6
CONTINUOUS
 10
6.6656668122
 20
3.312130436
 11
6.6788598306
 21
3.3191315265
  0
LINE
  5
324
100
AcDbEntity
  8
0
100
AcDbLine
 62
6
  6
CONTINUOUS
 10
6.6535057179
 20
3.3074188996
 11
6.6656668122
 21
3.312130436
  0
LINE
  5
325
100
AcDbEntity
  8
0
100
AcDbLine
 62
9
  6
CONTINUOUS
 10
6.6534676741
 20
3.3074091992
 11
6.6524324703
 21
3.3070218807
  0
LWPOLYLINE
  5
326
100
AcDbEntity
  8
0
100
AcDbPolyline
 62
6
  6
CONTINUOUS
 90
4
 70
0
 10
6.6524324703
 20
3.3070218807
 10
6.6584972869
 20
3.3091209891
 10
6.6671653121
 20
3.3127477374
 10
6.6758987657
 20
3.3173225384
  0
LINE
  5
327
100
AcDbEntity
  8
0
100
AcDbLine
 62
9
  6
CONTINUOUS
 10
6.6524324703
 20
3.3070218807
 11
6.6524212924
 21
3.3070182977
  0
LINE
  5
328
100
AcDbEntity
  8
0
100
AcDbLine
 62
9
  6
CONTINUOUS
 10
6.6524326044
 20
5.322099054
 11
6.6524217204
 21
5.322102543
  0
LINE
  5
329
100
AcDbEntity
  8
0
100
AcDbLine
 62
6
  6
CONTINUOUS
 10
6.6582940845
 20
5.3200756467
 11
6.6524326044
 21
5.322099054
  0
LINE
  5
32A
100
AcDbEntity
  8
0
100
AcDbLine
 62
9
  6
CONTINUOUS
 10
6.6534676741
 20
5.3217117785
 11
6.6524326044
 21
5.322099054
  0
LWPOLYLINE
  5
32B
100
AcDbEntity
  8
0
100
AcDbPolyline
 62
6
  6
CONTINUOUS
 90
3
 70
0
 10
6.6787094361
 20
5.3100816234
 10
6.6655071112
 20
5.3170626819
 10
6.6535057201
 20
5.3217020773
  0
LINE
  5
32C
100
AcDbEntity
  8
0
100
AcDbLine
 62
6
  6
CONTINUOUS
 10
6.7247648777
 20
5.2578924763
 11
6.7177637872
 21
5.2710854947
  0
LINE
  5
32D
100
AcDbEntity
  8
0
100
AcDbLine
 62
6
  6
CONTINUOUS
 10
6.729476414
 20
5.245731382
 11
6.7247648777
 21
5.2578924763
  0
LINE
  5
32E
100
AcDbEntity
  8
0
100
AcDbLine
 62
9
  6
CONTINUOUS
 10
6.7294861145
 20
5.2456933382
 11
6.7298734329
 21
5.2446581344
  0
LWPOLYLINE
  5
32F
100
AcDbEntity
  8
0
100
AcDbPolyline
 62
6
  6
CONTINUOUS
 90
4
 70
0
 10
6.7298734329
 20
5.2446581344
 10
6.7277743245
 20
5.250722951
 10
6.7241475762
 20
5.2593909762
 10
6.7195727753
 20
5.2681244297
  0
LINE
  5
330
100
AcDbEntity
  8
0
100
AcDbLine
 62
9
  6
CONTINUOUS
 10
6.7298734329
 20
5.2446581344
 11
6.7298770159
 21
5.2446469565
  0
LWPOLYLINE
  5
331
100
AcDbEntity
  8
0
100
AcDbPolyline
 62
6
  6
CONTINUOUS
 90
4
 70
0
 10
6.7140357928
 20
3.3523002004
 10
6.7196731382
 20
3.3611692983
 10
6.7242356649
 20
3.3699189206
 10
6.7278499826
 20
3.3786012291
  0
LINE
  5
332
100
AcDbEntity
  8
0
100
AcDbLine
 62
6
  6
CONTINUOUS
 10
6.7092855087
 20
3.3459685763
 11
6.7178559593
 21
3.3581858775
  0
LINE
  5
333
100
AcDbEntity
  8
0
100
AcDbLine
 62
6
  6
CONTINUOUS
 10
6.7102268647
 20
3.3471032645
 11
6.7140357928
 21
3.3523002004
  0
LINE
  5
334
100
AcDbEntity
  8
0
100
AcDbLine
 62
6
  6
CONTINUOUS
 10
6.7006170565
 20
3.3362782571
 11
6.7092855087
 21
3.3459685763
  0
LINE
  5
335
100
AcDbEntity
  8
0
100
AcDbLine
 62
6
  6
CONTINUOUS
 10
6.6910636777
 20
3.3277194803
 11
6.7006170565
 21
3.3362782571
  0
LINE
  5
336
100
AcDbEntity
  8
0
100
AcDbLine
 62
6
  6
CONTINUOUS
 10
6.6788598306
 20
3.3191315265
 11
6.6910636777
 21
3.3277194803
  0
LWPOLYLINE
  5
337
100
AcDbEntity
  8
0
100
AcDbPolyline
 62
6
  6
CONTINUOUS
 90
3
 70
0
 10
6.6758987657
 20
3.3173225384
 10
6.6847483612
 20
3.3229656658
 10
6.6899178142
 20
3.3267664515
  0
LWPOLYLINE
  5
338
100
AcDbEntity
  8
0
100
AcDbPolyline
 62
6
  6
CONTINUOUS
 90
4
 70
0
 10
6.6845951132
 20
5.3062614569
 10
6.6757260153
 20
5.3118988022
 10
6.666976393
 20
5.316461329
 10
6.6582940845
 20
5.3200756467
  0
LINE
  5
339
100
AcDbEntity
  8
0
100
AcDbLine
 62
6
  6
CONTINUOUS
 10
6.6909267373
 20
5.3015111728
 11
6.6787094361
 21
5.3100816234
  0
LINE
  5
33A
100
AcDbEntity
  8
0
100
AcDbLine
 62
6
  6
CONTINUOUS
 10
6.6897914569
 20
5.3024529895
 11
6.6845951132
 21
5.3062614569
  0
LINE
  5
33B
100
AcDbEntity
  8
0
100
AcDbLine
 62
6
  6
CONTINUOUS
 10
6.7006170565
 20
5.2928427206
 11
6.6909267373
 21
5.3015111728
  0
LINE
  5
33C
100
AcDbEntity
  8
0
100
AcDbLine
 62
6
  6
CONTINUOUS
 10
6.7091758333
 20
5.2832893418
 11
6.7006170565
 21
5.2928427206
  0
LINE
  5
33D
100
AcDbEntity
  8
0
100
AcDbLine
 62
6
  6
CONTINUOUS
 10
6.7177637872
 20
5.2710854947
 11
6.7091758333
 21
5.2832893418
  0
LWPOLYLINE
  5
33E
100
AcDbEntity
  8
0
100
AcDbPolyline
 62
6
  6
CONTINUOUS
 90
3
 70
0
 10
6.7195727753
 20
5.2681244297
 10
6.7139296478
 20
5.2769740253
 10
6.7101292972
 20
5.2821429208
  0
ARC
  5
33F
100
AcDbEntity
  8
0
100
AcDbCircle
 62
6
  6
CONTINUOUS
 10
4.4012875481
 20
2.2653447175
 40
2.2566019162
100
AcDbArc
 50
33.6856158047
 51
34.6435233688
  0
ARC
  5
340
100
AcDbEntity
  8
0
100
AcDbCircle
 62
6
  6
CONTINUOUS
 10
3.6731583906
 20
2.9935714289
 40
2.2565316575
100
AcDbArc
 50
55.3560495995
 51
56.3144632904
  0
ARC
  5
341
100
AcDbEntity
  8
0
100
AcDbCircle
 62
6
  6
CONTINUOUS
 10
4.875769143
 20
3.5683906759
 40
0.274340916
100
AcDbArc
 50
252.0458576114
 51
252.2773443254
  0
ARC
  5
342
100
AcDbEntity
  8
0
100
AcDbCircle
 62
6
  6
CONTINUOUS
 10
4.9761638013
 20
3.4679944191
 40
0.2743396449
100
AcDbArc
 50
197.7248289522
 51
197.9541430215
  0
ARC
  5
343
100
AcDbEntity
  8
0
100
AcDbCircle
 62
6
  6
CONTINUOUS
 10
4.8213527587
 20
3.4121058225
 40
0.1082519798
100
AcDbArc
 50
231.6347220214
 51
231.9491706152
  0
ARC
  5
344
100
AcDbEntity
  8
0
100
AcDbCircle
 62
6
  6
CONTINUOUS
 10
4.8198112352
 20
3.413524088
 40
0.1081642151
100
AcDbArc
 50
218.1382098659
 51
218.4576753138
  0
ARC
  5
345
100
AcDbEntity
  8
0
100
AcDbCircle
 62
6
  6
CONTINUOUS
 10
4.8224812544
 20
3.4093037222
 40
0.1065124267
100
AcDbArc
 50
242.0321528666
 51
244.9550170416
  0
ARC
  5
346
100
AcDbEntity
  8
0
100
AcDbCircle
 62
6
  6
CONTINUOUS
 10
4.8170091053
 20
3.414672423
 40
0.1064353496
100
AcDbArc
 50
205.0903801409
 51
207.9735231469
  0
ARC
  5
347
100
AcDbEntity
  8
0
100
AcDbCircle
 62
9
  6
CONTINUOUS
 10
4.7255240495
 20
3.3879085586
 40
0.0112676233
100
AcDbArc
 50
194.82921388
 51
197.7470168543
  0
ARC
  5
348
100
AcDbEntity
  8
0
100
AcDbCircle
 62
9
  6
CONTINUOUS
 10
4.7956828003
 20
3.3177494183
 40
0.0112673133
100
AcDbArc
 50
252.2506961817
 51
255.1808806433
  0
ARC
  5
349
100
AcDbEntity
  8
0
100
AcDbCircle
 62
9
  6
CONTINUOUS
 10
4.7252881199
 20
3.3878443047
 40
0.0110231068
100
AcDbArc
 50
193.3372137863
 51
194.8202203627
  0
ARC
  5
34A
100
AcDbEntity
  8
0
100
AcDbCircle
 62
9
  6
CONTINUOUS
 10
4.7956175817
 20
3.3175099329
 40
0.011019113
100
AcDbArc
 50
255.1902218773
 51
257.041016933
  0
ARC
  5
34B
100
AcDbEntity
  8
0
100
AcDbCircle
 62
9
  6
CONTINUOUS
 10
5.1203863896
 20
4.049150102
 40
0.1003610975
100
AcDbArc
 50
15.2859136138
 51
20.4715362474
  0
ARC
  5
34C
100
AcDbEntity
  8
0
100
AcDbCircle
 62
9
  6
CONTINUOUS
 10
5.1207405933
 20
4.0492517436
 40
0.0999938498
100
AcDbArc
 50
314.9998779683
 51
15.2832406011
  0
ARC
  5
34D
100
AcDbEntity
  8
0
100
AcDbCircle
 62
9
  6
CONTINUOUS
 10
5.1210835666
 20
4.0494125738
 40
0.0996161526
100
AcDbArc
 50
20.4703493675
 51
23.2295579588
  0
ARC
  5
34E
100
AcDbEntity
  8
0
100
AcDbCircle
 62
6
  6
CONTINUOUS
 10
5.456911932
 20
3.7125665891
 40
0.1004118582
100
AcDbArc
 50
69.1916549861
 51
77.8922336443
  0
ARC
  5
34F
100
AcDbEntity
  8
0
100
AcDbCircle
 62
6
  6
CONTINUOUS
 10
5.4570297338
 20
3.7129624253
 40
0.1000010009
100
AcDbArc
 50
87.1327023282
 51
135.0005984751
  0
ARC
  5
350
100
AcDbEntity
  8
0
100
AcDbCircle
 62
6
  6
CONTINUOUS
 10
5.4570493402
 20
3.7131605563
 40
0.099802283
100
AcDbArc
 50
77.8978403954
 51
87.1382542598
  0
ARC
  5
351
100
AcDbEntity
  8
0
100
AcDbCircle
 62
6
  6
CONTINUOUS
 10
5.4572037596
 20
3.7133436191
 40
0.0995818411
100
AcDbArc
 50
66.7928265679
 51
69.1897898352
  0
ARC
  5
352
100
AcDbEntity
  8
0
100
AcDbCircle
 62
7
  6
CONTINUOUS
 10
5.535802804
 20
4.2862548986
 40
0.025053921
100
AcDbArc
 50
300.013363438
 51
312.3606555097
  0
ARC
  5
353
100
AcDbEntity
  8
0
100
AcDbCircle
 62
7
  6
CONTINUOUS
 10
5.5357888452
 20
4.2862158041
 40
0.02504598
100
AcDbArc
 50
348.3938791612
 51
359.9892936628
  0
ARC
  5
354
100
AcDbEntity
  8
0
100
AcDbCircle
 62
7
  6
CONTINUOUS
 10
5.5358525848
 20
4.286197124
 40
0.0249774136
100
AcDbArc
 50
312.3728403998
 51
348.3832433766
  0
ARC
  5
355
100
AcDbEntity
  8
0
100
AcDbCircle
 62
7
  6
CONTINUOUS
 10
5.4027748951
 20
4.2854182798
 40
0.0210599309
100
AcDbArc
 50
346.4594904432
 51
359.9805981569
  0
ARC
  5
356
100
AcDbEntity
  8
0
100
AcDbCircle
 62
7
  6
CONTINUOUS
 10
5.4728940024
 20
4.285418318
 40
0.0210591788
100
AcDbArc
 50
180.019506481
 51
193.7931755593
  0
ARC
  5
357
100
AcDbEntity
  8
0
100
AcDbCircle
 62
7
  6
CONTINUOUS
 10
5.4728474788
 20
4.2854628289
 40
0.0210528204
100
AcDbArc
 50
249.3397882095
 51
263.1454095243
  0
ARC
  5
358
100
AcDbEntity
  8
0
100
AcDbCircle
 62
7
  6
CONTINUOUS
 10
5.4028222671
 20
4.2854619213
 40
0.0210519078
100
AcDbArc
 50
276.8546248175
 51
290.935413827
  0
ARC
  5
359
100
AcDbEntity
  8
0
100
AcDbCircle
 62
7
  6
CONTINUOUS
 10
5.402801162
 20
4.2854335237
 40
0.021040186
100
AcDbArc
 50
323.2894077582
 51
332.5661900372
  0
ARC
  5
35A
100
AcDbEntity
  8
0
100
AcDbCircle
 62
7
  6
CONTINUOUS
 10
5.4728328732
 20
4.2854112425
 40
0.020998603
100
AcDbArc
 50
196.8999063821
 51
249.3209239586
  0
ARC
  5
35B
100
AcDbEntity
  8
0
100
AcDbCircle
 62
7
  6
CONTINUOUS
 10
5.4028524305
 20
4.2854023993
 40
0.0209803435
100
AcDbArc
 50
332.5771235991
 51
346.4388619465
  0
ARC
  5
35C
100
AcDbEntity
  8
0
100
AcDbCircle
 62
7
  6
CONTINUOUS
 10
5.4028613809
 20
4.285386779
 40
0.0209639678
100
AcDbArc
 50
290.9540832231
 51
323.2934426564
  0
ARC
  5
35D
100
AcDbEntity
  8
0
100
AcDbCircle
 62
7
  6
CONTINUOUS
 10
5.4727629696
 20
4.2853910649
 40
0.0209254276
100
AcDbArc
 50
193.8062454425
 51
196.8997974304
  0
ARC
  5
35E
100
AcDbEntity
  8
0
100
AcDbCircle
 62
7
  6
CONTINUOUS
 10
5.4618888199
 20
4.2965517492
 40
0.0100539989
100
AcDbArc
 50
161.6960092268
 51
179.950194599
  0
ARC
  5
35F
100
AcDbEntity
  8
0
100
AcDbCircle
 62
7
  6
CONTINUOUS
 10
5.4702860903
 20
4.2965528063
 40
0.0100487374
100
AcDbArc
 50
0.0438044296
 51
17.8809478952
  0
ARC
  5
360
100
AcDbEntity
  8
0
100
AcDbCircle
 62
7
  6
CONTINUOUS
 10
5.4703272774
 20
4.2965138056
 40
0.0100466861
100
AcDbArc
 50
71.7018236463
 51
89.9569574637
  0
ARC
  5
361
100
AcDbEntity
  8
0
100
AcDbCircle
 62
7
  6
CONTINUOUS
 10
5.4618415142
 20
4.2965180784
 40
0.0100424127
100
AcDbArc
 50
90.0381656638
 51
107.9006888509
  0
ARC
  5
362
100
AcDbEntity
  8
0
100
AcDbCircle
 62
7
  6
CONTINUOUS
 10
5.4703365079
 20
4.2965637261
 40
0.0099963942
100
AcDbArc
 50
17.9274213151
 51
71.6622217187
  0
ARC
  5
363
100
AcDbEntity
  8
0
100
AcDbCircle
 62
7
  6
CONTINUOUS
 10
5.4618165965
 20
4.2965707013
 40
0.0099792692
100
AcDbArc
 50
107.9378877031
 51
161.6484212054
  0
ARC
  5
364
100
AcDbEntity
  8
0
100
AcDbCircle
 62
7
  6
CONTINUOUS
 10
5.5905393084
 20
3.9988740327
 40
0.0119998181
100
AcDbArc
 50
245.999741502
 51
66.0002584983
  0
ARC
  5
365
100
AcDbEntity
  8
0
100
AcDbCircle
 62
7
  6
CONTINUOUS
 10
5.661509862
 20
4.0023849306
 40
0.0115907175
100
AcDbArc
 50
257.9997743658
 51
78.0002256344
  0
ARC
  5
366
100
AcDbEntity
  8
0
100
AcDbCircle
 62
7
  6
CONTINUOUS
 10
5.5994406952
 20
4.0250133706
 40
0.0094998539
100
AcDbArc
 50
245.9997042945
 51
66.0002957055
  0
ARC
  5
367
100
AcDbEntity
  8
0
100
AcDbCircle
 62
7
  6
CONTINUOUS
 10
5.5904520785
 20
4.0208055875
 40
0.0019999987
100
AcDbArc
 50
155.9999624954
 51
246.0000375046
  0
ARC
  5
368
100
AcDbEntity
  8
0
100
AcDbCircle
 62
7
  6
CONTINUOUS
 10
5.5965531291
 20
4.034508772
 40
0.0019999985
100
AcDbArc
 50
65.9999573547
 51
156.0000426453
  0
ARC
  5
369
100
AcDbEntity
  8
0
100
AcDbCircle
 62
7
  6
CONTINUOUS
 10
5.5782499783
 20
3.9933992234
 40
0.001999998
100
AcDbArc
 50
155.9999431492
 51
246.0000568508
  0
ARC
  5
36A
100
AcDbEntity
  8
0
100
AcDbCircle
 62
7
  6
CONTINUOUS
 10
5.5863847128
 20
4.0116701362
 40
0.001999998
100
AcDbArc
 50
65.9999417349
 51
156.0000582651
  0
ARC
  5
36B
100
AcDbEntity
  8
0
100
AcDbCircle
 62
7
  6
CONTINUOUS
 10
5.64765891
 20
3.9945014891
 40
0.0009998768
100
AcDbArc
 50
167.9971637686
 51
258.0033837738
  0
ARC
  5
36C
100
AcDbEntity
  8
0
100
AcDbCircle
 62
7
  6
CONTINUOUS
 10
5.652062865
 20
4.0152204997
 40
0.0009998689
100
AcDbArc
 50
77.9962415384
 51
168.0032628853
  0
ARC
  5
36D
100
AcDbEntity
  8
0
100
AcDbCircle
 62
7
  6
CONTINUOUS
 10
5.61588673
 20
4.2862165721
 40
0.0250519058
100
AcDbArc
 50
180.0124603472
 51
191.9733200314
  0
ARC
  5
36E
100
AcDbEntity
  8
0
100
AcDbCircle
 62
7
  6
CONTINUOUS
 10
5.6158654723
 20
4.2862533019
 40
0.0250518515
100
AcDbArc
 50
228.0099582324
 51
239.9875294334
  0
ARC
  5
36F
100
AcDbEntity
  8
0
100
AcDbCircle
 62
7
  6
CONTINUOUS
 10
5.6158695473
 20
4.2862311646
 40
0.0250398754
100
AcDbArc
 50
204.0526242396
 51
215.931949639
  0
ARC
  5
370
100
AcDbEntity
  8
0
100
AcDbCircle
 62
7
  6
CONTINUOUS
 10
5.615837661
 20
4.286213916
 40
0.0250039723
100
AcDbArc
 50
218.0591129583
 51
227.996947013
  0
ARC
  5
371
100
AcDbEntity
  8
0
100
AcDbCircle
 62
7
  6
CONTINUOUS
 10
5.6158350213
 20
4.2862111886
 40
0.0250002059
100
AcDbArc
 50
191.9858353925
 51
204.043068266
  0
ARC
  5
372
100
AcDbEntity
  8
0
100
AcDbCircle
 62
7
  6
CONTINUOUS
 10
5.6157971431
 20
4.2861821227
 40
0.0249524698
100
AcDbArc
 50
215.9383297926
 51
218.0589866994
  0
ARC
  5
373
100
AcDbEntity
  8
0
100
AcDbCircle
 62
7
  6
CONTINUOUS
 10
5.6003117055
 20
4.2965439619
 40
0.0030206129
100
AcDbArc
 50
40.3655819385
 51
62.3735154363
  0
ARC
  5
374
100
AcDbEntity
  8
0
100
AcDbCircle
 62
7
  6
CONTINUOUS
 10
5.5938386907
 20
4.2965409003
 40
0.003019591
100
AcDbArc
 50
90.0733540387
 51
112.2534465553
  0
ARC
  5
375
100
AcDbEntity
  8
0
100
AcDbCircle
 62
7
  6
CONTINUOUS
 10
5.5938260164
 20
4.2965796977
 40
0.002978885
100
AcDbArc
 50
112.3104271703
 51
157.390036871
  0
ARC
  5
376
100
AcDbEntity
  8
0
100
AcDbCircle
 62
7
  6
CONTINUOUS
 10
5.6003451975
 20
4.2966045326
 40
0.0029514179
100
AcDbArc
 50
62.4043163405
 51
67.6984681956
  0
ARC
  5
377
100
AcDbEntity
  8
0
100
AcDbCircle
 62
7
  6
CONTINUOUS
 10
5.6883656327
 20
4.2896131048
 40
0.0250606302
100
AcDbArc
 50
233.5895119963
 51
245.7097349673
  0
ARC
  5
378
100
AcDbEntity
  8
0
100
AcDbCircle
 62
7
  6
CONTINUOUS
 10
5.6883412612
 20
4.2896209742
 40
0.0250604862
100
AcDbArc
 50
257.8657885679
 51
269.985284493
  0
ARC
  5
379
100
AcDbEntity
  8
0
100
AcDbCircle
 62
7
  6
CONTINUOUS
 10
5.688322113
 20
4.2895178164
 40
0.0249556083
100
AcDbArc
 50
245.7168670914
 51
257.8589842933
  0
ARC
  5
37A
100
AcDbEntity
  8
0
100
AcDbCircle
 62
6
  6
CONTINUOUS
 10
5.7223348248
 20
4.3145604888
 40
1.175
100
AcDbArc
 50
235.0050578963
 51
304.994968124
  0
ARC
  5
37B
100
AcDbEntity
  8
0
100
AcDbCircle
 62
6
  6
CONTINUOUS
 10
5.7223348248
 20
4.3145604888
 40
1.175
100
AcDbArc
 50
145.0089396009
 51
214.9909147279
  0
ARC
  5
37C
100
AcDbEntity
  8
0
100
AcDbCircle
 62
6
  6
CONTINUOUS
 10
5.7223348248
 20
4.3145604888
 40
1.175
100
AcDbArc
 50
55.0048027358
 51
124.9949486352
  0
ARC
  5
37D
100
AcDbEntity
  8
0
100
AcDbCircle
 62
6
  6
CONTINUOUS
 10
5.7223348248
 20
4.3145604888
 40
1.175
100
AcDbArc
 50
325.0092120645
 51
34.990818192
  0
ARC
  5
37E
100
AcDbEntity
  8
0
100
AcDbCircle
 62
9
  6
CONTINUOUS
 10
5.7223348248
 20
4.3145604888
 40
1.1065117064
100
AcDbArc
 50
235.4104298792
 51
304.5895695535
  0
ARC
  5
37F
100
AcDbEntity
  8
0
100
AcDbCircle
 62
9
  6
CONTINUOUS
 10
5.7223348248
 20
4.3145604888
 40
1.1065117064
100
AcDbArc
 50
325.4104304466
 51
34.5898676798
  0
ARC
  5
380
100
AcDbEntity
  8
0
100
AcDbCircle
 62
9
  6
CONTINUOUS
 10
5.7223348248
 20
4.3145604888
 40
1.1065117064
100
AcDbArc
 50
55.4101323202
 51
124.5898676798
  0
ARC
  5
381
100
AcDbEntity
  8
0
100
AcDbCircle
 62
9
  6
CONTINUOUS
 10
5.7223348248
 20
4.3145604888
 40
1.1065117064
100
AcDbArc
 50
145.4101323202
 51
214.5895701208
  0
ARC
  5
382
100
AcDbEntity
  8
0
100
AcDbCircle
 62
6
  6
CONTINUOUS
 10
5.7223348248
 20
4.3145604888
 40
0.8125
100
AcDbArc
 50
235.3077954487
 51
304.6916415133
  0
ARC
  5
383
100
AcDbEntity
  8
0
100
AcDbCircle
 62
6
  6
CONTINUOUS
 10
5.7223348248
 20
4.3145604888
 40
0.8125
100
AcDbArc
 50
145.3119594146
 51
214.6880156412
  0
ARC
  5
384
100
AcDbEntity
  8
0
100
AcDbCircle
 62
6
  6
CONTINUOUS
 10
5.7223348248
 20
4.3145604888
 40
0.8125
100
AcDbArc
 50
55.3081984061
 51
124.6914118738
  0
ARC
  5
385
100
AcDbEntity
  8
0
100
AcDbCircle
 62
6
  6
CONTINUOUS
 10
5.7223348248
 20
4.3145604888
 40
0.8125
100
AcDbArc
 50
325.3117391009
 51
34.6876225387
  0
ARC
  5
386
100
AcDbEntity
  8
0
100
AcDbCircle
 62
6
  6
CONTINUOUS
 10
5.7223348248
 20
4.3145604888
 40
0.7475
100
AcDbArc
 50
235.7911406872
 51
304.2082263275
  0
ARC
  5
387
100
AcDbEntity
  8
0
100
AcDbCircle
 62
6
  6
CONTINUOUS
 10
5.7223348248
 20
4.3145604888
 40
0.7475
100
AcDbArc
 50
325.7946249795
 51
34.2047436669
  0
ARC
  5
388
100
AcDbEntity
  8
0
100
AcDbCircle
 62
6
  6
CONTINUOUS
 10
5.7223348248
 20
4.3145604888
 40
0.7475
100
AcDbArc
 50
55.7910672613
 51
124.2082472643
  0
ARC
  5
389
100
AcDbEntity
  8
0
100
AcDbCircle
 62
6
  6
CONTINUOUS
 10
5.7223348248
 20
4.3145604888
 40
0.7475
100
AcDbArc
 50
145.7945666425
 51
214.2047141585
  0
ARC
  5
38A
100
AcDbEntity
  8
0
100
AcDbCircle
 62
9
  6
CONTINUOUS
 10
5.7223348248
 20
4.3145604888
 40
0.5840586726
100
AcDbArc
 50
240.1443538312
 51
299.8554651983
  0
ARC
  5
38B
100
AcDbEntity
  8
0
100
AcDbCircle
 62
9
  6
CONTINUOUS
 10
5.7223348248
 20
4.3145604888
 40
0.5840586726
100
AcDbArc
 50
330.1445654179
 51
29.8555528678
  0
ARC
  5
38C
100
AcDbEntity
  8
0
100
AcDbCircle
 62
9
  6
CONTINUOUS
 10
5.7223348248
 20
4.3145604888
 40
0.5840586726
100
AcDbArc
 50
60.1282790835
 51
119.8553423476
  0
ARC
  5
38D
100
AcDbEntity
  8
0
100
AcDbCircle
 62
9
  6
CONTINUOUS
 10
5.7223348248
 20
4.3145604888
 40
0.5840586726
100
AcDbArc
 50
150.1446562427
 51
209.8553679685
  0
CIRCLE
  5
38E
100
AcDbEntity
  8
0
100
AcDbCircle
 62
6
  6
CONTINUOUS
 10
5.7223348248
 20
4.3145604888
 40
0.5575
  0
CIRCLE
  5
38F
100
AcDbEntity
  8
0
100
AcDbCircle
 62
6
  6
CONTINUOUS
 10
5.7223348248
 20
4.3145604888
 40
0.5275
  0
CIRCLE
  5
390
100
AcDbEntity
  8
0
100
AcDbCircle
 62
6
  6
CONTINUOUS
 10
5.7223348248
 20
4.3145604888
 40
0.5125
  0
CIRCLE
  5
391
100
AcDbEntity
  8
0
100
AcDbCircle
 62
6
  6
CONTINUOUS
 10
5.7223348248
 20
4.3145604888
 40
0.4545
  0
CIRCLE
  5
392
100
AcDbEntity
  8
0
100
AcDbCircle
 62
6
  6
CONTINUOUS
 10
5.7223348248
 20
4.3145604888
 40
0.4175
  0
CIRCLE
  5
393
100
AcDbEntity
  8
0
100
AcDbCircle
 62
9
  6
CONTINUOUS
 10
5.7223348248
 20
4.3145604888
 40
0.3951446566
  0
ARC
  5
394
100
AcDbEntity
  8
0
100
AcDbCircle
 62
6
  6
CONTINUOUS
 10
3.673117752
 20
5.6356096661
 40
2.2566042197
100
AcDbArc
 50
303.6856160552
 51
304.6435138799
  0
ARC
  5
395
100
AcDbEntity
  8
0
100
AcDbCircle
 62
6
  6
CONTINUOUS
 10
4.4013457654
 20
6.3637369227
 40
2.2565316568
100
AcDbArc
 50
325.3560495939
 51
326.3144632906
  0
ARC
  5
396
100
AcDbEntity
  8
0
100
AcDbCircle
 62
9
  6
CONTINUOUS
 10
5.1207420028
 20
4.5798712496
 40
0.0999918634
100
AcDbArc
 50
337.33931243
 51
45.0003737544
  0
ARC
  5
397
100
AcDbEntity
  8
0
100
AcDbCircle
 62
6
  6
CONTINUOUS
 10
4.8757691662
 20
5.0607302278
 40
0.2743409935
100
AcDbArc
 50
107.722527643
 51
107.954142281
  0
ARC
  5
398
100
AcDbEntity
  8
0
100
AcDbCircle
 62
6
  6
CONTINUOUS
 10
4.9761634235
 20
5.161126686
 40
0.274339246
100
AcDbArc
 50
162.0458574984
 51
162.2744390613
  0
ARC
  5
399
100
AcDbEntity
  8
0
100
AcDbCircle
 62
6
  6
CONTINUOUS
 10
4.8198835757
 20
5.2155398635
 40
0.1082563297
100
AcDbArc
 50
141.6374386295
 51
141.9544859383
  0
ARC
  5
39A
100
AcDbEntity
  8
0
100
AcDbCircle
 62
6
  6
CONTINUOUS
 10
4.8213009222
 20
5.2170809166
 40
0.1081682447
100
AcDbArc
 50
128.1325185795
 51
128.4547847881
  0
ARC
  5
39B
100
AcDbEntity
  8
0
100
AcDbCircle
 62
6
  6
CONTINUOUS
 10
4.8170607229
 20
5.214422848
 40
0.1064929967
100
AcDbArc
 50
151.948554293
 51
154.9020577289
  0
ARC
  5
39C
100
AcDbEntity
  8
0
100
AcDbCircle
 62
6
  6
CONTINUOUS
 10
4.8224544669
 20
5.2198703756
 40
0.1064529521
100
AcDbArc
 50
115.1475372617
 51
118.0618981982
  0
ARC
  5
39D
100
AcDbEntity
  8
0
100
AcDbCircle
 62
9
  6
CONTINUOUS
 10
4.7956828943
 20
5.3113712646
 40
0.0112676227
100
AcDbArc
 50
104.8292015247
 51
107.747016795
  0
ARC
  5
39E
100
AcDbEntity
  8
0
100
AcDbCircle
 62
9
  6
CONTINUOUS
 10
4.7255237547
 20
5.2412125132
 40
0.0112673139
100
AcDbArc
 50
162.2506964286
 51
165.1808684133
  0
ARC
  5
39F
100
AcDbEntity
  8
0
100
AcDbCircle
 62
9
  6
CONTINUOUS
 10
4.7252462711
 20
5.2412874275
 40
0.0109798993
100
AcDbArc
 50
165.1884396254
 51
168.2259813359
  0
ARC
  5
3A0
100
AcDbEntity
  8
0
100
AcDbCircle
 62
7
  6
CONTINUOUS
 10
5.5046020082
 20
4.3345141679
 40
0.0250463214
100
AcDbArc
 50
78.2408687516
 51
89.9890735709
  0
ARC
  5
3A1
100
AcDbEntity
  8
0
100
AcDbCircle
 62
7
  6
CONTINUOUS
 10
5.5045886977
 20
4.3345390166
 40
0.0250279455
100
AcDbArc
 50
44.3952777755
 51
55.3550336493
  0
ARC
  5
3A2
100
AcDbEntity
  8
0
100
AcDbCircle
 62
7
  6
CONTINUOUS
 10
5.5046163842
 20
4.3345755499
 40
0.0249821506
100
AcDbArc
 50
55.359640306
 51
78.228766121
  0
ARC
  5
3A3
100
AcDbEntity
  8
0
100
AcDbCircle
 62
7
  6
CONTINUOUS
 10
5.4618864574
 20
4.3325688008
 40
0.010051636
100
AcDbArc
 50
180.0473792482
 51
198.2488259473
  0
ARC
  5
3A4
100
AcDbEntity
  8
0
100
AcDbCircle
 62
7
  6
CONTINUOUS
 10
5.4702837583
 20
4.3325685875
 40
0.0100510697
100
AcDbArc
 50
342.0586833314
 51
359.9538338338
  0
ARC
  5
3A5
100
AcDbEntity
  8
0
100
AcDbCircle
 62
7
  6
CONTINUOUS
 10
5.4703276661
 20
4.3326050014
 40
0.0100445151
100
AcDbArc
 50
270.0408344327
 51
288.2448101705
  0
ARC
  5
3A6
100
AcDbEntity
  8
0
100
AcDbCircle
 62
7
  6
CONTINUOUS
 10
5.4618418355
 20
4.3326047184
 40
0.010044232
100
AcDbArc
 50
252.0503759217
 51
269.9600084216
  0
ARC
  5
3A7
100
AcDbEntity
  8
0
100
AcDbCircle
 62
7
  6
CONTINUOUS
 10
5.4703344026
 20
4.3325605624
 40
0.0100004193
100
AcDbArc
 50
325.669545675
 51
342.0130449637
  0
ARC
  5
3A8
100
AcDbEntity
  8
0
100
AcDbCircle
 62
7
  6
CONTINUOUS
 10
5.4703350309
 20
4.3325600827
 40
0.0099995513
100
AcDbArc
 50
288.2853117302
 51
324.0566798885
  0
ARC
  5
3A9
100
AcDbEntity
  8
0
100
AcDbCircle
 62
7
  6
CONTINUOUS
 10
5.4618331843
 20
4.3325572727
 40
0.0099964315
100
AcDbArc
 50
198.2975007091
 51
252.0137406009
  0
ARC
  5
3AA
100
AcDbEntity
  8
0
100
AcDbCircle
 62
7
  6
CONTINUOUS
 10
5.470381752
 20
4.3325287535
 40
0.0099433791
100
AcDbArc
 50
324.0770485638
 51
325.667035228
  0
ARC
  5
3AB
100
AcDbEntity
  8
0
100
AcDbCircle
 62
7
  6
CONTINUOUS
 10
5.4028184839
 20
4.3493970966
 40
0.0210418332
100
AcDbArc
 50
60.9214013506
 51
73.3859804252
  0
ARC
  5
3AC
100
AcDbEntity
  8
0
100
AcDbCircle
 62
7
  6
CONTINUOUS
 10
5.4028428478
 20
4.349447005
 40
0.0209863508
100
AcDbArc
 50
0.0091246434
 51
60.9085681828
  0
ARC
  5
3AD
100
AcDbEntity
  8
0
100
AcDbCircle
 62
7
  6
CONTINUOUS
 10
5.4568411762
 20
4.3545272496
 40
0.0050332433
100
AcDbArc
 50
90.0723009984
 51
110.5089716344
  0
ARC
  5
3AE
100
AcDbEntity
  8
0
100
AcDbCircle
 62
7
  6
CONTINUOUS
 10
5.4568511218
 20
4.3545490355
 40
0.0050197267
100
AcDbArc
 50
138.7482689789
 51
153.186715493
  0
ARC
  5
3AF
100
AcDbEntity
  8
0
100
AcDbCircle
 62
7
  6
CONTINUOUS
 10
5.4568443517
 20
4.3545468652
 40
0.0050164656
100
AcDbArc
 50
117.0169204233
 51
131.5013336291
  0
ARC
  5
3B0
100
AcDbEntity
  8
0
100
AcDbCircle
 62
7
  6
CONTINUOUS
 10
5.4568143468
 20
4.3545811802
 40
0.0049708834
100
AcDbArc
 50
131.5044057243
 51
138.7473319851
  0
ARC
  5
3B1
100
AcDbEntity
  8
0
100
AcDbCircle
 62
7
  6
CONTINUOUS
 10
5.4568157566
 20
4.3546012831
 40
0.0049549968
100
AcDbArc
 50
110.5335957499
 51
117.0081895858
  0
ARC
  5
3B2
100
AcDbEntity
  8
0
100
AcDbCircle
 62
7
  6
CONTINUOUS
 10
5.4567735419
 20
4.3545887267
 40
0.0049325841
100
AcDbArc
 50
153.1916928837
 51
159.6332062822
  0
ARC
  5
3B3
100
AcDbEntity
  8
0
100
AcDbCircle
 62
7
  6
CONTINUOUS
 10
5.636335042
 20
4.3425604706
 40
0.0419997723
100
AcDbArc
 50
319.6335318919
 51
90.0002962832
  0
ARC
  5
3B4
100
AcDbEntity
  8
0
100
AcDbCircle
 62
7
  6
CONTINUOUS
 10
5.6363359787
 20
4.34255883
 40
0.0419979736
100
AcDbArc
 50
301.8829579424
 51
311.2503492513
  0
ARC
  5
3B5
100
AcDbEntity
  8
0
100
AcDbCircle
 62
7
  6
CONTINUOUS
 10
5.636339175
 20
4.3425577116
 40
0.041994906
100
AcDbArc
 50
313.8375212979
 51
318.1885525017
  0
ARC
  5
3B6
100
AcDbEntity
  8
0
100
AcDbCircle
 62
7
  6
CONTINUOUS
 10
5.6363419261
 20
4.3425461191
 40
0.0419839552
100
AcDbArc
 50
291.2575892251
 51
299.9207931255
  0
ARC
  5
3B7
100
AcDbEntity
  8
0
100
AcDbCircle
 62
7
  6
CONTINUOUS
 10
5.6363385514
 20
4.3425290685
 40
0.0419684352
100
AcDbArc
 50
275.3291318571
 51
287.7986199277
  0
ARC
  5
3B8
100
AcDbEntity
  8
0
100
AcDbCircle
 62
7
  6
CONTINUOUS
 10
5.636395374
 20
4.3425059637
 40
0.0419185192
100
AcDbArc
 50
318.190060311
 51
319.6368864767
  0
ARC
  5
3B9
100
AcDbEntity
  8
0
100
AcDbCircle
 62
7
  6
CONTINUOUS
 10
5.6213348431
 20
4.3425604621
 40
0.0269999014
100
AcDbArc
 50
269.9999611504
 51
90.0000388495
  0
ARC
  5
3BA
100
AcDbEntity
  8
0
100
AcDbCircle
 62
7
  6
CONTINUOUS
 10
5.5938348262
 20
4.3185604903
 40
0.0030000014
100
AcDbArc
 50
180.0000273244
 51
269.9999726755
  0
ARC
  5
3BB
100
AcDbEntity
  8
0
100
AcDbCircle
 62
7
  6
CONTINUOUS
 10
5.6363365879
 20
4.3426371524
 40
0.0420762351
100
AcDbArc
 50
262.4866602295
 51
275.3181245115
  0
ARC
  5
3BC
100
AcDbEntity
  8
0
100
AcDbCircle
 62
7
  6
CONTINUOUS
 10
5.6363145512
 20
4.3426194876
 40
0.0420622568
100
AcDbArc
 50
287.7972117025
 51
291.2561067567
  0
ARC
  5
3BD
100
AcDbEntity
  8
0
100
AcDbCircle
 62
7
  6
CONTINUOUS
 10
5.6363095379
 20
4.3425861011
 40
0.0420359108
100
AcDbArc
 50
311.252936172
 51
313.83985818
  0
ARC
  5
3BE
100
AcDbEntity
  8
0
100
AcDbCircle
 62
7
  6
CONTINUOUS
 10
5.636332642
 20
4.3425663974
 40
0.0420061617
100
AcDbArc
 50
299.917972058
 51
301.8813705743
  0
ARC
  5
3BF
100
AcDbEntity
  8
0
100
AcDbCircle
 62
7
  6
CONTINUOUS
 10
5.5358026589
 20
4.3478658867
 40
0.0250541602
100
AcDbArc
 50
47.6362567718
 51
59.986569354
  0
ARC
  5
3C0
100
AcDbEntity
  8
0
100
AcDbCircle
 62
7
  6
CONTINUOUS
 10
5.5358007326
 20
4.3479063872
 40
0.0250340924
100
AcDbArc
 50
0.0079340176
 51
11.603437582
  0
ARC
  5
3C1
100
AcDbEntity
  8
0
100
AcDbCircle
 62
7
  6
CONTINUOUS
 10
5.5358361644
 20
4.3479110402
 40
0.0249982205
100
AcDbArc
 50
12.8005353941
 51
47.6232625004
  0
ARC
  5
3C2
100
AcDbEntity
  8
0
100
AcDbCircle
 62
7
  6
CONTINUOUS
 10
5.5359160432
 20
4.3479287845
 40
0.0249166335
100
AcDbArc
 50
11.6063202567
 51
12.7980458608
  0
ARC
  5
3C3
100
AcDbEntity
  8
0
100
AcDbCircle
 62
7
  6
CONTINUOUS
 10
5.5938348253
 20
4.3665604883
 40
0.0030000006
100
AcDbArc
 50
90.000010907
 51
179.999989093
  0
ARC
  5
3C4
100
AcDbEntity
  8
0
100
AcDbCircle
 62
9
  6
CONTINUOUS
 10
5.4570263669
 20
4.916151936
 40
0.0999917341
100
AcDbArc
 50
224.998773373
 51
287.9833977826
  0
ARC
  5
3C5
100
AcDbEntity
  8
0
100
AcDbCircle
 62
9
  6
CONTINUOUS
 10
5.4570938759
 20
4.9160385535
 40
0.0998624298
100
AcDbArc
 50
287.9666414867
 51
293.3353666387
  0
ARC
  5
3C6
100
AcDbEntity
  8
0
100
AcDbCircle
 62
6
  6
CONTINUOUS
 10
5.9876660724
 20
3.712877567
 40
0.1000863967
100
AcDbArc
 50
94.0912811073
 51
111.850524301
  0
ARC
  5
3C7
100
AcDbEntity
  8
0
100
AcDbCircle
 62
6
  6
CONTINUOUS
 10
5.9876418352
 20
3.7129643234
 40
0.0999974718
100
AcDbArc
 50
44.9995706191
 51
94.0809758263
  0
ARC
  5
3C8
100
AcDbEntity
  8
0
100
AcDbCircle
 62
7
  6
CONTINUOUS
 10
5.7957639179
 20
3.9733714568
 40
0.049
100
AcDbArc
 50
72.2068956492
 51
131.7931043508
  0
ARC
  5
3C9
100
AcDbEntity
  8
0
100
AcDbCircle
 62
7
  6
CONTINUOUS
 10
5.8706327675
 20
3.9986340615
 40
0.049
100
AcDbArc
 50
85.2068956492
 51
144.7931043508
  0
ARC
  5
3CA
100
AcDbEntity
  8
0
100
AcDbCircle
 62
7
  6
CONTINUOUS
 10
5.8763341387
 20
4.3144700861
 40
0.1489993414
100
AcDbArc
 50
179.9652367718
 51
181.5128114223
  0
ARC
  5
3CB
100
AcDbEntity
  8
0
100
AcDbCircle
 62
7
  6
CONTINUOUS
 10
5.8297861123
 20
4.2884369828
 40
0.0250560272
100
AcDbArc
 50
328.0347289524
 51
332.9478341372
  0
ARC
  5
3CC
100
AcDbEntity
  8
0
100
AcDbCircle
 62
7
  6
CONTINUOUS
 10
5.8297936196
 20
4.2884469061
 40
0.0250558447
100
AcDbArc
 50
314.5232878193
 51
319.4525781868
  0
ARC
  5
3CD
100
AcDbEntity
  8
0
100
AcDbCircle
 62
7
  6
CONTINUOUS
 10
5.8297905101
 20
4.2884140521
 40
0.0250443151
100
AcDbArc
 50
346.6017810222
 51
359.988370781
  0
ARC
  5
3CE
100
AcDbEntity
  8
0
100
AcDbCircle
 62
7
  6
CONTINUOUS
 10
5.8298172855
 20
4.2884483567
 40
0.0250428359
100
AcDbArc
 50
287.4688482201
 51
300.8533364503
  0
ARC
  5
3CF
100
AcDbEntity
  8
0
100
AcDbCircle
 62
7
  6
CONTINUOUS
 10
5.8298519928
 20
4.2884024069
 40
0.0249816294
100
AcDbArc
 50
332.9497389932
 51
346.588311349
  0
ARC
  5
3D0
100
AcDbEntity
  8
0
100
AcDbCircle
 62
7
  6
CONTINUOUS
 10
5.8298465471
 20
4.2883942268
 40
0.0249811734
100
AcDbArc
 50
300.8665726359
 51
314.5214602554
  0
ARC
  5
3D1
100
AcDbEntity
  8
0
100
AcDbCircle
 62
7
  6
CONTINUOUS
 10
5.8298718541
 20
4.2883817977
 40
0.0249540713
100
AcDbArc
 50
319.4493989695
 51
328.0380013321
  0
ARC
  5
3D2
100
AcDbEntity
  8
0
100
AcDbCircle
 62
7
  6
CONTINUOUS
 10
5.9823247296
 20
4.3144581076
 40
0.070102382
100
AcDbArc
 50
78.5479500849
 51
89.9917490803
  0
ARC
  5
3D3
100
AcDbEntity
  8
0
100
AcDbCircle
 62
7
  6
CONTINUOUS
 10
5.9823345757
 20
4.3145604988
 40
0.0700000201
100
AcDbArc
 50
3.173834976
 51
78.5392087856
  0
ARC
  5
3D4
100
AcDbEntity
  8
0
100
AcDbCircle
 62
7
  6
CONTINUOUS
 10
5.9823346308
 20
4.3145604371
 40
0.0699999604
100
AcDbArc
 50
281.5822464388
 51
356.7978812166
  0
ARC
  5
3D5
100
AcDbEntity
  8
0
100
AcDbCircle
 62
7
  6
CONTINUOUS
 10
5.9824429267
 20
4.3145565086
 40
0.0698918982
100
AcDbArc
 50
0.0032629173
 51
3.1820188428
  0
ARC
  5
3D6
100
AcDbEntity
  8
0
100
AcDbCircle
 62
6
  6
CONTINUOUS
 10
5.9823348248
 20
4.3045604888
 40
0.04
100
AcDbArc
 50
270.0
 51
341.7900431357
  0
ARC
  5
3D7
100
AcDbEntity
  8
0
100
AcDbCircle
 62
7
  6
CONTINUOUS
 10
5.909856386
 20
4.2884581021
 40
0.0250533391
100
AcDbArc
 50
240.0876165731
 51
252.5290682496
  0
ARC
  5
3D8
100
AcDbEntity
  8
0
100
AcDbCircle
 62
7
  6
CONTINUOUS
 10
5.9098286116
 20
4.2884078798
 40
0.0249938718
100
AcDbArc
 50
180.0079312327
 51
240.0736875015
  0
ARC
  5
3D9
100
AcDbEntity
  8
0
100
AcDbCircle
 62
7
  6
CONTINUOUS
 10
5.9052792172
 20
4.27783438
 40
0.0150556094
100
AcDbArc
 50
345.7165061772
 51
359.97186892
  0
ARC
  5
3DA
100
AcDbEntity
  8
0
100
AcDbCircle
 62
7
  6
CONTINUOUS
 10
5.9053046659
 20
4.2778695755
 40
0.0150517415
100
AcDbArc
 50
297.8440215992
 51
312.0068865189
  0
ARC
  5
3DB
100
AcDbEntity
  8
0
100
AcDbCircle
 62
7
  6
CONTINUOUS
 10
5.9053186207
 20
4.2778395368
 40
0.0150204045
100
AcDbArc
 50
316.5437713951
 51
326.3822783869
  0
ARC
  5
3DC
100
AcDbEntity
  8
0
100
AcDbCircle
 62
7
  6
CONTINUOUS
 10
5.9053171248
 20
4.2778351842
 40
0.0150194218
100
AcDbArc
 50
331.2732949043
 51
341.1335496569
  0
ARC
  5
3DD
100
AcDbEntity
  8
0
100
AcDbCircle
 62
7
  6
CONTINUOUS
 10
5.9053567085
 20
4.2778137207
 40
0.0149743938
100
AcDbArc
 50
326.3838512839
 51
331.2725166641
  0
ARC
  5
3DE
100
AcDbEntity
  8
0
100
AcDbCircle
 62
7
  6
CONTINUOUS
 10
5.9053836567
 20
4.2777786686
 40
0.0149313297
100
AcDbArc
 50
312.0151039621
 51
316.5416703223
  0
ARC
  5
3DF
100
AcDbEntity
  8
0
100
AcDbCircle
 62
7
  6
CONTINUOUS
 10
5.9054047949
 20
4.2778045296
 40
0.0149265491
100
AcDbArc
 50
341.1360768687
 51
345.7086186142
  0
ARC
  5
3E0
100
AcDbEntity
  8
0
100
AcDbCircle
 62
7
  6
CONTINUOUS
 10
5.9623348245
 20
4.2695604886
 40
0.0049999998
100
AcDbArc
 50
179.9999971355
 51
270.0000028645
  0
ARC
  5
3E1
100
AcDbEntity
  8
0
100
AcDbCircle
 62
6
  6
CONTINUOUS
 10
6.4685046559
 20
3.4679948004
 40
0.2743408966
100
AcDbArc
 50
342.0458577065
 51
342.2773037436
  0
ARC
  5
3E2
100
AcDbEntity
  8
0
100
AcDbCircle
 62
6
  6
CONTINUOUS
 10
6.5689009137
 20
3.5683894142
 40
0.2743395902
100
AcDbArc
 50
287.7249433615
 51
287.9541427391
  0
ARC
  5
3E3
100
AcDbEntity
  8
0
100
AcDbCircle
 62
6
  6
CONTINUOUS
 10
6.6247876362
 20
3.4135798838
 40
0.1082543411
100
AcDbArc
 50
321.6361986482
 51
321.9520603127
  0
ARC
  5
3E4
100
AcDbEntity
  8
0
100
AcDbCircle
 62
6
  6
CONTINUOUS
 10
6.6233700994
 20
3.4120383245
 40
0.1081660315
100
AcDbArc
 50
308.1356388516
 51
308.4563698384
  0
ARC
  5
3E5
100
AcDbEntity
  8
0
100
AcDbCircle
 62
6
  6
CONTINUOUS
 10
6.6276018608
 20
3.4147017229
 40
0.1065009212
100
AcDbArc
 50
331.9837685368
 51
334.9252036947
  0
ARC
  5
3E6
100
AcDbEntity
  8
0
100
AcDbCircle
 62
6
  6
CONTINUOUS
 10
6.622218942
 20
3.4092428965
 40
0.1064443817
100
AcDbArc
 50
295.1196953229
 51
298.0221385312
  0
ARC
  5
3E7
100
AcDbEntity
  8
0
100
AcDbCircle
 62
9
  6
CONTINUOUS
 10
6.6489867552
 20
3.3177497131
 40
0.0112676227
100
AcDbArc
 50
284.8292022729
 51
287.7470168031
  0
ARC
  5
3E8
100
AcDbEntity
  8
0
100
AcDbCircle
 62
9
  6
CONTINUOUS
 10
6.7191458954
 20
3.3879084644
 40
0.0112673133
100
AcDbArc
 50
342.2506961958
 51
345.1808814543
  0
ARC
  5
3E9
100
AcDbEntity
  8
0
100
AcDbCircle
 62
9
  6
CONTINUOUS
 10
6.7193883193
 20
3.3878424899
 40
0.0110160788
100
AcDbArc
 50
345.1901168745
 51
347.1291984211
  0
ARC
  5
3EA
100
AcDbEntity
  8
0
100
AcDbCircle
 62
9
  6
CONTINUOUS
 10
6.3239333501
 20
4.0492729754
 40
0.0999913035
100
AcDbArc
 50
156.2120226966
 51
225.0007940233
  0
ARC
  5
3EB
100
AcDbEntity
  8
0
100
AcDbCircle
 62
6
  6
CONTINUOUS
 10
7.7715524037
 20
2.9935106276
 40
2.25660507
100
AcDbArc
 50
123.6855533042
 51
124.643552999
  0
ARC
  5
3EC
100
AcDbEntity
  8
0
100
AcDbCircle
 62
6
  6
CONTINUOUS
 10
7.0433240284
 20
2.2653840051
 40
2.256531804
100
AcDbArc
 50
145.356094862
 51
146.3144004197
  0
ARC
  5
3ED
100
AcDbEntity
  8
0
100
AcDbCircle
 62
7
  6
CONTINUOUS
 10
5.8774958158
 20
4.3146412843
 40
0.1501610128
100
AcDbArc
 50
178.5801871618
 51
180.0308284967
  0
ARC
  5
3EE
100
AcDbEntity
  8
0
100
AcDbCircle
 62
7
  6
CONTINUOUS
 10
5.7876659198
 20
4.3146670963
 40
0.0903311579
100
AcDbArc
 50
171.3576848037
 51
180.0676196014
  0
ARC
  5
3EF
100
AcDbEntity
  8
0
100
AcDbCircle
 62
7
  6
CONTINUOUS
 10
5.8297845704
 20
4.345683466
 40
0.0250576242
100
AcDbArc
 50
26.9406933726
 51
31.862440403
  0
ARC
  5
3F0
100
AcDbEntity
  8
0
100
AcDbCircle
 62
7
  6
CONTINUOUS
 10
5.8297930467
 20
4.3456738807
 40
0.0250563896
100
AcDbArc
 50
40.4272230788
 51
45.3941941828
  0
ARC
  5
3F1
100
AcDbEntity
  8
0
100
AcDbCircle
 62
7
  6
CONTINUOUS
 10
5.8298163002
 20
4.3456704622
 40
0.0250451908
100
AcDbArc
 50
59.0879509362
 51
72.5304841312
  0
ARC
  5
3F2
100
AcDbEntity
  8
0
100
AcDbCircle
 62
7
  6
CONTINUOUS
 10
5.8297907346
 20
4.345706977
 40
0.0250440906
100
AcDbArc
 50
0.0115118213
 51
13.3708084206
  0
ARC
  5
3F3
100
AcDbEntity
  8
0
100
AcDbCircle
 62
7
  6
CONTINUOUS
 10
5.8298457146
 20
4.3457257421
 40
0.0249824819
100
AcDbArc
 50
45.3966681883
 51
59.0744191302
  0
ARC
  5
3F4
100
AcDbEntity
  8
0
100
AcDbCircle
 62
7
  6
CONTINUOUS
 10
5.8298535481
 20
4.3457189987
 40
0.0249800335
100
AcDbArc
 50
13.3838907959
 51
26.9397186664
  0
ARC
  5
3F5
100
AcDbEntity
  8
0
100
AcDbCircle
 62
7
  6
CONTINUOUS
 10
5.829872763
 20
4.3457396072
 40
0.0249530847
100
AcDbArc
 50
31.8598538931
 51
40.4310381697
  0
ARC
  5
3F6
100
AcDbEntity
  8
0
100
AcDbCircle
 62
7
  6
CONTINUOUS
 10
5.8775798567
 20
4.6182396892
 40
0.0115908889
100
AcDbArc
 50
244.0
 51
64.0
  0
ARC
  5
3F7
100
AcDbEntity
  8
0
100
AcDbCircle
 62
7
  6
CONTINUOUS
 10
5.9443381144
 20
4.3170604888
 40
0.08
100
AcDbArc
 50
341.790043136
 51
18.209956864
  0
ARC
  5
3F8
100
AcDbEntity
  8
0
100
AcDbCircle
 62
7
  6
CONTINUOUS
 10
5.9823237991
 20
4.3146707502
 40
0.0701102622
100
AcDbArc
 50
270.0090104472
 51
281.5728182563
  0
ARC
  5
3F9
100
AcDbEntity
  8
0
100
AcDbCircle
 62
7
  6
CONTINUOUS
 10
5.982526882
 20
4.3145619366
 40
0.0698079428
100
AcDbArc
 50
356.7878383571
 51
359.9988117384
  0
ARC
  5
3FA
100
AcDbEntity
  8
0
100
AcDbCircle
 62
6
  6
CONTINUOUS
 10
5.9823348248
 20
4.3295604888
 40
0.04
100
AcDbArc
 50
18.2099568643
 51
90.0
  0
ARC
  5
3FB
100
AcDbEntity
  8
0
100
AcDbCircle
 62
7
  6
CONTINUOUS
 10
5.9098583897
 20
4.3456585458
 40
0.0250580708
100
AcDbArc
 50
107.4723297216
 51
120.0364779758
  0
ARC
  5
3FC
100
AcDbEntity
  8
0
100
AcDbCircle
 62
7
  6
CONTINUOUS
 10
5.9098882082
 20
4.3457064471
 40
0.0250533841
100
AcDbArc
 50
168.1895347853
 51
179.987280726
  0
ARC
  5
3FD
100
AcDbEntity
  8
0
100
AcDbCircle
 62
7
  6
CONTINUOUS
 10
5.9098558235
 20
4.3456933312
 40
0.0250279513
100
AcDbArc
 50
132.3738074726
 51
144.3055477761
  0
ARC
  5
3FE
100
AcDbEntity
  8
0
100
AcDbCircle
 62
7
  6
CONTINUOUS
 10
5.9098201849
 20
4.3457158175
 40
0.0249848834
100
AcDbArc
 50
144.3151744276
 51
168.1786403537
  0
ARC
  5
3FF
100
AcDbEntity
  8
0
100
AcDbCircle
 62
7
  6
CONTINUOUS
 10
5.9098153235
 20
4.3457347489
 40
0.024970058
100
AcDbArc
 50
120.0470119752
 51
132.3692049187
  0
ARC
  5
400
100
AcDbEntity
  8
0
100
AcDbCircle
 62
7
  6
CONTINUOUS
 10
5.9052801421
 20
4.3562867377
 40
0.0150546844
100
AcDbArc
 50
0.0276000189
 51
14.2780979122
  0
ARC
  5
401
100
AcDbEntity
  8
0
100
AcDbCircle
 62
7
  6
CONTINUOUS
 10
5.9053048862
 20
4.3562516584
 40
0.015051412
100
AcDbArc
 50
48.0522227585
 51
62.1562644043
  0
ARC
  5
402
100
AcDbEntity
  8
0
100
AcDbCircle
 62
7
  6
CONTINUOUS
 10
5.9053170498
 20
4.3562801169
 40
0.0150224556
100
AcDbArc
 50
33.7060200889
 51
43.5222347642
  0
ARC
  5
403
100
AcDbEntity
  8
0
100
AcDbCircle
 62
7
  6
CONTINUOUS
 10
5.9053149148
 20
4.3562848197
 40
0.0150218148
100
AcDbArc
 50
18.803530915
 51
28.8331485517
  0
ARC
  5
404
100
AcDbEntity
  8
0
100
AcDbCircle
 62
7
  6
CONTINUOUS
 10
5.9053578816
 20
4.3563082598
 40
0.0149728704
100
AcDbArc
 50
28.8338641976
 51
33.7031384041
  0
ARC
  5
405
100
AcDbEntity
  8
0
100
AcDbCircle
 62
7
  6
CONTINUOUS
 10
5.9053826632
 20
4.3563413834
 40
0.0149326886
100
AcDbArc
 50
43.5251470056
 51
48.0440502338
  0
ARC
  5
406
100
AcDbEntity
  8
0
100
AcDbCircle
 62
7
  6
CONTINUOUS
 10
5.9054060968
 20
4.3563165996
 40
0.0149252558
100
AcDbArc
 50
14.2862537092
 51
18.8008681779
  0
ARC
  5
407
100
AcDbEntity
  8
0
100
AcDbCircle
 62
7
  6
CONTINUOUS
 10
5.9623348234
 20
4.3645604902
 40
0.0049999986
100
AcDbArc
 50
89.9999843545
 51
180.0000156455
  0
ARC
  5
408
100
AcDbEntity
  8
0
100
AcDbCircle
 62
9
  6
CONTINUOUS
 10
5.9876379402
 20
4.9161277183
 40
0.099969871
100
AcDbArc
 50
248.8168223273
 51
315.0013526987
  0
ARC
  5
409
100
AcDbEntity
  8
0
100
AcDbCircle
 62
9
  6
CONTINUOUS
 10
5.9874043278
 20
4.9156285101
 40
0.0994206819
100
AcDbArc
 50
246.2001248651
 51
248.8383977041
  0
ARC
  5
40A
100
AcDbEntity
  8
0
100
AcDbCircle
 62
6
  6
CONTINUOUS
 10
6.3241567637
 20
4.5799357437
 40
0.1002308701
100
AcDbArc
 50
193.9182215867
 51
203.6890996537
  0
ARC
  5
40B
100
AcDbEntity
  8
0
100
AcDbCircle
 62
6
  6
CONTINUOUS
 10
6.3239284776
 20
4.5798698656
 40
0.0999945074
100
AcDbArc
 50
134.9991330238
 51
181.2935375537
  0
ARC
  5
40C
100
AcDbEntity
  8
0
100
AcDbCircle
 62
6
  6
CONTINUOUS
 10
6.3237673102
 20
4.5798546807
 40
0.0998334078
100
AcDbArc
 50
181.2869129937
 51
193.9268273817
  0
ARC
  5
40D
100
AcDbEntity
  8
0
100
AcDbCircle
 62
6
  6
CONTINUOUS
 10
6.5689005995
 20
5.0607305806
 40
0.274340622
100
AcDbArc
 50
72.0458578839
 51
72.2768140029
  0
ARC
  5
40E
100
AcDbEntity
  8
0
100
AcDbCircle
 62
6
  6
CONTINUOUS
 10
6.4685059117
 20
5.1611265822
 40
0.2743395772
100
AcDbArc
 50
17.724970792
 51
17.9541426792
  0
ARC
  5
40F
100
AcDbEntity
  8
0
100
AcDbCircle
 62
6
  6
CONTINUOUS
 10
6.6233142029
 20
5.2170117424
 40
0.1082563241
100
AcDbArc
 50
51.6374352271
 51
51.9544792847
  0
ARC
  5
410
100
AcDbEntity
  8
0
100
AcDbCircle
 62
6
  6
CONTINUOUS
 10
6.6248552556
 20
5.2155943938
 40
0.1081682408
100
AcDbArc
 50
38.132524769
 51
38.4547879319
  0
ARC
  5
411
100
AcDbEntity
  8
0
100
AcDbCircle
 62
6
  6
CONTINUOUS
 10
6.6221971763
 20
5.2198345758
 40
0.1064930135
100
AcDbArc
 50
61.948622395
 51
64.9021096142
  0
ARC
  5
412
100
AcDbEntity
  8
0
100
AcDbCircle
 62
6
  6
CONTINUOUS
 10
6.627644726
 20
5.2144408538
 40
0.106452936
100
AcDbArc
 50
25.1474854125
 51
28.0618282745
  0
ARC
  5
413
100
AcDbEntity
  8
0
100
AcDbCircle
 62
9
  6
CONTINUOUS
 10
6.7191456006
 20
5.2412124193
 40
0.0112676227
100
AcDbArc
 50
14.8292015255
 51
17.7470167956
  0
ARC
  5
414
100
AcDbEntity
  8
0
100
AcDbCircle
 62
9
  6
CONTINUOUS
 10
6.6489868491
 20
5.3113715589
 40
0.0112673139
100
AcDbArc
 50
72.2506964283
 51
75.1808684114
  0
ARC
  5
415
100
AcDbEntity
  8
0
100
AcDbCircle
 62
9
  6
CONTINUOUS
 10
6.6490617621
 20
5.3116490374
 40
0.0109799046
100
AcDbArc
 50
75.1884399226
 51
78.2258146688
  0
ARC
  5
416
100
AcDbEntity
  8
0
100
AcDbCircle
 62
6
  6
CONTINUOUS
 10
7.0433846824
 20
6.3637780653
 40
2.2566050657
100
AcDbArc
 50
213.6855533034
 51
214.6435530189
  0
ARC
  5
417
100
AcDbEntity
  8
0
100
AcDbCircle
 62
6
  6
CONTINUOUS
 10
7.7715103332
 20
5.63554827
 40
2.2565300792
100
AcDbArc
 50
235.3560880375
 51
236.3144005582
  0
SPLINE
  5
418
100
AcDbEntity
  8
0
100
AcDbSpline
 62
6
  6
CONTINUOUS
 70
0
 71
3
 72
9
 73
5
 74
3
 42
0.0000001
 43
0.0000001
 44
0.0000000001
 12
-0.0141123944
 22
0.0045729085
 32
0.0
 13
-0.0134397054
 23
0.0062805642
 33
0.0
 40
0.0
 40
0.0
 40
0.0
 40
0.0
 40
0.5268067933
 40
1.0
 40
1.0
 40
1.0
 40
1.0
 10
4.7912019851
 20
3.3074092034
 30
0.0
 10
4.7887238167
 20
3.3082122165
 30
0.0
 10
4.7840609071
 20
3.3098687389
 30
0.0
 10
4.7795112426
 20
3.3118154107
 30
0.0
 10
4.7773913835
 20
3.3128060509
 30
0.0
 11
4.7912019851
 21
3.3074092034
 31
0.0
 11
4.7838423402
 21
3.3100380749
 31
0.0
 11
4.7773913835
 21
3.3128060509
 31
0.0
  0
SPLINE
  5
419
100
AcDbEntity
  8
0
100
AcDbSpline
 62
6
  6
CONTINUOUS
 70
0
 71
3
 72
11
 73
7
 74
5
 42
0.0000001
 43
0.0000001
 44
0.0000000001
 12
-0.0104822085
 22
0.0055658527
 32
0.0
 13
-0.0099001869
 23
0.0065453579
 33
0.0
 40
0.0
 40
0.0
 40
0.0
 40
0.0
 40
0.2620956479
 40
0.5150625238
 40
0.7605146779
 40
1.0
 40
1.0
 40
1.0
 40
1.0
 10
4.7725294823
 20
3.3152307851
 30
0.0
 10
4.7716137019
 20
3.315717047
 30
0.0
 10
4.7698278588
 20
3.3166989073
 30
0.0
 10
4.7672317749
 20
3.3182202004
 30
0.0
 10
4.7647497517
 20
3.3197573096
 30
0.0
 10
4.7631390955
 20
3.3207997925
 30
0.0
 10
4.762348779
 20
3.3213222983
 30
0.0
 11
4.7725294823
 21
3.3152307851
 31
0.0
 11
4.7698033622
 21
3.3167288534
 31
0.0
 11
4.7672125393
 21
3.3182458538
 31
0.0
 11
4.7647349296
 21
3.3197780196
 31
0.0
 11
4.762348779
 21
3.3213222983
 31
0.0
  0
LINE
  5
41A
100
AcDbEntity
  8
0
100
AcDbLine
 62
6
  6
CONTINUOUS
 10
4.762348779
 20
3.3213222983
 11
4.754630535
 21
3.3268612567
  0
SPLINE
  5
41B
100
AcDbEntity
  8
0
100
AcDbSpline
 62
6
  6
CONTINUOUS
 70
0
 71
3
 72
10
 73
6
 74
4
 42
0.0000001
 43
0.0000001
 44
0.0000000001
 12
-0.0094764727
 22
0.0094764727
 32
0.0
 13
-0.0083350525
 23
0.0104944734
 33
0.0
 40
0.0
 40
0.0
 40
0.0
 40
0.0
 40
0.5151453141
 40
0.7601274489
 40
1.0
 40
1.0
 40
1.0
 40
1.0
 10
4.744052593
 20
3.3362782571
 30
0.0
 10
4.7424253395
 20
3.3379055106
 30
0.0
 10
4.7400827669
 20
3.3403669699
 30
0.0
 10
4.7371503052
 20
3.3437376199
 30
0.0
 10
4.7357777716
 20
3.3454137188
 30
0.0
 10
4.7351113215
 20
3.3462528309
 30
0.0
 11
4.744052593
 21
3.3362782571
 31
0.0
 11
4.7393023161
 21
3.3412880516
 31
0.0
 11
4.7371479037
 21
3.3437655199
 31
0.0
 11
4.7351113215
 21
3.3462528309
 31
0.0
  0
SPLINE
  5
41C
100
AcDbEntity
  8
0
100
AcDbSpline
 62
6
  6
CONTINUOUS
 70
0
 71
3
 72
9
 73
5
 74
3
 42
0.0000001
 43
0.0000001
 44
0.0000000001
 12
-0.0045900931
 22
-0.014165427
 32
0.0
 13
-0.0063111641
 23
-0.0134869375
 33
0.0
 40
0.0
 40
0.0
 40
0.0
 40
0.0
 40
0.5269057239
 40
1.0
 40
1.0
 40
1.0
 40
1.0
 10
6.7294861103
 20
3.3834276489
 30
0.0
 10
6.7286799282
 20
3.3809397007
 30
0.0
 10
6.7270166537
 20
3.3762594233
 30
0.0
 10
6.7250608943
 20
3.3716933868
 30
0.0
 10
6.7240656358
 20
3.3695665225
 30
0.0
 11
6.7294861103
 21
3.3834276489
 31
0.0
 11
6.726845948
 21
3.3760392875
 31
0.0
 11
6.7240656358
 21
3.3695665225
 31
0.0
  0
SPLINE
  5
41D
100
AcDbEntity
  8
0
100
AcDbSpline
 62
6
  6
CONTINUOUS
 70
0
 71
3
 72
11
 73
7
 74
5
 42
0.0000001
 43
0.0000001
 44
0.0000000001
 12
-0.0055635634
 22
-0.0104567626
 32
0.0
 13
-0.0065370578
 23
-0.0098774489
 33
0.0
 40
0.0
 40
0.0
 40
0.0
 40
0.0
 40
0.2620272098
 40
0.514974107
 40
0.7604501233
 40
1.0
 40
1.0
 40
1.0
 40
1.0
 10
6.7216224246
 20
3.3646759317
 30
0.0
 10
6.7211364896
 20
3.3637626129
 30
0.0
 10
6.7201553316
 20
3.361981399
 30
0.0
 10
6.7186354072
 20
3.3593917309
 30
0.0
 10
6.7170997991
 20
3.3569152766
 30
0.0
 10
6.7160584973
 20
3.3553079745
 30
0.0
 10
6.7155365135
 20
3.3545192606
 30
0.0
 11
6.7216224246
 21
3.3646759317
 31
0.0
 11
6.7201255709
 21
3.3619571112
 31
0.0
 11
6.7186099321
 21
3.3593726677
 31
0.0
 11
6.7170792614
 21
3.3569005961
 31
0.0
 11
6.7155365135
 21
3.3545192606
 31
0.0
  0
LINE
  5
41E
100
AcDbEntity
  8
0
100
AcDbLine
 62
6
  6
CONTINUOUS
 10
6.7155365135
 20
3.3545192606
 11
6.7100374264
 21
3.3468605042
  0
SPLINE
  5
41F
100
AcDbEntity
  8
0
100
AcDbSpline
 62
6
  6
CONTINUOUS
 70
0
 71
3
 72
10
 73
6
 74
4
 42
0.0000001
 43
0.0000001
 44
0.0000000001
 12
-0.0094782118
 22
-0.0094782118
 32
0.0
 13
-0.010496589
 23
-0.0083363431
 33
0.0
 40
0.0
 40
0.0
 40
0.0
 40
0.0
 40
0.5151464579
 40
0.7601278212
 40
1.0
 40
1.0
 40
1.0
 40
1.0
 10
6.7006170565
 20
3.3362782571
 30
0.0
 10
6.6989895008
 20
3.3346507013
 30
0.0
 10
6.6965275769
 20
3.3323077086
 30
0.0
 10
6.6931562666
 20
3.3293747565
 30
0.0
 10
6.6914798363
 20
3.3280020079
 30
0.0
 10
6.6906405564
 20
3.3273354556
 30
0.0
 11
6.7006170565
 21
3.3362782571
 31
0.0
 11
6.6956063065
 21
3.3315271243
 31
0.0
 11
6.6931283607
 21
3.3293723585
 31
0.0
 11
6.6906405564
 21
3.3273354556
 31
0.0
  0
SPLINE
  5
420
100
AcDbEntity
  8
0
100
AcDbSpline
 62
6
  6
CONTINUOUS
 70
0
 71
3
 72
9
 73
5
 74
3
 42
0.0000001
 43
0.0000001
 44
0.0000000001
 12
0.0142064858
 22
-0.0046033977
 32
0.0
 13
0.0135234853
 23
-0.006334892
 33
0.0
 40
0.0
 40
0.0
 40
0.0
 40
0.0
 40
0.5269822831
 40
1.0
 40
1.0
 40
1.0
 40
1.0
 10
6.6534676649
 20
5.3217117745
 30
0.0
 10
6.655963187
 20
5.3209031381
 30
0.0
 10
6.6606569102
 20
5.3192346331
 30
0.0
 10
6.6652356176
 20
5.3172718281
 30
0.0
 10
6.6673679003
 20
5.3162729893
 30
0.0
 11
6.6534676649
 21
5.3217117745
 31
0.0
 11
6.6608782639
 21
5.3190628628
 31
0.0
 11
6.6673679003
 21
5.3162729893
 31
0.0
  0
SPLINE
  5
421
100
AcDbEntity
  8
0
100
AcDbSpline
 62
6
  6
CONTINUOUS
 70
0
 71
3
 72
11
 73
7
 74
5
 42
0.0000001
 43
0.0000001
 44
0.0000000001
 12
0.0104470943
 22
-0.0055665663
 32
0.0
 13
0.0098687823
 23
-0.0065372452
 33
0.0
 40
0.0
 40
0.0
 40
0.0
 40
0.0
 40
0.2619851231
 40
0.5149181626
 40
0.7604080146
 40
1.0
 40
1.0
 40
1.0
 40
1.0
 10
6.6722769131
 20
5.3138174566
 30
0.0
 10
6.6731892409
 20
5.3133313374
 30
0.0
 10
6.6749686115
 20
5.3123498281
 30
0.0
 10
6.6775557678
 20
5.3108295235
 30
0.0
 10
6.6800301637
 20
5.3092936105
 30
0.0
 10
6.6816362979
 20
5.3082522183
 30
0.0
 10
6.6824244582
 20
5.3077301277
 30
0.0
 11
6.6722769131
 21
5.3138174566
 31
0.0
 11
6.6749927861
 21
5.3123201529
 31
0.0
 11
6.6775747315
 21
5.310804141
 31
0.0
 11
6.6800447554
 21
5.3092731742
 31
0.0
 11
6.6824244582
 21
5.3077301277
 31
0.0
  0
LINE
  5
422
100
AcDbEntity
  8
0
100
AcDbLine
 62
6
  6
CONTINUOUS
 10
6.6824244582
 20
5.3077301277
 11
6.6900312054
 21
5.3022659111
  0
SPLINE
  5
423
100
AcDbEntity
  8
0
100
AcDbSpline
 62
6
  6
CONTINUOUS
 70
0
 71
3
 72
10
 73
6
 74
4
 42
0.0000001
 43
0.0000001
 44
0.0000000001
 12
0.0094803191
 22
-0.0094803191
 32
0.0
 13
0.0083379068
 23
-0.0104991528
 33
0.0
 40
0.0
 40
0.0
 40
0.0
 40
0.0
 40
0.5151478429
 40
0.7601282714
 40
1.0
 40
1.0
 40
1.0
 40
1.0
 10
6.7006170565
 20
5.2928427206
 30
0.0
 10
6.7022449785
 20
5.2912147986
 30
0.0
 10
6.7045884804
 20
5.2887523118
 30
0.0
 10
6.7075220268
 20
5.2853802014
 30
0.0
 10
6.7088950358
 20
5.2837033694
 30
0.0
 10
6.7095617119
 20
5.2828638861
 30
0.0
 11
6.7006170565
 21
5.2928427206
 31
0.0
 11
6.7053692263
 21
5.2878308126
 31
0.0
 11
6.7075244203
 21
5.2853522883
 31
0.0
 11
6.7095617119
 21
5.2828638861
 31
0.0
  0
SPLINE
  5
424
100
AcDbEntity
  8
0
100
AcDbSpline
 62
6
  6
CONTINUOUS
 70
0
 71
3
 72
9
 73
5
 74
3
 42
0.0000001
 43
0.0000001
 44
0.0000000001
 12
0.0046034276
 22
0.0142065781
 32
0.0
 13
0.0063349453
 23
0.0135235673
 33
0.0
 40
0.0
 40
0.0
 40
0.0
 40
0.0
 40
0.526982455
 40
1.0
 40
1.0
 40
1.0
 40
1.0
 10
4.7151835391
 20
5.245693329
 30
0.0
 10
4.715992181
 20
5.2481888681
 30
0.0
 10
4.7176606978
 20
5.2528826215
 30
0.0
 10
4.7196235187
 20
5.2574613574
 30
0.0
 10
4.7206223654
 20
5.2595936522
 30
0.0
 11
4.7151835391
 21
5.245693329
 31
0.0
 11
4.7178324705
 21
5.2531039779
 31
0.0
 11
4.7206223654
 21
5.2595936522
 31
0.0
  0
SPLINE
  5
425
100
AcDbEntity
  8
0
100
AcDbSpline
 62
6
  6
CONTINUOUS
 70
0
 71
3
 72
11
 73
7
 74
5
 42
0.0000001
 43
0.0000001
 44
0.0000000001
 12
0.0055666022
 22
0.010447132
 32
0.0
 13
0.0065372854
 23
0.0098688159
 33
0.0
 40
0.0
 40
0.0
 40
0.0
 40
0.0
 40
0.2619850906
 40
0.5149181076
 40
0.760407964
 40
1.0
 40
1.0
 40
1.0
 40
1.0
 10
4.7230779164
 20
5.2645026886
 30
0.0
 10
4.7235640387
 20
5.2654150196
 30
0.0
 10
4.7245455542
 20
5.2671943963
 30
0.0
 10
4.7260658684
 20
5.2697815616
 30
0.0
 10
4.7276017909
 20
5.2722559662
 30
0.0
 10
4.7286431895
 20
5.2738621062
 30
0.0
 10
4.7291652833
 20
5.2746502694
 30
0.0
 11
4.7230779164
 21
5.2645026886
 31
0.0
 11
4.7245752295
 21
5.2672185709
 31
0.0
 11
4.726091251
 21
5.2698005252
 31
0.0
 11
4.7276222272
 21
5.2722705578
 31
0.0
 11
4.7291652833
 21
5.2746502694
 31
0.0
  0
LINE
  5
426
100
AcDbEntity
  8
0
100
AcDbLine
 62
6
  6
CONTINUOUS
 10
4.7291652833
 20
5.2746502694
 11
4.7346293948
 21
5.2822568596
  0
SPLINE
  5
427
100
AcDbEntity
  8
0
100
AcDbSpline
 62
6
  6
CONTINUOUS
 70
0
 71
3
 72
10
 73
6
 74
4
 42
0.0000001
 43
0.0000001
 44
0.0000000001
 12
0.0094803233
 22
0.0094803233
 32
0.0
 13
0.0104991579
 23
0.0083379099
 33
0.0
 40
0.0
 40
0.0
 40
0.0
 40
0.0
 40
0.5151478457
 40
0.7601282723
 40
1.0
 40
1.0
 40
1.0
 40
1.0
 10
4.744052593
 20
5.2928427206
 30
0.0
 10
4.7456805157
 20
5.2944706433
 30
0.0
 10
4.7481430037
 20
5.2968141462
 30
0.0
 10
4.7515151157
 20
5.2997476938
 30
0.0
 10
4.7531919484
 20
5.3011207033
 30
0.0
 10
4.7540314322
 20
5.3017873796
 30
0.0
 11
4.744052593
 21
5.2928427206
 31
0.0
 11
4.7490645033
 21
5.2975948924
 31
0.0
 11
4.7515430287
 21
5.2997500873
 31
0.0
 11
4.7540314322
 21
5.3017873796
 31
0.0
  0
LINE
  5
428
100
AcDbEntity
  8
0
100
AcDbLine
 62
7
  6
CONTINUOUS
 10
5.5910651947
 20
4.297713366
 11
5.5908348248
 21
4.2965604888
  0
LINE
  5
429
100
AcDbEntity
  8
0
100
AcDbLine
 62
7
  6
CONTINUOUS
 10
5.6014652042
 20
4.2993351832
 11
5.6003247145
 21
4.2995604888
  0
SPLINE
  5
42A
100
AcDbEntity
  8
0
100
AcDbSpline
 62
7
  6
CONTINUOUS
 70
0
 71
3
 72
9
 73
5
 74
3
 42
0.0000001
 43
0.0000001
 44
0.0000000001
 12
0.0000006059
 22
-0.0179676051
 32
0.0
 13
-0.0036155465
 23
-0.0176000755
 33
0.0
 40
0.0
 40
0.0
 40
0.0
 40
0.0
 40
0.4998027283
 40
1.0
 40
1.0
 40
1.0
 40
1.0
 10
5.8273348248
 20
4.3145604888
 30
0.0
 10
5.8273349257
 20
4.3115670695
 30
0.0
 10
5.8270509007
 20
4.305574128
 30
0.0
 10
5.8261640696
 20
4.2996382347
 30
0.0
 10
5.8255612408
 20
4.2967037314
 30
0.0
 11
5.8273348248
 21
4.3145604888
 31
0.0
 11
5.8269004301
 21
4.3055907432
 31
0.0
 11
5.8255612408
 21
4.2967037314
 31
0.0
  0
SPLINE
  5
42B
100
AcDbEntity
  8
0
100
AcDbSpline
 62
7
  6
CONTINUOUS
 70
0
 71
3
 72
46
 73
42
 74
40
 42
0.0000001
 43
0.0000001
 44
0.0000000001
 12
-0.0367109656
 22
-0.1787048692
 32
0.0
 13
-0.0278912409
 23
0.1802919963
 33
0.0
 40
0.0
 40
0.0
 40
0.0
 40
0.0
 40
0.0312633463
 40
0.0625107492
 40
0.0937597314
 40
0.1250143275
 40
0.1406435639
 40
0.1562750606
 40
0.1875355185
 40
0.2187841125
 40
0.2500298616
 40
0.28128981
 40
0.3125397276
 40
0.3437827881
 40
0.3594083787
 40
0.375033693
 40
0.4062763877
 40
0.437520303
 40
0.4687679296
 40
0.5000114469
 40
0.5156349016
 40
0.5312587886
 40
0.5625043852
 40
0.593751451
 40
0.6249928942
 40
0.6562358531
 40
0.6874854544
 40
0.7187291005
 40
0.7343582023
 40
0.7499909483
 40
0.7656240069
 40
0.7812550819
 40
0.7968833756
 40
0.8125112538
 40
0.8281426309
 40
0.8437779466
 40
0.8750376071
 40
0.9062833183
 40
0.9375278287
 40
0.9687627152
 40
1.0
 40
1.0
 40
1.0
 40
1.0
 10
5.8255612408
 20
4.2967037314
 30
0.0
 10
5.8251786716
 20
4.2948414274
 30
0.0
 10
5.8242848089
 20
4.2911427216
 30
0.0
 10
5.8225390936
 20
4.2857091837
 30
0.0
 10
5.8203708958
 20
4.2804297027
 30
0.0
 10
5.8182000251
 20
4.2761958004
 30
0.0
 10
5.8162404175
 20
4.2729366564
 30
0.0
 10
5.8141303764
 20
4.2697724073
 30
0.0
 10
5.8112113516
 20
4.2660124959
 30
0.0
 10
5.8072787427
 20
4.2618708606
 30
0.0
 10
5.8029385699
 20
4.2581586158
 30
0.0
 10
5.7982620991
 20
4.2548827745
 30
0.0
 10
5.7933099137
 20
4.252043041
 30
0.0
 10
5.7889935762
 20
4.2500439003
 30
0.0
 10
5.7854503263
 20
4.2486671313
 30
0.0
 10
5.7818530196
 20
4.2474385577
 30
0.0
 10
5.7772651824
 20
4.2461846184
 30
0.0
 10
5.7716537731
 20
4.2451454409
 30
0.0
 10
5.7659744084
 20
4.2445846731
 30
0.0
 10
5.7612180256
 20
4.2445237133
 30
0.0
 10
5.757422056
 20
4.2447243225
 30
0.0
 10
5.7536383311
 20
4.2450901975
 30
0.0
 10
5.7489429926
 20
4.2458511535
 30
0.0
 10
5.743405564
 20
4.2472299305
 30
0.0
 10
5.7380006314
 20
4.2490607897
 30
0.0
 10
5.7327674992
 20
4.2513375413
 30
0.0
 10
5.7277468212
 20
4.2540516421
 30
0.0
 10
5.7237821563
 20
4.2566829791
 30
0.0
 10
5.7207741097
 20
4.2590088524
 30
0.0
 10
5.7186052277
 20
4.2608623418
 30
0.0
 10
5.7165302218
 20
4.2628204731
 30
0.0
 10
5.7145554998
 20
4.2648793891
 30
0.0
 10
5.7126877982
 20
4.2670354978
 30
0.0
 10
5.7109324147
 20
4.2692839413
 30
0.0
 10
5.7092889175
 20
4.271615884
 30
0.0
 10
5.7072472634
 20
4.2748250086
 30
0.0
 10
5.7049740395
 20
4.2790057366
 30
0.0
 10
5.7026876193
 20
4.2842351946
 30
0.0
 10
5.7008272811
 20
4.2896287957
 30
0.0
 10
5.6993760757
 20
4.2951450055
 30
0.0
 10
5.6986702772
 20
4.2988814842
 30
0.0
 10
5.6983798616
 20
4.3007587617
 30
0.0
 11
5.8255612408
 21
4.2967037314
 31
0.0
 11
5.8242170398
 21
4.291160813
 31
0.0
 11
5.8224686905
 21
4.2857348638
 31
0.0
 11
5.8202982663
 21
4.2804632233
 31
0.0
 11
5.8176916751
 21
4.2753919024
 31
0.0
 11
5.8162217097
 21
4.2729486726
 31
0.0
 11
5.814639047
 21
4.2705763952
 31
0.0
 11
5.8111391584
 21
4.2660735528
 31
0.0
 11
5.8072106956
 21
4.261942293
 31
0.0
 11
5.8028832115
 21
4.2582318899
 31
0.0
 11
5.7982156034
 21
4.2549551256
 31
0.0
 11
5.7932715473
 21
4.2521162543
 31
0.0
 11
5.7881005837
 21
4.2497183898
 31
0.0
 11
5.7854435499
 21
4.2486856514
 31
0.0
 11
5.7827458978
 21
4.247764368
 31
0.0
 11
5.7772475874
 21
4.2462622228
 31
0.0
 11
5.7716426787
 21
4.245225211
 31
0.0
 11
5.7659694679
 21
4.2446659303
 31
0.0
 11
5.7602699516
 21
4.2445946409
 31
0.0
 11
5.7574236287
 21
4.2447449785
 31
0.0
 11
5.7545864596
 21
4.24501898
 31
0.0
 11
5.7489591863
 21
4.2459287539
 31
0.0
 11
5.7434272928
 21
4.2473053813
 31
0.0
 11
5.7380293729
 21
4.2491350577
 31
0.0
 11
5.7328032931
 21
4.2514102491
 31
0.0
 11
5.7277904488
 21
4.2541256892
 31
0.0
 11
5.7230443932
 21
4.2572823951
 31
0.0
 11
5.7207889331
 21
4.2590267946
 31
0.0
 11
5.7186209037
 21
4.2608797571
 31
0.0
 11
5.7165468186
 21
4.2628373879
 31
0.0
 11
5.7145731869
 21
4.2648957515
 31
0.0
 11
5.7127065025
 21
4.2670509031
 31
0.0
 11
5.7109512308
 21
4.2692976291
 31
0.0
 11
5.7093077635
 21
4.2716281682
 31
0.0
 11
5.7077760053
 21
4.2740344543
 31
0.0
 11
5.7050471558
 21
4.2790421016
 31
0.0
 11
5.7027585134
 21
4.2842628532
 31
0.0
 11
5.7008952738
 21
4.289649872
 31
0.0
 11
5.699441504
 21
4.2951596972
 31
0.0
 11
5.6983798616
 21
4.3007587617
 31
0.0
  0
SPLINE
  5
42C
100
AcDbEntity
  8
0
100
AcDbSpline
 62
7
  6
CONTINUOUS
 70
0
 71
3
 72
9
 73
5
 74
3
 42
0.0000001
 43
0.0000001
 44
0.0000000001
 12
-0.0021172577
 22
0.0136861829
 32
0.0
 13
-0.0000003767
 23
0.0138489849
 33
0.0
 40
0.0
 40
0.0
 40
0.0
 40
0.0
 40
0.2501619424
 40
1.0
 40
1.0
 40
1.0
 40
1.0
 10
5.6983798616
 20
4.3007587617
 30
0.0
 10
5.6982033092
 20
4.3019000157
 30
0.0
 10
5.6975895248
 20
4.3064759692
 30
0.0
 10
5.6973349189
 20
4.3110989902
 30
0.0
 10
5.6973348248
 20
4.3145604888
 30
0.0
 11
5.6983798616
 21
4.3007587617
 31
0.0
 11
5.697918696
 21
4.3041924201
 31
0.0
 11
5.6973348248
 21
4.3145604888
 31
0.0
  0
SPLINE
  5
42D
100
AcDbEntity
  8
0
100
AcDbSpline
 62
7
  6
CONTINUOUS
 70
0
 71
3
 72
53
 73
49
 74
47
 42
0.0000001
 43
0.0000001
 44
0.0000000001
 12
0.0032725904
 22
-0.1211259369
 32
0.0
 13
0.0120756804
 23
0.1205669124
 33
0.0
 40
0.0
 40
0.0
 40
0.0
 40
0.0
 40
0.062409606
 40
0.0936187791
 40
0.1248279338
 40
0.1560383832
 40
0.1872512632
 40
0.2184699487
 40
0.2340884972
 40
0.2497057188
 40
0.2653232487
 40
0.2809451762
 40
0.296570756
 40
0.3121976283
 40
0.343436822
 40
0.3746792787
 40
0.3903061782
 40
0.405931597
 40
0.4215567781
 40
0.4371863319
 40
0.4684611707
 40
0.4841020893
 40
0.4997349733
 40
0.5153692966
 40
0.5310132093
 40
0.5466630416
 40
0.5623114165
 40
0.5779500598
 40
0.5935841412
 40
0.6092224256
 40
0.6248638476
 40
0.6561174197
 40
0.6873692738
 40
0.7030066644
 40
0.7186455004
 40
0.7499050579
 40
0.7655385607
 40
0.781176128
 40
0.7968188905
 40
0.812464441
 40
0.8281075555
 40
0.8437417801
 40
0.8593716445
 40
0.8750051203
 40
0.9062767273
 40
0.9375237718
 40
0.9687596345
 40
1.0
 40
1.0
 40
1.0
 40
1.0
 10
5.7273867315
 20
4.310536433
 30
0.0
 10
5.7274548119
 20
4.3080166257
 30
0.0
 10
5.7276651112
 20
4.304236759
 30
0.0
 10
5.7282733055
 20
4.2992300595
 30
0.0
 10
5.7289261116
 20
4.2955030424
 30
0.0
 10
5.7298098319
 20
4.2918229369
 30
0.0
 10
5.7309609839
 20
4.2882162293
 30
0.0
 10
5.7321711081
 20
4.2853001691
 30
0.0
 10
5.7333024191
 20
4.283044563
 30
0.0
 10
5.7342350021
 20
4.2813969057
 30
0.0
 10
5.7352540316
 20
4.279801023
 30
0.0
 10
5.7363595187
 20
4.2782633449
 30
0.0
 10
5.737546849
 20
4.2767874466
 30
0.0
 10
5.7392331623
 20
4.2749079932
 30
0.0
 10
5.7415270674
 20
4.2727328973
 30
0.0
 10
5.7440354361
 20
4.2708097976
 30
0.0
 10
5.7461508657
 20
4.2694310325
 30
0.0
 10
5.7477890831
 20
4.2684799941
 30
0.0
 10
5.7494756179
 20
4.267617056
 30
0.0
 10
5.7517840761
 20
4.2665904949
 30
0.0
 10
5.7541764154
 20
4.2657577017
 30
0.0
 10
5.7566301897
 20
4.2651507567
 30
0.0
 10
5.7584967241
 20
4.2648169676
 30
0.0
 10
5.7603822478
 20
4.2646147586
 30
0.0
 10
5.7622780496
 20
4.264547283
 30
0.0
 10
5.7641744491
 20
4.2646115808
 30
0.0
 10
5.7660617539
 20
4.2648058668
 30
0.0
 10
5.7679306172
 20
4.2651291003
 30
0.0
 10
5.7697733236
 20
4.2655756553
 30
0.0
 10
5.7715845263
 20
4.2661365393
 30
0.0
 10
5.7739497852
 20
4.2670258344
 30
0.0
 10
5.776806962
 20
4.2683828844
 30
0.0
 10
5.7795035153
 20
4.2700344033
 30
0.0
 10
5.7815512479
 20
4.2715142246
 30
0.0
 10
5.7835212786
 20
4.2730963055
 30
0.0
 10
5.7853653381
 20
4.27483051
 30
0.0
 10
5.7870577172
 20
4.2767066098
 30
0.0
 10
5.7882472176
 20
4.2781828882
 30
0.0
 10
5.7893554549
 20
4.2797215473
 30
0.0
 10
5.7903809155
 20
4.2813168132
 30
0.0
 10
5.7913223089
 20
4.2829626602
 30
0.0
 10
5.7921779625
 20
4.2846539087
 30
0.0
 10
5.7929497773
 20
4.2863845186
 30
0.0
 10
5.7938728084
 20
4.2887363819
 30
0.0
 10
5.7948379088
 20
4.2917456279
 30
0.0
 10
5.7957291514
 20
4.29542885
 30
0.0
 10
5.7963867595
 20
4.2991589017
 30
0.0
 10
5.7966926905
 20
4.3016648206
 30
0.0
 10
5.7968184401
 20
4.3029203387
 30
0.0
 11
5.7273867315
 21
4.310536433
 31
0.0
 11
5.7278444481
 21
4.3029881173
 31
0.0
 11
5.7283060755
 21
4.299234779
 31
0.0
 11
5.7289645811
 21
4.2955109366
 31
0.0
 11
5.7298543591
 21
4.291835326
 31
0.0
 11
5.7310110254
 21
4.2882344693
 31
0.0
 11
5.7324672838
 21
4.2847432404
 31
0.0
 11
5.7333164235
 21
4.283051932
 31
0.0
 11
5.7342493908
 21
4.2814055644
 31
0.0
 11
5.7352683094
 21
4.279810917
 31
0.0
 11
5.7363730323
 21
4.2782738094
 31
0.0
 11
5.7375597425
 21
4.2767985105
 31
0.0
 11
5.7388242894
 21
4.2753891481
 31
0.0
 11
5.7415698561
 21
4.2727833781
 31
0.0
 11
5.7445730621
 21
4.2704786176
 31
0.0
 11
5.7461594882
 21
4.2694448642
 31
0.0
 11
5.7477971283
 21
4.2684946805
 31
0.0
 11
5.7494828222
 21
4.2676326823
 31
0.0
 11
5.751213422
 21
4.2668635032
 31
0.0
 11
5.7547948429
 21
4.2656248286
 31
0.0
 11
5.7566348966
 21
4.2651709214
 31
0.0
 11
5.7584998108
 21
4.2648389046
 31
0.0
 11
5.7603834605
 21
4.2646372488
 31
0.0
 11
5.7622778155
 21
4.2645692481
 31
0.0
 11
5.7641730272
 21
4.2646332556
 31
0.0
 11
5.7660591747
 21
4.2648274269
 31
0.0
 11
5.7679265053
 21
4.265149702
 31
0.0
 11
5.7697678917
 21
4.2655946585
 31
0.0
 11
5.771578283
 21
4.2661542144
 31
0.0
 11
5.7733526853
 21
4.2668202154
 31
0.0
 11
5.7767749324
 21
4.2684418169
 31
0.0
 11
5.7800057003
 21
4.2704171469
 31
0.0
 11
5.7815414546
 21
4.2715269523
 31
0.0
 11
5.7830186922
 21
4.2727138147
 31
0.0
 11
5.7857756146
 21
4.2753111669
 31
0.0
 11
5.7870442439
 21
4.2767179377
 31
0.0
 11
5.7882334972
 21
4.2781930537
 31
0.0
 11
5.7893415732
 21
4.2797308586
 31
0.0
 11
5.7903669834
 21
4.2813253777
 31
0.0
 11
5.7913082389
 21
4.2829706364
 31
0.0
 11
5.7921640947
 21
4.2846606857
 31
0.0
 11
5.7929364558
 21
4.2863899089
 31
0.0
 11
5.7936294216
 21
4.2881529206
 31
0.0
 11
5.7947937441
 21
4.2917587874
 31
0.0
 11
5.7956903537
 21
4.2954373018
 31
0.0
 11
5.7963536245
 21
4.2991635854
 31
0.0
 11
5.7968184401
 21
4.3029203387
 31
0.0
  0
SPLINE
  5
42E
100
AcDbEntity
  8
0
100
AcDbSpline
 62
7
  6
CONTINUOUS
 70
0
 71
3
 72
9
 73
5
 74
3
 42
0.0000001
 43
0.0000001
 44
0.0000000001
 12
0.0011614877
 22
0.0115966126
 32
0.0
 13
-0.0
 23
0.0116546333
 33
0.0
 40
0.0
 40
0.0
 40
0.0
 40
0.0
 40
0.2500832818
 40
1.0
 40
1.0
 40
1.0
 40
1.0
 10
5.7968184401
 20
4.3029203387
 30
0.0
 10
5.796915263
 20
4.303887045
 30
0.0
 10
5.7972380121
 20
4.3077591218
 30
0.0
 10
5.7973348248
 20
4.3116471541
 30
0.0
 10
5.7973348248
 20
4.3145604888
 30
0.0
 11
5.7968184401
 21
4.3029203387
 31
0.0
 11
5.7970625609
 21
4.3058247262
 31
0.0
 11
5.7973348248
 21
4.3145604888
 31
0.0
  0
SPLINE
  5
42F
100
AcDbEntity
  8
0
100
AcDbSpline
 62
7
  6
CONTINUOUS
 70
0
 71
3
 72
9
 73
5
 74
3
 42
0.0000001
 43
0.0000001
 44
0.0000000001
 12
0.0
 22
0.0118039021
 32
0.0
 13
-0.0011983292
 23
0.0117429176
 33
0.0
 40
0.0
 40
0.0
 40
0.0
 40
0.0
 40
0.249998726
 40
1.0
 40
1.0
 40
1.0
 40
1.0
 10
5.7973348248
 20
4.3145604888
 30
0.0
 10
5.7973348248
 20
4.3155441423
 30
0.0
 10
5.7973019114
 20
4.3194783292
 30
0.0
 10
5.7971029557
 20
4.3234141413
 30
0.0
 10
5.7968033729
 20
4.3263498757
 30
0.0
 11
5.7973348248
 21
4.3145604888
 31
0.0
 11
5.7973079906
 21
4.3175113273
 31
0.0
 11
5.7968033729
 21
4.3263498757
 31
0.0
  0
SPLINE
  5
430
100
AcDbEntity
  8
0
100
AcDbSpline
 62
7
  6
CONTINUOUS
 70
0
 71
3
 72
51
 73
47
 74
45
 42
0.0000001
 43
0.0000001
 44
0.0000000001
 12
-0.0123078941
 22
0.1206100861
 32
0.0
 13
-0.0030693166
 23
-0.1211975925
 33
0.0
 40
0.0
 40
0.0
 40
0.0
 40
0.0
 40
0.0312424308
 40
0.0624817428
 40
0.0937272982
 40
0.1250036475
 40
0.1406410847
 40
0.1562729679
 40
0.1719053405
 40
0.1875467556
 40
0.2031941111
 40
0.218842207
 40
0.2344873474
 40
0.2501278307
 40
0.2813933298
 40
0.312666393
 40
0.3283068637
 40
0.3439428817
 40
0.3595750635
 40
0.3752077621
 40
0.3908487796
 40
0.4064947268
 40
0.4221343196
 40
0.4377661908
 40
0.453400132
 40
0.4690424829
 40
0.4846890822
 40
0.5003325512
 40
0.515966679
 40
0.5316000733
 40
0.5628661474
 40
0.5784987678
 40
0.5941246312
 40
0.6097494159
 40
0.625375984
 40
0.6566220237
 40
0.6878593669
 40
0.7190976362
 40
0.7503316375
 40
0.7815553394
 40
0.8127759563
 40
0.8751594969
 40
0.906369518
 40
0.9375793645
 40
0.9687894888
 40
1.0
 40
1.0
 40
1.0
 40
1.0
 10
5.7968033729
 20
4.3263498757
 30
0.0
 10
5.7966751967
 20
4.3276059264
 30
0.0
 10
5.7963640939
 20
4.3301128357
 30
0.0
 10
5.7956976433
 20
4.3338436179
 30
0.0
 10
5.7947955881
 20
4.3375266712
 30
0.0
 10
5.7938198663
 20
4.3405346577
 30
0.0
 10
5.7928876954
 20
4.3428848761
 30
0.0
 10
5.792108685
 20
4.3446135834
 30
0.0
 10
5.7912457785
 20
4.3463022581
 30
0.0
 10
5.7902957255
 20
4.3479442747
 30
0.0
 10
5.7892607773
 20
4.3495349095
 30
0.0
 10
5.7881431488
 20
4.3510687786
 30
0.0
 10
5.7869452188
 20
4.352540529
 30
0.0
 10
5.7852442186
 20
4.3544118898
 30
0.0
 10
5.7829294422
 20
4.356571724
 30
0.0
 10
5.7804014795
 20
4.3584765602
 30
0.0
 10
5.7782720008
 20
4.3598401838
 30
0.0
 10
5.7766241561
 20
4.3607791434
 30
0.0
 10
5.7749289846
 20
4.3616290037
 30
0.0
 10
5.7731895779
 20
4.3623848771
 30
0.0
 10
5.7714098003
 20
4.3630418471
 30
0.0
 10
5.7695941494
 20
4.3635933446
 30
0.0
 10
5.7677478727
 20
4.3640305111
 30
0.0
 10
5.7658770647
 20
4.3643448767
 30
0.0
 10
5.7639884796
 20
4.36452631
 30
0.0
 10
5.7620912399
 20
4.3645731445
 30
0.0
 10
5.7601950016
 20
4.3644880927
 30
0.0
 10
5.7583094392
 20
4.3642729209
 30
0.0
 10
5.7564436386
 20
4.3639287415
 30
0.0
 10
5.7539924999
 20
4.3633079969
 30
0.0
 10
5.7516043433
 20
4.3624606369
 30
0.0
 10
5.7493009538
 20
4.361419922
 30
0.0
 10
5.7476181843
 20
4.3605471626
 30
0.0
 10
5.7459842707
 20
4.3595867038
 30
0.0
 10
5.7438755173
 20
4.3581950721
 30
0.0
 10
5.7413757768
 20
4.3562577916
 30
0.0
 10
5.7386346267
 20
4.3536338046
 30
0.0
 10
5.7361963808
 20
4.350726255
 30
0.0
 10
5.7340863967
 20
4.3475733128
 30
0.0
 10
5.732324746
 20
4.3442149121
 30
0.0
 10
5.7304119683
 20
4.3395405668
 30
0.0
 10
5.7290962543
 20
4.3346489048
 30
0.0
 10
5.7282422981
 20
4.3296770782
 30
0.0
 10
5.727795949
 20
4.3259179524
 30
0.0
 10
5.7275125646
 20
4.3221439202
 30
0.0
 10
5.7274128369
 20
4.3196228344
 30
0.0
 10
5.7273809053
 20
4.3183619548
 30
0.0
 11
5.7968033729
 21
4.3263498757
 31
0.0
 11
5.7963307812
 21
4.330107999
 31
0.0
 11
5.7956584825
 21
4.3338351942
 31
0.0
 11
5.7947511787
 21
4.3375130337
 31
0.0
 11
5.7935741721
 21
4.3411175666
 31
0.0
 11
5.7928742748
 21
4.3428794705
 31
0.0
 11
5.7920947247
 21
4.3446068704
 31
0.0
 11
5.7912314795
 21
4.3462940697
 31
0.0
 11
5.7902817561
 21
4.3479354154
 31
0.0
 11
5.7892470272
 21
4.3495254023
 31
0.0
 11
5.7881296633
 21
4.3510585562
 31
0.0
 11
5.7869320351
 21
4.3525294029
 31
0.0
 11
5.7856565273
 21
4.3539324859
 31
0.0
 11
5.7828870423
 21
4.3565205316
 31
0.0
 11
5.7798603612
 21
4.35880399
 31
0.0
 11
5.77826337
 21
4.3598263281
 31
0.0
 11
5.7766160859
 21
4.3607643922
 31
0.0
 11
5.7749216624
 21
4.3616133181
 31
0.0
 11
5.7731832478
 21
4.3623682342
 31
0.0
 11
5.7714040534
 21
4.3630241873
 31
0.0
 11
5.7695887369
 21
4.3635743699
 31
0.0
 11
5.7677433993
 21
4.364010124
 31
0.0
 11
5.7658742037
 21
4.3643227118
 31
0.0
 11
5.7639874756
 21
4.364503851
 31
0.0
 11
5.7620916427
 21
4.3645511631
 31
0.0
 11
5.7601965998
 21
4.3644663885
 31
0.0
 11
5.7583122713
 21
4.3642513514
 31
0.0
 11
5.7564481126
 21
4.3639084916
 31
0.0
 11
5.7546105002
 21
4.3634442893
 31
0.0
 11
5.7510354511
 21
4.362184297
 31
0.0
 11
5.7493081085
 21
4.3614044027
 31
0.0
 11
5.7476262523
 21
4.3605325065
 31
0.0
 11
5.7459930331
 21
4.359572849
 31
0.0
 11
5.7444115987
 21
4.3585296654
 31
0.0
 11
5.7414185469
 21
4.3562076426
 31
0.0
 11
5.7386850797
 21
4.3535865134
 31
0.0
 11
5.7362509356
 21
4.3506851422
 31
0.0
 11
5.7341441783
 21
4.3475386098
 31
0.0
 11
5.7323790511
 21
4.3441898841
 31
0.0
 11
5.7309392836
 21
4.3406893304
 31
0.0
 11
5.728921449
 21
4.3334003169
 31
0.0
 11
5.7282746813
 21
4.3296722108
 31
0.0
 11
5.7278231111
 21
4.3259154825
 31
0.0
 11
5.7275348645
 21
4.3221426729
 31
0.0
 11
5.7273809053
 21
4.3183619548
 31
0.0
  0
LINE
  5
431
100
AcDbEntity
  8
0
100
AcDbLine
 62
7
  6
CONTINUOUS
 10
5.452149324
 20
4.3563054079
 11
5.4518348248
 21
4.3545604888
  0
SPLINE
  5
432
100
AcDbEntity
  8
0
100
AcDbSpline
 62
7
  6
CONTINUOUS
 70
0
 71
3
 72
46
 73
42
 74
40
 42
0.0000001
 43
0.0000001
 44
0.0000000001
 12
0.027728298
 22
0.180883458
 32
0.0
 13
0.0358778496
 23
-0.1794448768
 33
0.0
 40
0.0
 40
0.0
 40
0.0
 40
0.0
 40
0.0624512374
 40
0.0936907836
 40
0.124940661
 40
0.156187336
 40
0.1718195659
 40
0.1874557635
 40
0.2030907107
 40
0.2187214266
 40
0.2343477203
 40
0.2499727575
 40
0.2656011962
 40
0.2812344337
 40
0.312494959
 40
0.3437378914
 40
0.374979094
 40
0.4062229103
 40
0.437465065
 40
0.4687079717
 40
0.4999554839
 40
0.5312007704
 40
0.5468250518
 40
0.5624491249
 40
0.5936937213
 40
0.6249401406
 40
0.6561810881
 40
0.6874243247
 40
0.7186844019
 40
0.7343177069
 40
0.7499469311
 40
0.7655737932
 40
0.7812032373
 40
0.7968372531
 40
0.8124745391
 40
0.8437376593
 40
0.8749896753
 40
0.9062484109
 40
0.9374963044
 40
0.9687410616
 40
1.0
 40
1.0
 40
1.0
 40
1.0
 10
5.6983604113
 20
4.3282407563
 30
0.0
 10
5.6989376335
 20
4.3320062216
 30
0.0
 10
5.7001810591
 20
4.3376102736
 30
0.0
 10
5.7026610334
 20
4.3448229428
 30
0.0
 10
5.7049499252
 20
4.350069929
 30
0.0
 10
5.7072269279
 20
4.3542643964
 30
0.0
 10
5.709274815
 20
4.3574826205
 30
0.0
 10
5.7109241868
 20
4.359821778
 30
0.0
 10
5.7126846402
 20
4.3620784031
 30
0.0
 10
5.7145542956
 20
4.3642447018
 30
0.0
 10
5.7165311489
 20
4.3663129269
 30
0.0
 10
5.7186132494
 20
4.3682749337
 30
0.0
 10
5.7207922459
 20
4.3701293215
 30
0.0
 10
5.7238150751
 20
4.3724567547
 30
0.0
 10
5.7277946534
 20
4.3750931744
 30
0.0
 10
5.7328317038
 20
4.3778151379
 30
0.0
 10
5.7380839157
 20
4.3800912461
 30
0.0
 10
5.7435070433
 20
4.3819218821
 30
0.0
 10
5.7490637761
 20
4.3832956506
 30
0.0
 10
5.7547171643
 20
4.3841954875
 30
0.0
 10
5.7604268748
 20
4.3846082009
 30
0.0
 10
5.7651979318
 20
4.3845428766
 30
0.0
 10
5.768999121
 20
4.384241884
 30
0.0
 10
5.7727835855
 20
4.3837760192
 30
0.0
 10
5.777471822
 20
4.3828905585
 30
0.0
 10
5.7829879788
 20
4.3813625374
 30
0.0
 10
5.7883592263
 20
4.3793835593
 30
0.0
 10
5.793544503
 20
4.3769569007
 30
0.0
 10
5.797676709
 20
4.3745678358
 30
0.0
 10
5.800840552
 20
4.3724361254
 30
0.0
 10
5.8031348772
 20
4.3707263356
 30
0.0
 10
5.8053422217
 20
4.3689059247
 30
0.0
 10
5.8074537735
 20
4.3669747343
 30
0.0
 10
5.8094651826
 20
4.3649385282
 30
0.0
 10
5.8120079814
 20
4.3620934348
 30
0.0
 10
5.8149178604
 20
4.3583066546
 30
0.0
 10
5.8179502713
 20
4.3534467919
 30
0.0
 10
5.8205323029
 20
4.3483355995
 30
0.0
 10
5.8226766529
 20
4.3430273148
 30
0.0
 10
5.824397433
 20
4.3375680714
 30
0.0
 10
5.8252741307
 20
4.33385371
 30
0.0
 10
5.8256479652
 20
4.3319839579
 30
0.0
 11
5.6983604113
 21
4.3282407563
 31
0.0
 11
5.7008691011
 21
4.3393903618
 31
0.0
 11
5.7027321872
 21
4.3447949756
 31
0.0
 11
5.7050238469
 21
4.3500343321
 31
0.0
 11
5.7077572693
 21
4.3550567079
 31
0.0
 11
5.7092934963
 21
4.3574698549
 31
0.0
 11
5.7109427566
 21
4.359808095
 31
0.0
 11
5.7127030688
 21
4.3620636256
 31
0.0
 11
5.7145724105
 21
4.364228631
 31
0.0
 11
5.7165487594
 21
4.3662952957
 31
0.0
 11
5.7186291905
 21
4.3682568128
 31
0.0
 11
5.720806668
 21
4.3701109689
 31
0.0
 11
5.7230729869
 21
4.3718568571
 31
0.0
 11
5.7278393362
 21
4.375020204
 31
0.0
 11
5.7328678079
 21
4.3777409571
 31
0.0
 11
5.7381122602
 21
4.3800169463
 31
0.0
 11
5.7435293917
 21
4.3818457603
 31
0.0
 11
5.749079803
 21
4.383216648
 31
0.0
 11
5.7547262407
 21
4.3841142631
 31
0.0
 11
5.7604295549
 21
4.3845263521
 31
0.0
 11
5.7661467781
 21
4.3844469097
 31
0.0
 11
5.7689970482
 21
4.3842212721
 31
0.0
 11
5.7718348149
 21
4.3838722531
 31
0.0
 11
5.7774534864
 21
4.3828129903
 31
0.0
 11
5.7829641583
 21
4.3812872715
 31
0.0
 11
5.7883279778
 21
4.379309062
 31
0.0
 11
5.7935056426
 21
4.3768840981
 31
0.0
 11
5.7984555843
 21
4.3740166972
 31
0.0
 11
5.8008276826
 21
4.372417464
 31
0.0
 11
5.8031205258
 21
4.3707077869
 31
0.0
 11
5.8053261017
 21
4.3688875981
 31
0.0
 11
5.8074368058
 21
4.3669574987
 31
0.0
 11
5.8094476582
 21
4.364922403
 31
0.0
 11
5.8113547199
 21
4.3627889359
 31
0.0
 11
5.8148417297
 21
4.3582534045
 31
0.0
 11
5.817875083
 21
4.353405126
 31
0.0
 11
5.8204596559
 21
4.3483020794
 31
0.0
 11
5.8226061313
 21
4.3430019802
 31
0.0
 11
5.824329569
 21
4.3375502276
 31
0.0
 11
5.8256479652
 21
4.3319839579
 31
0.0
  0
SPLINE
  5
433
100
AcDbEntity
  8
0
100
AcDbSpline
 62
7
  6
CONTINUOUS
 70
0
 71
3
 72
9
 73
5
 74
3
 42
0.0000001
 43
0.0000001
 44
0.0000000001
 12
0.0034361447
 22
-0.0171860514
 32
0.0
 13
0.000000591
 23
-0.0175261933
 33
0.0
 40
0.0
 40
0.0
 40
0.0
 40
0.0
 40
0.5002021313
 40
1.0
 40
1.0
 40
1.0
 40
1.0
 10
5.8256479652
 20
4.3319839579
 30
0.0
 10
5.8262208875
 20
4.3291184581
 30
0.0
 10
5.8270641504
 20
4.3233258497
 30
0.0
 10
5.8273347263
 20
4.3174803402
 30
0.0
 10
5.8273348248
 20
4.3145604888
 30
0.0
 11
5.8256479652
 21
4.3319839579
 31
0.0
 11
5.8269212038
 21
4.323310272
 31
0.0
 11
5.8273348248
 21
4.3145604888
 31
0.0
  0
SPLINE
  5
434
100
AcDbEntity
  8
0
100
AcDbSpline
 62
7
  6
CONTINUOUS
 70
0
 71
3
 72
11
 73
7
 74
5
 42
0.0000001
 43
0.0000001
 44
0.0000000001
 12
0.0240122206
 22
0.0896245336
 32
0.0
 13
-0.0240749994
 23
-0.0898611934
 33
0.0
 40
0.0
 40
0.0
 40
0.0
 40
0.0
 40
0.2724684209
 40
0.5003046949
 40
0.728192518
 40
1.0
 40
1.0
 40
1.0
 40
1.0
 10
5.7803603703
 20
4.6396186187
 30
0.0
 10
5.7825412276
 20
4.6477585704
 30
0.0
 10
5.79124218
 20
4.6614466375
 30
0.0
 10
5.8159577818
 20
4.6640104689
 30
0.0
 10
5.8361469124
 20
4.6494388714
 30
0.0
 10
5.8366334305
 20
4.6332662469
 30
0.0
 10
5.8344521755
 20
4.6251245986
 30
0.0
 11
5.7803603703
 21
4.6396186187
 31
0.0
 11
5.7944741655
 21
4.6591303882
 31
0.0
 11
5.815250862
 21
4.6613278605
 31
0.0
 11
5.8321452727
 21
4.6490364454
 31
0.0
 11
5.8344521755
 21
4.6251245986
 31
0.0
  0
SPLINE
  5
435
100
AcDbEntity
  8
0
100
AcDbSpline
 62
7
  6
CONTINUOUS
 70
0
 71
3
 72
11
 73
7
 74
5
 42
0.0000001
 43
0.0000001
 44
0.0000000001
 12
-0.0240749994
 22
-0.0898611934
 32
0.0
 13
0.0240122206
 23
0.0896245336
 33
0.0
 40
0.0
 40
0.0
 40
0.0
 40
0.0
 40
0.271807482
 40
0.4996624675
 40
0.727528153
 40
1.0
 40
1.0
 40
1.0
 40
1.0
 10
5.8344521755
 20
4.6251245986
 30
0.0
 10
5.8322709205
 20
4.6169829504
 30
0.0
 10
5.823764852
 20
4.6032210017
 30
0.0
 10
5.798989011
 20
4.600696588
 30
0.0
 10
5.7788715914
 20
4.6152725023
 30
0.0
 10
5.7781794856
 20
4.6314785646
 30
0.0
 10
5.7803603703
 20
4.6396186187
 30
0.0
 11
5.8344521755
 21
4.6251245986
 31
0.0
 11
5.8204984157
 21
4.6055697832
 31
0.0
 11
5.7997217193
 21
4.6033723109
 31
0.0
 11
5.7828273085
 21
4.615663726
 31
0.0
 11
5.7803603703
 21
4.6396186187
 31
0.0
  0
SPLINE
  5
436
100
AcDbEntity
  8
0
100
AcDbSpline
 62
7
  6
CONTINUOUS
 70
0
 71
3
 72
11
 73
7
 74
5
 42
0.0000001
 43
0.0000001
 44
0.0000000001
 12
0.0591823023
 22
0.0423362832
 32
0.0
 13
-0.057991196
 23
0.0283059947
 33
0.0
 40
0.0
 40
0.0
 40
0.0
 40
0.0
 40
0.1272293453
 40
0.4753759124
 40
0.7537985656
 40
1.0
 40
1.0
 40
1.0
 40
1.0
 10
5.804776066
 20
3.9748022867
 30
0.0
 10
5.8072859745
 20
3.9765977592
 30
0.0
 10
5.8109527899
 20
3.9836388549
 30
0.0
 10
5.7922205717
 20
3.9872103135
 30
0.0
 10
5.7782255081
 20
3.9839562625
 30
0.0
 10
5.7708287787
 20
3.9862058965
 30
0.0
 10
5.7660696069
 20
3.9885288886
 30
0.0
 11
5.804776066
 21
3.9748022867
 31
0.0
 11
5.8081398895
 21
3.9800236839
 31
0.0
 11
5.7921931529
 21
3.985902895
 31
0.0
 11
5.7779949162
 21
3.9850206578
 31
0.0
 11
5.7660696069
 21
3.9885288886
 31
0.0
  0
LINE
  5
437
100
AcDbEntity
  8
0
100
AcDbLine
 62
6
  6
CONTINUOUS
 10
4.7545089342
 20
5.3021644021
 11
4.7621755821
 21
5.3076839874
  0
SPLINE
  5
438
100
AcDbEntity
  8
0
100
AcDbSpline
 62
6
  6
CONTINUOUS
 70
0
 71
3
 72
11
 73
7
 74
5
 42
0.0000001
 43
0.0000001
 44
0.0000000001
 12
0.009918933
 22
0.0065790636
 32
0.0
 13
0.0105034055
 23
0.0055989091
 33
0.0
 40
0.0
 40
0.0
 40
0.0
 40
0.0
 40
0.2395717892
 40
0.4850421679
 40
0.7379756426
 40
1.0
 40
1.0
 40
1.0
 40
1.0
 10
4.7621755821
 20
5.3076839874
 30
0.0
 10
4.762967681
 20
5.3082093734
 30
0.0
 10
4.7645819856
 20
5.3092571699
 30
0.0
 10
4.7670690939
 20
5.3108025861
 30
0.0
 10
4.7696699194
 20
5.3123322685
 30
0.0
 10
4.771458937
 20
5.3133196906
 30
0.0
 10
4.7723763197
 20
5.3138087075
 30
0.0
 11
4.7621755821
 21
5.3076839874
 31
0.0
 11
4.7645673242
 21
5.3092366075
 31
0.0
 11
4.7670499911
 21
5.3107769807
 31
0.0
 11
4.7696455221
 21
5.3123022877
 31
0.0
 11
4.7723763197
 21
5.3138087075
 31
0.0
  0
SPLINE
  5
439
100
AcDbEntity
  8
0
100
AcDbSpline
 62
6
  6
CONTINUOUS
 70
0
 71
3
 72
9
 73
5
 74
3
 42
0.0000001
 43
0.0000001
 44
0.0000000001
 12
0.0136024398
 22
0.0063863016
 32
0.0
 13
0.014295254
 23
0.0046321626
 33
0.0
 40
0.0
 40
0.0
 40
0.0
 40
0.0
 40
0.4728523113
 40
1.0
 40
1.0
 40
1.0
 40
1.0
 10
4.7772172199
 20
5.3162333483
 30
0.0
 10
4.7793612016
 20
5.3172399408
 30
0.0
 10
4.7839672894
 20
5.3192180086
 30
0.0
 10
4.7886900797
 20
5.3208978305
 30
0.0
 10
4.7912019831
 20
5.3217117751
 30
0.0
 11
4.7772172199
 21
5.3162333483
 31
0.0
 11
4.7837432935
 21
5.3190439241
 31
0.0
 11
4.7912019831
 21
5.3217117751
 31
0.0
  0
SPLINE
  5
43A
100
AcDbEntity
  8
0
100
AcDbSpline
 62
6
  6
CONTINUOUS
 70
0
 71
3
 72
10
 73
6
 74
4
 42
0.0000001
 43
0.0000001
 44
0.0000000001
 12
0.0084289184
 22
0.0106489039
 32
0.0
 13
0.009603276
 23
0.009603276
 33
0.0
 40
0.0
 40
0.0
 40
0.0
 40
0.0
 40
0.2398470659
 40
0.4847731321
 40
1.0
 40
1.0
 40
1.0
 40
1.0
 10
4.7349998779
 20
5.2827275914
 30
0.0
 10
4.7356737617
 20
5.2835789609
 30
0.0
 10
4.7370619373
 20
5.2852792519
 30
0.0
 10
4.7400301098
 20
5.2886980906
 30
0.0
 10
4.7424033044
 20
5.291193432
 30
0.0
 10
4.744052593
 20
5.2928427206
 30
0.0
 11
4.7349998779
 21
5.2827275914
 31
0.0
 11
4.7370598077
 21
5.2852509291
 31
0.0
 11
4.7392399497
 21
5.2877632308
 31
0.0
 11
4.744052593
 21
5.2928427206
 31
0.0
  0
SPLINE
  5
43B
100
AcDbEntity
  8
0
100
AcDbSpline
 62
6
  6
CONTINUOUS
 70
0
 71
3
 72
16
 73
12
 74
10
 42
0.0000001
 43
0.0000001
 44
0.0000000001
 12
-0.167005956
 22
-0.1668796544
 32
0.0
 13
-0.1932482792
 23
-0.13562784
 33
0.0
 40
0.0
 40
0.0
 40
0.0
 40
0.0
 40
0.1346279082
 40
0.2679573525
 40
0.3337950777
 40
0.3989510999
 40
0.5268962826
 40
0.651233299
 40
0.7716469375
 40
0.8879574381
 40
1.0
 40
1.0
 40
1.0
 40
1.0
 10
5.1503161421
 20
3.9374138488
 30
0.0
 10
5.1428215879
 20
3.9299249625
 30
0.0
 10
5.127652704
 20
3.9152700392
 30
0.0
 10
5.1082310951
 20
3.89757747
 30
0.0
 10
5.0925819803
 20
3.8838723135
 30
0.0
 10
5.0770888701
 20
3.8706345361
 30
0.0
 10
5.0578172655
 20
3.8547348869
 30
0.0
 10
5.0348033509
 20
3.836548752
 30
0.0
 10
5.0121781687
 20
3.8193563234
 30
0.0
 10
4.9900504844
 20
3.803115386
 30
0.0
 10
4.9754075048
 20
3.7926962865
 30
0.0
 10
4.9681901607
 20
3.787630923
 30
0.0
 11
5.1503161421
 21
3.9374138488
 31
0.0
 11
5.1274726719
 21
3.9153131314
 31
0.0
 11
5.1042130793
 21
3.8941031462
 31
0.0
 11
5.0925208201
 21
3.8838610182
 31
0.0
 11
5.0808264637
 21
3.8738672882
 31
0.0
 11
5.0575307265
 21
3.8546379458
 31
0.0
 11
5.0345034029
 21
3.836431828
 31
0.0
 11
5.0118731253
 21
3.8192252366
 31
0.0
 11
4.9897394905
 21
3.8029723068
 31
0.0
 11
4.9681901607
 21
3.787630923
 31
0.0
  0
SPLINE
  5
43C
100
AcDbEntity
  8
0
100
AcDbSpline
 62
6
  6
CONTINUOUS
 70
0
 71
3
 72
20
 73
16
 74
14
 42
0.0000001
 43
0.0000001
 44
0.0000000001
 12
-0.1668287123
 22
-0.1669660821
 32
0.0
 13
-0.1355600789
 23
-0.1932173823
 33
0.0
 40
0.0
 40
0.0
 40
0.0
 40
0.0
 40
0.0673898959
 40
0.1346372146
 40
0.2015531038
 40
0.2679861005
 40
0.3338306576
 40
0.3989832455
 40
0.4633635438
 40
0.5269106104
 40
0.5895626065
 40
0.6512701175
 40
0.7717213189
 40
0.8880219023
 40
1.0
 40
1.0
 40
1.0
 40
1.0
 10
5.3451508076
 20
3.7425044054
 30
0.0
 10
5.3414032845
 20
3.7387537964
 30
0.0
 10
5.3339760813
 20
3.7312003999
 30
0.0
 10
5.3230323024
 20
3.7197239108
 30
0.0
 10
5.3123110528
 20
3.7081416459
 30
0.0
 10
5.3018295411
 20
3.6964901139
 30
0.0
 10
5.2915961057
 20
3.6848039659
 30
0.0
 10
5.2816157179
 20
3.673112589
 30
0.0
 10
5.2718902818
 20
3.6614427002
 30
0.0
 10
5.2624190898
 20
3.6498182952
 30
0.0
 10
5.2531991731
 20
3.6382614546
 30
0.0
 10
5.2413332014
 20
3.62308959
 30
0.0
 10
5.2271227349
 20
3.6043942861
 30
0.0
 10
5.2108887796
 20
3.582274335
 30
0.0
 10
5.2004782634
 20
3.5676384166
 30
0.0
 10
5.1954183435
 20
3.5604263783
 30
0.0
 11
5.3451508076
 21
3.7425044054
 31
0.0
 11
5.3339974712
 21
3.7311641204
 31
0.0
 11
5.3230429684
 21
3.7196781099
 31
0.0
 11
5.3123130189
 21
3.7080884337
 31
0.0
 11
5.3018248207
 21
3.6964324139
 31
0.0
 11
5.2915850806
 21
3.6847415396
 31
0.0
 11
5.2815996198
 21
3.6730466882
 31
0.0
 11
5.271870122
 21
3.6613743772
 31
0.0
 11
5.262394778
 21
3.6497474438
 31
0.0
 11
5.2531716586
 21
3.6381885074
 31
0.0
 11
5.2441984269
 21
3.6267162514
 31
0.0
 11
5.2269901374
 21
3.6040858408
 31
0.0
 11
5.2107436862
 21
3.5819596188
 31
0.0
 11
5.1954183435
 21
3.5604263783
 31
0.0
  0
SPLINE
  5
43D
100
AcDbEntity
  8
0
100
AcDbSpline
 62
6
  6
CONTINUOUS
 70
0
 71
3
 72
10
 73
6
 74
4
 42
0.0000001
 43
0.0000001
 44
0.0000000001
 12
-0.0106444895
 22
0.0084262447
 32
0.0
 13
-0.0095996551
 23
0.0095996551
 33
0.0
 40
0.0
 40
0.0
 40
0.0
 40
0.0
 40
0.2398477438
 40
0.4847754037
 40
1.0
 40
1.0
 40
1.0
 40
1.0
 10
4.7541637061
 20
3.3272287211
 30
0.0
 10
4.7533126871
 20
3.327902393
 30
0.0
 10
4.7516130877
 20
3.3292901228
 30
0.0
 10
4.7481956261
 20
3.332257277
 30
0.0
 10
4.7457012525
 20
3.3346295976
 30
0.0
 10
4.744052593
 20
3.3362782571
 30
0.0
 11
4.7541637061
 21
3.3272287211
 31
0.0
 11
4.7516413986
 21
3.3292879852
 31
0.0
 11
4.7491300922
 21
3.3314673936
 31
0.0
 11
4.744052593
 21
3.3362782571
 31
0.0
  0
LINE
  5
43E
100
AcDbEntity
  8
0
100
AcDbLine
 62
6
  6
CONTINUOUS
 10
4.7347375541
 20
3.3467261374
 11
4.7291286755
 21
3.3545260008
  0
SPLINE
  5
43F
100
AcDbEntity
  8
0
100
AcDbSpline
 62
6
  6
CONTINUOUS
 70
0
 71
3
 72
11
 73
7
 74
5
 42
0.0000001
 43
0.0000001
 44
0.0000000001
 12
-0.0065767404
 22
0.0099386617
 32
0.0
 13
-0.0055898735
 23
0.0105253896
 33
0.0
 40
0.0
 40
0.0
 40
0.0
 40
0.0
 40
0.2394660891
 40
0.4849023409
 40
0.7378708716
 40
1.0
 40
1.0
 40
1.0
 40
1.0
 10
4.7291286755
 20
3.3545260008
 30
0.0
 10
4.7286037067
 20
3.355319325
 30
0.0
 10
4.7275564223
 20
3.3569362218
 30
0.0
 10
4.7260121923
 20
3.3594279733
 30
0.0
 10
4.7244838843
 20
3.362034555
 30
0.0
 10
4.7234976117
 20
3.3638278155
 30
0.0
 10
4.7230091888
 20
3.3647474859
 30
0.0
 11
4.7291286755
 21
3.3545260008
 31
0.0
 11
4.7275772358
 21
3.3569213367
 31
0.0
 11
4.7260380238
 21
3.3594086235
 31
0.0
 11
4.724514069
 21
3.3620098792
 31
0.0
 11
4.7230091888
 21
3.3647474859
 31
0.0
  0
SPLINE
  5
440
100
AcDbEntity
  8
0
100
AcDbSpline
 62
6
  6
CONTINUOUS
 70
0
 71
3
 72
9
 73
5
 74
3
 42
0.0000001
 43
0.0000001
 44
0.0000000001
 12
-0.0063279844
 22
0.0135128513
 32
0.0
 13
-0.0045995266
 23
0.0141945373
 33
0.0
 40
0.0
 40
0.0
 40
0.0
 40
0.0
 40
0.4730400026
 40
1.0
 40
1.0
 40
1.0
 40
1.0
 10
4.7206169943
 20
3.3695387926
 30
0.0
 10
4.7196191978
 20
3.371669499
 30
0.0
 10
4.7176584437
 20
3.3762445194
 30
0.0
 10
4.7159914609
 20
3.3809343298
 30
0.0
 10
4.7151835387
 20
3.3834276476
 30
0.0
 11
4.7206169943
 21
3.3695387926
 31
0.0
 11
4.7178299038
 21
3.3760235205
 31
0.0
 11
4.7151835387
 21
3.3834276476
 31
0.0
  0
SPLINE
  5
441
100
AcDbEntity
  8
0
100
AcDbSpline
 62
6
  6
CONTINUOUS
 70
0
 71
3
 72
16
 73
12
 74
10
 42
0.0000001
 43
0.0000001
 44
0.0000000001
 12
0.1668792695
 22
-0.1670055299
 32
0.0
 13
0.13562757
 23
-0.1932477681
 33
0.0
 40
0.0
 40
0.0
 40
0.0
 40
0.0
 40
0.1346286939
 40
0.2679579418
 40
0.333795561
 40
0.3989523536
 40
0.5269007586
 40
0.6512395313
 40
0.7716519646
 40
0.8879603745
 40
1.0
 40
1.0
 40
1.0
 40
1.0
 10
6.0994813761
 20
3.742541895
 30
0.0
 10
6.1069702888
 20
3.7350473162
 30
0.0
 10
6.1216252026
 20
3.7198784301
 30
0.0
 10
6.1393177724
 20
3.7004568568
 30
0.0
 10
6.15302292
 20
3.6848077521
 30
0.0
 10
6.1662608446
 20
3.6693144305
 30
0.0
 10
6.1821607455
 20
3.650042526
 30
0.0
 10
6.2003470267
 20
3.6270284389
 30
0.0
 10
6.2175392992
 20
3.6044033768
 30
0.0
 10
6.2337799061
 20
3.5822761415
 30
0.0
 10
6.2441987733
 20
3.5676335358
 30
0.0
 10
6.249263994
 20
3.5604163999
 30
0.0
 11
6.0994813761
 21
3.742541895
 31
0.0
 11
6.1215821683
 21
3.7196983466
 31
0.0
 11
6.142792082
 21
3.696438855
 31
0.0
 11
6.1530341675
 21
3.6847466421
 31
0.0
 11
6.1630279814
 21
3.6730521672
 31
0.0
 11
6.1822577578
 21
3.649755897
 31
0.0
 11
6.2004640849
 21
3.626728301
 31
0.0
 11
6.2176704346
 21
3.6040982839
 31
0.0
 11
6.233923031
 21
3.5819650995
 31
0.0
 11
6.249263994
 21
3.5604163999
 31
0.0
  0
SPLINE
  5
442
100
AcDbEntity
  8
0
100
AcDbSpline
 62
6
  6
CONTINUOUS
 70
0
 71
3
 72
20
 73
16
 74
14
 42
0.0000001
 43
0.0000001
 44
0.0000000001
 12
0.166963827
 22
-0.1668258829
 32
0.0
 13
0.1932199555
 23
-0.1355501513
 33
0.0
 40
0.0
 40
0.0
 40
0.0
 40
0.0
 40
0.0673903847
 40
0.1346382714
 40
0.2015551034
 40
0.267989189
 40
0.3338345262
 40
0.3989871358
 40
0.463366829
 40
0.5269137961
 40
0.5895673373
 40
0.6512779159
 40
0.7717349545
 40
0.8880338487
 40
1.0
 40
1.0
 40
1.0
 40
1.0
 10
6.2943921131
 20
3.9373752678
 30
0.0
 10
6.2981426986
 20
3.933627781
 30
0.0
 10
6.3056960528
 20
3.9262006463
 30
0.0
 10
6.3171725002
 20
3.9152569458
 30
0.0
 10
6.3287547477
 20
3.9045357303
 30
0.0
 10
6.3404062782
 20
3.894054243
 30
0.0
 10
6.352092374
 20
3.8838208813
 30
0.0
 10
6.3637836046
 20
3.8738406588
 30
0.0
 10
6.3754533029
 20
3.8641154393
 30
0.0
 10
6.3870776039
 20
3.8546443768
 30
0.0
 10
6.398634545
 20
3.8454243781
 30
0.0
 10
6.4138067352
 20
3.8335579653
 30
0.0
 10
6.4325020253
 20
3.8193471326
 30
0.0
 10
6.4546211815
 20
3.8031138325
 30
0.0
 10
6.4692562688
 20
3.7927044664
 30
0.0
 10
6.4764676337
 20
3.7876454568
 30
0.0
 11
6.2943921131
 21
3.9373752678
 31
0.0
 11
6.3057323274
 21
3.9262220404
 31
0.0
 11
6.3172182775
 21
3.9152676304
 31
0.0
 11
6.3288079515
 21
3.9045377051
 31
0.0
 11
6.3404639963
 21
3.8940495076
 31
0.0
 11
6.3521548457
 21
3.8838098189
 31
0.0
 11
6.3638495435
 21
3.873824531
 31
0.0
 11
6.3755215931
 21
3.864095304
 31
0.0
 11
6.3871483499
 21
3.8546201422
 31
0.0
 11
6.3987073861
 21
3.8453969243
 31
0.0
 11
6.410179975
 21
3.8364233031
 31
0.0
 11
6.4328109823
 21
3.8192142375
 31
0.0
 11
6.454936608
 21
3.8029683544
 31
0.0
 11
6.4764676337
 21
3.7876454568
 31
0.0
  0
SPLINE
  5
443
100
AcDbEntity
  8
0
100
AcDbSpline
 62
6
  6
CONTINUOUS
 70
0
 71
3
 72
10
 73
6
 74
4
 42
0.0000001
 43
0.0000001
 44
0.0000000001
 12
-0.0084276981
 22
-0.0106468889
 32
0.0
 13
-0.0096016232
 23
-0.0096016232
 33
0.0
 40
0.0
 40
0.0
 40
0.0
 40
0.0
 40
0.239847375
 40
0.4847741686
 40
1.0
 40
1.0
 40
1.0
 40
1.0
 10
6.7096683206
 20
3.3463915531
 30
0.0
 10
6.7089945335
 20
3.3455403437
 30
0.0
 10
6.7076065613
 20
3.3438403683
 30
0.0
 10
6.7046388536
 20
3.3404221582
 30
0.0
 10
6.702266058
 20
3.3379272585
 30
0.0
 10
6.7006170565
 20
3.3362782571
 30
0.0
 11
6.7096683206
 21
3.3463915531
 31
0.0
 11
6.7076086946
 21
3.3438686857
 31
0.0
 11
6.7054288875
 21
3.3413568383
 31
0.0
 11
6.7006170565
 21
3.3362782571
 31
0.0
  0
LINE
  5
444
100
AcDbEntity
  8
0
100
AcDbLine
 62
6
  6
CONTINUOUS
 10
6.6901653542
 20
3.3269602173
 11
6.6824234353
 21
3.3213901724
  0
SPLINE
  5
445
100
AcDbEntity
  8
0
100
AcDbSpline
 62
6
  6
CONTINUOUS
 70
0
 71
3
 72
11
 73
7
 74
5
 42
0.0000001
 43
0.0000001
 44
0.0000000001
 12
-0.009914142
 22
-0.0065671662
 32
0.0
 13
-0.0104979458
 23
-0.0055866821
 33
0.0
 40
0.0
 40
0.0
 40
0.0
 40
0.0
 40
0.2395325359
 40
0.484993646
 40
0.7379417752
 40
1.0
 40
1.0
 40
1.0
 40
1.0
 10
6.6824234353
 20
3.3213901724
 30
0.0
 10
6.6816318488
 20
3.3208658224
 30
0.0
 10
6.6800185865
 20
3.3198199127
 30
0.0
 10
6.677532846
 20
3.3182774717
 30
0.0
 10
6.6749331698
 20
3.3167508118
 30
0.0
 10
6.6731448876
 20
3.3157654139
 30
0.0
 10
6.6722278633
 20
3.3152774019
 30
0.0
 11
6.6824234353
 21
3.3213901724
 31
0.0
 11
6.6800333242
 21
3.3198405473
 31
0.0
 11
6.677552016
 21
3.3183031142
 31
0.0
 11
6.6749576257
 21
3.3167807984
 31
0.0
 11
6.6722278633
 21
3.3152774019
 31
0.0
  0
SPLINE
  5
446
100
AcDbEntity
  8
0
100
AcDbSpline
 62
6
  6
CONTINUOUS
 70
0
 71
3
 72
9
 73
5
 74
3
 42
0.0000001
 43
0.0000001
 44
0.0000000001
 12
-0.0135588159
 22
-0.0063578719
 32
0.0
 13
-0.0142461964
 23
-0.0046162661
 33
0.0
 40
0.0
 40
0.0
 40
0.0
 40
0.0
 40
0.4729437096
 40
1.0
 40
1.0
 40
1.0
 40
1.0
 10
6.6674057194
 20
3.3128657128
 30
0.0
 10
6.6652682005
 20
3.3118634076
 30
0.0
 10
6.6606772421
 20
3.3098937797
 30
0.0
 10
6.6559705153
 20
3.3082202134
 30
0.0
 10
6.6534676662
 20
3.3074092027
 30
0.0
 11
6.6674057194
 21
3.3128657128
 31
0.0
 11
6.6608997761
 21
3.3100665831
 31
0.0
 11
6.6534676662
 21
3.3074092027
 31
0.0
  0
SPLINE
  5
447
100
AcDbEntity
  8
0
100
AcDbSpline
 62
6
  6
CONTINUOUS
 70
0
 71
3
 72
16
 73
12
 74
10
 42
0.0000001
 43
0.0000001
 44
0.0000000001
 12
0.1670017471
 22
0.16687322
 32
0.0
 13
0.1932420279
 23
0.1356236474
 33
0.0
 40
0.0
 40
0.0
 40
0.0
 40
0.0
 40
0.1346297417
 40
0.2679592043
 40
0.33379664
 40
0.3989538366
 40
0.5269043761
 40
0.6512451053
 40
0.77165717
 40
0.8879637197
 40
1.0
 40
1.0
 40
1.0
 40
1.0
 10
6.294357931
 20
4.6917115491
 30
0.0
 10
6.3018523983
 20
4.6992002486
 30
0.0
 10
6.3170210026
 20
4.7138547026
 30
0.0
 10
6.3364421328
 20
4.7315467355
 30
0.0
 10
6.3520908542
 20
4.7452514432
 30
0.0
 10
6.3675839228
 20
4.7584890254
 30
0.0
 10
6.3868555622
 20
4.7743886466
 30
0.0
 10
6.4098692319
 20
4.7925745362
 30
0.0
 10
6.4324936684
 20
4.8097662134
 30
0.0
 10
6.4546199101
 20
4.8260060658
 30
0.0
 10
6.469261736
 20
4.8364244098
 30
0.0
 10
6.476478442
 20
4.8414893328
 30
0.0
 11
6.294357931
 21
4.6917115491
 31
0.0
 11
6.3172011193
 21
4.7138117232
 31
0.0
 11
6.3404600528
 21
4.7350209485
 31
0.0
 11
6.3521519291
 21
4.7452626581
 31
0.0
 11
6.3638461742
 21
4.7552561904
 31
0.0
 11
6.3871421944
 21
4.7744856641
 31
0.0
 11
6.4101695112
 21
4.7926916951
 31
0.0
 11
6.4327988389
 21
4.8098974248
 31
0.0
 11
6.4549310312
 21
4.8261492643
 31
0.0
 11
6.476478442
 21
4.8414893328
 31
0.0
  0
SPLINE
  5
448
100
AcDbEntity
  8
0
100
AcDbSpline
 62
6
  6
CONTINUOUS
 70
0
 71
3
 72
20
 73
16
 74
14
 42
0.0000001
 43
0.0000001
 44
0.0000000001
 12
0.1668175857
 22
0.1669584692
 32
0.0
 13
0.1355393124
 23
0.1932157657
 33
0.0
 40
0.0
 40
0.0
 40
0.0
 40
0.0
 40
0.067390827
 40
0.1346392428
 40
0.2015568778
 40
0.2679916834
 40
0.3338374378
 40
0.3989899525
 40
0.4633689793
 40
0.5269156095
 40
0.5895700802
 40
0.6512827291
 40
0.7717438818
 40
0.888041825
 40
1.0
 40
1.0
 40
1.0
 40
1.0
 10
6.0995262199
 20
4.8866239564
 30
0.0
 10
6.1032735449
 20
4.8903744462
 30
0.0
 10
6.110700364
 20
4.8979276102
 30
0.0
 10
6.1216436219
 20
4.909403776
 30
0.0
 10
6.1323644401
 20
4.9209857316
 30
0.0
 10
6.1428455264
 20
4.9326369658
 30
0.0
 10
6.153078452
 20
4.9443227078
 30
0.0
 10
6.1630581899
 20
4.9560134897
 30
0.0
 10
6.1727829022
 20
4.9676826892
 30
0.0
 10
6.1822535277
 20
4.9793065477
 30
0.0
 10
6.1914732408
 20
4.9908632108
 30
0.0
 10
6.2033395634
 20
5.0060351812
 30
0.0
 10
6.2175502276
 20
5.0247299103
 30
0.0
 10
6.2337826192
 20
5.0468478739
 30
0.0
 10
6.2441909053
 20
5.0614819681
 30
0.0
 10
6.24924915
 20
5.0686926629
 30
0.0
 11
6.0995262199
 21
4.8866239564
 31
0.0
 11
6.1106789669
 21
4.8979638771
 31
0.0
 11
6.1216329263
 21
4.9094495323
 31
0.0
 11
6.1323624682
 21
4.9210389391
 31
0.0
 11
6.1428502774
 21
4.9326946991
 31
0.0
 11
6.1530895421
 21
4.9443852057
 31
0.0
 11
6.1630743466
 21
4.9560794596
 31
0.0
 11
6.1728030214
 21
4.9677509555
 31
0.0
 11
6.1822776995
 21
4.9793772125
 31
0.0
 11
6.1915006503
 21
4.9909359686
 31
0.0
 11
6.2004742382
 21
5.0024084475
 31
0.0
 11
6.2176833198
 21
5.0250392014
 31
0.0
 11
6.2339283561
 21
5.0471637775
 31
0.0
 11
6.24924915
 21
5.0686926629
 31
0.0
  0
SPLINE
  5
449
100
AcDbEntity
  8
0
100
AcDbSpline
 62
6
  6
CONTINUOUS
 70
0
 71
3
 72
10
 73
6
 74
4
 42
0.0000001
 43
0.0000001
 44
0.0000000001
 12
0.0106488983
 22
-0.0084289151
 32
0.0
 13
0.0096032714
 23
-0.0096032714
 33
0.0
 40
0.0
 40
0.0
 40
0.0
 40
0.0
 40
0.2398470668
 40
0.4847731349
 40
1.0
 40
1.0
 40
1.0
 40
1.0
 10
6.6905019324
 20
5.3018954317
 30
0.0
 10
6.6913533014
 20
5.3012215482
 30
0.0
 10
6.6930535915
 20
5.2998333731
 30
0.0
 10
6.6964724286
 20
5.2968652019
 30
0.0
 10
6.6989677687
 20
5.2944920084
 30
0.0
 10
6.7006170565
 20
5.2928427206
 30
0.0
 11
6.6905019324
 21
5.3018954317
 31
0.0
 11
6.6930252687
 21
5.2998355028
 31
0.0
 11
6.6955375693
 21
5.2976553617
 31
0.0
 11
6.7006170565
 21
5.2928427206
 31
0.0
  0
LINE
  5
44A
100
AcDbEntity
  8
0
100
AcDbLine
 62
6
  6
CONTINUOUS
 10
6.7099387308
 20
5.2823863886
 11
6.7154584188
 21
5.2747195875
  0
SPLINE
  5
44B
100
AcDbEntity
  8
0
100
AcDbSpline
 62
6
  6
CONTINUOUS
 70
0
 71
3
 72
11
 73
7
 74
5
 42
0.0000001
 43
0.0000001
 44
0.0000000001
 12
0.0065790279
 22
-0.0099189059
 32
0.0
 13
0.0055988765
 23
-0.0105033749
 33
0.0
 40
0.0
 40
0.0
 40
0.0
 40
0.0
 40
0.2395717311
 40
0.4850421018
 40
0.7379756008
 40
1.0
 40
1.0
 40
1.0
 40
1.0
 10
6.7154584188
 20
5.2747195875
 30
0.0
 10
6.7159838018
 20
5.273927491
 30
0.0
 10
6.7170315927
 20
5.2723131913
 30
0.0
 10
6.7185770004
 20
5.26982609
 30
0.0
 10
6.7201066742
 20
5.2672252716
 30
0.0
 10
6.7210940907
 20
5.2654362589
 30
0.0
 10
6.7215831048
 20
5.2645188788
 30
0.0
 11
6.7154584188
 21
5.2747195875
 31
0.0
 11
6.7170110302
 21
5.2723278527
 31
0.0
 11
6.718551395
 21
5.2698451929
 31
0.0
 11
6.7200766935
 21
5.267249669
 31
0.0
 11
6.7215831048
 21
5.2645188788
 31
0.0
  0
SPLINE
  5
44C
100
AcDbEntity
  8
0
100
AcDbSpline
 62
6
  6
CONTINUOUS
 70
0
 71
3
 72
9
 73
5
 74
3
 42
0.0000001
 43
0.0000001
 44
0.0000000001
 12
0.0063862486
 22
-0.0136023586
 32
0.0
 13
0.004632133
 23
-0.0142951627
 33
0.0
 40
0.0
 40
0.0
 40
0.0
 40
0.0
 40
0.4728524814
 40
1.0
 40
1.0
 40
1.0
 40
1.0
 10
6.7240077251
 20
5.2596780068
 30
0.0
 10
6.7250143095
 20
5.2575340371
 30
0.0
 10
6.7269923616
 20
5.2529279775
 30
0.0
 10
6.7286721719
 20
5.248205217
 30
0.0
 10
6.7294861111
 20
5.2456933305
 30
0.0
 11
6.7240077251
 21
5.2596780068
 31
0.0
 11
6.7268182795
 21
5.2531519706
 31
0.0
 11
6.7294861111
 21
5.2456933305
 31
0.0
  0
SPLINE
  5
44D
100
AcDbEntity
  8
0
100
AcDbSpline
 62
6
  6
CONTINUOUS
 70
0
 71
3
 72
16
 73
12
 74
10
 42
0.0000001
 43
0.0000001
 44
0.0000000001
 12
-0.1668732203
 22
0.1670017467
 32
0.0
 13
-0.1356236476
 23
0.1932420277
 33
0.0
 40
0.0
 40
0.0
 40
0.0
 40
0.0
 40
0.134629744
 40
0.2679592067
 40
0.3337966418
 40
0.3989538394
 40
0.5269043851
 40
0.6512451213
 40
0.771657187
 40
0.8879637314
 40
1.0
 40
1.0
 40
1.0
 40
1.0
 10
5.3451837657
 20
4.8865835939
 30
0.0
 10
5.3376950661
 20
4.8940780614
 30
0.0
 10
5.3230406119
 20
4.9092466658
 30
0.0
 10
5.3053485788
 20
4.928667796
 30
0.0
 10
5.2916438711
 20
4.9443165174
 30
0.0
 10
5.2784062886
 20
4.9598095864
 30
0.0
 10
5.2625066666
 20
4.9790812267
 30
0.0
 10
5.2443207764
 20
5.0020948973
 30
0.0
 10
5.2271290992
 20
5.024719334
 30
0.0
 10
5.2108892476
 20
5.0468455747
 30
0.0
 10
5.2004709042
 20
5.0614873994
 30
0.0
 10
5.1954059818
 20
5.0687041047
 30
0.0
 11
5.3451837657
 21
4.8865835939
 31
0.0
 11
5.3230835912
 21
4.9094267826
 31
0.0
 11
5.3018743658
 21
4.9326857161
 31
0.0
 11
5.2916326564
 21
4.9443775923
 31
0.0
 11
5.2816391239
 21
4.9560718376
 31
0.0
 11
5.2624096493
 21
4.9793678588
 31
0.0
 11
5.2442036172
 21
5.002395177
 31
0.0
 11
5.2269978875
 21
5.0250245049
 31
0.0
 11
5.2107460487
 21
5.0471566961
 31
0.0
 11
5.1954059818
 21
5.0687041047
 31
0.0
  0
SPLINE
  5
44E
100
AcDbEntity
  8
0
100
AcDbSpline
 62
6
  6
CONTINUOUS
 70
0
 71
3
 72
20
 73
16
 74
14
 42
0.0000001
 43
0.0000001
 44
0.0000000001
 12
-0.1669584675
 22
0.1668175838
 32
0.0
 13
-0.1932157735
 23
0.1355392969
 33
0.0
 40
0.0
 40
0.0
 40
0.0
 40
0.0
 40
0.0673908276
 40
0.1346392443
 40
0.201556881
 40
0.2679916882
 40
0.3338374435
 40
0.3989899578
 40
0.4633689828
 40
0.5269156122
 40
0.5895700857
 40
0.6512827406
 40
0.7717439056
 40
0.8880418468
 40
1.0
 40
1.0
 40
1.0
 40
1.0
 10
5.1502713567
 20
4.6917518845
 30
0.0
 10
5.1465208669
 20
4.6954992095
 30
0.0
 10
5.1389677029
 20
4.7029260286
 30
0.0
 10
5.127491537
 20
4.7138692865
 30
0.0
 10
5.1159095814
 20
4.7245901048
 30
0.0
 10
5.104258347
 20
4.7350711912
 30
0.0
 10
5.092572605
 20
4.7453041168
 30
0.0
 10
5.0808818233
 20
4.7552838545
 30
0.0
 10
5.069212624
 20
4.7650085665
 30
0.0
 10
5.0575887656
 20
4.7744791918
 30
0.0
 10
5.0460321021
 20
4.7836989052
 30
0.0
 10
5.0308601308
 20
4.7955652289
 30
0.0
 10
5.0121654013
 20
4.8097758943
 30
0.0
 10
4.9900474387
 20
4.8260082852
 30
0.0
 10
4.9754133457
 20
4.8364165696
 30
0.0
 10
4.968202652
 20
4.8414748127
 30
0.0
 11
5.1502713567
 21
4.6917518845
 31
0.0
 11
5.1389314361
 21
4.7029046314
 31
0.0
 11
5.1274457808
 21
4.7138585909
 31
0.0
 11
5.1158563738
 21
4.7245881329
 31
0.0
 11
5.1042006137
 21
4.7350759422
 31
0.0
 11
5.092510107
 21
4.7453152069
 31
0.0
 11
5.0808158532
 21
4.7553000112
 31
0.0
 11
5.0691443578
 21
4.7650286856
 31
0.0
 11
5.057518101
 21
4.7745033634
 31
0.0
 11
5.0459593446
 21
4.7837263146
 31
0.0
 11
5.0344868648
 21
4.7926999035
 31
0.0
 11
5.0118561092
 21
4.8099089871
 31
0.0
 11
4.9897315337
 21
4.8261540229
 31
0.0
 11
4.968202652
 21
4.8414748127
 31
0.0
  0
LINE
  5
44F
100
AcDbEntity
  8
0
100
AcDbLine
 62
9
  6
CONTINUOUS
 10
6.1603844628
 20
4.7985756311
 11
6.1736605873
 21
4.8118978353
  0
SPLINE
  5
450
100
AcDbEntity
  8
0
100
AcDbSpline
 62
9
  6
CONTINUOUS
 70
0
 71
3
 72
23
 73
19
 74
17
 42
0.0000001
 43
0.0000001
 44
0.0000000001
 12
0.1380470358
 22
0.1239945367
 32
0.0
 13
0.1527104536
 23
-0.1054094237
 33
0.0
 40
0.0
 40
0.0
 40
0.0
 40
0.0
 40
0.0707133201
 40
0.1376840364
 40
0.2016201062
 40
0.2632275444
 40
0.3231900837
 40
0.3821474061
 40
0.4406752148
 40
0.4992701216
 40
0.558338971
 40
0.6181870041
 40
0.6790236326
 40
0.7409730911
 40
0.804085149
 40
0.8683459657
 40
0.9336882072
 40
1.0
 40
1.0
 40
1.0
 40
1.0
 10
6.24924915
 20
5.0686926629
 30
0.0
 10
6.2525030714
 20
5.0716153513
 30
0.0
 10
6.2590901554
 20
5.0770354879
 30
0.0
 10
6.2694504772
 20
5.0840117653
 30
0.0
 10
6.2799684681
 20
5.0896394976
 30
0.0
 10
6.2906176773
 20
5.0939688028
 30
0.0
 10
6.3013717772
 20
5.0970520619
 30
0.0
 10
6.3122038128
 20
5.0989430703
 30
0.0
 10
6.3230874195
 20
5.0996972878
 30
0.0
 10
6.3339972767
 20
5.0993711931
 30
0.0
 10
6.3449084061
 20
5.0980218736
 30
0.0
 10
6.3557970296
 20
5.0957131187
 30
0.0
 10
6.3666401194
 20
5.0925078788
 30
0.0
 10
6.3774148557
 20
5.0884683452
 30
0.0
 10
6.3880984451
 20
5.0836560531
 30
0.0
 10
6.3986680328
 20
5.0781319879
 30
0.0
 10
6.4091002365
 20
5.0719570244
 30
0.0
 10
6.4159035372
 20
5.0674759661
 30
0.0
 10
6.4192790385
 20
5.0651460035
 30
0.0
 11
6.24924915
 21
5.0686926629
 31
0.0
 11
6.2593978949
 21
5.077009753
 31
0.0
 11
6.2697177472
 21
5.0839328413
 31
0.0
 11
6.2801859317
 21
5.089515623
 31
0.0
 11
6.290779673
 21
5.0938117936
 31
0.0
 11
6.3014761959
 21
5.0968750486
 31
0.0
 11
6.3122527251
 21
5.0987590834
 31
0.0
 11
6.3230864853
 21
5.0995175933
 31
0.0
 11
6.3339547012
 21
5.0992042739
 31
0.0
 11
6.3448343468
 21
5.0978739706
 31
0.0
 11
6.3557013897
 21
5.0955861457
 31
0.0
 11
6.3665315451
 21
5.09240142
 31
0.0
 11
6.3773005281
 21
5.0883804142
 31
0.0
 11
6.3879840538
 21
5.083583749
 31
0.0
 11
6.3985578373
 21
5.078072045
 31
0.0
 11
6.4089975939
 21
5.0719059229
 31
0.0
 11
6.4192790385
 21
5.0651460035
 31
0.0
  0
SPLINE
  5
451
100
AcDbEntity
  8
0
100
AcDbSpline
 62
9
  6
CONTINUOUS
 70
0
 71
3
 72
15
 73
11
 74
9
 42
0.0000001
 43
0.0000001
 44
0.0000000001
 12
0.248978569
 22
0.2499533013
 32
0.0
 13
0.2435343941
 23
0.255260611
 33
0.0
 40
0.0
 40
0.0
 40
0.0
 40
0.0
 40
0.106249012
 40
0.2210067568
 40
0.3426963279
 40
0.4697401214
 40
0.6005617481
 40
0.7335912201
 40
0.8672601223
 40
1.0
 40
1.0
 40
1.0
 40
1.0
 10
6.1736605873
 20
4.8118978353
 30
0.0
 10
6.1824784963
 20
4.8207502657
 30
0.0
 10
6.2007677097
 20
4.8392166403
 30
0.0
 10
6.2290088509
 20
4.8679674754
 30
0.0
 10
6.2588648737
 20
4.8985596077
 30
0.0
 10
6.2899573307
 20
4.9305844668
 30
0.0
 10
6.3219085147
 20
4.9636341426
 30
0.0
 10
6.3543353186
 20
4.9973075507
 30
0.0
 10
6.3868554471
 20
5.0312041472
 30
0.0
 10
6.4085034633
 20
5.0538515827
 30
0.0
 10
6.4192790385
 20
5.0651460035
 30
0.0
 11
6.1736605873
 21
4.8118978353
 31
0.0
 11
6.2000459323
 21
4.838523067
 31
0.0
 11
6.2284224714
 21
4.8674007402
 31
0.0
 11
6.2584120752
 21
4.8981216531
 31
0.0
 11
6.2896366141
 21
4.9302766039
 31
0.0
 11
6.3217172946
 21
4.9634578476
 31
0.0
 11
6.3542726675
 21
4.9972634682
 31
0.0
 11
6.3869206199
 21
5.0312930066
 31
0.0
 11
6.4192790385
 21
5.0651460035
 31
0.0
  0
SPLINE
  5
452
100
AcDbEntity
  8
0
100
AcDbSpline
 62
6
  6
CONTINUOUS
 70
0
 71
3
 72
11
 73
7
 74
5
 42
0.0000001
 43
0.0000001
 44
0.0000000001
 12
0.0437883255
 22
0.0656836178
 32
0.0
 13
0.0422657371
 23
0.0666735522
 33
0.0
 40
0.0
 40
0.0
 40
0.0
 40
0.0
 40
0.2686002073
 40
0.5245987801
 40
0.7683175585
 40
1.0
 40
1.0
 40
1.0
 40
1.0
 10
6.279152665
 20
5.1124238895
 30
0.0
 10
6.2830731827
 20
5.1183047673
 30
0.0
 10
6.2906808728
 20
5.1298236131
 30
0.0
 10
6.3017025445
 20
5.1467726553
 30
0.0
 10
6.3120996135
 20
5.1629686396
 30
0.0
 10
6.3188115086
 20
5.1735252396
 30
0.0
 10
6.3220755849
 20
5.17867427
 30
0.0
 11
6.279152665
 21
5.1124238895
 31
0.0
 11
6.2908420679
 21
5.1301144098
 31
0.0
 11
6.3018616647
 21
5.1470545466
 31
0.0
 11
6.3122586037
 21
5.1632428973
 31
0.0
 11
6.3220755849
 21
5.17867427
 31
0.0
  0
SPLINE
  5
453
100
AcDbEntity
  8
0
100
AcDbSpline
 62
9
  6
CONTINUOUS
 70
0
 71
3
 72
24
 73
20
 74
18
 42
0.0000001
 43
0.0000001
 44
0.0000000001
 12
0.213072426
 22
0.1898676589
 32
0.0
 13
0.2597714865
 23
-0.1181878225
 33
0.0
 40
0.0
 40
0.0
 40
0.0
 40
0.0
 40
0.0804957677
 40
0.1574033997
 40
0.2309620905
 40
0.266567083
 40
0.3014283732
 40
0.369039318
 40
0.4340671973
 40
0.4967819419
 40
0.5574590203
 40
0.6163770454
 40
0.6738077655
 40
0.7300065214
 40
0.7852092711
 40
0.8396304302
 40
0.8934614086
 40
0.9468699112
 40
1.0
 40
1.0
 40
1.0
 40
1.0
 10
6.3220814168
 20
5.178679364
 30
0.0
 10
6.3277985596
 20
5.1837738784
 30
0.0
 10
6.3392400524
 20
5.1934474906
 30
0.0
 10
6.3568002079
 20
5.2066724073
 30
0.0
 10
6.3715594103
 20
5.216466968
 30
0.0
 10
6.3833255557
 20
5.223491268
 30
0.0
 10
6.3948171603
 20
5.2298578209
 30
0.0
 10
6.4091299143
 20
5.2368914894
 30
0.0
 10
6.4263521598
 20
5.243915689
 30
0.0
 10
6.4434126254
 20
5.2494675068
 30
0.0
 10
6.4602795341
 20
5.2535777986
 30
0.0
 10
6.4769201554
 20
5.2562773863
 30
0.0
 10
6.4932975682
 20
5.2576156366
 30
0.0
 10
6.5093758689
 20
5.2576427143
 30
0.0
 10
6.5251192432
 20
5.2564089581
 30
0.0
 10
6.5404920077
 20
5.2539649788
 30
0.0
 10
6.5554590729
 20
5.2503613479
 30
0.0
 10
6.5699843177
 20
5.2456492575
 30
0.0
 10
6.5793699377
 20
5.2417944099
 30
0.0
 10
6.5839704985
 20
5.2397013001
 30
0.0
 11
6.3220814168
 21
5.178679364
 31
0.0
 11
6.3396384238
 21
5.1934952234
 31
0.0
 11
6.3571841455
 21
5.2066825034
 31
0.0
 11
6.3746876256
 21
5.2182731117
 31
0.0
 11
6.3834138513
 21
5.2234796352
 31
0.0
 11
6.3921179081
 21
5.2282989563
 31
0.0
 11
6.409444037
 21
5.2367919449
 31
0.0
 11
6.426635056
 21
5.2437839854
 31
0.0
 11
6.4436600092
 21
5.2493069856
 31
0.0
 11
6.4604879403
 21
5.2533928533
 31
0.0
 11
6.4770872422
 21
5.2560764839
 31
0.0
 11
6.4934237029
 21
5.2574047206
 31
0.0
 11
6.50946246
 21
5.2574273925
 31
0.0
 11
6.5251686507
 21
5.2561943288
 31
0.0
 11
6.5405074126
 21
5.2537553585
 31
0.0
 11
6.5554438829
 21
5.2501603109
 31
0.0
 11
6.5699431991
 21
5.245459015
 31
0.0
 11
6.5839704985
 21
5.2397013001
 31
0.0
  0
SPLINE
  5
454
100
AcDbEntity
  8
0
100
AcDbSpline
 62
9
  6
CONTINUOUS
 70
0
 71
3
 72
16
 73
12
 74
10
 42
0.0000001
 43
0.0000001
 44
0.0000000001
 12
0.1656625839
 22
0.1736392616
 32
0.0
 13
0.1616860242
 23
0.1773480038
 33
0.0
 40
0.0
 40
0.0
 40
0.0
 40
0.0
 40
0.285315589
 40
0.425828964
 40
0.5609870642
 40
0.6880148036
 40
0.8048126373
 40
0.858772191
 40
0.9094505974
 40
0.9566068229
 40
1.0
 40
1.0
 40
1.0
 40
1.0
 10
6.4192790385
 20
5.0651460035
 30
0.0
 10
6.4350344111
 20
5.0816599996
 30
0.0
 10
6.4585440392
 20
5.1063116763
 30
0.0
 10
6.4894663458
 20
5.1388347079
 30
0.0
 10
6.5116282366
 20
5.1622146707
 30
0.0
 10
6.5324367749
 20
5.1842633621
 30
0.0
 10
6.5487368576
 20
5.2016352882
 30
0.0
 10
6.5608179069
 20
5.2145904475
 30
0.0
 10
6.5690779971
 20
5.2234911835
 30
0.0
 10
6.5767389746
 20
5.2317946714
 30
0.0
 10
6.5816318084
 20
5.237136069
 30
0.0
 10
6.5839704985
 20
5.2397013001
 30
0.0
 11
6.4192790385
 21
5.0651460035
 31
0.0
 11
6.466521645
 21
5.1147104122
 31
0.0
 11
6.4897552406
 21
5.1391511566
 31
0.0
 11
6.5120668151
 21
5.1626950892
 31
0.0
 11
6.5329873135
 21
5.1848690213
 31
0.0
 11
6.5521621076
 21
5.2053145254
 31
0.0
 11
6.560992984
 21
5.214786074
 31
0.0
 11
6.5692651764
 21
5.2237018641
 31
0.0
 11
6.5769379321
 21
5.2320206785
 31
0.0
 11
6.5839704985
 21
5.2397013001
 31
0.0
  0
LINE
  5
455
100
AcDbEntity
  8
0
100
AcDbLine
 62
9
  6
CONTINUOUS
 10
5.2383196826
 20
3.8765108508
 11
5.2249974783
 21
3.8632347263
  0
SPLINE
  5
456
100
AcDbEntity
  8
0
100
AcDbSpline
 62
9
  6
CONTINUOUS
 70
0
 71
3
 72
38
 73
34
 74
32
 42
0.0000001
 43
0.0000001
 44
0.0000000001
 12
0.0726825179
 22
0.0797230281
 32
0.0
 13
-0.0954113862
 23
0.0503505412
 33
0.0
 40
0.0
 40
0.0
 40
0.0
 40
0.0
 40
0.2301129586
 40
0.3343731051
 40
0.4313313376
 40
0.5209096876
 40
0.6030304734
 40
0.6776164277
 40
0.7445909003
 40
0.7752002028
 40
0.8038783685
 40
0.8306161891
 40
0.8554046199
 40
0.8782348385
 40
0.8990983307
 40
0.917987023
 40
0.9348934946
 40
0.9498113318
 40
0.9627357611
 40
0.9684498581
 40
0.9736652724
 40
0.9783826512
 40
0.982603318
 40
0.9863296327
 40
0.9895656234
 40
0.9923181619
 40
0.9945993307
 40
0.9964316083
 40
0.9971932061
 40
0.9978631084
 40
0.9989848599
 40
0.9994908647
 40
1.0
 40
1.0
 40
1.0
 40
1.0
 10
6.5839704985
 20
5.2397013001
 30
0.0
 10
6.5895455615
 20
5.2458164007
 30
0.0
 10
6.5976249365
 20
5.2547219626
 30
0.0
 10
6.6079901863
 20
5.2662611124
 30
0.0
 10
6.6149501723
 20
5.2740657876
 30
0.0
 10
6.621350684
 20
5.2813025493
 30
0.0
 10
6.6271867162
 20
5.2879644007
 30
0.0
 10
6.6324532646
 20
5.2940443374
 30
0.0
 10
6.6364755318
 20
5.2987512269
 30
0.0
 10
6.6394029196
 20
5.3022220063
 30
0.0
 10
6.6413861512
 20
5.3045961944
 30
0.0
 10
6.6432232036
 20
5.3068196946
 30
0.0
 10
6.6449134563
 20
5.3088916329
 30
0.0
 10
6.6464563025
 20
5.3108111255
 30
0.0
 10
6.6478511469
 20
5.3125772862
 30
0.0
 10
6.649097404
 20
5.3141892252
 30
0.0
 10
6.6501945397
 20
5.315646039
 30
0.0
 10
6.6511419929
 20
5.3169468375
 30
0.0
 10
6.6518322487
 20
5.3179368025
 30
0.0
 10
6.6523072031
 20
5.3186511566
 30
0.0
 10
6.6526106778
 20
5.3191250132
 30
0.0
 10
6.6528762881
 20
5.3195592298
 30
0.0
 10
6.6531039906
 20
5.3199537066
 30
0.0
 10
6.6532937837
 20
5.320308353
 30
0.0
 10
6.6534456793
 20
5.3206230893
 30
0.0
 10
6.6535598351
 20
5.3208979509
 30
0.0
 10
6.6536362977
 20
5.3211330072
 30
0.0
 10
6.6536710758
 20
5.3213056138
 30
0.0
 10
6.6536766137
 20
5.3214231896
 30
0.0
 10
6.6536694814
 20
5.3215147107
 30
0.0
 10
6.6536431949
 20
5.3215961049
 30
0.0
 10
6.6535930586
 20
5.3216554647
 30
0.0
 10
6.6535626284
 20
5.321676462
 30
0.0
 10
6.6535464359
 20
5.3216850071
 30
0.0
 11
6.5839704985
 21
5.2397013001
 31
0.0
 11
6.6006449952
 21
5.2580926897
 31
0.0
 11
6.608160437
 21
5.2664611309
 31
0.0
 11
6.6151212537
 21
5.2742687862
 31
0.0
 11
6.6215223798
 21
5.2815086933
 31
0.0
 11
6.6273587496
 21
5.2881738896
 31
0.0
 11
6.6326252977
 21
5.2942574126
 31
0.0
 11
6.6373169584
 21
5.2997522998
 31
0.0
 11
6.6394456231
 21
5.3022768291
 31
0.0
 11
6.6414286664
 21
5.3046515886
 31
0.0
 11
6.643265455
 21
5.3068757079
 31
0.0
 11
6.6449553559
 21
5.3089483166
 31
0.0
 11
6.6464977358
 21
5.3108685446
 31
0.0
 11
6.6478919614
 21
5.3126355213
 31
0.0
 11
6.6491373998
 21
5.3142483767
 31
0.0
 11
6.6502334175
 21
5.3157062402
 31
0.0
 11
6.6511793815
 21
5.3170082416
 31
0.0
 11
6.6519746586
 21
5.3181535107
 31
0.0
 11
6.6523155916
 21
5.3186670986
 31
0.0
 11
6.6526186154
 21
5.319141177
 31
0.0
 11
6.652883651
 21
5.3195756372
 31
0.0
 11
6.653110619
 21
5.3199703704
 31
0.0
 11
6.6532994404
 21
5.3203252677
 31
0.0
 11
6.653450036
 21
5.3206402203
 31
0.0
 11
6.6535623267
 21
5.3209151196
 31
0.0
 11
6.6536362333
 21
5.3211498566
 31
0.0
 11
6.6536716767
 21
5.3213443227
 31
0.0
 11
6.6536749499
 21
5.3214264201
 31
0.0
 11
6.6536685777
 21
5.321498409
 31
0.0
 11
6.6536268571
 21
5.3216120067
 31
0.0
 11
6.6535914891
 21
5.3216535884
 31
0.0
 11
6.6535464359
 21
5.3216850071
 31
0.0
  0
SPLINE
  5
457
100
AcDbEntity
  8
0
100
AcDbSpline
 62
9
  6
CONTINUOUS
 70
0
 71
3
 72
9
 73
5
 74
3
 42
0.0000001
 43
0.0000001
 44
0.0000000001
 12
-0.0000390276
 22
0.0000205956
 32
0.0
 13
-0.0000419688
 23
0.0000136364
 33
0.0
 40
0.0
 40
0.0
 40
0.0
 40
0.0
 40
0.2442278707
 40
1.0
 40
1.0
 40
1.0
 40
1.0
 10
6.6535464359
 20
5.3216850071
 30
0.0
 10
6.6535432587
 20
5.3216866837
 30
0.0
 10
6.6535300933
 20
5.321693251
 30
0.0
 10
6.6535163425
 20
5.321698626
 30
0.0
 10
6.6535057695
 20
5.3217020613
 30
0.0
 11
6.6535464359
 21
5.3216850071
 31
0.0
 11
6.6535367931
 21
5.3216898205
 31
0.0
 11
6.6535057695
 21
5.3217020613
 31
0.0
  0
LINE
  5
458
100
AcDbEntity
  8
0
100
AcDbLine
 62
6
  6
CONTINUOUS
 10
6.3220829715
 20
5.1786807221
 11
6.3382199212
 21
5.2041986153
  0
LINE
  5
459
100
AcDbEntity
  8
0
100
AcDbLine
 62
6
  6
CONTINUOUS
 10
6.3382199212
 20
5.2041986153
 11
6.3424702646
 21
5.2109082431
  0
SPLINE
  5
45A
100
AcDbEntity
  8
0
100
AcDbSpline
 62
6
  6
CONTINUOUS
 70
0
 71
3
 72
16
 73
12
 74
10
 42
0.0000001
 43
0.0000001
 44
0.0000000001
 12
0.0284892438
 22
0.0449012168
 32
0.0
 13
0.032537703
 23
0.0420601256
 33
0.0
 40
0.0
 40
0.0
 40
0.0
 40
0.0
 40
0.1551813842
 40
0.3025665937
 40
0.4417660478
 40
0.5723929624
 40
0.6940263259
 40
0.8061680878
 40
0.9083223023
 40
0.9555048409
 40
1.0
 40
1.0
 40
1.0
 40
1.0
 10
6.3424671195
 20
5.2109055086
 30
0.0
 10
6.3439407862
 20
5.2132281196
 30
0.0
 10
6.3468178046
 20
5.2177542991
 30
0.0
 10
6.351038295
 20
5.2243501454
 30
0.0
 10
6.3550526986
 20
5.230561075
 30
0.0
 10
6.3588569562
 20
5.2363641754
 30
0.0
 10
6.3624460628
 20
5.2417346049
 30
0.0
 10
6.3658154564
 20
5.2466443635
 30
0.0
 10
6.3685019149
 20
5.2504216795
 30
0.0
 10
6.3705428608
 20
5.2531856723
 30
0.0
 10
6.3715262225
 20
5.2544795021
 30
0.0
 10
6.3720088126
 20
5.2551033261
 30
0.0
 11
6.3424671195
 21
5.2109055086
 31
0.0
 11
6.346895515
 21
5.2178686439
 31
0.0
 11
6.3511216766
 21
5.2244690387
 31
0.0
 11
6.3551420879
 21
5.2306842039
 31
0.0
 11
6.3589532295
 21
5.2364916397
 31
0.0
 11
6.3625509882
 21
5.2418667553
 31
0.0
 11
6.3659299536
 21
5.2467803913
 31
0.0
 11
6.3690845437
 21
5.2512027849
 31
0.0
 11
6.370575937
 21
5.2532204257
 31
0.0
 11
6.3720088126
 21
5.2551033261
 31
0.0
  0
SPLINE
  5
45B
100
AcDbEntity
  8
0
100
AcDbSpline
 62
6
  6
CONTINUOUS
 70
0
 71
3
 72
11
 73
7
 74
5
 42
0.0000001
 43
0.0000001
 44
0.0000000001
 12
0.0055015285
 22
0.0071115954
 32
0.0
 13
0.0063609974
 23
0.0063544722
 33
0.0
 40
0.0
 40
0.0
 40
0.0
 40
0.0
 40
0.2846409668
 40
0.5465862207
 40
0.7852124363
 40
1.0
 40
1.0
 40
1.0
 40
1.0
 10
6.3720088126
 20
5.2551033261
 30
0.0
 10
6.3725307994
 20
5.2557780765
 30
0.0
 10
6.3735451212
 20
5.2570646048
 30
0.0
 10
6.3750458112
 20
5.2588777344
 30
0.0
 10
6.3764617776
 20
5.2604880662
 30
0.0
 10
6.377397759
 20
5.2614739906
 30
0.0
 10
6.37785318
 20
5.2619289445
 30
0.0
 11
6.3720088126
 21
5.2551033261
 31
0.0
 11
6.3735954579
 21
5.2571114053
 31
0.0
 11
6.3750997252
 21
5.2589236283
 31
0.0
 11
6.3765196281
 21
5.2605321047
 31
0.0
 11
6.37785318
 21
5.2619289445
 31
0.0
  0
SPLINE
  5
45C
100
AcDbEntity
  8
0
100
AcDbSpline
 62
9
  6
CONTINUOUS
 70
0
 71
3
 72
11
 73
7
 74
5
 42
0.0000001
 43
0.0000001
 44
0.0000000001
 12
0.0313757873
 22
-0.0216573495
 32
0.0
 13
0.0269581232
 23
-0.0269581232
 33
0.0
 40
0.0
 40
0.0
 40
0.0
 40
0.0
 40
0.2467924469
 40
0.4962971367
 40
0.7476666945
 40
1.0
 40
1.0
 40
1.0
 40
1.0
 10
6.4192790385
 20
5.0651460035
 30
0.0
 10
6.421860141
 20
5.0633643801
 30
0.0
 10
6.4269614285
 20
5.0596505431
 30
0.0
 10
6.4343739384
 20
5.0537013343
 30
0.0
 10
6.4415652818
 20
5.0473796975
 30
0.0
 10
6.4461875904
 20
5.0429482094
 30
0.0
 10
6.4484550679
 20
5.0406807319
 30
0.0
 11
6.4192790385
 21
5.0651460035
 31
0.0
 11
6.4268888173
 21
5.059612676
 31
0.0
 11
6.4343098901
 21
5.0536619934
 31
0.0
 11
6.4415095445
 21
5.0473369979
 31
0.0
 11
6.4484550679
 21
5.0406807319
 31
0.0
  0
SPLINE
  5
45D
100
AcDbEntity
  8
0
100
AcDbSpline
 62
9
  6
CONTINUOUS
 70
0
 71
3
 72
12
 73
8
 74
6
 42
0.0000001
 43
0.0000001
 44
0.0000000001
 12
0.0417346491
 22
-0.0189879473
 32
0.0
 13
0.0324216215
 23
-0.0324216215
 33
0.0
 40
0.0
 40
0.0
 40
0.0
 40
0.0
 40
0.2493582906
 40
0.3742533165
 40
0.4992638234
 40
0.749510259
 40
1.0
 40
1.0
 40
1.0
 40
1.0
 10
6.5839704985
 20
5.2397013001
 30
0.0
 10
6.5874394587
 20
5.2381230327
 30
0.0
 10
6.592539135
 20
5.235509011
 30
0.0
 10
6.5990787402
 20
5.2315737275
 30
0.0
 10
6.6054470337
 20
5.2273411136
 30
0.0
 10
6.6130513757
 20
5.2215199896
 30
0.0
 10
6.618704043
 20
5.2163438961
 30
0.0
 10
6.6214111375
 20
5.2136368016
 30
0.0
 11
6.5839704985
 21
5.2397013001
 31
0.0
 11
6.5941474191
 21
5.2344905609
 31
0.0
 11
6.5990543961
 21
5.2315384047
 31
0.0
 11
6.6038282738
 21
5.228365959
 31
0.0
 11
6.6129404006
 21
5.2213929031
 31
0.0
 11
6.6214111375
 21
5.2136368016
 31
0.0
  0
SPLINE
  5
45E
100
AcDbEntity
  8
0
100
AcDbSpline
 62
9
  6
CONTINUOUS
 70
0
 71
3
 72
11
 73
7
 74
5
 42
0.0000001
 43
0.0000001
 44
0.0000000001
 12
-0.0269581232
 22
0.0269581232
 32
0.0
 13
-0.0216573495
 23
0.0313757873
 33
0.0
 40
0.0
 40
0.0
 40
0.0
 40
0.0
 40
0.2523333055
 40
0.5037028633
 40
0.7532075531
 40
1.0
 40
1.0
 40
1.0
 40
1.0
 10
4.9962145817
 20
3.5884402458
 30
0.0
 10
4.9939471042
 20
3.5907077232
 30
0.0
 10
4.9895156161
 20
3.5953300319
 30
0.0
 10
4.9831939793
 20
3.6025213752
 30
0.0
 10
4.9772447706
 20
3.6099338851
 30
0.0
 10
4.9735309335
 20
3.6150351727
 30
0.0
 10
4.9717493101
 20
3.6176162751
 30
0.0
 11
4.9962145817
 21
3.5884402458
 31
0.0
 11
4.9895583157
 21
3.5953857691
 31
0.0
 11
4.9832333202
 21
3.6025854235
 31
0.0
 11
4.9772826376
 21
3.6100064963
 31
0.0
 11
4.9717493101
 21
3.6176162751
 31
0.0
  0
LINE
  5
45F
100
AcDbEntity
  8
0
100
AcDbLine
 62
9
  6
CONTINUOUS
 10
6.206349967
 20
4.7526101269
 11
6.2196721712
 21
4.7658862514
  0
SPLINE
  5
460
100
AcDbEntity
  8
0
100
AcDbSpline
 62
9
  6
CONTINUOUS
 70
0
 71
3
 72
11
 73
7
 74
5
 42
0.0000001
 43
0.0000001
 44
0.0000000001
 12
0.0269581232
 22
-0.0269581232
 32
0.0
 13
0.0216573495
 23
-0.0313757873
 33
0.0
 40
0.0
 40
0.0
 40
0.0
 40
0.0
 40
0.2523333055
 40
0.5037028633
 40
0.7532075531
 40
1.0
 40
1.0
 40
1.0
 40
1.0
 10
6.4484550679
 20
5.0406807319
 30
0.0
 10
6.4507225453
 20
5.0384132545
 30
0.0
 10
6.4551540335
 20
5.0337909458
 30
0.0
 10
6.4614756702
 20
5.0265996025
 30
0.0
 10
6.467424879
 20
5.0191870926
 30
0.0
 10
6.471138716
 20
5.014085805
 30
0.0
 10
6.4729203394
 20
5.0115047026
 30
0.0
 11
6.4484550679
 21
5.0406807319
 31
0.0
 11
6.4551113338
 21
5.0337352086
 31
0.0
 11
6.4614363293
 21
5.0265355542
 31
0.0
 11
6.4673870119
 21
5.0191144814
 31
0.0
 11
6.4729203394
 21
5.0115047026
 31
0.0
  0
SPLINE
  5
461
100
AcDbEntity
  8
0
100
AcDbSpline
 62
9
  6
CONTINUOUS
 70
0
 71
3
 72
15
 73
11
 74
9
 42
0.0000001
 43
0.0000001
 44
0.0000000001
 12
0.2499533013
 22
0.248978569
 32
0.0
 13
0.255260611
 23
0.2435343941
 33
0.0
 40
0.0
 40
0.0
 40
0.0
 40
0.0
 40
0.106249012
 40
0.2210067568
 40
0.3426963279
 40
0.4697401214
 40
0.6005617481
 40
0.7335912201
 40
0.8672601223
 40
1.0
 40
1.0
 40
1.0
 40
1.0
 10
6.2196721712
 20
4.7658862514
 30
0.0
 10
6.2285246017
 20
4.7747041603
 30
0.0
 10
6.2469909762
 20
4.7929933738
 30
0.0
 10
6.2757418114
 20
4.821234515
 30
0.0
 10
6.3063339436
 20
4.8510905377
 30
0.0
 10
6.3383588027
 20
4.8821829948
 30
0.0
 10
6.3714084785
 20
4.9141341788
 30
0.0
 10
6.4050818866
 20
4.9465609827
 30
0.0
 10
6.4389784831
 20
4.9790811112
 30
0.0
 10
6.4616259187
 20
5.0007291274
 30
0.0
 10
6.4729203394
 20
5.0115047026
 30
0.0
 11
6.2196721712
 21
4.7658862514
 31
0.0
 11
6.2462974029
 21
4.7922715963
 31
0.0
 11
6.2751750761
 21
4.8206481355
 31
0.0
 11
6.305895989
 21
4.8506377393
 31
0.0
 11
6.3380509398
 21
4.8818622782
 31
0.0
 11
6.3712321836
 21
4.9139429587
 31
0.0
 11
6.4050378042
 21
4.9464983316
 31
0.0
 11
6.4390673425
 21
4.979146284
 31
0.0
 11
6.4729203394
 21
5.0115047026
 31
0.0
  0
SPLINE
  5
462
100
AcDbEntity
  8
0
100
AcDbSpline
 62
9
  6
CONTINUOUS
 70
0
 71
3
 72
12
 73
8
 74
6
 42
0.0000001
 43
0.0000001
 44
0.0000000001
 12
0.0324216215
 22
-0.0324216215
 32
0.0
 13
0.0189879473
 23
-0.0417346491
 33
0.0
 40
0.0
 40
0.0
 40
0.0
 40
0.0
 40
0.250489741
 40
0.5007361766
 40
0.6257466835
 40
0.7506417094
 40
1.0
 40
1.0
 40
1.0
 40
1.0
 10
6.6214111375
 20
5.2136368016
 30
0.0
 10
6.6241182321
 20
5.2109297071
 30
0.0
 10
6.6292943255
 20
5.2052770398
 30
0.0
 10
6.6351154495
 20
5.1976726978
 30
0.0
 10
6.6393480634
 20
5.1913044042
 30
0.0
 10
6.6432833469
 20
5.1847647991
 30
0.0
 10
6.6458973687
 20
5.1796651228
 30
0.0
 10
6.647475636
 20
5.1761961625
 30
0.0
 11
6.6214111375
 21
5.2136368016
 31
0.0
 11
6.629167239
 21
5.2051660647
 31
0.0
 11
6.6361402949
 21
5.1960539379
 31
0.0
 11
6.6393127406
 21
5.1912800602
 31
0.0
 11
6.6422648968
 21
5.1863730832
 31
0.0
 11
6.647475636
 21
5.1761961625
 31
0.0
  0
SPLINE
  5
463
100
AcDbEntity
  8
0
100
AcDbSpline
 62
9
  6
CONTINUOUS
 70
0
 71
3
 72
16
 73
12
 74
10
 42
0.0000001
 43
0.0000001
 44
0.0000000001
 12
0.1736392616
 22
0.1656625839
 32
0.0
 13
0.1773480038
 23
0.1616860242
 33
0.0
 40
0.0
 40
0.0
 40
0.0
 40
0.0
 40
0.285315589
 40
0.425828964
 40
0.5609870642
 40
0.6880148036
 40
0.8048126373
 40
0.858772191
 40
0.9094505974
 40
0.9566068229
 40
1.0
 40
1.0
 40
1.0
 40
1.0
 10
6.4729203394
 20
5.0115047026
 30
0.0
 10
6.4894343355
 20
5.0272600752
 30
0.0
 10
6.5140860122
 20
5.0507697033
 30
0.0
 10
6.5466090438
 20
5.0816920099
 30
0.0
 10
6.5699890066
 20
5.1038539007
 30
0.0
 10
6.592037698
 20
5.124662439
 30
0.0
 10
6.6094096241
 20
5.1409625216
 30
0.0
 10
6.6223647834
 20
5.153043571
 30
0.0
 10
6.6312655194
 20
5.1613036612
 30
0.0
 10
6.6395690073
 20
5.1689646387
 30
0.0
 10
6.6449104049
 20
5.1738574724
 30
0.0
 10
6.647475636
 20
5.1761961625
 30
0.0
 11
6.4729203394
 21
5.0115047026
 31
0.0
 11
6.5224847481
 21
5.0587473091
 31
0.0
 11
6.5469254925
 21
5.0819809047
 31
0.0
 11
6.5704694251
 21
5.1042924792
 31
0.0
 11
6.5926433572
 21
5.1252129775
 31
0.0
 11
6.6130888613
 21
5.1443877717
 31
0.0
 11
6.6225604099
 21
5.1532186481
 31
0.0
 11
6.6314762
 21
5.1614908405
 31
0.0
 11
6.6397950144
 21
5.1691635962
 31
0.0
 11
6.647475636
 21
5.1761961625
 31
0.0
  0
SPLINE
  5
464
100
AcDbEntity
  8
0
100
AcDbSpline
 62
9
  6
CONTINUOUS
 70
0
 71
3
 72
15
 73
11
 74
9
 42
0.0000001
 43
0.0000001
 44
0.0000000001
 12
-0.2499533013
 22
-0.248978569
 32
0.0
 13
-0.255260611
 23
-0.2435343941
 33
0.0
 40
0.0
 40
0.0
 40
0.0
 40
0.0
 40
0.106249012
 40
0.2210067568
 40
0.3426963279
 40
0.4697401214
 40
0.6005617481
 40
0.7335912201
 40
0.8672601223
 40
1.0
 40
1.0
 40
1.0
 40
1.0
 10
5.2249974783
 20
3.8632347263
 30
0.0
 10
5.2161450479
 20
3.8544168174
 30
0.0
 10
5.1976786733
 20
3.8361276039
 30
0.0
 10
5.1689278382
 20
3.8078864627
 30
0.0
 10
5.1383357059
 20
3.7780304399
 30
0.0
 10
5.1063108468
 20
3.7469379829
 30
0.0
 10
5.073261171
 20
3.7149867989
 30
0.0
 10
5.039587763
 20
3.682559995
 30
0.0
 10
5.0056911664
 20
3.6500398665
 30
0.0
 10
4.9830437309
 20
3.6283918503
 30
0.0
 10
4.9717493101
 20
3.6176162751
 30
0.0
 11
5.2249974783
 21
3.8632347263
 31
0.0
 11
5.1983722467
 21
3.8368493814
 31
0.0
 11
5.1694945734
 21
3.8084728422
 31
0.0
 11
5.1387736605
 21
3.7784832384
 31
0.0
 11
5.1066187098
 21
3.7472586995
 31
0.0
 11
5.073437466
 21
3.715178019
 31
0.0
 11
5.0396318454
 21
3.6826226461
 31
0.0
 11
5.0056023071
 21
3.6499746937
 31
0.0
 11
4.9717493101
 21
3.6176162751
 31
0.0
  0
SPLINE
  5
465
100
AcDbEntity
  8
0
100
AcDbSpline
 62
9
  6
CONTINUOUS
 70
0
 71
3
 72
38
 73
34
 74
32
 42
0.0000001
 43
0.0000001
 44
0.0000000001
 12
0.079723018
 22
0.0726825087
 32
0.0
 13
0.0503561195
 23
-0.0954084267
 33
0.0
 40
0.0
 40
0.0
 40
0.0
 40
0.0
 40
0.2301125761
 40
0.3343725716
 40
0.4313306804
 40
0.5209089346
 40
0.6030296528
 40
0.6776155682
 40
0.744590031
 40
0.7751993396
 40
0.8038775189
 40
0.8306153605
 40
0.8554038198
 40
0.8782340745
 40
0.8990976103
 40
0.917986354
 40
0.9348928845
 40
0.9498107882
 40
0.9627352914
 40
0.9684494283
 40
0.9736648841
 40
0.9783823063
 40
0.982603018
 40
0.9863293792
 40
0.9895654176
 40
0.9923180046
 40
0.9945992218
 40
0.996431546
 40
0.9971931651
 40
0.9978630864
 40
0.9989848632
 40
0.9994908704
 40
1.0
 40
1.0
 40
1.0
 40
1.0
 10
6.647475636
 20
5.1761961625
 30
0.0
 10
6.6535907257
 20
5.1817712156
 30
0.0
 10
6.6624962722
 20
5.1898505768
 30
0.0
 10
6.6740354028
 20
5.2002158096
 30
0.0
 10
6.6818400669
 20
5.207175786
 30
0.0
 10
6.6890768197
 20
5.2135762904
 30
0.0
 10
6.6957386645
 20
5.2194123174
 30
0.0
 10
6.7018185968
 20
5.2246788628
 30
0.0
 10
6.7065254842
 20
5.228701129
 30
0.0
 10
6.709996263
 20
5.2316285172
 30
0.0
 10
6.7123704516
 20
5.2336117498
 30
0.0
 10
6.7145939529
 20
5.2354488039
 30
0.0
 10
6.7166658928
 20
5.2371390588
 30
0.0
 10
6.7185853878
 20
5.2386819079
 30
0.0
 10
6.7203515514
 20
5.2400767557
 30
0.0
 10
6.721963494
 20
5.2413230168
 30
0.0
 10
6.723420312
 20
5.2424201571
 30
0.0
 10
6.7247211154
 20
5.2433676156
 30
0.0
 10
6.7257110847
 20
5.244057876
 30
0.0
 10
6.7264254427
 20
5.2445328346
 30
0.0
 10
6.7268993024
 20
5.2448363126
 30
0.0
 10
6.7273335223
 20
5.2451019263
 30
0.0
 10
6.7277280026
 20
5.2453296324
 30
0.0
 10
6.7280826526
 20
5.2455194292
 30
0.0
 10
6.7283973927
 20
5.2456713287
 30
0.0
 10
6.7286722582
 20
5.2457854885
 30
0.0
 10
6.7289073185
 20
5.2458619551
 30
0.0
 10
6.7290799286
 20
5.2458967369
 30
0.0
 10
6.7291975073
 20
5.245902278
 30
0.0
 10
6.729289031
 20
5.2458951485
 30
0.0
 10
6.7293704278
 20
5.2458688658
 30
0.0
 10
6.7294297915
 20
5.2458187328
 30
0.0
 10
6.7294507906
 20
5.2457883039
 30
0.0
 10
6.7294593366
 20
5.2457721122
 30
0.0
 11
6.647475636
 21
5.1761961625
 31
0.0
 11
6.6658669926
 21
5.1928706296
 31
0.0
 11
6.6742354205
 21
5.2003860597
 31
0.0
 11
6.6820430647
 21
5.2073468668
 31
0.0
 11
6.6892829629
 21
5.2137479855
 31
0.0
 11
6.6959481526
 21
5.2195843501
 31
0.0
 11
6.7020316712
 21
5.2248508953
 31
0.0
 11
6.7075265564
 21
5.2295425553
 31
0.0
 11
6.7100510856
 21
5.2316712205
 31
0.0
 11
6.7124258456
 21
5.2336542649
 31
0.0
 11
6.7146499659
 21
5.2354910552
 31
0.0
 11
6.7167225764
 21
5.2371809583
 31
0.0
 11
6.7186428066
 21
5.238723341
 31
0.0
 11
6.7204097863
 21
5.2401175701
 31
0.0
 11
6.7220226452
 21
5.2413630125
 31
0.0
 11
6.7234805129
 21
5.2424590349
 31
0.0
 11
6.7247825192
 21
5.2434050041
 31
0.0
 11
6.7259277937
 21
5.2442002869
 31
0.0
 11
6.7264413846
 21
5.2445412231
 31
0.0
 11
6.7269154662
 21
5.2448442503
 31
0.0
 11
6.7273499296
 21
5.2451092892
 31
0.0
 11
6.7277446662
 21
5.2453362609
 31
0.0
 11
6.7280995672
 21
5.245525086
 31
0.0
 11
6.7284145236
 21
5.2456756856
 31
0.0
 11
6.7286894268
 21
5.2457879803
 31
0.0
 11
6.728924168
 21
5.2458618911
 31
0.0
 11
6.7291186383
 21
5.2458973389
 31
0.0
 11
6.729200738
 21
5.2459006144
 31
0.0
 11
6.7292727291
 21
5.2458942444
 31
0.0
 11
6.7293863314
 21
5.2458525286
 31
0.0
 11
6.7294279154
 21
5.2458171629
 31
0.0
 11
6.7294593366
 21
5.2457721122
 31
0.0
  0
SPLINE
  5
466
100
AcDbEntity
  8
0
100
AcDbSpline
 62
9
  6
CONTINUOUS
 70
0
 71
3
 72
9
 73
5
 74
3
 42
0.0000001
 43
0.0000001
 44
0.0000000001
 12
0.0000206012
 22
-0.0000390326
 32
0.0
 13
0.0000136395
 23
-0.0000419752
 33
0.0
 40
0.0
 40
0.0
 40
0.0
 40
0.0
 40
0.2442275017
 40
1.0
 40
1.0
 40
1.0
 40
1.0
 10
6.7294593366
 20
5.2457721122
 30
0.0
 10
6.7294610137
 20
5.2457689346
 30
0.0
 10
6.7294675827
 20
5.2457557675
 30
0.0
 10
6.729472959
 20
5.2457420146
 30
0.0
 10
6.7294763951
 20
5.24573144
 30
0.0
 11
6.7294593366
 21
5.2457721122
 31
0.0
 11
6.7294641512
 21
5.2457624681
 31
0.0
 11
6.7294763951
 21
5.24573144
 31
0.0
  0
SPLINE
  5
467
100
AcDbEntity
  8
0
100
AcDbSpline
 62
9
  6
CONTINUOUS
 70
0
 71
3
 72
23
 73
19
 74
17
 42
0.0000001
 43
0.0000001
 44
0.0000000001
 12
0.1054026318
 22
-0.152700614
 32
0.0
 13
-0.123975637
 23
-0.13804794
 33
0.0
 40
0.0
 40
0.0
 40
0.0
 40
0.0
 40
0.0663124224
 40
0.1316553455
 40
0.1959169036
 40
0.2590297627
 40
0.3209800721
 40
0.381817579
 40
0.441666481
 40
0.5007361359
 40
0.5593317113
 40
0.6178599652
 40
0.6768174148
 40
0.7367796626
 40
0.7983862913
 40
0.8623209412
 40
0.929289547
 40
1.0
 40
1.0
 40
1.0
 40
1.0
 10
6.4729203394
 20
5.0115047026
 30
0.0
 10
6.475250174
 20
5.0081293867
 30
0.0
 10
6.4797309961
 20
5.0013264623
 30
0.0
 10
6.4859056687
 20
4.9908948473
 30
0.0
 10
6.4914295214
 20
4.9803258612
 30
0.0
 10
6.4962416895
 20
4.9696428827
 30
0.0
 10
6.5002811978
 20
4.958868763
 30
0.0
 10
6.5034865218
 20
4.9480262919
 30
0.0
 10
6.5057954804
 20
4.9371382854
 30
0.0
 10
6.507145135
 20
4.9262277676
 30
0.0
 10
6.5074717056
 20
4.9153185122
 30
0.0
 10
6.5067181122
 20
4.9044354928
 30
0.0
 10
6.5048278862
 20
4.8936040251
 30
0.0
 10
6.5017455761
 20
4.8828504683
 30
0.0
 10
6.4974173945
 20
4.8722017727
 30
0.0
 10
6.4917909676
 20
4.8616842613
 30
0.0
 10
6.4848161852
 20
4.8513243816
 30
0.0
 10
6.4793971191
 20
4.8447375276
 30
0.0
 10
6.4764749946
 20
4.8414837168
 30
0.0
 11
6.4729203394
 21
5.0115047026
 31
0.0
 11
6.4796799007
 21
5.0012238315
 31
0.0
 11
6.4858457336
 21
4.9907846646
 31
0.0
 11
6.4913572276
 21
4.9802114829
 31
0.0
 11
6.4961537721
 21
4.9695285671
 31
0.0
 11
6.5001747563
 21
4.9587601982
 31
0.0
 11
6.5033595698
 21
4.9479306569
 31
0.0
 11
6.5056476018
 21
4.9370642241
 31
0.0
 11
6.5069782417
 21
4.9261851806
 31
0.0
 11
6.5072920355
 21
4.9153175551
 31
0.0
 11
6.5065341453
 21
4.9044843702
 31
0.0
 11
6.5046508845
 21
4.8937083974
 31
0.0
 11
6.5015885667
 21
4.8830124081
 31
0.0
 11
6.4972935053
 21
4.8724191739
 31
0.0
 11
6.4917120138
 21
4.8619514663
 31
0.0
 11
6.4847904058
 21
4.8516320567
 31
0.0
 11
6.4764749946
 21
4.8414837168
 31
0.0
  0
SPLINE
  5
468
100
AcDbEntity
  8
0
100
AcDbSpline
 62
9
  6
CONTINUOUS
 70
0
 71
3
 72
24
 73
20
 74
18
 42
0.0000001
 43
0.0000001
 44
0.0000000001
 12
0.1181878225
 22
-0.2597714865
 32
0.0
 13
-0.1898676589
 23
-0.213072426
 33
0.0
 40
0.0
 40
0.0
 40
0.0
 40
0.0
 40
0.0531300888
 40
0.1065385914
 40
0.1603695698
 40
0.2147907289
 40
0.2699934786
 40
0.3261922345
 40
0.3836229546
 40
0.4425409797
 40
0.5032180581
 40
0.5659328027
 40
0.630960682
 40
0.6985716268
 40
0.733432917
 40
0.7690379095
 40
0.8425966003
 40
0.9195042323
 40
1.0
 40
1.0
 40
1.0
 40
1.0
 10
6.647475636
 20
5.1761961625
 30
0.0
 10
6.6495687459
 20
5.1715956018
 30
0.0
 10
6.6534235934
 20
5.1622099817
 30
0.0
 10
6.6581356838
 20
5.147684737
 30
0.0
 10
6.6617393147
 20
5.1327176718
 30
0.0
 10
6.6641832941
 20
5.1173449072
 30
0.0
 10
6.6654170502
 20
5.101601533
 30
0.0
 10
6.6653899726
 20
5.0855232323
 30
0.0
 10
6.6640517223
 20
5.0691458195
 30
0.0
 10
6.6613521345
 20
5.0525051982
 30
0.0
 10
6.6572418427
 20
5.0356382895
 30
0.0
 10
6.6516900249
 20
5.0185778238
 30
0.0
 10
6.6446658253
 20
5.0013555784
 30
0.0
 10
6.6376321568
 20
4.9870428244
 30
0.0
 10
6.6312656039
 20
4.9755512198
 30
0.0
 10
6.6242413039
 20
4.9637850744
 30
0.0
 10
6.6144467432
 20
4.949025872
 30
0.0
 10
6.6012218265
 20
4.9314657165
 30
0.0
 10
6.5915482143
 20
4.9200242237
 30
0.0
 10
6.5864537
 20
4.9143070808
 30
0.0
 11
6.647475636
 21
5.1761961625
 31
0.0
 11
6.6532333509
 21
5.1621688632
 31
0.0
 11
6.6579346468
 21
5.147669547
 31
0.0
 11
6.6615296944
 21
5.1327330767
 31
0.0
 11
6.6639686647
 21
5.1173943148
 31
0.0
 11
6.6652017284
 21
5.101688124
 31
0.0
 11
6.6651790565
 21
5.085649367
 31
0.0
 11
6.6638508198
 21
5.0693129062
 31
0.0
 11
6.6611671892
 21
5.0527136044
 31
0.0
 11
6.6570813215
 21
5.0358856733
 31
0.0
 11
6.6515583214
 21
5.0188607201
 31
0.0
 11
6.6445662809
 21
5.0016697011
 31
0.0
 11
6.6360732922
 21
4.9843435722
 31
0.0
 11
6.6312539712
 21
4.9756395154
 31
0.0
 11
6.6260474476
 21
4.9669132897
 31
0.0
 11
6.6144568393
 21
4.9494098095
 31
0.0
 11
6.6012695593
 21
4.9318640879
 31
0.0
 11
6.5864537
 21
4.9143070808
 31
0.0
  0
SPLINE
  5
469
100
AcDbEntity
  8
0
100
AcDbSpline
 62
9
  6
CONTINUOUS
 70
0
 71
3
 72
12
 73
8
 74
6
 42
0.0000001
 43
0.0000001
 44
0.0000000001
 12
-0.0324216215
 22
0.0324216215
 32
0.0
 13
-0.0189879473
 23
0.0417346491
 33
0.0
 40
0.0
 40
0.0
 40
0.0
 40
0.0
 40
0.250489741
 40
0.5007361766
 40
0.6257466835
 40
0.7506417094
 40
1.0
 40
1.0
 40
1.0
 40
1.0
 10
4.823258512
 20
3.4154841761
 30
0.0
 10
4.8205514175
 20
3.4181912706
 30
0.0
 10
4.8153753241
 20
3.4238439379
 30
0.0
 10
4.8095542
 20
3.4314482799
 30
0.0
 10
4.8053215861
 20
3.4378165735
 30
0.0
 10
4.8013863026
 20
3.4443561786
 30
0.0
 10
4.7987722809
 20
3.4494558549
 30
0.0
 10
4.7971940135
 20
3.4529248152
 30
0.0
 11
4.823258512
 21
3.4154841761
 31
0.0
 11
4.8155024106
 21
3.423954913
 31
0.0
 11
4.8085293546
 21
3.4330670398
 31
0.0
 11
4.8053569089
 21
3.4378409175
 31
0.0
 11
4.8024047528
 21
3.4427478945
 31
0.0
 11
4.7971940135
 21
3.4529248152
 31
0.0
  0
SPLINE
  5
46A
100
AcDbEntity
  8
0
100
AcDbSpline
 62
9
  6
CONTINUOUS
 70
0
 71
3
 72
16
 73
12
 74
10
 42
0.0000001
 43
0.0000001
 44
0.0000000001
 12
-0.1736392616
 22
-0.1656625839
 32
0.0
 13
-0.1773480038
 23
-0.1616860242
 33
0.0
 40
0.0
 40
0.0
 40
0.0
 40
0.0
 40
0.285315589
 40
0.425828964
 40
0.5609870642
 40
0.6880148036
 40
0.8048126373
 40
0.858772191
 40
0.9094505974
 40
0.9566068229
 40
1.0
 40
1.0
 40
1.0
 40
1.0
 10
4.9717493101
 20
3.6176162751
 30
0.0
 10
4.955235314
 20
3.6018609025
 30
0.0
 10
4.9305836373
 20
3.5783512744
 30
0.0
 10
4.8980606057
 20
3.5474289678
 30
0.0
 10
4.8746806429
 20
3.525267077
 30
0.0
 10
4.8526319515
 20
3.5044585387
 30
0.0
 10
4.8352600254
 20
3.4881584561
 30
0.0
 10
4.8223048661
 20
3.4760774067
 30
0.0
 10
4.8134041301
 20
3.4678173165
 30
0.0
 10
4.8051006422
 20
3.460156339
 30
0.0
 10
4.7997592446
 20
3.4552635053
 30
0.0
 10
4.7971940135
 20
3.4529248152
 30
0.0
 11
4.9717493101
 21
3.6176162751
 31
0.0
 11
4.9221849015
 21
3.5703736686
 31
0.0
 11
4.897744157
 21
3.547140073
 31
0.0
 11
4.8742002244
 21
3.5248284985
 31
0.0
 11
4.8520262923
 21
3.5039080002
 31
0.0
 11
4.8315807883
 21
3.484733206
 31
0.0
 11
4.8221092397
 21
3.4759023296
 31
0.0
 11
4.8131934496
 21
3.4676301372
 31
0.0
 11
4.8048746351
 21
3.4599573815
 31
0.0
 11
4.7971940135
 21
3.4529248152
 31
0.0
  0
SPLINE
  5
46B
100
AcDbEntity
  8
0
100
AcDbSpline
 62
9
  6
CONTINUOUS
 70
0
 71
3
 72
38
 73
34
 74
32
 42
0.0000001
 43
0.0000001
 44
0.0000000001
 12
-0.079723018
 22
-0.0726825087
 32
0.0
 13
-0.0503561189
 23
0.0954084271
 33
0.0
 40
0.0
 40
0.0
 40
0.0
 40
0.0
 40
0.2301125761
 40
0.3343725717
 40
0.4313306805
 40
0.5209089346
 40
0.6030296529
 40
0.6776155683
 40
0.7445900311
 40
0.7751993397
 40
0.803877519
 40
0.8306153605
 40
0.8554038199
 40
0.8782340746
 40
0.8990976104
 40
0.917986354
 40
0.9348928845
 40
0.9498107883
 40
0.9627352915
 40
0.9684494283
 40
0.9736648842
 40
0.9783823063
 40
0.9826030181
 40
0.9863293793
 40
0.9895654176
 40
0.9923180046
 40
0.9945992218
 40
0.996431546
 40
0.9971931651
 40
0.9978630864
 40
0.9989848632
 40
0.9994908704
 40
1.0
 40
1.0
 40
1.0
 40
1.0
 10
4.7971940135
 20
3.4529248152
 30
0.0
 10
4.7910789238
 20
3.4473497621
 30
0.0
 10
4.7821733773
 20
3.4392704009
 30
0.0
 10
4.7706342467
 20
3.4289051681
 30
0.0
 10
4.7628295827
 20
3.4219451917
 30
0.0
 10
4.7555928298
 20
3.4155446873
 30
0.0
 10
4.7489309851
 20
3.4097086603
 30
0.0
 10
4.7428510527
 20
3.4044421149
 30
0.0
 10
4.7381441653
 20
3.4004198486
 30
0.0
 10
4.7346733865
 20
3.3974924605
 30
0.0
 10
4.7322991979
 20
3.3955092279
 30
0.0
 10
4.7300756966
 20
3.3936721738
 30
0.0
 10
4.7280037567
 20
3.3919819189
 30
0.0
 10
4.7260842617
 20
3.3904390698
 30
0.0
 10
4.7243180981
 20
3.389044222
 30
0.0
 10
4.7227061555
 20
3.3877979609
 30
0.0
 10
4.7212493375
 20
3.3867008206
 30
0.0
 10
4.7199485341
 20
3.3857533621
 30
0.0
 10
4.7189585648
 20
3.3850631016
 30
0.0
 10
4.7182442068
 20
3.3845881431
 30
0.0
 10
4.7177703471
 20
3.3842846651
 30
0.0
 10
4.7173361272
 20
3.3840190514
 30
0.0
 10
4.716941647
 20
3.3837913453
 30
0.0
 10
4.7165869969
 20
3.3836015485
 30
0.0
 10
4.7162722568
 20
3.383449649
 30
0.0
 10
4.7159973914
 20
3.3833354892
 30
0.0
 10
4.715762331
 20
3.3832590226
 30
0.0
 10
4.7155897209
 20
3.3832242408
 30
0.0
 10
4.7154721423
 20
3.3832186997
 30
0.0
 10
4.7153806185
 20
3.3832258292
 30
0.0
 10
4.7152992217
 20
3.3832521119
 30
0.0
 10
4.7152398581
 20
3.3833022449
 30
0.0
 10
4.7152188589
 20
3.3833326738
 30
0.0
 10
4.715210313
 20
3.3833488655
 30
0.0
 11
4.7971940135
 21
3.4529248152
 31
0.0
 11
4.7788026569
 21
3.4362503481
 31
0.0
 11
4.770434229
 21
3.428734918
 31
0.0
 11
4.7626265848
 21
3.4217741109
 31
0.0
 11
4.7553866866
 21
3.4153729922
 31
0.0
 11
4.748721497
 21
3.4095366276
 31
0.0
 11
4.7426379783
 21
3.4042700824
 31
0.0
 11
4.7371430932
 21
3.3995784224
 31
0.0
 11
4.7346185639
 21
3.3974497572
 31
0.0
 11
4.732243804
 21
3.3954667128
 31
0.0
 11
4.7300196836
 21
3.3936299225
 31
0.0
 11
4.7279470731
 21
3.3919400194
 31
0.0
 11
4.7260268429
 21
3.3903976367
 31
0.0
 11
4.7242598632
 21
3.3890034076
 31
0.0
 11
4.7226470043
 21
3.3877579652
 31
0.0
 11
4.7211891366
 21
3.3866619428
 31
0.0
 11
4.7198871303
 21
3.3857159736
 31
0.0
 11
4.7187418558
 21
3.3849206908
 31
0.0
 11
4.7182282649
 21
3.3845797546
 31
0.0
 11
4.7177541834
 21
3.3842767274
 31
0.0
 11
4.7173197199
 21
3.3840116885
 31
0.0
 11
4.7169249833
 21
3.3837847168
 31
0.0
 11
4.7165700824
 21
3.3835958917
 31
0.0
 11
4.7162551259
 21
3.3834452921
 31
0.0
 11
4.7159802227
 21
3.3833329974
 31
0.0
 11
4.7157454815
 21
3.3832590866
 31
0.0
 11
4.7155510112
 21
3.3832236388
 31
0.0
 11
4.7154689116
 21
3.3832203633
 31
0.0
 11
4.7153969205
 21
3.3832267333
 31
0.0
 11
4.7152833181
 21
3.3832684491
 31
0.0
 11
4.7152417341
 21
3.3833038148
 31
0.0
 11
4.715210313
 21
3.3833488655
 31
0.0
  0
SPLINE
  5
46C
100
AcDbEntity
  8
0
100
AcDbSpline
 62
9
  6
CONTINUOUS
 70
0
 71
3
 72
9
 73
5
 74
3
 42
0.0000001
 43
0.0000001
 44
0.0000000001
 12
-0.0000206012
 22
0.0000390326
 32
0.0
 13
-0.0000136395
 23
0.0000419752
 33
0.0
 40
0.0
 40
0.0
 40
0.0
 40
0.0
 40
0.2442275017
 40
1.0
 40
1.0
 40
1.0
 40
1.0
 10
4.715210313
 20
3.3833488655
 30
0.0
 10
4.7152086359
 20
3.3833520431
 30
0.0
 10
4.7152020668
 20
3.3833652102
 30
0.0
 10
4.7151966905
 20
3.3833789631
 30
0.0
 10
4.7151932544
 20
3.3833895377
 30
0.0
 11
4.715210313
 21
3.3833488655
 31
0.0
 11
4.7152054983
 21
3.3833585096
 31
0.0
 11
4.7151932544
 21
3.3833895377
 31
0.0
  0
SPLINE
  5
46D
100
AcDbEntity
  8
0
100
AcDbSpline
 62
6
  6
CONTINUOUS
 70
0
 71
3
 72
11
 73
7
 74
5
 42
0.0000001
 43
0.0000001
 44
0.0000000001
 12
0.0656834963
 22
0.0437882443
 32
0.0
 13
0.0666734279
 23
0.0422656602
 33
0.0
 40
0.0
 40
0.0
 40
0.0
 40
0.0
 40
0.2686001666
 40
0.5245987265
 40
0.7683175188
 40
1.0
 40
1.0
 40
1.0
 40
1.0
 10
6.5201982247
 20
4.8713783282
 30
0.0
 10
6.5260790907
 20
4.8752988381
 30
0.0
 10
6.5375979139
 20
4.8829065133
 30
0.0
 10
6.5545469236
 20
4.8939281644
 30
0.0
 10
6.5707428786
 20
4.9043252151
 30
0.0
 10
6.5812994601
 20
4.9110370988
 30
0.0
 10
6.5864484818
 20
4.9143011698
 30
0.0
 11
6.5201982247
 21
4.8713783282
 31
0.0
 11
6.5378887094
 21
4.8830677078
 31
0.0
 11
6.5548288138
 21
4.894087284
 31
0.0
 11
6.5710171353
 21
4.9044842048
 31
0.0
 11
6.5864484818
 21
4.9143011698
 31
0.0
  0
LINE
  5
46E
100
AcDbEntity
  8
0
100
AcDbLine
 62
6
  6
CONTINUOUS
 10
6.5864549342
 20
4.9143085567
 11
6.6119728535
 21
4.9304455231
  0
LINE
  5
46F
100
AcDbEntity
  8
0
100
AcDbLine
 62
6
  6
CONTINUOUS
 10
6.6119728535
 20
4.9304455231
 11
6.6186825783
 21
4.9346959278
  0
SPLINE
  5
470
100
AcDbEntity
  8
0
100
AcDbSpline
 62
6
  6
CONTINUOUS
 70
0
 71
3
 72
16
 73
12
 74
10
 42
0.0000001
 43
0.0000001
 44
0.0000000001
 12
0.0449011145
 22
0.0284891788
 32
0.0
 13
0.0420600658
 23
0.0325375822
 33
0.0
 40
0.0
 40
0.0
 40
0.0
 40
0.0
 40
0.1551814255
 40
0.3025662443
 40
0.441765214
 40
0.5723918705
 40
0.6940253534
 40
0.8061674507
 40
0.9083220332
 40
0.9555047212
 40
1.0
 40
1.0
 40
1.0
 40
1.0
 10
6.6186802567
 20
4.9346923673
 30
0.0
 10
6.621002863
 20
4.9361660311
 30
0.0
 10
6.6255289972
 20
4.9390430865
 30
0.0
 10
6.6321247153
 20
4.9432637169
 30
0.0
 10
6.6383354985
 20
4.9472782789
 30
0.0
 10
6.644138491
 20
4.9510826519
 30
0.0
 10
6.6495088893
 20
4.9546717842
 30
0.0
 10
6.6544186625
 20
4.9580411579
 30
0.0
 10
6.6581960058
 20
4.960727586
 30
0.0
 10
6.6609600126
 20
4.9627685187
 30
0.0
 10
6.6622538455
 20
4.9637518782
 30
0.0
 10
6.6628776702
 20
4.9642344678
 30
0.0
 11
6.6186802567
 21
4.9346923673
 31
0.0
 11
6.6256433371
 21
4.9391208181
 31
0.0
 11
6.6322436042
 21
4.9433471075
 31
0.0
 11
6.6384586256
 21
4.9473676626
 31
0.0
 11
6.6442659581
 21
4.9511789076
 31
0.0
 11
6.649641042
 21
4.9547766986
 31
0.0
 11
6.6545546928
 21
4.95815565
 31
0.0
 11
6.6589771152
 21
4.9613102122
 31
0.0
 11
6.6609947657
 21
4.9628015961
 31
0.0
 11
6.6628776702
 21
4.9642344678
 31
0.0
  0
SPLINE
  5
471
100
AcDbEntity
  8
0
100
AcDbSpline
 62
6
  6
CONTINUOUS
 70
0
 71
3
 72
11
 73
7
 74
5
 42
0.0000001
 43
0.0000001
 44
0.0000000001
 12
0.0071116012
 22
0.0055015204
 32
0.0
 13
0.0063544719
 23
0.0063609971
 33
0.0
 40
0.0
 40
0.0
 40
0.0
 40
0.0
 40
0.2846409916
 40
0.546586224
 40
0.7852124246
 40
1.0
 40
1.0
 40
1.0
 40
1.0
 10
6.6628776702
 20
4.9642344678
 30
0.0
 10
6.6635524213
 20
4.9647564538
 30
0.0
 10
6.6648389493
 20
4.965770776
 30
0.0
 10
6.6666520758
 20
4.9672714695
 30
0.0
 10
6.6682624038
 20
4.9686874401
 30
0.0
 10
6.6692483265
 20
4.969623423
 30
0.0
 10
6.6697032804
 20
4.9700788441
 30
0.0
 11
6.6628776702
 21
4.9642344678
 31
0.0
 11
6.6648857494
 21
4.9658211133
 31
0.0
 11
6.6666979694
 21
4.9673253838
 31
0.0
 11
6.6683064423
 21
4.9687452903
 31
0.0
 11
6.6697032804
 21
4.9700788441
 31
0.0
  0
SPLINE
  5
472
100
AcDbEntity
  8
0
100
AcDbSpline
 62
9
  6
CONTINUOUS
 70
0
 71
3
 72
23
 73
19
 74
17
 42
0.0000001
 43
0.0000001
 44
0.0000000001
 12
-0.1054011051
 22
0.1526984021
 32
0.0
 13
0.1239713884
 23
0.1380481431
 33
0.0
 40
0.0
 40
0.0
 40
0.0
 40
0.0
 40
0.066312564
 40
0.1316556402
 40
0.195917365
 40
0.2590304041
 40
0.3209809048
 40
0.3818186092
 40
0.4416677065
 40
0.5007375424
 40
0.5593332681
 40
0.6178616222
 40
0.6768191004
 40
0.7367812827
 40
0.7983877293
 40
0.8623220601
 40
0.9292901914
 40
1.0
 40
1.0
 40
1.0
 40
1.0
 10
4.9717493101
 20
3.6176162751
 30
0.0
 10
4.9694195043
 20
3.6209915493
 30
0.0
 10
4.9649387353
 20
3.6277943891
 30
0.0
 10
4.9587641281
 20
3.6382258718
 30
0.0
 10
4.9532403232
 20
3.6487947227
 30
0.0
 10
4.948428183
 20
3.6594775638
 30
0.0
 10
4.9443886803
 20
3.6702515449
 30
0.0
 10
4.9411833375
 20
3.6810938769
 30
0.0
 10
4.938874333
 20
3.6919817447
 30
0.0
 10
4.9375246031
 20
3.702892125
 30
0.0
 10
4.9371979256
 20
3.7138012452
 30
0.0
 10
4.9379513786
 20
3.7246841326
 30
0.0
 10
4.9398414288
 20
3.7355154725
 30
0.0
 10
4.9429235256
 20
3.7462689072
 30
0.0
 10
4.9472514547
 20
3.7569174874
 30
0.0
 10
4.952877588
 20
3.767434891
 30
0.0
 10
4.9598520345
 20
3.7777946713
 30
0.0
 10
4.9652708599
 20
3.7843814736
 30
0.0
 10
4.9681928576
 20
3.7876352595
 30
0.0
 11
4.9717493101
 21
3.6176162751
 31
0.0
 11
4.9649898294
 21
3.6278970173
 31
0.0
 11
4.9588240615
 21
3.6383360516
 31
0.0
 11
4.9533126147
 21
3.648909098
 31
0.0
 11
4.9485160974
 21
3.6595918767
 31
0.0
 11
4.9444951179
 21
3.6703601076
 31
0.0
 11
4.9413102848
 21
3.6811895108
 31
0.0
 11
4.9390222062
 21
3.6920558065
 31
0.0
 11
4.9376914906
 21
3.7029347146
 31
0.0
 11
4.9373775902
 21
3.7138022074
 31
0.0
 11
4.9381353411
 21
3.7246352629
 31
0.0
 11
4.9400184279
 21
3.7354111107
 31
0.0
 11
4.943080535
 21
3.74610698
 31
0.0
 11
4.9473753471
 21
3.7567001002
 31
0.0
 11
4.9529565485
 21
3.7671677006
 31
0.0
 11
4.9598778238
 21
3.7774870106
 31
0.0
 11
4.9681928576
 21
3.7876352595
 31
0.0
  0
LINE
  5
473
100
AcDbEntity
  8
0
100
AcDbLine
 62
9
  6
CONTINUOUS
 10
5.2383196826
 20
4.7526101269
 11
5.2249974783
 21
4.7658862514
  0
SPLINE
  5
474
100
AcDbEntity
  8
0
100
AcDbSpline
 62
9
  6
CONTINUOUS
 70
0
 71
3
 72
24
 73
20
 74
18
 42
0.0000001
 43
0.0000001
 44
0.0000000001
 12
-0.118187823
 22
0.2597714876
 32
0.0
 13
0.1898676602
 23
0.2130724264
 33
0.0
 40
0.0
 40
0.0
 40
0.0
 40
0.0
 40
0.0531300887
 40
0.1065385913
 40
0.1603695696
 40
0.2147907287
 40
0.2699934784
 40
0.3261922342
 40
0.3836229543
 40
0.4425409794
 40
0.5032180578
 40
0.5659328023
 40
0.6309606817
 40
0.6985716266
 40
0.7334329167
 40
0.7690379093
 40
0.8425966001
 40
0.9195042322
 40
1.0
 40
1.0
 40
1.0
 40
1.0
 10
4.7971940135
 20
3.4529248152
 30
0.0
 10
4.7951009037
 20
3.4575253759
 30
0.0
 10
4.7912460561
 20
3.466910996
 30
0.0
 10
4.7865339657
 20
3.4814362408
 30
0.0
 10
4.7829303348
 20
3.496403306
 30
0.0
 10
4.7804863554
 20
3.5117760706
 30
0.0
 10
4.7792525993
 20
3.5275194449
 30
0.0
 10
4.779279677
 20
3.5435977457
 30
0.0
 10
4.7806179273
 20
3.5599751586
 30
0.0
 10
4.7833175151
 20
3.5766157799
 30
0.0
 10
4.787427807
 20
3.5934826886
 30
0.0
 10
4.7929796249
 20
3.6105431544
 30
0.0
 10
4.8000038245
 20
3.6277653999
 30
0.0
 10
4.807037493
 20
3.6420781539
 30
0.0
 10
4.813404046
 20
3.6535697586
 30
0.0
 10
4.8204283461
 20
3.665335904
 30
0.0
 10
4.8302229068
 20
3.6800951064
 30
0.0
 10
4.8434478237
 20
3.697655262
 30
0.0
 10
4.853121436
 20
3.7090967549
 30
0.0
 10
4.8582159503
 20
3.7148138977
 30
0.0
 11
4.7971940135
 21
3.4529248152
 31
0.0
 11
4.7914362986
 21
3.4669521146
 31
0.0
 11
4.7867350027
 21
3.4814514308
 31
0.0
 11
4.7831399551
 21
3.4963879012
 31
0.0
 11
4.7807009848
 21
3.5117266631
 31
0.0
 11
4.7794679211
 21
3.5274328539
 31
0.0
 11
4.779490593
 21
3.543471611
 31
0.0
 11
4.7808188297
 21
3.5598080718
 31
0.0
 11
4.7835024604
 21
3.5764073737
 31
0.0
 11
4.7875883281
 21
3.5932353049
 31
0.0
 11
4.7931113284
 21
3.6102602581
 31
0.0
 11
4.8001033689
 21
3.6274512772
 31
0.0
 11
4.8085963576
 21
3.6447774061
 31
0.0
 11
4.8134156787
 21
3.6534814629
 31
0.0
 11
4.8186222023
 21
3.6622076887
 31
0.0
 11
4.8302128108
 21
3.6797111689
 31
0.0
 11
4.8434000908
 21
3.6972568906
 31
0.0
 11
4.8582159503
 21
3.7148138977
 31
0.0
  0
SPLINE
  5
475
100
AcDbEntity
  8
0
100
AcDbSpline
 62
9
  6
CONTINUOUS
 70
0
 71
3
 72
23
 73
19
 74
17
 42
0.0000001
 43
0.0000001
 44
0.0000000001
 12
-0.1239945397
 22
0.1380470357
 32
0.0
 13
0.1054094248
 23
0.1527104551
 33
0.0
 40
0.0
 40
0.0
 40
0.0
 40
0.0
 40
0.0707133206
 40
0.1376840371
 40
0.2016201072
 40
0.2632275456
 40
0.3231900848
 40
0.3821474073
 40
0.4406752159
 40
0.4992701226
 40
0.5583389719
 40
0.6181870049
 40
0.6790236332
 40
0.7409730915
 40
0.8040851493
 40
0.8683459659
 40
0.9336882073
 40
1.0
 40
1.0
 40
1.0
 40
1.0
 10
4.968202652
 20
4.8414748127
 30
0.0
 10
4.9652799635
 20
4.8447287341
 30
0.0
 10
4.9598598267
 20
4.8513158181
 30
0.0
 10
4.9528835491
 20
4.86167614
 30
0.0
 10
4.9472558166
 20
4.8721941309
 30
0.0
 10
4.9429265112
 20
4.8828433402
 30
0.0
 10
4.9398432519
 20
4.8935974403
 30
0.0
 10
4.9379522434
 20
4.9044294759
 30
0.0
 10
4.9371980258
 20
4.9153130827
 30
0.0
 10
4.9375241205
 20
4.92622294
 30
0.0
 10
4.9388734399
 20
4.9371340695
 30
0.0
 10
4.9411821947
 20
4.9480226931
 30
0.0
 10
4.9443874347
 20
4.958865783
 30
0.0
 10
4.9484269683
 20
4.9696405194
 30
0.0
 10
4.9532392604
 20
4.9803241089
 30
0.0
 10
4.9587633256
 20
4.9908936967
 30
0.0
 10
4.9649382891
 20
5.0013259005
 30
0.0
 10
4.9694193475
 20
5.0081292013
 30
0.0
 10
4.9717493101
 20
5.0115047026
 30
0.0
 11
4.968202652
 21
4.8414748127
 31
0.0
 11
4.9598855616
 21
4.8516235576
 31
0.0
 11
4.9529624731
 21
4.86194341
 31
0.0
 11
4.9473796912
 21
4.8724115946
 31
0.0
 11
4.9430835204
 21
4.883005336
 31
0.0
 11
4.9400202652
 21
4.893701859
 31
0.0
 11
4.9381362304
 21
4.9044783882
 31
0.0
 11
4.9373777203
 21
4.9153121485
 31
0.0
 11
4.9376910397
 21
4.9261803645
 31
0.0
 11
4.939021343
 21
4.9370600102
 31
0.0
 11
4.9413091678
 21
4.9479270532
 31
0.0
 11
4.9444938934
 21
4.9587572087
 31
0.0
 11
4.9485148992
 21
4.9695261918
 31
0.0
 11
4.9533115645
 21
4.9802097176
 31
0.0
 11
4.9588232685
 21
4.9907835012
 31
0.0
 11
4.9649893906
 21
5.0012232579
 31
0.0
 11
4.9717493101
 21
5.0115047026
 31
0.0
  0
SPLINE
  5
476
100
AcDbEntity
  8
0
100
AcDbSpline
 62
9
  6
CONTINUOUS
 70
0
 71
3
 72
15
 73
11
 74
9
 42
0.0000001
 43
0.0000001
 44
0.0000000001
 12
-0.2499533013
 22
0.248978569
 32
0.0
 13
-0.255260611
 23
0.2435343941
 33
0.0
 40
0.0
 40
0.0
 40
0.0
 40
0.0
 40
0.106249012
 40
0.2210067568
 40
0.3426963279
 40
0.4697401214
 40
0.6005617481
 40
0.7335912201
 40
0.8672601223
 40
1.0
 40
1.0
 40
1.0
 40
1.0
 10
5.2249974783
 20
4.7658862514
 30
0.0
 10
5.2161450479
 20
4.7747041603
 30
0.0
 10
5.1976786733
 20
4.7929933738
 30
0.0
 10
5.1689278382
 20
4.821234515
 30
0.0
 10
5.1383357059
 20
4.8510905377
 30
0.0
 10
5.1063108468
 20
4.8821829948
 30
0.0
 10
5.073261171
 20
4.9141341788
 30
0.0
 10
5.039587763
 20
4.9465609827
 30
0.0
 10
5.0056911664
 20
4.9790811112
 30
0.0
 10
4.9830437309
 20
5.0007291274
 30
0.0
 10
4.9717493101
 20
5.0115047026
 30
0.0
 11
5.2249974783
 21
4.7658862514
 31
0.0
 11
5.1983722467
 21
4.7922715963
 31
0.0
 11
5.1694945734
 21
4.8206481355
 31
0.0
 11
5.1387736605
 21
4.8506377393
 31
0.0
 11
5.1066187098
 21
4.8818622782
 31
0.0
 11
5.073437466
 21
4.9139429587
 31
0.0
 11
5.0396318454
 21
4.9464983316
 31
0.0
 11
5.0056023071
 21
4.979146284
 31
0.0
 11
4.9717493101
 21
5.0115047026
 31
0.0
  0
SPLINE
  5
477
100
AcDbEntity
  8
0
100
AcDbSpline
 62
6
  6
CONTINUOUS
 70
0
 71
3
 72
11
 73
7
 74
5
 42
0.0000001
 43
0.0000001
 44
0.0000000001
 12
-0.0656836178
 22
0.0437883255
 32
0.0
 13
-0.0666735522
 23
0.0422657371
 33
0.0
 40
0.0
 40
0.0
 40
0.0
 40
0.0
 40
0.2686002073
 40
0.5245987801
 40
0.7683175585
 40
1.0
 40
1.0
 40
1.0
 40
1.0
 10
4.9244714241
 20
4.8713783291
 30
0.0
 10
4.9185905463
 20
4.8752988468
 30
0.0
 10
4.9070717005
 20
4.8829065368
 30
0.0
 10
4.8901226584
 20
4.8939282086
 30
0.0
 10
4.8739266741
 20
4.9043252776
 30
0.0
 10
4.863370074
 20
4.9110371726
 30
0.0
 10
4.8582210436
 20
4.914301249
 30
0.0
 11
4.9244714241
 21
4.8713783291
 31
0.0
 11
4.9067809038
 21
4.883067732
 31
0.0
 11
4.8898407671
 21
4.8940873288
 31
0.0
 11
4.8736524163
 21
4.9044842678
 31
0.0
 11
4.8582210436
 21
4.914301249
 31
0.0
  0
SPLINE
  5
478
100
AcDbEntity
  8
0
100
AcDbSpline
 62
9
  6
CONTINUOUS
 70
0
 71
3
 72
24
 73
20
 74
18
 42
0.0000001
 43
0.0000001
 44
0.0000000001
 12
-0.1898676589
 22
0.213072426
 32
0.0
 13
0.1181878225
 23
0.2597714865
 33
0.0
 40
0.0
 40
0.0
 40
0.0
 40
0.0
 40
0.0804957677
 40
0.1574033997
 40
0.2309620905
 40
0.266567083
 40
0.3014283732
 40
0.369039318
 40
0.4340671973
 40
0.4967819419
 40
0.5574590203
 40
0.6163770454
 40
0.6738077655
 40
0.7300065214
 40
0.7852092711
 40
0.8396304302
 40
0.8934614086
 40
0.9468699112
 40
1.0
 40
1.0
 40
1.0
 40
1.0
 10
4.8582159496
 20
4.9143070808
 30
0.0
 10
4.8531214353
 20
4.9200242237
 30
0.0
 10
4.8434478231
 20
4.9314657165
 30
0.0
 10
4.8302229063
 20
4.949025872
 30
0.0
 10
4.8204283457
 20
4.9637850744
 30
0.0
 10
4.8134040456
 20
4.9755512198
 30
0.0
 10
4.8070374927
 20
4.9870428244
 30
0.0
 10
4.8000038242
 20
5.0013555784
 30
0.0
 10
4.7929796247
 20
5.0185778238
 30
0.0
 10
4.7874278068
 20
5.0356382895
 30
0.0
 10
4.783317515
 20
5.0525051982
 30
0.0
 10
4.7806179273
 20
5.0691458195
 30
0.0
 10
4.779279677
 20
5.0855232323
 30
0.0
 10
4.7792525993
 20
5.101601533
 30
0.0
 10
4.7804863555
 20
5.1173449072
 30
0.0
 10
4.7829303348
 20
5.1327176718
 30
0.0
 10
4.7865339657
 20
5.147684737
 30
0.0
 10
4.7912460561
 20
5.1622099817
 30
0.0
 10
4.7951009037
 20
5.1715956018
 30
0.0
 10
4.7971940135
 20
5.1761961625
 30
0.0
 11
4.8582159496
 21
4.9143070808
 31
0.0
 11
4.8434000902
 21
4.9318640879
 31
0.0
 11
4.8302128103
 21
4.9494098095
 31
0.0
 11
4.8186222019
 21
4.9669132897
 31
0.0
 11
4.8134156784
 21
4.9756395154
 31
0.0
 11
4.8085963573
 21
4.9843435722
 31
0.0
 11
4.8001033687
 21
5.0016697011
 31
0.0
 11
4.7931113282
 21
5.0188607201
 31
0.0
 11
4.787588328
 21
5.0358856733
 31
0.0
 11
4.7835024603
 21
5.0527136044
 31
0.0
 11
4.7808188297
 21
5.0693129062
 31
0.0
 11
4.779490593
 21
5.085649367
 31
0.0
 11
4.7794679211
 21
5.101688124
 31
0.0
 11
4.7807009849
 21
5.1173943148
 31
0.0
 11
4.7831399551
 21
5.1327330767
 31
0.0
 11
4.7867350028
 21
5.147669547
 31
0.0
 11
4.7914362986
 21
5.1621688632
 31
0.0
 11
4.7971940135
 21
5.1761961625
 31
0.0
  0
SPLINE
  5
479
100
AcDbEntity
  8
0
100
AcDbSpline
 62
9
  6
CONTINUOUS
 70
0
 71
3
 72
16
 73
12
 74
10
 42
0.0000001
 43
0.0000001
 44
0.0000000001
 12
-0.1736392616
 22
0.1656625839
 32
0.0
 13
-0.1773480038
 23
0.1616860242
 33
0.0
 40
0.0
 40
0.0
 40
0.0
 40
0.0
 40
0.285315589
 40
0.425828964
 40
0.5609870642
 40
0.6880148036
 40
0.8048126373
 40
0.858772191
 40
0.9094505974
 40
0.9566068229
 40
1.0
 40
1.0
 40
1.0
 40
1.0
 10
4.9717493101
 20
5.0115047026
 30
0.0
 10
4.955235314
 20
5.0272600752
 30
0.0
 10
4.9305836373
 20
5.0507697033
 30
0.0
 10
4.8980606057
 20
5.0816920099
 30
0.0
 10
4.8746806429
 20
5.1038539007
 30
0.0
 10
4.8526319515
 20
5.124662439
 30
0.0
 10
4.8352600254
 20
5.1409625216
 30
0.0
 10
4.8223048661
 20
5.153043571
 30
0.0
 10
4.8134041301
 20
5.1613036612
 30
0.0
 10
4.8051006422
 20
5.1689646387
 30
0.0
 10
4.7997592446
 20
5.1738574724
 30
0.0
 10
4.7971940135
 20
5.1761961625
 30
0.0
 11
4.9717493101
 21
5.0115047026
 31
0.0
 11
4.9221849015
 21
5.0587473091
 31
0.0
 11
4.897744157
 21
5.0819809047
 31
0.0
 11
4.8742002244
 21
5.1042924792
 31
0.0
 11
4.8520262923
 21
5.1252129775
 31
0.0
 11
4.8315807883
 21
5.1443877717
 31
0.0
 11
4.8221092397
 21
5.1532186481
 31
0.0
 11
4.8131934496
 21
5.1614908405
 31
0.0
 11
4.8048746351
 21
5.1691635962
 31
0.0
 11
4.7971940135
 21
5.1761961625
 31
0.0
  0
SPLINE
  5
47A
100
AcDbEntity
  8
0
100
AcDbSpline
 62
9
  6
CONTINUOUS
 70
0
 71
3
 72
38
 73
34
 74
32
 42
0.0000001
 43
0.0000001
 44
0.0000000001
 12
-0.0797230281
 22
0.0726825179
 32
0.0
 13
-0.0503505412
 23
-0.0954113862
 33
0.0
 40
0.0
 40
0.0
 40
0.0
 40
0.0
 40
0.2301129586
 40
0.3343731051
 40
0.4313313376
 40
0.5209096876
 40
0.6030304734
 40
0.6776164277
 40
0.7445909003
 40
0.7752002028
 40
0.8038783685
 40
0.8306161891
 40
0.8554046199
 40
0.8782348385
 40
0.8990983307
 40
0.917987023
 40
0.9348934946
 40
0.9498113318
 40
0.9627357611
 40
0.9684498581
 40
0.9736652724
 40
0.9783826512
 40
0.982603318
 40
0.9863296327
 40
0.9895656234
 40
0.9923181619
 40
0.9945993307
 40
0.9964316083
 40
0.9971932061
 40
0.9978631084
 40
0.9989848599
 40
0.9994908647
 40
1.0
 40
1.0
 40
1.0
 40
1.0
 10
4.7971940135
 20
5.1761961625
 30
0.0
 10
4.7910789129
 20
5.1817712256
 30
0.0
 10
4.782173351
 20
5.1898506006
 30
0.0
 10
4.7706342012
 20
5.2002158504
 30
0.0
 10
4.7628295261
 20
5.2071758364
 30
0.0
 10
4.7555927643
 20
5.2135763481
 30
0.0
 10
4.7489309129
 20
5.2194123803
 30
0.0
 10
4.7428509763
 20
5.2246789287
 30
0.0
 10
4.7381440867
 20
5.2287011959
 30
0.0
 10
4.7346733073
 20
5.2316285837
 30
0.0
 10
4.7322991192
 20
5.2336118152
 30
0.0
 10
4.730075619
 20
5.2354488677
 30
0.0
 10
4.7280036808
 20
5.2371391204
 30
0.0
 10
4.7260841881
 20
5.2386819666
 30
0.0
 10
4.7243180274
 20
5.240076811
 30
0.0
 10
4.7227060884
 20
5.2413230681
 30
0.0
 10
4.7212492747
 20
5.2424202038
 30
0.0
 10
4.7199484761
 20
5.243367657
 30
0.0
 10
4.7189585111
 20
5.2440579128
 30
0.0
 10
4.718244157
 20
5.2445328671
 30
0.0
 10
4.7177703004
 20
5.2448363418
 30
0.0
 10
4.7173360838
 20
5.2451019521
 30
0.0
 10
4.716941607
 20
5.2453296547
 30
0.0
 10
4.7165869606
 20
5.2455194478
 30
0.0
 10
4.7162722243
 20
5.2456713434
 30
0.0
 10
4.7159973627
 20
5.2457854992
 30
0.0
 10
4.7157623064
 20
5.2458619617
 30
0.0
 10
4.7155896998
 20
5.2458967399
 30
0.0
 10
4.715472124
 20
5.2459022778
 30
0.0
 10
4.7153806029
 20
5.2458951454
 30
0.0
 10
4.7152992088
 20
5.245868859
 30
0.0
 10
4.7152398489
 20
5.2458187227
 30
0.0
 10
4.7152188516
 20
5.2457882924
 30
0.0
 10
4.7152103066
 20
5.2457721
 30
0.0
 11
4.7971940135
 21
5.1761961625
 31
0.0
 11
4.7788026239
 21
5.1928706593
 31
0.0
 11
4.7704341827
 21
5.2003861011
 31
0.0
 11
4.7626265274
 21
5.2073469178
 31
0.0
 11
4.7553866203
 21
5.2137480439
 31
0.0
 11
4.748721424
 21
5.2195844137
 31
0.0
 11
4.742637901
 21
5.2248509618
 31
0.0
 11
4.7371430139
 21
5.2295426225
 31
0.0
 11
4.7346184845
 21
5.2316712872
 31
0.0
 11
4.732243725
 21
5.2336543304
 31
0.0
 11
4.7300196057
 21
5.2354911191
 31
0.0
 11
4.727946997
 21
5.23718102
 31
0.0
 11
4.7260267691
 21
5.2387233998
 31
0.0
 11
4.7242597923
 21
5.2401176255
 31
0.0
 11
4.722646937
 21
5.2413630638
 31
0.0
 11
4.7211890734
 21
5.2424590816
 31
0.0
 11
4.719887072
 21
5.2434050456
 31
0.0
 11
4.7187418029
 21
5.2442003226
 31
0.0
 11
4.718228215
 21
5.2445412557
 31
0.0
 11
4.7177541366
 21
5.2448442795
 31
0.0
 11
4.7173196764
 21
5.245109315
 31
0.0
 11
4.7169249433
 21
5.2453362831
 31
0.0
 11
4.716570046
 21
5.2455251045
 31
0.0
 11
4.7162550933
 21
5.2456757001
 31
0.0
 11
4.715980194
 21
5.2457879908
 31
0.0
 11
4.715745457
 21
5.2458618974
 31
0.0
 11
4.7155509909
 21
5.2458973408
 31
0.0
 11
4.7154688935
 21
5.245900614
 31
0.0
 11
4.7153969046
 21
5.2458942418
 31
0.0
 11
4.7152833069
 21
5.2458525212
 31
0.0
 11
4.7152417253
 21
5.2458171531
 31
0.0
 11
4.7152103066
 21
5.2457721
 31
0.0
  0
SPLINE
  5
47B
100
AcDbEntity
  8
0
100
AcDbSpline
 62
9
  6
CONTINUOUS
 70
0
 71
3
 72
9
 73
5
 74
3
 42
0.0000001
 43
0.0000001
 44
0.0000000001
 12
-0.0000205956
 22
-0.0000390276
 32
0.0
 13
-0.0000136364
 23
-0.0000419688
 33
0.0
 40
0.0
 40
0.0
 40
0.0
 40
0.0
 40
0.2442278707
 40
1.0
 40
1.0
 40
1.0
 40
1.0
 10
4.7152103066
 20
5.2457721
 30
0.0
 10
4.7152086299
 20
5.2457689228
 30
0.0
 10
4.7152020626
 20
5.2457557574
 30
0.0
 10
4.7151966877
 20
5.2457420066
 30
0.0
 10
4.7151932523
 20
5.2457314336
 30
0.0
 11
4.7152103066
 21
5.2457721
 31
0.0
 11
4.7152054932
 21
5.2457624572
 31
0.0
 11
4.7151932523
 21
5.2457314336
 31
0.0
  0
LINE
  5
47C
100
AcDbEntity
  8
0
100
AcDbLine
 62
6
  6
CONTINUOUS
 10
4.8582145915
 20
4.9143086356
 11
4.8326966985
 21
4.9304455852
  0
LINE
  5
47D
100
AcDbEntity
  8
0
100
AcDbLine
 62
6
  6
CONTINUOUS
 10
4.8326966985
 20
4.9304455852
 11
4.8259870705
 21
4.9346959286
  0
SPLINE
  5
47E
100
AcDbEntity
  8
0
100
AcDbSpline
 62
6
  6
CONTINUOUS
 70
0
 71
3
 72
16
 73
12
 74
10
 42
0.0000001
 43
0.0000001
 44
0.0000000001
 12
-0.0449012247
 22
0.0284892488
 32
0.0
 13
-0.0420601308
 23
0.0325377115
 33
0.0
 40
0.0
 40
0.0
 40
0.0
 40
0.0
 40
0.1551813952
 40
0.3025666125
 40
0.4417660717
 40
0.5723929888
 40
0.6940263512
 40
0.8061681081
 40
0.9083223144
 40
0.9555048477
 40
1.0
 40
1.0
 40
1.0
 40
1.0
 10
4.825989805
 20
4.9346927836
 30
0.0
 10
4.8236671935
 20
4.9361664507
 30
0.0
 10
4.8191410129
 20
4.9390434697
 30
0.0
 10
4.8125451651
 20
4.9432639611
 30
0.0
 10
4.8063342342
 20
4.9472783656
 30
0.0
 10
4.8005311327
 20
4.951082624
 30
0.0
 10
4.7951607024
 20
4.9546717312
 30
0.0
 10
4.7902509432
 20
4.9580411253
 30
0.0
 10
4.7864736268
 20
4.9607275843
 30
0.0
 10
4.7837096339
 20
4.9627685303
 30
0.0
 10
4.7824158042
 20
4.9637518922
 30
0.0
 10
4.7817919802
 20
4.9642344823
 30
0.0
 11
4.825989805
 21
4.9346927836
 31
0.0
 11
4.819026668
 21
4.9391211802
 31
0.0
 11
4.8124262718
 21
4.9433473428
 31
0.0
 11
4.8062111052
 21
4.9473677549
 31
0.0
 11
4.8004036683
 21
4.9511788973
 31
0.0
 11
4.7950285519
 21
4.9547766566
 31
0.0
 11
4.7901149153
 21
4.9581556225
 31
0.0
 11
4.7856925214
 21
4.9613102132
 31
0.0
 11
4.7836748805
 21
4.9628016066
 31
0.0
 11
4.7817919802
 21
4.9642344823
 31
0.0
  0
SPLINE
  5
47F
100
AcDbEntity
  8
0
100
AcDbSpline
 62
6
  6
CONTINUOUS
 70
0
 71
3
 72
11
 73
7
 74
5
 42
0.0000001
 43
0.0000001
 44
0.0000000001
 12
-0.0071115877
 22
0.0055015233
 32
0.0
 13
-0.0063544656
 23
0.0063609908
 33
0.0
 40
0.0
 40
0.0
 40
0.0
 40
0.0
 40
0.284640945
 40
0.5465861905
 40
0.785212413
 40
1.0
 40
1.0
 40
1.0
 40
1.0
 10
4.7817919802
 20
4.9642344823
 30
0.0
 10
4.7811172305
 20
4.9647564686
 30
0.0
 10
4.7798307037
 20
4.9657707894
 30
0.0
 10
4.7780175761
 20
4.9672714779
 30
0.0
 10
4.776407246
 20
4.968687443
 30
0.0
 10
4.7754213226
 20
4.9696234235
 30
0.0
 10
4.7749663691
 20
4.9700788441
 30
0.0
 11
4.7817919802
 21
4.9642344823
 31
0.0
 11
4.7797839033
 21
4.965821126
 31
0.0
 11
4.7779716824
 21
4.9673253918
 31
0.0
 11
4.7763632076
 21
4.9687452933
 31
0.0
 11
4.7749663691
 21
4.9700788441
 31
0.0
  0
SPLINE
  5
480
100
AcDbEntity
  8
0
100
AcDbSpline
 62
9
  6
CONTINUOUS
 70
0
 71
3
 72
11
 73
7
 74
5
 42
0.0000001
 43
0.0000001
 44
0.0000000001
 12
0.0216573495
 22
0.0313757873
 32
0.0
 13
0.0269581232
 23
0.0269581232
 33
0.0
 40
0.0
 40
0.0
 40
0.0
 40
0.0
 40
0.2467924469
 40
0.4962971367
 40
0.7476666945
 40
1.0
 40
1.0
 40
1.0
 40
1.0
 10
4.9717493101
 20
5.0115047026
 30
0.0
 10
4.9735309335
 20
5.014085805
 30
0.0
 10
4.9772447706
 20
5.0191870926
 30
0.0
 10
4.9831939793
 20
5.0265996025
 30
0.0
 10
4.9895156161
 20
5.0337909458
 30
0.0
 10
4.9939471042
 20
5.0384132545
 30
0.0
 10
4.9962145817
 20
5.0406807319
 30
0.0
 11
4.9717493101
 21
5.0115047026
 31
0.0
 11
4.9772826376
 21
5.0191144814
 31
0.0
 11
4.9832333202
 21
5.0265355542
 31
0.0
 11
4.9895583157
 21
5.0337352086
 31
0.0
 11
4.9962145817
 21
5.0406807319
 31
0.0
  0
SPLINE
  5
481
100
AcDbEntity
  8
0
100
AcDbSpline
 62
9
  6
CONTINUOUS
 70
0
 71
3
 72
12
 73
8
 74
6
 42
0.0000001
 43
0.0000001
 44
0.0000000001
 12
0.0189879473
 22
0.0417346491
 32
0.0
 13
0.0324216215
 23
0.0324216215
 33
0.0
 40
0.0
 40
0.0
 40
0.0
 40
0.0
 40
0.2493582906
 40
0.3742533165
 40
0.4992638234
 40
0.749510259
 40
1.0
 40
1.0
 40
1.0
 40
1.0
 10
4.7971940135
 20
5.1761961625
 30
0.0
 10
4.7987722809
 20
5.1796651228
 30
0.0
 10
4.8013863026
 20
5.1847647991
 30
0.0
 10
4.8053215861
 20
5.1913044042
 30
0.0
 10
4.8095542
 20
5.1976726978
 30
0.0
 10
4.8153753241
 20
5.2052770398
 30
0.0
 10
4.8205514175
 20
5.2109297071
 30
0.0
 10
4.823258512
 20
5.2136368016
 30
0.0
 11
4.7971940135
 21
5.1761961625
 31
0.0
 11
4.8024047528
 21
5.1863730832
 31
0.0
 11
4.8053569089
 21
5.1912800602
 31
0.0
 11
4.8085293546
 21
5.1960539379
 31
0.0
 11
4.8155024106
 21
5.2051660647
 31
0.0
 11
4.823258512
 21
5.2136368016
 31
0.0
  0
LINE
  5
482
100
AcDbEntity
  8
0
100
AcDbLine
 62
9
  6
CONTINUOUS
 10
5.2842851868
 20
4.7985756311
 11
5.2710090623
 21
4.8118978353
  0
SPLINE
  5
483
100
AcDbEntity
  8
0
100
AcDbSpline
 62
9
  6
CONTINUOUS
 70
0
 71
3
 72
11
 73
7
 74
5
 42
0.0000001
 43
0.0000001
 44
0.0000000001
 12
0.0269581232
 22
0.0269581232
 32
0.0
 13
0.0313757873
 23
0.0216573495
 33
0.0
 40
0.0
 40
0.0
 40
0.0
 40
0.0
 40
0.2523333055
 40
0.5037028633
 40
0.7532075531
 40
1.0
 40
1.0
 40
1.0
 40
1.0
 10
4.9962145817
 20
5.0406807319
 30
0.0
 10
4.9984820591
 20
5.0429482094
 30
0.0
 10
5.0031043678
 20
5.0473796975
 30
0.0
 10
5.0102957111
 20
5.0537013343
 30
0.0
 10
5.017708221
 20
5.0596505431
 30
0.0
 10
5.0228095086
 20
5.0633643801
 30
0.0
 10
5.025390611
 20
5.0651460035
 30
0.0
 11
4.9962145817
 21
5.0406807319
 31
0.0
 11
5.0031601051
 21
5.0473369979
 31
0.0
 11
5.0103597594
 21
5.0536619934
 31
0.0
 11
5.0177808322
 21
5.059612676
 31
0.0
 11
5.025390611
 21
5.0651460035
 31
0.0
  0
SPLINE
  5
484
100
AcDbEntity
  8
0
100
AcDbSpline
 62
9
  6
CONTINUOUS
 70
0
 71
3
 72
15
 73
11
 74
9
 42
0.0000001
 43
0.0000001
 44
0.0000000001
 12
-0.248978569
 22
0.2499533013
 32
0.0
 13
-0.2435343941
 23
0.255260611
 33
0.0
 40
0.0
 40
0.0
 40
0.0
 40
0.0
 40
0.106249012
 40
0.2210067568
 40
0.3426963279
 40
0.4697401214
 40
0.6005617481
 40
0.7335912201
 40
0.8672601223
 40
1.0
 40
1.0
 40
1.0
 40
1.0
 10
5.2710090623
 20
4.8118978353
 30
0.0
 10
5.2621911533
 20
4.8207502657
 30
0.0
 10
5.2439019398
 20
4.8392166403
 30
0.0
 10
5.2156607986
 20
4.8679674754
 30
0.0
 10
5.1858047759
 20
4.8985596077
 30
0.0
 10
5.1547123188
 20
4.9305844668
 30
0.0
 10
5.1227611348
 20
4.9636341426
 30
0.0
 10
5.0903343309
 20
4.9973075507
 30
0.0
 10
5.0578142024
 20
5.0312041472
 30
0.0
 10
5.0361661862
 20
5.0538515827
 30
0.0
 10
5.025390611
 20
5.0651460035
 30
0.0
 11
5.2710090623
 21
4.8118978353
 31
0.0
 11
5.2446237173
 21
4.838523067
 31
0.0
 11
5.2162471781
 21
4.8674007402
 31
0.0
 11
5.1862575743
 21
4.8981216531
 31
0.0
 11
5.1550330355
 21
4.9302766039
 31
0.0
 11
5.122952355
 21
4.9634578476
 31
0.0
 11
5.090396982
 21
4.9972634682
 31
0.0
 11
5.0577490296
 21
5.0312930066
 31
0.0
 11
5.025390611
 21
5.0651460035
 31
0.0
  0
SPLINE
  5
485
100
AcDbEntity
  8
0
100
AcDbSpline
 62
9
  6
CONTINUOUS
 70
0
 71
3
 72
12
 73
8
 74
6
 42
0.0000001
 43
0.0000001
 44
0.0000000001
 12
0.0324216215
 22
0.0324216215
 32
0.0
 13
0.0417346491
 23
0.0189879473
 33
0.0
 40
0.0
 40
0.0
 40
0.0
 40
0.0
 40
0.250489741
 40
0.5007361766
 40
0.6257466835
 40
0.7506417094
 40
1.0
 40
1.0
 40
1.0
 40
1.0
 10
4.823258512
 20
5.2136368016
 30
0.0
 10
4.8259656065
 20
5.2163438961
 30
0.0
 10
4.8316182739
 20
5.2215199896
 30
0.0
 10
4.8392226159
 20
5.2273411136
 30
0.0
 10
4.8455909094
 20
5.2315737275
 30
0.0
 10
4.8521305146
 20
5.235509011
 30
0.0
 10
4.8572301908
 20
5.2381230327
 30
0.0
 10
4.8606991511
 20
5.2397013001
 30
0.0
 11
4.823258512
 21
5.2136368016
 31
0.0
 11
4.8317292489
 21
5.2213929031
 31
0.0
 11
4.8408413757
 21
5.228365959
 31
0.0
 11
4.8456152534
 21
5.2315384047
 31
0.0
 11
4.8505222304
 21
5.2344905609
 31
0.0
 11
4.8606991511
 21
5.2397013001
 31
0.0
  0
SPLINE
  5
486
100
AcDbEntity
  8
0
100
AcDbSpline
 62
9
  6
CONTINUOUS
 70
0
 71
3
 72
16
 73
12
 74
10
 42
0.0000001
 43
0.0000001
 44
0.0000000001
 12
-0.1656625839
 22
0.1736392616
 32
0.0
 13
-0.1616860242
 23
0.1773480038
 33
0.0
 40
0.0
 40
0.0
 40
0.0
 40
0.0
 40
0.285315589
 40
0.425828964
 40
0.5609870642
 40
0.6880148036
 40
0.8048126373
 40
0.858772191
 40
0.9094505974
 40
0.9566068229
 40
1.0
 40
1.0
 40
1.0
 40
1.0
 10
5.025390611
 20
5.0651460035
 30
0.0
 10
5.0096352385
 20
5.0816599996
 30
0.0
 10
4.9861256103
 20
5.1063116763
 30
0.0
 10
4.9552033038
 20
5.1388347079
 30
0.0
 10
4.9330414129
 20
5.1622146707
 30
0.0
 10
4.9122328746
 20
5.1842633621
 30
0.0
 10
4.895932792
 20
5.2016352882
 30
0.0
 10
4.8838517427
 20
5.2145904475
 30
0.0
 10
4.8755916525
 20
5.2234911835
 30
0.0
 10
4.8679306749
 20
5.2317946714
 30
0.0
 10
4.8630378412
 20
5.237136069
 30
0.0
 10
4.8606991511
 20
5.2397013001
 30
0.0
 11
5.025390611
 21
5.0651460035
 31
0.0
 11
4.9781480045
 21
5.1147104122
 31
0.0
 11
4.9549144089
 21
5.1391511566
 31
0.0
 11
4.9326028344
 21
5.1626950892
 31
0.0
 11
4.9116823361
 21
5.1848690213
 31
0.0
 11
4.8925075419
 21
5.2053145254
 31
0.0
 11
4.8836766655
 21
5.214786074
 31
0.0
 11
4.8754044732
 21
5.2237018641
 31
0.0
 11
4.8677317175
 21
5.2320206785
 31
0.0
 11
4.8606991511
 21
5.2397013001
 31
0.0
  0
SPLINE
  5
487
100
AcDbEntity
  8
0
100
AcDbSpline
 62
9
  6
CONTINUOUS
 70
0
 71
3
 72
38
 73
34
 74
32
 42
0.0000001
 43
0.0000001
 44
0.0000000001
 12
-0.0726825087
 22
0.079723018
 32
0.0
 13
0.0954084267
 23
0.0503561195
 33
0.0
 40
0.0
 40
0.0
 40
0.0
 40
0.0
 40
0.2301125761
 40
0.3343725716
 40
0.4313306804
 40
0.5209089346
 40
0.6030296528
 40
0.6776155682
 40
0.744590031
 40
0.7751993396
 40
0.8038775189
 40
0.8306153605
 40
0.8554038198
 40
0.8782340745
 40
0.8990976103
 40
0.917986354
 40
0.9348928845
 40
0.9498107882
 40
0.9627352914
 40
0.9684494283
 40
0.9736648841
 40
0.9783823063
 40
0.982603018
 40
0.9863293792
 40
0.9895654176
 40
0.9923180046
 40
0.9945992218
 40
0.996431546
 40
0.9971931651
 40
0.9978630864
 40
0.9989848632
 40
0.9994908704
 40
1.0
 40
1.0
 40
1.0
 40
1.0
 10
4.8606991511
 20
5.2397013001
 30
0.0
 10
4.855124098
 20
5.2458163898
 30
0.0
 10
4.8470447368
 20
5.2547219363
 30
0.0
 10
4.836679504
 20
5.2662610669
 30
0.0
 10
4.8297195276
 20
5.2740657309
 30
0.0
 10
4.8233190233
 20
5.2813024838
 30
0.0
 10
4.8174829963
 20
5.2879643285
 30
0.0
 10
4.8122164508
 20
5.2940442609
 30
0.0
 10
4.8081941846
 20
5.2987511483
 30
0.0
 10
4.8052667965
 20
5.3022219271
 30
0.0
 10
4.8032835638
 20
5.3045961157
 30
0.0
 10
4.8014465097
 20
5.306819617
 30
0.0
 10
4.7997562548
 20
5.3088915569
 30
0.0
 10
4.7982134057
 20
5.3108110519
 30
0.0
 10
4.7968185579
 20
5.3125772155
 30
0.0
 10
4.7955722968
 20
5.3141891581
 30
0.0
 10
4.7944751565
 20
5.3156459761
 30
0.0
 10
4.7935276981
 20
5.3169467795
 30
0.0
 10
4.7928374376
 20
5.3179367488
 30
0.0
 10
4.792362479
 20
5.3186511068
 30
0.0
 10
4.7920590011
 20
5.3191249665
 30
0.0
 10
4.7917933873
 20
5.3195591864
 30
0.0
 10
4.7915656812
 20
5.3199536667
 30
0.0
 10
4.7913758844
 20
5.3203083167
 30
0.0
 10
4.7912239849
 20
5.3206230568
 30
0.0
 10
4.7911098251
 20
5.3208979223
 30
0.0
 10
4.7910333585
 20
5.3211329826
 30
0.0
 10
4.7909985767
 20
5.3213055927
 30
0.0
 10
4.7909930356
 20
5.3214231714
 30
0.0
 10
4.7910001651
 20
5.3215146951
 30
0.0
 10
4.7910264479
 20
5.3215960919
 30
0.0
 10
4.7910765808
 20
5.3216554556
 30
0.0
 10
4.7911070097
 20
5.3216764547
 30
0.0
 10
4.7911232014
 20
5.3216850006
 30
0.0
 11
4.8606991511
 21
5.2397013001
 31
0.0
 11
4.844024684
 21
5.2580926567
 31
0.0
 11
4.8365092539
 21
5.2664610846
 31
0.0
 11
4.8295484468
 21
5.2742687288
 31
0.0
 11
4.8231473281
 21
5.281508627
 31
0.0
 11
4.8173109635
 21
5.2881738166
 31
0.0
 11
4.8120444184
 21
5.2942573353
 31
0.0
 11
4.8073527583
 21
5.2997522204
 31
0.0
 11
4.8052240931
 21
5.3022767497
 31
0.0
 11
4.8032410488
 21
5.3046515097
 31
0.0
 11
4.8014042584
 21
5.30687563
 31
0.0
 11
4.7997143553
 21
5.3089482405
 31
0.0
 11
4.7981719726
 21
5.3108684707
 31
0.0
 11
4.7967777435
 21
5.3126354504
 31
0.0
 11
4.7955323011
 21
5.3142483093
 31
0.0
 11
4.7944362788
 21
5.315706177
 31
0.0
 11
4.7934903095
 21
5.3170081833
 31
0.0
 11
4.7926950267
 21
5.3181534578
 31
0.0
 11
4.7923540905
 21
5.3186670487
 31
0.0
 11
4.7920510633
 21
5.3191411302
 31
0.0
 11
4.7917860244
 21
5.3195755937
 31
0.0
 11
4.7915590527
 21
5.3199703303
 31
0.0
 11
4.7913702276
 21
5.3203252312
 31
0.0
 11
4.7912196281
 21
5.3206401877
 31
0.0
 11
4.7911073333
 21
5.3209150909
 31
0.0
 11
4.7910334225
 21
5.3211498321
 31
0.0
 11
4.7909979747
 21
5.3213443024
 31
0.0
 11
4.7909946993
 21
5.321426402
 31
0.0
 11
4.7910010692
 21
5.3214983932
 31
0.0
 11
4.7910427851
 21
5.3216119955
 31
0.0
 11
4.7910781507
 21
5.3216535795
 31
0.0
 11
4.7911232014
 21
5.3216850006
 31
0.0
  0
SPLINE
  5
488
100
AcDbEntity
  8
0
100
AcDbSpline
 62
9
  6
CONTINUOUS
 70
0
 71
3
 72
9
 73
5
 74
3
 42
0.0000001
 43
0.0000001
 44
0.0000000001
 12
0.0000390326
 22
0.0000206012
 32
0.0
 13
0.0000419752
 23
0.0000136395
 33
0.0
 40
0.0
 40
0.0
 40
0.0
 40
0.0
 40
0.2442275017
 40
1.0
 40
1.0
 40
1.0
 40
1.0
 10
4.7911232014
 20
5.3216850006
 30
0.0
 10
4.791126379
 20
5.3216866778
 30
0.0
 10
4.7911395462
 20
5.3216932468
 30
0.0
 10
4.7911532991
 20
5.3216986231
 30
0.0
 10
4.7911638736
 20
5.3217020592
 30
0.0
 11
4.7911232014
 21
5.3216850006
 31
0.0
 11
4.7911328455
 21
5.3216898153
 31
0.0
 11
4.7911638736
 21
5.3217020592
 31
0.0
  0
SPLINE
  5
489
100
AcDbEntity
  8
0
100
AcDbSpline
 62
9
  6
CONTINUOUS
 70
0
 71
3
 72
23
 73
19
 74
17
 42
0.0000001
 43
0.0000001
 44
0.0000000001
 12
0.1527006169
 22
0.1054026339
 32
0.0
 13
0.1380479397
 23
-0.1239756427
 33
0.0
 40
0.0
 40
0.0
 40
0.0
 40
0.0
 40
0.0663124222
 40
0.1316553451
 40
0.195916903
 40
0.2590297618
 40
0.320980071
 40
0.3818175776
 40
0.4416664794
 40
0.500736134
 40
0.5593317092
 40
0.617859963
 40
0.6768174126
 40
0.7367796605
 40
0.7983862894
 40
0.8623209397
 40
0.9292895461
 40
1.0
 40
1.0
 40
1.0
 40
1.0
 10
5.025390611
 20
5.0651460035
 30
0.0
 10
5.0287659269
 20
5.0674758382
 30
0.0
 10
5.0355688515
 20
5.0719566603
 30
0.0
 10
5.0460004667
 20
5.078131333
 30
0.0
 10
5.056569453
 20
5.0836551858
 30
0.0
 10
5.0672524316
 20
5.0884673539
 30
0.0
 10
5.0780265515
 20
5.0925068622
 30
0.0
 10
5.0888690228
 20
5.0957121861
 30
0.0
 10
5.0997570295
 20
5.0980211447
 30
0.0
 10
5.1106675474
 20
5.0993707992
 30
0.0
 10
5.1215768031
 20
5.0996973696
 30
0.0
 10
5.1324598227
 20
5.0989437761
 30
0.0
 10
5.1432912905
 20
5.0970535498
 30
0.0
 10
5.1540448474
 20
5.0939712394
 30
0.0
 10
5.1646935432
 20
5.0896430575
 30
0.0
 10
5.1752110547
 20
5.0840166302
 30
0.0
 10
5.1855709346
 20
5.0770418473
 30
0.0
 10
5.1921577886
 20
5.071622781
 30
0.0
 10
5.1954115995
 20
5.0687006563
 30
0.0
 11
5.025390611
 21
5.0651460035
 31
0.0
 11
5.0356714823
 21
5.0719055648
 31
0.0
 11
5.0461106493
 21
5.0780713979
 31
0.0
 11
5.0566838312
 21
5.0835828919
 31
0.0
 11
5.0673667472
 21
5.0883794364
 31
0.0
 11
5.0781351163
 21
5.0924004207
 31
0.0
 11
5.0889646578
 21
5.0955852341
 31
0.0
 11
5.0998310908
 21
5.0978732661
 31
0.0
 11
5.1107101345
 21
5.0992039059
 31
0.0
 11
5.1215777601
 21
5.0995176996
 31
0.0
 11
5.1324109452
 21
5.0987598092
 31
0.0
 11
5.1431869182
 21
5.0968765482
 31
0.0
 11
5.1538829076
 21
5.09381423
 31
0.0
 11
5.164476142
 21
5.0895191683
 31
0.0
 11
5.1749438498
 21
5.0839376765
 31
0.0
 11
5.1852632594
 21
5.077016068
 31
0.0
 11
5.1954115995
 21
5.0687006563
 31
0.0
  0
SPLINE
  5
48A
100
AcDbEntity
  8
0
100
AcDbSpline
 62
9
  6
CONTINUOUS
 70
0
 71
3
 72
24
 73
20
 74
18
 42
0.0000001
 43
0.0000001
 44
0.0000000001
 12
0.2597714865
 22
0.1181878225
 32
0.0
 13
0.213072426
 23
-0.1898676589
 33
0.0
 40
0.0
 40
0.0
 40
0.0
 40
0.0
 40
0.0531300888
 40
0.1065385914
 40
0.1603695698
 40
0.2147907289
 40
0.2699934786
 40
0.3261922345
 40
0.3836229546
 40
0.4425409797
 40
0.5032180581
 40
0.5659328027
 40
0.630960682
 40
0.6985716268
 40
0.733432917
 40
0.7690379095
 40
0.8425966003
 40
0.9195042323
 40
1.0
 40
1.0
 40
1.0
 40
1.0
 10
4.8606991511
 20
5.2397013001
 30
0.0
 10
4.8652997118
 20
5.2417944099
 30
0.0
 10
4.8746853319
 20
5.2456492575
 30
0.0
 10
4.8892105766
 20
5.2503613479
 30
0.0
 10
4.9041776418
 20
5.2539649788
 30
0.0
 10
4.9195504064
 20
5.2564089581
 30
0.0
 10
4.9352937806
 20
5.2576427143
 30
0.0
 10
4.9513720813
 20
5.2576156366
 30
0.0
 10
4.9677494941
 20
5.2562773863
 30
0.0
 10
4.9843901154
 20
5.2535777986
 30
0.0
 10
5.0012570241
 20
5.2494675068
 30
0.0
 10
5.0183174898
 20
5.243915689
 30
0.0
 10
5.0355397352
 20
5.2368914894
 30
0.0
 10
5.0498524892
 20
5.2298578209
 30
0.0
 10
5.0613440938
 20
5.223491268
 30
0.0
 10
5.0731102392
 20
5.216466968
 30
0.0
 10
5.0878694416
 20
5.2066724073
 30
0.0
 10
5.1054295971
 20
5.1934474906
 30
0.0
 10
5.1168710899
 20
5.1837738784
 30
0.0
 10
5.1225882328
 20
5.178679364
 30
0.0
 11
4.8606991511
 21
5.2397013001
 31
0.0
 11
4.8747264505
 21
5.245459015
 31
0.0
 11
4.8892257666
 21
5.2501603109
 31
0.0
 11
4.9041622369
 21
5.2537553585
 31
0.0
 11
4.9195009988
 21
5.2561943288
 31
0.0
 11
4.9352071896
 21
5.2574273925
 31
0.0
 11
4.9512459466
 21
5.2574047206
 31
0.0
 11
4.9675824074
 21
5.2560764839
 31
0.0
 11
4.9841817092
 21
5.2533928533
 31
0.0
 11
5.0010096403
 21
5.2493069856
 31
0.0
 11
5.0180345935
 21
5.2437839854
 31
0.0
 11
5.0352256125
 21
5.2367919449
 31
0.0
 11
5.0525517414
 21
5.2282989563
 31
0.0
 11
5.0612557982
 21
5.2234796352
 31
0.0
 11
5.0699820239
 21
5.2182731117
 31
0.0
 11
5.0874855041
 21
5.2066825034
 31
0.0
 11
5.1050312257
 21
5.1934952234
 31
0.0
 11
5.1225882328
 21
5.178679364
 31
0.0
  0
SPLINE
  5
48B
100
AcDbEntity
  8
0
100
AcDbSpline
 62
6
  6
CONTINUOUS
 70
0
 71
3
 72
11
 73
7
 74
5
 42
0.0000001
 43
0.0000001
 44
0.0000000001
 12
-0.0656834956
 22
-0.0437882434
 32
0.0
 13
-0.0666734271
 23
-0.0422656595
 33
0.0
 40
0.0
 40
0.0
 40
0.0
 40
0.0
 40
0.2686001654
 40
0.5245987247
 40
0.7683175173
 40
1.0
 40
1.0
 40
1.0
 40
1.0
 10
4.9244714274
 20
3.7577426524
 30
0.0
 10
4.9185905615
 20
3.7538221426
 30
0.0
 10
4.9070717384
 20
3.7462144675
 30
0.0
 10
4.8901227289
 20
3.7351928167
 30
0.0
 10
4.8739267741
 20
3.7247957661
 30
0.0
 10
4.8633701926
 20
3.7180838825
 30
0.0
 10
4.8582211709
 20
3.7148198115
 30
0.0
 11
4.9244714274
 21
3.7577426524
 31
0.0
 11
4.9067809429
 21
3.746053273
 31
0.0
 11
4.8898408388
 21
3.7350336971
 31
0.0
 11
4.8736525174
 21
3.7246367765
 31
0.0
 11
4.8582211709
 21
3.7148198115
 31
0.0
  0
LINE
  5
48C
100
AcDbEntity
  8
0
100
AcDbLine
 62
6
  6
CONTINUOUS
 10
4.8582147135
 20
3.7148124188
 11
4.8327351135
 21
3.6986996939
  0
LINE
  5
48D
100
AcDbEntity
  8
0
100
AcDbLine
 62
6
  6
CONTINUOUS
 10
4.8327351135
 20
3.6986996939
 11
4.8259870693
 21
3.6944250477
  0
SPLINE
  5
48E
100
AcDbEntity
  8
0
100
AcDbSpline
 62
6
  6
CONTINUOUS
 70
0
 71
3
 72
11
 73
7
 74
5
 42
0.0000001
 43
0.0000001
 44
0.0000000001
 12
-0.0437882443
 22
0.0656834963
 32
0.0
 13
-0.0422656602
 23
0.0666734279
 33
0.0
 40
0.0
 40
0.0
 40
0.0
 40
0.0
 40
0.2686001666
 40
0.5245987265
 40
0.7683175188
 40
1.0
 40
1.0
 40
1.0
 40
1.0
 10
5.1655169854
 20
5.1124238888
 30
0.0
 10
5.1615964755
 20
5.1183047548
 30
0.0
 10
5.1539888003
 20
5.129823578
 30
0.0
 10
5.1429671492
 20
5.1467725877
 30
0.0
 10
5.1325700985
 20
5.1629685427
 30
0.0
 10
5.1258582148
 20
5.1735251242
 30
0.0
 10
5.1225941438
 20
5.1786741459
 30
0.0
 11
5.1655169854
 21
5.1124238888
 31
0.0
 11
5.1538276058
 21
5.1301143735
 31
0.0
 11
5.1428080296
 21
5.1470544779
 31
0.0
 11
5.1324111089
 21
5.1632427994
 31
0.0
 11
5.1225941438
 21
5.1786741459
 31
0.0
  0
LINE
  5
48F
100
AcDbEntity
  8
0
100
AcDbLine
 62
6
  6
CONTINUOUS
 10
5.1225867569
 20
5.1786805982
 11
5.1064497906
 21
5.2041985173
  0
LINE
  5
490
100
AcDbEntity
  8
0
100
AcDbLine
 62
6
  6
CONTINUOUS
 10
5.1064497906
 20
5.2041985173
 11
5.1021993858
 21
5.2109082424
  0
SPLINE
  5
491
100
AcDbEntity
  8
0
100
AcDbSpline
 62
6
  6
CONTINUOUS
 70
0
 71
3
 72
16
 73
12
 74
10
 42
0.0000001
 43
0.0000001
 44
0.0000000001
 12
-0.0284891838
 22
0.0449011223
 32
0.0
 13
-0.0325375907
 23
0.042060071
 33
0.0
 40
0.0
 40
0.0
 40
0.0
 40
0.0
 40
0.1551814365
 40
0.3025662631
 40
0.4417652379
 40
0.5723918969
 40
0.6940253787
 40
0.8061674711
 40
0.9083220453
 40
0.955504728
 40
1.0
 40
1.0
 40
1.0
 40
1.0
 10
5.1022029463
 20
5.2109059208
 30
0.0
 10
5.1007292822
 20
5.2132285277
 30
0.0
 10
5.0978522261
 20
5.2177546629
 30
0.0
 10
5.0936315947
 20
5.2243503825
 30
0.0
 10
5.0896170318
 20
5.230561167
 30
0.0
 10
5.0858126581
 20
5.2363641606
 30
0.0
 10
5.0822235251
 20
5.2417345597
 30
0.0
 10
5.0788541509
 20
5.2466443335
 30
0.0
 10
5.0761677224
 20
5.2504216771
 30
0.0
 10
5.0741267894
 20
5.2531856841
 30
0.0
 10
5.0731434298
 20
5.2544795169
 30
0.0
 10
5.0726608402
 20
5.2551033417
 30
0.0
 11
5.1022029463
 21
5.2109059208
 31
0.0
 11
5.0977744944
 21
5.2178690029
 31
0.0
 11
5.093548204
 21
5.2244692714
 31
0.0
 11
5.0895276481
 21
5.2306842942
 31
0.0
 11
5.0857164023
 21
5.2364916278
 31
0.0
 11
5.0821186106
 21
5.2418667126
 31
0.0
 11
5.0787396587
 21
5.246780364
 31
0.0
 11
5.0755850961
 21
5.2512027866
 31
0.0
 11
5.074093712
 21
5.2532204372
 31
0.0
 11
5.0726608402
 21
5.2551033417
 31
0.0
  0
SPLINE
  5
492
100
AcDbEntity
  8
0
100
AcDbSpline
 62
6
  6
CONTINUOUS
 70
0
 71
3
 72
11
 73
7
 74
5
 42
0.0000001
 43
0.0000001
 44
0.0000000001
 12
-0.0055015151
 22
0.0071115935
 32
0.0
 13
-0.0063609905
 23
0.0063544654
 33
0.0
 40
0.0
 40
0.0
 40
0.0
 40
0.0
 40
0.2846409697
 40
0.5465861939
 40
0.7852124013
 40
1.0
 40
1.0
 40
1.0
 40
1.0
 10
5.0726608402
 20
5.2551033417
 30
0.0
 10
5.0721388546
 20
5.255778092
 30
0.0
 10
5.0711245335
 20
5.2570646185
 30
0.0
 10
5.0696238415
 20
5.258877743
 30
0.0
 10
5.0682078722
 20
5.2604880693
 30
0.0
 10
5.0672718902
 20
5.261473991
 30
0.0
 10
5.0668164695
 20
5.2619289445
 30
0.0
 11
5.0726608402
 21
5.2551033417
 31
0.0
 11
5.0710741962
 21
5.2571114185
 31
0.0
 11
5.0695699272
 21
5.2589236365
 31
0.0
 11
5.0681500221
 21
5.2605321077
 31
0.0
 11
5.0668164695
 21
5.2619289445
 31
0.0
  0
SPLINE
  5
493
100
AcDbEntity
  8
0
100
AcDbSpline
 62
9
  6
CONTINUOUS
 70
0
 71
3
 72
47
 73
43
 74
41
 42
0.0000001
 43
0.0000001
 44
0.0000000001
 12
-0.1126379855
 22
-0.0077880131
 32
0.0
 13
-0.0925980031
 23
0.064603241
 33
0.0
 40
0.0
 40
0.0
 40
0.0
 40
0.0
 40
0.0000472143
 40
0.0001547238
 40
0.0003218961
 40
0.0005480478
 40
0.0008324877
 40
0.0011745226
 40
0.0020286014
 40
0.0031047358
 40
0.0043973819
 40
0.0059010036
 40
0.0076100735
 40
0.0095190737
 40
0.0116224964
 40
0.0163906211
 40
0.0218706188
 40
0.0280191207
 40
0.034801539
 40
0.0421935567
 40
0.0501714794
 40
0.0587116545
 40
0.0773842996
 40
0.0980235751
 40
0.1204458097
 40
0.1445247426
 40
0.1701830326
 40
0.1973451174
 40
0.2259357193
 40
0.2558799549
 40
0.319612562
 40
0.38829954
 40
0.4617565558
 40
0.5398631261
 40
0.6226028837
 40
0.6657122703
 40
0.7099847358
 40
0.7554267204
 40
0.8020470183
 40
0.8498553754
 40
0.898825554
 40
1.0
 40
1.0
 40
1.0
 40
1.0
 10
5.3863170624
 20
3.7836736195
 30
0.0
 10
5.3863152897
 20
3.7836734969
 30
0.0
 10
5.3863094805
 20
3.7836744339
 30
0.0
 10
5.3862974836
 20
3.7836757587
 30
0.0
 10
5.3862788183
 20
3.7836785728
 30
0.0
 10
5.3862535981
 20
3.7836823176
 30
0.0
 10
5.3862218895
 20
3.7836872745
 30
0.0
 10
5.3861668647
 20
3.7836960461
 30
0.0
 10
5.3860824842
 20
3.7837099563
 30
0.0
 10
5.3859629043
 20
3.7837302771
 30
0.0
 10
5.3858193379
 20
3.7837553595
 30
0.0
 10
5.3856524345
 20
3.7837852668
 30
0.0
 10
5.3854628439
 20
3.7838200707
 30
0.0
 10
5.3852512153
 20
3.7838598389
 30
0.0
 10
5.3849266969
 20
3.7839222339
 30
0.0
 10
5.3844707824
 20
3.7840130135
 30
0.0
 10
5.3838666197
 20
3.7841387368
 30
0.0
 10
5.3831895495
 20
3.7842860767
 30
0.0
 10
5.3824436468
 20
3.7844553825
 30
0.0
 10
5.3816321281
 20
3.78464653
 30
0.0
 10
5.3807578398
 20
3.7848596176
 30
0.0
 10
5.3794734453
 20
3.785182824
 30
0.0
 10
5.3777319219
 20
3.7856418895
 30
0.0
 10
5.3754938337
 20
3.7862660142
 30
0.0
 10
5.3730699244
 20
3.7869803032
 30
0.0
 10
5.3704759837
 20
3.787784867
 30
0.0
 10
5.3677232758
 20
3.7886788456
 30
0.0
 10
5.3648213896
 20
3.7896623898
 30
0.0
 10
5.3617798023
 20
3.7907355058
 30
0.0
 10
5.3574592774
 20
3.792319426
 30
0.0
 10
5.3517612382
 20
3.7945285833
 30
0.0
 10
5.3446038984
 20
3.7974982614
 30
0.0
 10
5.3370220447
 20
3.8008508422
 30
0.0
 10
5.3290415307
 20
3.804603905
 30
0.0
 10
5.3221759643
 20
3.8080387321
 30
0.0
 10
5.3165035624
 20
3.8110084745
 30
0.0
 10
5.3121056116
 20
3.8133851805
 30
0.0
 10
5.3076262634
 20
3.8158881655
 30
0.0
 10
5.3030696635
 20
3.8185245265
 30
0.0
 10
5.2984407494
 20
3.8212999002
 30
0.0
 10
5.2921169427
 20
3.8252389513
 30
0.0
 10
5.2874079848
 20
3.8283666731
 30
0.0
 10
5.2842851342
 20
3.8305454054
 30
0.0
 11
5.3863170624
 21
3.7836736195
 31
0.0
 11
5.3863117483
 21
3.7836740408
 31
0.0
 11
5.3862997073
 21
3.7836755764
 31
0.0
 11
5.3862810205
 21
3.7836782348
 31
0.0
 11
5.3862557692
 21
3.7836820245
 31
0.0
 11
5.3862240346
 21
3.783686954
 31
0.0
 11
5.3861858977
 21
3.7836930317
 31
0.0
 11
5.3860907422
 21
3.7837086663
 31
0.0
 11
5.385970952
 21
3.7837289961
 31
0.0
 11
5.3858271767
 21
3.7837540892
 31
0.0
 11
5.3856600656
 21
3.7837840136
 31
0.0
 11
5.385470268
 21
3.7838188374
 31
0.0
 11
5.3852584335
 21
3.7838586286
 31
0.0
 11
5.3850252115
 21
3.7839034553
 31
0.0
 11
5.3844972024
 21
3.7840084869
 31
0.0
 11
5.3838914361
 21
3.7841344767
 31
0.0
 11
5.3832130754
 21
3.7842819622
 31
0.0
 11
5.3824662445
 21
3.7844512712
 31
0.0
 11
5.3816538332
 21
3.7846424814
 31
0.0
 11
5.3807786591
 21
3.7848556564
 31
0.0
 11
5.3798435402
 21
3.7850908594
 31
0.0
 11
5.3778047389
 21
3.7856276033
 31
0.0
 11
5.3755599718
 21
3.7862532203
 31
0.0
 11
5.3731314076
 21
3.7869682036
 31
0.0
 11
5.3705345186
 21
3.7877728005
 31
0.0
 11
5.3677789926
 21
3.7886670459
 31
0.0
 11
5.3648743273
 21
3.7896509674
 31
0.0
 11
5.3618300203
 21
3.7907245927
 31
0.0
 11
5.3586555663
 21
3.7918879503
 31
0.0
 11
5.3519452022
 21
3.7944862747
 31
0.0
 11
5.344781062
 21
3.7974559127
 31
0.0
 11
5.3371950289
 21
3.8008084178
 31
0.0
 11
5.3292144567
 21
3.8045609088
 31
0.0
 11
5.3208592683
 21
3.8087396328
 31
0.0
 11
5.3165472787
 21
3.810997467
 31
0.0
 11
5.3121499209
 21
3.8133744223
 31
0.0
 11
5.3076712191
 21
3.8158775113
 31
0.0
 11
5.3031152088
 21
3.8185137721
 31
0.0
 11
5.298486141
 21
3.8212902782
 31
0.0
 11
5.293793975
 21
3.8242150358
 31
0.0
 11
5.2842851342
 21
3.8305454054
 31
0.0
  0
SPLINE
  5
494
100
AcDbEntity
  8
0
100
AcDbSpline
 62
6
  6
CONTINUOUS
 70
0
 71
3
 72
16
 73
12
 74
10
 42
0.0000001
 43
0.0000001
 44
0.0000000001
 12
-0.0449225719
 22
-0.0285027933
 32
0.0
 13
-0.0420741074
 23
-0.032560961
 33
0.0
 40
0.0
 40
0.0
 40
0.0
 40
0.0
 40
0.1552124681
 40
0.3026215519
 40
0.4418366888
 40
0.5724701483
 40
0.6941010801
 40
0.8062302592
 40
0.9083598626
 40
0.9555251399
 40
1.0
 40
1.0
 40
1.0
 40
1.0
 10
4.8259893928
 20
3.6944286104
 30
0.0
 10
4.8236652117
 20
3.6929539475
 30
0.0
 10
4.8191360873
 20
3.6900749904
 30
0.0
 10
4.8125361625
 20
3.6858516394
 30
0.0
 10
4.8063217432
 20
3.6818346491
 30
0.0
 10
4.8005157515
 20
3.6780281422
 30
0.0
 10
4.7951430291
 20
3.674437208
 30
0.0
 10
4.7902316744
 20
3.6710663764
 30
0.0
 10
4.7864535523
 20
3.6683789111
 30
0.0
 10
4.7836893847
 20
3.6663373065
 30
0.0
 10
4.7823956277
 20
3.6653536719
 30
0.0
 10
4.7817718811
 20
3.6648709572
 30
0.0
 11
4.8259893928
 21
3.6944286104
 31
0.0
 11
4.819021594
 21
3.6899971528
 31
0.0
 11
4.8124171009
 21
3.6857681237
 31
0.0
 11
4.8061984272
 21
3.6817451184
 31
0.0
 11
4.8003880949
 21
3.6779317344
 31
0.0
 11
4.7950106763
 21
3.6743321187
 31
0.0
 11
4.790095428
 21
3.6709516738
 31
0.0
 11
4.7856722586
 21
3.6677959771
 31
0.0
 11
4.7836545839
 21
3.6663041671
 31
0.0
 11
4.7817718811
 21
3.6648709572
 31
0.0
  0
SPLINE
  5
495
100
AcDbEntity
  8
0
100
AcDbSpline
 62
6
  6
CONTINUOUS
 70
0
 71
3
 72
11
 73
7
 74
5
 42
0.0000001
 43
0.0000001
 44
0.0000000001
 12
-0.0070904813
 22
-0.0054872913
 32
0.0
 13
-0.0063365128
 23
-0.0063430195
 33
0.0
 40
0.0
 40
0.0
 40
0.0
 40
0.0
 40
0.2845771319
 40
0.5464994556
 40
0.7851462522
 40
1.0
 40
1.0
 40
1.0
 40
1.0
 10
4.7817718811
 20
3.6648709572
 30
0.0
 10
4.7810992848
 20
3.664350438
 30
0.0
 10
4.7798167817
 20
3.6633389084
 30
0.0
 10
4.7780091785
 20
3.6618422853
 30
0.0
 10
4.7764034402
 20
3.660429985
 30
0.0
 10
4.775420177
 20
3.6594964075
 30
0.0
 10
4.7749663691
 20
3.6590421336
 30
0.0
 11
4.7817718811
 21
3.6648709572
 31
0.0
 11
4.7797702121
 21
3.6632887893
 31
0.0
 11
4.7779635125
 21
3.6617886115
 31
0.0
 11
4.7763596193
 21
3.6603724007
 31
0.0
 11
4.7749663691
 21
3.6590421336
 31
0.0
  0
SPLINE
  5
496
100
AcDbEntity
  8
0
100
AcDbSpline
 62
9
  6
CONTINUOUS
 70
0
 71
3
 72
32
 73
28
 74
26
 42
0.0000001
 43
0.0000001
 44
0.0000000001
 12
0.0672214831
 22
-0.0827859822
 32
0.0
 13
-0.0814435887
 23
-0.0688417642
 33
0.0
 40
0.0
 40
0.0
 40
0.0
 40
0.0
 40
0.0155468956
 40
0.0313610555
 40
0.0476670102
 40
0.0646656107
 40
0.0825306707
 40
0.1014085547
 40
0.1214151935
 40
0.1426371713
 40
0.1651382494
 40
0.188963935
 40
0.2141451673
 40
0.2406949668
 40
0.26860638
 40
0.2978632539
 40
0.328442941
 40
0.3603177357
 40
0.3934532293
 40
0.4278004822
 40
0.4999019648
 40
0.57616004
 40
0.656062342
 40
0.7390506298
 40
0.8245390002
 40
0.9117973234
 40
1.0
 40
1.0
 40
1.0
 40
1.0
 10
5.2895365606
 20
3.963147334
 30
0.0
 10
5.2898849224
 20
3.9627183124
 30
0.0
 10
5.2905290323
 20
3.9618034886
 30
0.0
 10
5.2913130345
 20
3.9602961994
 30
0.0
 10
5.29191764
 20
3.9586534684
 30
0.0
 10
5.2923415171
 20
3.9568806805
 30
0.0
 10
5.2925838762
 20
3.9549823918
 30
0.0
 10
5.2926434337
 20
3.952963151
 30
0.0
 10
5.2925210641
 20
3.9508276951
 30
0.0
 10
5.2922183661
 20
3.9485806384
 30
0.0
 10
5.2917364867
 20
3.9462266644
 30
0.0
 10
5.2910765583
 20
3.9437705003
 30
0.0
 10
5.2902395743
 20
3.9412171937
 30
0.0
 10
5.2892272998
 20
3.9385722385
 30
0.0
 10
5.288042641
 20
3.935841344
 30
0.0
 10
5.2866883884
 20
3.9330306729
 30
0.0
 10
5.28516741
 20
3.9301464279
 30
0.0
 10
5.2834825971
 20
3.9271949394
 30
0.0
 10
5.2816371802
 20
3.9241829288
 30
0.0
 10
5.2789246006
 20
3.9200275933
 30
0.0
 10
5.2751557192
 20
3.9147346259
 30
0.0
 10
5.2701426186
 20
3.9083512428
 30
0.0
 10
5.2646105679
 20
3.9018934
 30
0.0
 10
5.2586083194
 20
3.8954155239
 30
0.0
 10
5.2521872256
 20
3.8889778139
 30
0.0
 10
5.2454110671
 20
3.8826407529
 30
0.0
 10
5.2407144224
 20
3.8785346585
 30
0.0
 10
5.2383199082
 20
3.8765106492
 30
0.0
 11
5.2895365606
 21
3.963147334
 31
0.0
 11
5.2904920126
 21
3.9617923981
 31
0.0
 11
5.291272724
 21
3.9602975576
 31
0.0
 11
5.2918769785
 21
3.9586670434
 31
0.0
 11
5.29230306
 21
3.9569050863
 31
0.0
 11
5.292549252
 21
3.9550159172
 31
0.0
 11
5.2926139719
 21
3.9530038063
 31
0.0
 11
5.2924971913
 21
3.9508734821
 31
0.0
 11
5.2921998841
 21
3.9486299684
 31
0.0
 11
5.291723041
 21
3.946278294
 31
0.0
 11
5.2910676528
 21
3.9438234879
 31
0.0
 11
5.290234722
 21
3.9412705866
 31
0.0
 11
5.289225964
 21
3.9386250978
 31
0.0
 11
5.2880441982
 21
3.9358932588
 31
0.0
 11
5.2866923392
 21
3.93308137
 31
0.0
 11
5.2851733018
 21
3.9301957315
 31
0.0
 11
5.2834900005
 21
3.9272426436
 31
0.0
 11
5.2816456979
 21
3.9242285383
 31
0.0
 11
5.2796450482
 21
3.9211603753
 31
0.0
 11
5.2751947161
 21
3.9148902416
 31
0.0
 11
5.2701790757
 21
3.9084889676
 31
0.0
 11
5.2646414496
 21
3.9020129027
 31
0.0
 11
5.2586301994
 21
3.8955178145
 31
0.0
 11
5.2521953278
 21
3.8890599683
 31
0.0
 11
5.2454008685
 21
3.8827019986
 31
0.0
 11
5.2383199082
 21
3.8765106492
 31
0.0
  0
SPLINE
  5
497
100
AcDbEntity
  8
0
100
AcDbSpline
 62
9
  6
CONTINUOUS
 70
0
 71
3
 72
39
 73
35
 74
33
 42
0.0000001
 43
0.0000001
 44
0.0000000001
 12
-0.0645627487
 22
0.0926293008
 32
0.0
 13
-0.010046656
 23
0.1124615516
 33
0.0
 40
0.0
 40
0.0
 40
0.0
 40
0.0
 40
0.1011705106
 40
0.1501350658
 40
0.1979369901
 40
0.2445535643
 40
0.2899941304
 40
0.3342664831
 40
0.3773759703
 40
0.4601148801
 40
0.538220978
 40
0.6116766979
 40
0.680358917
 40
0.7440924037
 40
0.8026237011
 40
0.8554334625
 40
0.8795110958
 40
0.9019356181
 40
0.9225728122
 40
0.9412419072
 40
0.9577598371
 40
0.9651547526
 40
0.9719429021
 40
0.9781002551
 40
0.9835905216
 40
0.9883690112
 40
0.9923906451
 40
0.9956101305
 40
0.9969048629
 40
0.9979819864
 40
0.9988357885
 40
0.9994605466
 40
0.9998505293
 40
1.0
 40
1.0
 40
1.0
 40
1.0
 10
5.2383199082
 20
3.8765106492
 30
0.0
 10
5.2361426261
 20
3.8796344338
 30
0.0
 10
5.2330151528
 20
3.8843431999
 30
0.0
 10
5.2290748745
 20
3.890665733
 30
0.0
 10
5.2262987047
 20
3.8952936187
 30
0.0
 10
5.2236621329
 20
3.8998497327
 30
0.0
 10
5.221159129
 20
3.9043289758
 30
0.0
 10
5.2187824921
 20
3.9087270289
 30
0.0
 10
5.2158126151
 20
3.9143994842
 30
0.0
 10
5.2123779706
 20
3.9212652858
 30
0.0
 10
5.2086253353
 20
3.929246109
 30
0.0
 10
5.2052730434
 20
3.9368280178
 30
0.0
 10
5.2023039218
 20
3.9439855878
 30
0.0
 10
5.1997063864
 20
3.9506870392
 30
0.0
 10
5.1974728178
 20
3.9568867726
 30
0.0
 10
5.1958630048
 20
3.961723182
 30
0.0
 10
5.1947547268
 20
3.9652929544
 30
0.0
 10
5.194039654
 20
3.9677166469
 30
0.0
 10
5.1934142353
 20
3.9699542982
 30
0.0
 10
5.1928775023
 20
3.9719856818
 30
0.0
 10
5.192490827
 20
3.9735410414
 30
0.0
 10
5.1922259887
 20
3.9746657703
 30
0.0
 10
5.1920569097
 20
3.9754124179
 30
0.0
 10
5.1919101291
 20
3.9760905836
 30
0.0
 10
5.1917851498
 20
3.9766960487
 30
0.0
 10
5.1916811495
 20
3.977223745
 30
0.0
 10
5.1915974902
 20
3.9776683225
 30
0.0
 10
5.191540638
 20
3.9779845161
 30
0.0
 10
5.1915047465
 20
3.9781918704
 30
0.0
 10
5.1914844648
 20
3.9783115695
 30
0.0
 10
5.191468916
 20
3.9784064855
 30
0.0
 10
5.1914575005
 20
3.9784758922
 30
0.0
 10
5.1914512167
 20
3.9785192365
 30
0.0
 10
5.1914476752
 20
3.9785392579
 30
0.0
 10
5.1914471747
 20
3.9785448611
 30
0.0
 11
5.2383199082
 21
3.8765106492
 31
0.0
 11
5.2319906637
 21
3.8860200104
 31
0.0
 11
5.229065229
 21
3.8907111509
 31
0.0
 11
5.2262881033
 21
3.8953391399
 31
0.0
 11
5.2236515697
 21
3.8998946418
 31
0.0
 11
5.2211484204
 21
3.9043732571
 31
0.0
 11
5.2187714617
 21
3.9087707249
 31
0.0
 11
5.2165135589
 21
3.9130828137
 31
0.0
 11
5.2123350202
 21
3.9214382199
 31
0.0
 11
5.2085828738
 21
3.9294191119
 31
0.0
 11
5.2052307025
 21
3.9370053342
 31
0.0
 11
5.2022617187
 21
3.9441693506
 31
0.0
 11
5.1996637126
 21
3.950880116
 31
0.0
 11
5.1974265974
 21
3.957098692
 31
0.0
 11
5.1955478566
 21
3.9627576985
 31
0.0
 11
5.1947426243
 21
3.9653543002
 31
0.0
 11
5.1940266809
 21
3.9677829096
 31
0.0
 11
5.1933998942
 21
3.9700271601
 31
0.0
 11
5.1928621085
 21
3.9720653208
 31
0.0
 11
5.1924131675
 21
3.9738755109
 31
0.0
 11
5.1922219648
 21
3.9746882792
 31
0.0
 11
5.1920529147
 21
3.9754358496
 31
0.0
 11
5.1919059675
 21
3.9761153654
 31
0.0
 11
5.1917807056
 21
3.9767224806
 31
0.0
 11
5.191676465
 21
3.9772518515
 31
0.0
 11
5.1915925768
 21
3.9776981157
 31
0.0
 11
5.1915283723
 21
3.9780559109
 31
0.0
 11
5.1915034426
 21
3.9781999571
 31
0.0
 11
5.191483183
 21
3.9783198751
 31
0.0
 11
5.19146751
 21
3.9784149948
 31
0.0
 11
5.19145634
 21
3.9784846459
 31
0.0
 11
5.1914495894
 21
3.9785281581
 31
0.0
 11
5.1914471747
 21
3.9785448611
 31
0.0
  0
SPLINE
  5
498
100
AcDbEntity
  8
0
100
AcDbSpline
 62
9
  6
CONTINUOUS
 70
0
 71
3
 72
43
 73
39
 74
37
 42
0.0000001
 43
0.0000001
 44
0.0000000001
 12
0.0032190624
 22
0.1128622778
 32
0.0
 13
0.0645764933
 23
0.0926182089
 33
0.0
 40
0.0
 40
0.0
 40
0.0
 40
0.0
 40
0.0000445998
 40
0.0001500189
 40
0.0003155508
 40
0.0005404777
 40
0.001165639
 40
0.0020197519
 40
0.0030970718
 40
0.0043918629
 40
0.0058983995
 40
0.0076109664
 40
0.0116313771
 40
0.0164076133
 40
0.0218943954
 40
0.0280472183
 40
0.0348324064
 40
0.0422260285
 40
0.0587442615
 40
0.0774140522
 40
0.0980482828
 40
0.1204645314
 40
0.1445388297
 40
0.1701938437
 40
0.1973537687
 40
0.2558856899
 40
0.3196181752
 40
0.3883060403
 40
0.4617649147
 40
0.5398728293
 40
0.6226133535
 40
0.6657230943
 40
0.7099956493
 40
0.7554370083
 40
0.8020555149
 40
0.8498606092
 40
0.898827305
 40
1.0
 40
1.0
 40
1.0
 40
1.0
 10
5.1914470168
 20
4.650577186
 30
0.0
 10
5.1914470646
 20
4.6505788639
 30
0.0
 10
5.1914479993
 20
4.6505844534
 30
0.0
 10
5.1914495262
 20
4.6505962157
 30
0.0
 10
5.1914523901
 20
4.650614667
 30
0.0
 10
5.1914581857
 20
4.6506524436
 30
0.0
 10
5.1914683546
 20
4.6507157764
 30
0.0
 10
5.1914839822
 20
4.6508107172
 30
0.0
 10
5.1915042554
 20
4.6509304363
 30
0.0
 10
5.1915292202
 20
4.6510742629
 30
0.0
 10
5.1915589702
 20
4.6512415235
 30
0.0
 10
5.1916077962
 20
4.6515095805
 30
0.0
 10
5.1916812364
 20
4.6518982333
 30
0.0
 10
5.1917855901
 20
4.6524255862
 30
0.0
 10
5.1919109549
 20
4.6530305704
 30
0.0
 10
5.1920581618
 20
4.6537082127
 30
0.0
 10
5.1922274854
 20
4.6544544565
 30
0.0
 10
5.1924925291
 20
4.6555789706
 30
0.0
 10
5.1928791601
 20
4.6571343095
 30
0.0
 10
5.1934155894
 20
4.6591656725
 30
0.0
 10
5.1940406019
 20
4.6614030007
 30
0.0
 10
5.1947555599
 20
4.6638261247
 30
0.0
 10
5.1955604584
 20
4.6664194438
 30
0.0
 10
5.1964545515
 20
4.6691717518
 30
0.0
 10
5.1977998199
 20
4.6731407125
 30
0.0
 10
5.1997057753
 20
4.6784322858
 30
0.0
 10
5.2023032751
 20
4.6851338483
 30
0.0
 10
5.2052724643
 20
4.6922916245
 30
0.0
 10
5.2086246697
 20
4.6998739066
 30
0.0
 10
5.2123775131
 20
4.7078548036
 30
0.0
 10
5.2158124503
 20
4.7147205192
 30
0.0
 10
5.2187825451
 20
4.7203928701
 30
0.0
 10
5.2211595589
 20
4.7247907111
 30
0.0
 10
5.223662886
 20
4.7292698343
 30
0.0
 10
5.2262995833
 20
4.733826062
 30
0.0
 10
5.2290753364
 20
4.738454444
 30
0.0
 10
5.2330147675
 20
4.7447777374
 30
0.0
 10
5.236142046
 20
4.7494867884
 30
0.0
 10
5.2383198387
 20
4.7526102663
 30
0.0
 11
5.1914470168
 21
4.650577186
 31
0.0
 11
5.1914476019
 21
4.6505821876
 31
0.0
 11
5.1914492737
 21
4.6505939723
 31
0.0
 11
5.1914520422
 21
4.650612456
 31
0.0
 11
5.1914559173
 21
4.6506375547
 31
0.0
 11
5.191467027
 21
4.6507072608
 31
0.0
 11
5.1914826825
 21
4.6508024178
 31
0.0
 11
5.1915029635
 21
4.6509223534
 31
0.0
 11
5.1915279497
 21
4.6510663948
 31
0.0
 11
5.1915577206
 21
4.6512338696
 31
0.0
 11
5.1915923559
 21
4.6514241052
 31
0.0
 11
5.1916765384
 21
4.6518701683
 31
0.0
 11
5.1917811344
 21
4.6523992037
 31
0.0
 11
5.1919067809
 21
4.6530058307
 31
0.0
 11
5.1920540998
 21
4.6536847348
 31
0.0
 11
5.1922234122
 21
4.6544318944
 31
0.0
 11
5.1924147642
 21
4.6552444682
 31
0.0
 11
5.1928637329
 21
4.6570546656
 31
0.0
 11
5.1934012963
 21
4.6590929422
 31
0.0
 11
5.194027745
 21
4.6613369132
 31
0.0
 11
5.1947433624
 21
4.6637646158
 31
0.0
 11
5.1955483209
 21
4.666360877
 31
0.0
 11
5.1964427029
 21
4.6691160039
 31
0.0
 11
5.1974265883
 21
4.6720204604
 31
0.0
 11
5.1996631898
 21
4.678239219
 31
0.0
 11
5.2022609932
 21
4.684949857
 31
0.0
 11
5.205230133
 21
4.6921144067
 31
0.0
 11
5.208582291
 21
4.6997009247
 31
0.0
 11
5.2123345909
 21
4.7076818643
 31
0.0
 11
5.2165134592
 21
4.7160371949
 31
0.0
 11
5.2187715484
 21
4.7203491581
 31
0.0
 11
5.2211488214
 21
4.7247464196
 31
0.0
 11
5.2236522576
 21
4.7292249126
 31
0.0
 11
5.226288867
 21
4.7337805559
 31
0.0
 11
5.2290656892
 21
4.7384090755
 31
0.0
 11
5.2319905913
 21
4.7431007614
 31
0.0
 11
5.2383198387
 21
4.7526102663
 31
0.0
  0
SPLINE
  5
499
100
AcDbEntity
  8
0
100
AcDbSpline
 62
9
  6
CONTINUOUS
 70
0
 71
3
 72
32
 73
28
 74
26
 42
0.0000001
 43
0.0000001
 44
0.0000000001
 12
-0.0827880731
 22
-0.0672201298
 32
0.0
 13
-0.0688423526
 23
0.0814440997
 33
0.0
 40
0.0
 40
0.0
 40
0.0
 40
0.0
 40
0.0155468445
 40
0.0313610003
 40
0.0476669931
 40
0.0646656672
 40
0.0825308287
 40
0.1014088348
 40
0.1214156101
 40
0.1426377337
 40
0.1651389619
 40
0.1889647973
 40
0.2141461748
 40
0.2406961119
 40
0.2686076517
 40
0.297864638
 40
0.3284444206
 40
0.3603192911
 40
0.3934548389
 40
0.427802124
 40
0.4999036031
 40
0.5761615813
 40
0.6560636957
 40
0.7390517163
 40
0.8245397536
 40
0.9117977042
 40
1.0
 40
1.0
 40
1.0
 40
1.0
 10
5.3709223009
 20
4.7473579759
 30
0.0
 10
5.3704932697
 20
4.7470096223
 30
0.0
 10
5.3695784263
 20
4.7463655296
 30
0.0
 10
5.3680711092
 20
4.7455815558
 30
0.0
 10
5.3664283499
 20
4.7449769799
 30
0.0
 10
5.3646555335
 20
4.7445531334
 30
0.0
 10
5.3627572162
 20
4.7443108059
 30
0.0
 10
5.3607379472
 20
4.744251281
 30
0.0
 10
5.3586024635
 20
4.7443736841
 30
0.0
 10
5.3563553794
 20
4.7446764164
 30
0.0
 10
5.3540013787
 20
4.7451583306
 30
0.0
 10
5.3515451886
 20
4.7458182939
 30
0.0
 10
5.3489918569
 20
4.7466553129
 30
0.0
 10
5.3463468775
 20
4.7476676221
 30
0.0
 10
5.3436159599
 20
4.748852315
 30
0.0
 10
5.3408052668
 20
4.7502066013
 30
0.0
 10
5.337921001
 20
4.7517276123
 30
0.0
 10
5.3349694931
 20
4.7534124567
 30
0.0
 10
5.3319574643
 20
4.7552579039
 30
0.0
 10
5.3278021075
 20
4.7579705218
 30
0.0
 10
5.3225091166
 20
4.7617394467
 30
0.0
 10
5.3161257081
 20
4.766752593
 30
0.0
 10
5.3096678432
 20
4.7722846822
 30
0.0
 10
5.3031899479
 20
4.7782869624
 30
0.0
 10
5.29675222
 20
4.7847080821
 30
0.0
 10
5.2904151401
 20
4.7914842617
 30
0.0
 10
5.2863090306
 20
4.7961809175
 30
0.0
 10
5.2842850127
 20
4.7985754363
 30
0.0
 11
5.3709223009
 21
4.7473579759
 31
0.0
 11
5.3695673382
 21
4.7464025506
 31
0.0
 11
5.3680724699
 21
4.745621867
 31
0.0
 11
5.3664419272
 21
4.7450176414
 31
0.0
 11
5.3646799412
 21
4.7445915902
 31
0.0
 11
5.3627907433
 21
4.7443454295
 31
0.0
 11
5.3607786038
 21
4.744280742
 31
0.0
 11
5.3586482514
 21
4.7443975561
 31
0.0
 11
5.35640471
 21
4.7446948976
 31
0.0
 11
5.3540530087
 21
4.7451717755
 31
0.0
 11
5.3515981764
 21
4.7458271987
 31
0.0
 11
5.3490452498
 21
4.7466601644
 31
0.0
 11
5.3463997367
 21
4.7476689573
 31
0.0
 11
5.3436678745
 21
4.7488507574
 31
0.0
 11
5.3408559635
 21
4.75020265
 31
0.0
 11
5.3379703041
 21
4.7517217202
 31
0.0
 11
5.3350171967
 21
4.7534050531
 31
0.0
 11
5.3320030733
 21
4.7552493861
 31
0.0
 11
5.3289348935
 21
4.7572500648
 31
0.0
 11
5.32266473
 21
4.7617004501
 31
0.0
 11
5.3162634306
 21
4.7667161365
 31
0.0
 11
5.309787344
 21
4.7722538013
 31
0.0
 11
5.3032922369
 21
4.778265083
 31
0.0
 11
5.2968343732
 21
4.7846999802
 31
0.0
 11
5.290476385
 21
4.7914944598
 31
0.0
 11
5.2842850127
 21
4.7985754363
 31
0.0
  0
SPLINE
  5
49A
100
AcDbEntity
  8
0
100
AcDbSpline
 62
9
  6
CONTINUOUS
 70
0
 71
3
 72
43
 73
39
 74
37
 42
0.0000001
 43
0.0000001
 44
0.0000000001
 12
0.0926276307
 22
0.0645657356
 32
0.0
 13
0.1126351476
 23
0.0078699252
 33
0.0
 40
0.0
 40
0.0
 40
0.0
 40
0.0
 40
0.1011717292
 40
0.1501393342
 40
0.1979458993
 40
0.244565766
 40
0.2900082641
 40
0.3342816613
 40
0.377391815
 40
0.4601317043
 40
0.5382370978
 40
0.6116929257
 40
0.6803789176
 40
0.7441076373
 40
0.802636393
 40
0.8297965997
 40
0.8554522489
 40
0.8795268591
 40
0.9019428108
 40
0.9225788608
 40
0.9412520172
 40
0.9577736184
 40
0.9651684434
 40
0.9719542558
 40
0.978107003
 40
0.9835934442
 40
0.9883692598
 40
0.9923892553
 40
0.9941016408
 40
0.9956080254
 40
0.9969027021
 40
0.997979953
 40
0.9988340496
 40
0.9994592537
 40
0.9996842258
 40
0.9998498192
 40
0.9999553153
 40
1.0
 40
1.0
 40
1.0
 40
1.0
 10
5.2842850127
 20
4.7985754363
 30
0.0
 10
5.2874087786
 20
4.8007528454
 30
0.0
 10
5.2921175473
 20
4.8038806358
 30
0.0
 10
5.2984403085
 20
4.8078212281
 30
0.0
 10
5.303068627
 20
4.810597512
 30
0.0
 10
5.3076250762
 20
4.8132342764
 30
0.0
 10
5.3121045602
 20
4.815737365
 30
0.0
 10
5.3165028123
 20
4.8181139561
 30
0.0
 10
5.3221756423
 20
4.8210833777
 30
0.0
 10
5.3290415261
 20
4.8245179729
 30
0.0
 10
5.3370222941
 20
4.8282708294
 30
0.0
 10
5.3446044169
 20
4.8316229886
 30
0.0
 10
5.3517619223
 20
4.8345922551
 30
0.0
 10
5.3584631259
 20
4.837190036
 30
0.0
 10
5.3637543754
 20
4.8390963813
 30
0.0
 10
5.3677231923
 20
4.8404419924
 30
0.0
 10
5.3704755002
 20
4.8413363664
 30
0.0
 10
5.373068808
 20
4.8421415114
 30
0.0
 10
5.3754919679
 20
4.8428567183
 30
0.0
 10
5.3777295015
 20
4.8434818037
 30
0.0
 10
5.3797612468
 20
4.8440181642
 30
0.0
 10
5.3813169648
 20
4.8444046053
 30
0.0
 10
5.3824417548
 20
4.844669402
 30
0.0
 10
5.3831881298
 20
4.8448384939
 30
0.0
 10
5.3838658502
 20
4.8449854248
 30
0.0
 10
5.3844708819
 20
4.8451104481
 30
0.0
 10
5.3849982684
 20
4.8452144425
 30
0.0
 10
5.3853869438
 20
4.8452875867
 30
0.0
 10
5.3856550138
 20
4.8453362045
 30
0.0
 10
5.3858222824
 20
4.845365827
 30
0.0
 10
5.3859661158
 20
4.8453906908
 30
0.0
 10
5.3860858412
 20
4.8454108896
 30
0.0
 10
5.386180788
 20
4.8454264859
 30
0.0
 10
5.3862441243
 20
4.8454366403
 30
0.0
 10
5.3862819033
 20
4.8454424803
 30
0.0
 10
5.3863003568
 20
4.8454453431
 30
0.0
 10
5.3863121236
 20
4.8454469645
 30
0.0
 10
5.3863177123
 20
4.8454478693
 30
0.0
 10
5.38631939
 20
4.8454479865
 30
0.0
 11
5.2842850127
 21
4.7985754363
 31
0.0
 11
5.2937942947
 21
4.8049051097
 31
0.0
 11
5.2984856962
 21
4.8078308079
 31
0.0
 11
5.3031141824
 21
4.8106081551
 31
0.0
 11
5.307670034
 21
4.8132448579
 31
0.0
 11
5.3121488789
 21
4.8157480751
 31
0.0
 11
5.3165465459
 21
4.8181249446
 31
0.0
 11
5.3208588739
 21
4.8203825842
 31
0.0
 11
5.3292144955
 21
4.8245610021
 31
0.0
 11
5.3371952986
 21
4.8283132126
 31
0.0
 11
5.3447815848
 21
4.8316653308
 31
0.0
 11
5.3519459653
 21
4.8346346093
 31
0.0
 11
5.3586561587
 21
4.8372326618
 31
0.0
 11
5.364874487
 21
4.8394696763
 31
0.0
 11
5.3677789267
 21
4.8404538438
 31
0.0
 11
5.370534079
 21
4.841348511
 31
0.0
 11
5.3731303384
 21
4.8421537223
 31
0.0
 11
5.3755579887
 21
4.8428695237
 31
0.0
 11
5.3778021856
 21
4.8434960482
 31
0.0
 11
5.3798409018
 21
4.8440335505
 31
0.0
 11
5.3816515736
 21
4.8444822943
 31
0.0
 11
5.3824643417
 21
4.8446734642
 31
0.0
 11
5.3832116373
 21
4.8448425433
 31
0.0
 11
5.3838906052
 21
4.8449895734
 31
0.0
 11
5.3844972726
 21
4.8451148778
 31
0.0
 11
5.3850263382
 21
4.8452191143
 31
0.0
 11
5.3854724234
 21
4.8453029603
 31
0.0
 11
5.3856626676
 21
4.8453374486
 31
0.0
 11
5.3858301498
 21
4.8453670932
 31
0.0
 11
5.3859741976
 21
4.8453919789
 31
0.0
 11
5.3860941387
 21
4.8454121903
 31
0.0
 11
5.3861893008
 21
4.8454278121
 31
0.0
 11
5.3862590117
 21
4.8454389289
 31
0.0
 11
5.3862841127
 21
4.8454428245
 31
0.0
 11
5.3863025988
 21
4.8454456255
 31
0.0
 11
5.3863143859
 21
4.8454473427
 31
0.0
 11
5.38631939
 21
4.8454479865
 31
0.0
  0
SPLINE
  5
49B
100
AcDbEntity
  8
0
100
AcDbSpline
 62
9
  6
CONTINUOUS
 70
0
 71
3
 72
47
 73
43
 74
41
 42
0.0000001
 43
0.0000001
 44
0.0000000001
 12
0.0646092612
 22
0.0925977483
 32
0.0
 13
0.0049468888
 23
0.1128017195
 33
0.0
 40
0.0
 40
0.0
 40
0.0
 40
0.0
 40
0.0511245253
 40
0.1012010053
 40
0.1501657447
 40
0.1979596521
 40
0.2445757009
 40
0.2900206136
 40
0.334298319
 40
0.3774116182
 40
0.4193641404
 40
0.4601586693
 40
0.4997969369
 40
0.5382775298
 40
0.6117245237
 40
0.6804081459
 40
0.744164298
 40
0.7740921381
 40
0.8026583962
 40
0.8298162315
 40
0.8554931
 40
0.8795836532
 40
0.901979918
 40
0.9225735104
 40
0.941240412
 40
0.957781506
 40
0.9651852996
 40
0.9719739204
 40
0.9781193152
 40
0.9835933387
 40
0.9883620238
 40
0.9923799133
 40
0.9940926302
 40
0.9955999982
 40
0.9968961055
 40
0.9979750274
 40
0.9988308279
 40
0.9994575597
 40
0.999683164
 40
0.999849267
 40
0.9999551244
 40
1.0
 40
1.0
 40
1.0
 40
1.0
 10
6.2063499413
 20
3.8765108279
 30
0.0
 10
6.2074509806
 20
3.8780888332
 30
0.0
 10
6.2095941475
 20
3.8812380037
 30
0.0
 10
6.2126736259
 20
3.885977532
 30
0.0
 10
6.215595509
 20
3.8906686845
 30
0.0
 10
6.2183711408
 20
3.8952965182
 30
0.0
 10
6.2210066781
 20
3.8998531021
 30
0.0
 10
6.2235092726
 20
3.9043329997
 30
0.0
 10
6.2258868387
 20
3.9087311506
 30
0.0
 10
6.2281461242
 20
3.9130433409
 30
0.0
 10
6.2302908152
 20
3.9172671285
 30
0.0
 10
6.232325092
 20
3.9213998842
 30
0.0
 10
6.2342530067
 20
3.9254389831
 30
0.0
 10
6.2366498329
 20
3.9306155672
 30
0.0
 10
6.2393994006
 20
3.9368330115
 30
0.0
 10
6.2423678134
 20
3.9439915192
 30
0.0
 10
6.2445766267
 20
3.949690023
 30
0.0
 10
6.2461608195
 20
3.9540098973
 30
0.0
 10
6.2472336744
 20
3.957049881
 30
0.0
 10
6.2482167596
 20
3.9599516208
 30
0.0
 10
6.2491103137
 20
3.9627055805
 30
0.0
 10
6.2499148598
 20
3.9652997687
 30
0.0
 10
6.2506302963
 20
3.967721046
 30
0.0
 10
6.2512565064
 20
3.9699556037
 30
0.0
 10
6.2517922266
 20
3.971986399
 30
0.0
 10
6.2521779016
 20
3.9735431728
 30
0.0
 10
6.2524426374
 20
3.9746691892
 30
0.0
 10
6.2526118775
 20
3.9754157026
 30
0.0
 10
6.2527594121
 20
3.9760926385
 30
0.0
 10
6.2528852636
 20
3.9766964669
 30
0.0
 10
6.2529895657
 20
3.9772229652
 30
0.0
 10
6.2530627538
 20
3.9776112934
 30
0.0
 10
6.2531113037
 20
3.9778793466
 30
0.0
 10
6.2531408521
 20
3.9780467338
 30
0.0
 10
6.2531656151
 20
3.9781907411
 30
0.0
 10
6.2531856985
 20
3.97831067
 30
0.0
 10
6.2532011676
 20
3.9784058243
 30
0.0
 10
6.2532112197
 20
3.9784693257
 30
0.0
 10
6.2532169625
 20
3.9785072198
 30
0.0
 10
6.2532197891
 20
3.9785257389
 30
0.0
 10
6.2532213332
 20
3.9785375521
 30
0.0
 10
6.2532222423
 20
3.9785431673
 30
0.0
 10
6.2532223163
 20
3.9785448547
 30
0.0
 11
6.2063499413
 21
3.8765108279
 31
0.0
 11
6.2095990348
 21
3.8812820841
 31
0.0
 11
6.2126810274
 21
3.8860224055
 31
0.0
 11
6.2156054323
 21
3.8907142544
 31
0.0
 11
6.2183814953
 21
3.8953418658
 31
0.0
 11
6.2210172034
 21
3.8998978159
 31
0.0
 11
6.2235201736
 21
3.9043771313
 31
0.0
 11
6.2258980065
 21
3.90877485
 31
0.0
 11
6.2281570678
 21
3.9130868532
 31
0.0
 11
6.2303016496
 21
3.9173104369
 31
0.0
 11
6.232335846
 21
3.9214430329
 31
0.0
 11
6.2342637507
 21
3.9254820726
 31
0.0
 11
6.2360890761
 21
3.9294249017
 31
0.0
 11
6.239441326
 21
3.9370100702
 31
0.0
 11
6.2424098648
 21
3.9441744964
 31
0.0
 11
6.2450088262
 21
3.9508876858
 31
0.0
 11
6.2461718357
 21
3.9540603989
 31
0.0
 11
6.2472447454
 21
3.9571021419
 31
0.0
 11
6.2482282072
 21
3.960006549
 31
0.0
 11
6.2491225539
 21
3.9627643347
 31
0.0
 11
6.2499277125
 21
3.9653625048
 31
0.0
 11
6.250643584
 21
3.9677878259
 31
0.0
 11
6.2512700692
 21
3.9700270645
 31
0.0
 11
6.2518071964
 21
3.9720651567
 31
0.0
 11
6.2522556092
 21
3.9738781844
 31
0.0
 11
6.2524468068
 21
3.9746919892
 31
0.0
 11
6.252616137
 21
3.9754395558
 31
0.0
 11
6.2527637033
 21
3.9761175602
 31
0.0
 11
6.2528896111
 21
3.9767226727
 31
0.0
 11
6.2529941687
 21
3.9772508561
 31
0.0
 11
6.2530780815
 21
3.9776966885
 31
0.0
 11
6.2531125309
 21
3.9778869784
 31
0.0
 11
6.253142101
 21
3.9780545871
 31
0.0
 11
6.2531668857
 21
3.9781988167
 31
0.0
 11
6.253186979
 21
3.9783189694
 31
0.0
 11
6.2532024747
 21
3.9784143474
 31
0.0
 11
6.2532134669
 21
3.9784842528
 31
0.0
 11
6.2532173035
 21
3.9785094352
 31
0.0
 11
6.2532200494
 21
3.9785279879
 31
0.0
 11
6.2532217164
 21
3.9785398234
 31
0.0
 11
6.2532223163
 21
3.9785448547
 31
0.0
  0
SPLINE
  5
49C
100
AcDbEntity
  8
0
100
AcDbSpline
 62
9
  6
CONTINUOUS
 70
0
 71
3
 72
32
 73
28
 74
26
 42
0.0000001
 43
0.0000001
 44
0.0000000001
 12
-0.0814433368
 22
0.0688415838
 32
0.0
 13
0.0672190219
 23
0.0827875828
 33
0.0
 40
0.0
 40
0.0
 40
0.0
 40
0.0
 40
0.0882023845
 40
0.1754604019
 40
0.260948475
 40
0.3439364952
 40
0.423838573
 40
0.5000964791
 40
0.5721978577
 40
0.6065450855
 40
0.6396805735
 40
0.671555383
 40
0.7021351055
 40
0.7313920349
 40
0.759303523
 40
0.785853416
 40
0.811034759
 40
0.8348605713
 40
0.8573617905
 40
0.8785839215
 40
0.8985907228
 40
0.9174687749
 40
0.9353340015
 40
0.9523327552
 40
0.9686388355
 40
0.9844530783
 40
1.0
 40
1.0
 40
1.0
 40
1.0
 10
6.2063499413
 20
3.8765108279
 30
0.0
 10
6.2039554425
 20
3.8785348252
 30
0.0
 10
6.1992588262
 20
3.8826408923
 30
0.0
 10
6.192482705
 20
3.8889779072
 30
0.0
 10
6.1860616448
 20
3.8954155698
 30
0.0
 10
6.1800594262
 20
3.9018934004
 30
0.0
 10
6.1745273996
 20
3.9083512005
 30
0.0
 10
6.1695143156
 20
3.9147345442
 30
0.0
 10
6.1657454419
 20
3.9200274809
 30
0.0
 10
6.163032864
 20
3.9241827946
 30
0.0
 10
6.1611874456
 20
3.9271947917
 30
0.0
 10
6.1595026289
 20
3.9301462684
 30
0.0
 10
6.1579816444
 20
3.9330305038
 30
0.0
 10
6.1566273833
 20
3.9358411673
 30
0.0
 10
6.1554427137
 20
3.9385720564
 30
0.0
 10
6.154430426
 20
3.9412170083
 30
0.0
 10
6.1535934262
 20
3.9437703139
 30
0.0
 10
6.1529334798
 20
3.9462264794
 30
0.0
 10
6.1524515801
 20
3.9485804574
 30
0.0
 10
6.1521488597
 20
3.9508275208
 30
0.0
 10
6.1520264659
 20
3.9529629862
 30
0.0
 10
6.1520859974
 20
3.9549822394
 30
0.0
 10
6.1523283285
 20
3.9568805435
 30
0.0
 10
6.1527521755
 20
3.9586533493
 30
0.0
 10
6.1533567483
 20
3.9602961004
 30
0.0
 10
6.1541407151
 20
3.9618034116
 30
0.0
 10
6.1547848008
 20
3.9627182532
 30
0.0
 10
6.1551331504
 20
3.9631472839
 30
0.0
 11
6.2063499413
 21
3.8765108279
 31
0.0
 11
6.1992690237
 21
3.8827021373
 31
0.0
 11
6.1924746026
 21
3.8890600608
 31
0.0
 11
6.1860397653
 21
3.8955178592
 31
0.0
 11
6.1800285453
 21
3.9020129015
 31
0.0
 11
6.1744909433
 21
3.908488923
 31
0.0
 11
6.1694753194
 21
3.9148901572
 31
0.0
 11
6.1650249954
 21
3.9211602557
 31
0.0
 11
6.1630243464
 21
3.9242284033
 31
0.0
 11
6.1611800423
 21
3.927242495
 31
0.0
 11
6.1594967372
 21
3.9301955712
 31
0.0
 11
6.1579776936
 21
3.9330812
 31
0.0
 11
6.1566258261
 21
3.9358930812
 31
0.0
 11
6.1554440493
 21
3.9386249148
 31
0.0
 11
6.1544352778
 21
3.9412704004
 31
0.0
 11
6.1536023313
 21
3.9438233007
 31
0.0
 11
6.1529469249
 21
3.9462781084
 31
0.0
 11
6.1524700614
 21
3.9486297869
 31
0.0
 11
6.1521727317
 21
3.9508733075
 31
0.0
 11
6.1520559267
 21
3.9530036416
 31
0.0
 11
6.1521206205
 21
3.9550157653
 31
0.0
 11
6.1523667847
 21
3.9569049504
 31
0.0
 11
6.1527928362
 21
3.9586669262
 31
0.0
 11
6.1533970587
 21
3.9602974612
 31
0.0
 11
6.1541777357
 21
3.9617923242
 31
0.0
 11
6.1551331504
 21
3.9631472839
 31
0.0
  0
SPLINE
  5
49D
100
AcDbEntity
  8
0
100
AcDbSpline
 62
9
  6
CONTINUOUS
 70
0
 71
3
 72
49
 73
45
 74
43
 42
0.0000001
 43
0.0000001
 44
0.0000000001
 12
0.1127893446
 22
-0.0051967283
 32
0.0
 13
0.0926163245
 23
0.064580637
 33
0.0
 40
0.0
 40
0.0
 40
0.0
 40
0.0
 40
0.0000463046
 40
0.000153217
 40
0.0003200556
 40
0.0005461027
 40
0.0008306352
 40
0.0011729289
 40
0.0020279008
 40
0.0031052274
 40
0.0043991238
 40
0.0059038151
 40
0.0076135363
 40
0.0116250552
 40
0.0163878029
 40
0.0218573102
 40
0.0279997451
 40
0.0347867148
 40
0.042189931
 40
0.0501811794
 40
0.0587323301
 40
0.07740217
 40
0.0979993551
 40
0.1203994068
 40
0.1444934263
 40
0.1701729087
 40
0.1973321201
 40
0.225898907
 40
0.2558265829
 40
0.3195806372
 40
0.3882617372
 40
0.4617084534
 40
0.5001897394
 40
0.5398294122
 40
0.5806260596
 40
0.6225811426
 40
0.6656971944
 40
0.7099775882
 40
0.7554247195
 40
0.8020420658
 40
0.8498359012
 40
0.8987990995
 40
0.9488743582
 40
1.0
 40
1.0
 40
1.0
 40
1.0
 10
6.0583517952
 20
3.7836732236
 30
0.0
 10
6.0583535361
 20
3.7836731433
 30
0.0
 10
6.0583592757
 20
3.7836740879
 30
0.0
 10
6.0583712074
 20
3.7836754481
 30
0.0
 10
6.0583898283
 20
3.7836782663
 30
0.0
 10
6.0584150373
 20
3.7836820148
 30
0.0
 10
6.0584467567
 20
3.7836869616
 30
0.0
 10
6.0585018343
 20
3.7836957082
 30
0.0
 10
6.0585863148
 20
3.7837095622
 30
0.0
 10
6.058706039
 20
3.7837297968
 30
0.0
 10
6.0588497599
 20
3.7837547786
 30
0.0
 10
6.059016799
 20
3.7837845799
 30
0.0
 10
6.0592843169
 20
3.7838335241
 30
0.0
 10
6.0596719598
 20
3.7839072114
 30
0.0
 10
6.0601977143
 20
3.7840119757
 30
0.0
 10
6.0608009765
 20
3.7841380328
 30
0.0
 10
6.0614775597
 20
3.7842855373
 30
0.0
 10
6.0622239111
 20
3.7844545703
 30
0.0
 10
6.0630366672
 20
3.7846453022
 30
0.0
 10
6.0639124708
 20
3.7848578842
 30
0.0
 10
6.0651979404
 20
3.785180233
 30
0.0
 10
6.0669384136
 20
3.7856384498
 30
0.0
 10
6.0691735204
 20
3.7862640461
 30
0.0
 10
6.0715952989
 20
3.7869791456
 30
0.0
 10
6.0741898834
 20
3.7877835772
 30
0.0
 10
6.0769440891
 20
3.788677191
 30
0.0
 10
6.079845909
 20
3.7896604752
 30
0.0
 10
6.0828858316
 20
3.7907336031
 30
0.0
 10
6.0872054431
 20
3.7923181887
 30
0.0
 10
6.0929035132
 20
3.7945274461
 30
0.0
 10
6.1000617001
 20
3.797495936
 30
0.0
 10
6.1062791004
 20
3.8002452297
 30
0.0
 10
6.1114558713
 20
3.8026416774
 30
0.0
 10
6.1154952486
 20
3.8045692722
 30
0.0
 10
6.1196283412
 20
3.8066032784
 30
0.0
 10
6.1238524843
 20
3.8087477822
 30
0.0
 10
6.128164993
 20
3.8110070046
 30
0.0
 10
6.1325633568
 20
3.813384679
 30
0.0
 10
6.1370432894
 20
3.815887586
 30
0.0
 10
6.1415996952
 20
3.818523586
 30
0.0
 10
6.1462271023
 20
3.8212998032
 30
0.0
 10
6.1509176167
 20
3.8242224021
 30
0.0
 10
6.1556567981
 20
3.8273021863
 30
0.0
 10
6.1588062174
 20
3.8294448953
 30
0.0
 10
6.1603845737
 20
3.8305454708
 30
0.0
 11
6.0583517952
 21
3.7836732236
 31
0.0
 11
6.0583570028
 21
3.7836736875
 31
0.0
 11
6.0583689724
 21
3.7836752514
 31
0.0
 11
6.0583876193
 21
3.783677925
 31
0.0
 11
6.0584128586
 21
3.7836817179
 31
0.0
 11
6.0584446057
 21
3.7836866398
 31
0.0
 11
6.0584827755
 21
3.7836927004
 31
0.0
 11
6.0585780447
 21
3.7837082765
 31
0.0
 11
6.0586979876
 21
3.7837285234
 31
0.0
 11
6.0588419261
 21
3.7837535186
 31
0.0
 11
6.0590091816
 21
3.7837833395
 31
0.0
 11
6.0591990758
 21
3.7838180634
 31
0.0
 11
6.0596440667
 21
3.7839025302
 31
0.0
 11
6.0601714717
 21
3.7840075382
 31
0.0
 11
6.0607760096
 21
3.7841336735
 31
0.0
 11
6.0614536659
 21
3.7842812349
 31
0.0
 11
6.0622010768
 21
3.7844503734
 31
0.0
 11
6.0630148839
 21
3.7846412391
 31
0.0
 11
6.0638917286
 21
3.7848539819
 31
0.0
 11
6.0648282525
 21
3.7850887517
 31
0.0
 11
6.0668669045
 21
3.7856249721
 31
0.0
 11
6.0691067162
 21
3.7862508268
 31
0.0
 11
6.0715325598
 21
3.7869663479
 31
0.0
 11
6.0741311488
 21
3.7877713845
 31
0.0
 11
6.0768891963
 21
3.7886657855
 31
0.0
 11
6.0797936738
 21
3.7896494276
 31
0.0
 11
6.0828353535
 21
3.7907225982
 31
0.0
 11
6.0860079044
 21
3.7918858969
 31
0.0
 11
6.0927205871
 21
3.79448531
 31
0.0
 11
6.0998845969
 21
3.7974539051
 31
0.0
 11
6.1074697702
 21
3.8008058596
 31
0.0
 11
6.1114127625
 21
3.8026309143
 31
0.0
 11
6.115452073
 21
3.8045585151
 31
0.0
 11
6.1195850117
 21
3.8065924514
 31
0.0
 11
6.1238089551
 21
3.8087368579
 31
0.0
 11
6.12812128
 21
3.8109958691
 31
0.0
 11
6.1325192205
 21
3.8133738239
 31
0.0
 11
6.1369985882
 21
3.8158771077
 31
0.0
 11
6.1415543753
 21
3.8185132839
 31
0.0
 11
6.1461815636
 21
3.8212899304
 31
0.0
 11
6.1508727802
 21
3.8242149153
 31
0.0
 11
6.155612757
 21
3.8272970803
 31
0.0
 11
6.1603845737
 21
3.8305454708
 31
0.0
  0
SPLINE
  5
49E
100
AcDbEntity
  8
0
100
AcDbSpline
 62
9
  6
CONTINUOUS
 70
0
 71
3
 72
50
 73
46
 74
44
 42
0.0000001
 43
0.0000001
 44
0.0000000001
 12
0.112728439
 22
0.0063874868
 32
0.0
 13
0.0926135681
 23
-0.0645850442
 33
0.0
 40
0.0
 40
0.0
 40
0.0
 40
0.0
 40
0.0000470516
 40
0.0001545509
 40
0.0003218363
 40
0.0005482026
 40
0.0008329383
 40
0.0011753301
 40
0.0020302272
 40
0.0031071889
 40
0.0044005162
 40
0.005904519
 40
0.0076135171
 40
0.0095218413
 40
0.0116238335
 40
0.0163862392
 40
0.0218563469
 40
0.0279990005
 40
0.0347860327
 40
0.0421895075
 40
0.050181559
 40
0.058734403
 40
0.0774116603
 40
0.0980151599
 40
0.1204149694
 40
0.1445064391
 40
0.1701852588
 40
0.1973480965
 40
0.2259156757
 40
0.2558416877
 40
0.3195936451
 40
0.3882777276
 40
0.4617228717
 40
0.500203523
 40
0.5398429225
 40
0.5806387778
 40
0.6225925887
 40
0.6657069637
 40
0.7099854565
 40
0.7554307147
 40
0.8020461205
 40
0.8498378519
 40
0.8987996935
 40
0.9488745553
 40
1.0
 40
1.0
 40
1.0
 40
1.0
 10
6.058351478
 20
4.8454473856
 30
0.0
 10
6.058353246
 20
4.8454474858
 30
0.0
 10
6.0583590427
 20
4.8454465546
 30
0.0
 10
6.0583710411
 20
4.8454452152
 30
0.0
 10
6.058389718
 20
4.8454424154
 30
0.0
 10
6.0584149661
 20
4.8454386861
 30
0.0
 10
6.0584467123
 20
4.8454337579
 30
0.0
 10
6.0585018029
 20
4.8454250385
 30
0.0
 10
6.0585862756
 20
4.8454112146
 30
0.0
 10
6.058705967
 20
4.8453910123
 30
0.0
 10
6.0588496319
 20
4.8453660629
 30
0.0
 10
6.0590166016
 20
4.8453362948
 30
0.0
 10
6.0592062075
 20
4.845301628
 30
0.0
 10
6.0594177811
 20
4.8452619871
 30
0.0
 10
6.0597420377
 20
4.8451997534
 30
0.0
 10
6.0601973365
 20
4.8451091116
 30
0.0
 10
6.0608006488
 20
4.8449832003
 30
0.0
 10
6.0614772837
 20
4.8448357688
 30
0.0
 10
6.06222367
 20
4.8446667899
 30
0.0
 10
6.0630364789
 20
4.8444760888
 30
0.0
 10
6.0639123959
 20
4.8442635258
 30
0.0
 10
6.0651982486
 20
4.8439411587
 30
0.0
 10
6.0669393552
 20
4.8434830533
 30
0.0
 10
6.0691750131
 20
4.8428575153
 30
0.0
 10
6.0715968552
 20
4.8421421375
 30
0.0
 10
6.07419121
 20
4.8413373827
 30
0.0
 10
6.0769453223
 20
4.8404434121
 30
0.0
 10
6.0798472575
 20
4.8394600084
 30
0.0
 10
6.0828872628
 20
4.8383867805
 30
0.0
 10
6.0872067554
 20
4.8368021645
 30
0.0
 10
6.0929047794
 20
4.8345928326
 30
0.0
 10
6.1000630064
 20
4.8316244652
 30
0.0
 10
6.1062805119
 20
4.828875294
 30
0.0
 10
6.1114571575
 20
4.8264787649
 30
0.0
 10
6.1154964259
 20
4.8245510672
 30
0.0
 10
6.1196294427
 20
4.8225170831
 30
0.0
 10
6.1238534567
 20
4.8203726115
 30
0.0
 10
6.128165763
 20
4.8181133703
 30
0.0
 10
6.1325638376
 20
4.8157355686
 30
0.0
 10
6.1370435825
 20
4.8132327447
 30
0.0
 10
6.1415998435
 20
4.8105969153
 30
0.0
 10
6.1462271369
 20
4.8078208803
 30
0.0
 10
6.1509176368
 20
4.8048985092
 30
0.0
 10
6.1556568647
 20
4.8018189063
 30
0.0
 10
6.1588062532
 20
4.7996761725
 30
0.0
 10
6.1603845565
 20
4.7985755262
 30
0.0
 11
6.058351478
 21
4.8454473856
 31
0.0
 11
6.0583567723
 21
4.8454469455
 31
0.0
 11
6.0583688116
 21
4.8454454041
 31
0.0
 11
6.0583875126
 21
4.8454427518
 31
0.0
 11
6.0584127915
 21
4.8454389792
 31
0.0
 11
6.0584445648
 21
4.8454340767
 31
0.0
 11
6.0584827489
 21
4.8454280347
 31
0.0
 11
6.0585780155
 21
4.8454124943
 31
0.0
 11
6.0586979228
 21
4.8453922815
 31
0.0
 11
6.0588418022
 21
4.8453673202
 31
0.0
 11
6.0590089853
 21
4.845337534
 31
0.0
 11
6.0591988037
 21
4.8453028465
 31
0.0
 11
6.0594105887
 21
4.8452631814
 31
0.0
 11
6.059643672
 21
4.8452184625
 31
0.0
 11
6.0601710594
 21
4.8451135575
 31
0.0
 11
6.0607756921
 21
4.844987538
 31
0.0
 11
6.0614533941
 21
4.8448400628
 31
0.0
 11
6.0622008274
 21
4.8446709832
 31
0.0
 11
6.0630146753
 21
4.8444801555
 31
0.0
 11
6.0638916211
 21
4.8442674358
 31
0.0
 11
6.064828348
 21
4.8440326805
 31
0.0
 11
6.0668678783
 21
4.8434964878
 31
0.0
 11
6.0691084247
 21
4.8428705934
 31
0.0
 11
6.0715341954
 21
4.842154901
 31
0.0
 11
6.0741324108
 21
4.8413496102
 31
0.0
 11
6.076890293
 21
4.8404549206
 31
0.0
 11
6.079795124
 21
4.8394710238
 31
0.0
 11
6.0828368728
 21
4.838397758
 31
0.0
 11
6.0860092361
 21
4.8372344705
 31
0.0
 11
6.0927216894
 21
4.8346350751
 31
0.0
 11
6.0998860634
 21
4.8316664323
 31
0.0
 11
6.1074711311
 21
4.8283146309
 31
0.0
 11
6.1114140337
 21
4.8264895291
 31
0.0
 11
6.1154532773
 21
4.824561836
 31
0.0
 11
6.1195861284
 21
4.8225279001
 31
0.0
 11
6.1238099354
 21
4.820383518
 31
0.0
 11
6.1281220473
 21
4.8181244842
 31
0.0
 11
6.1325197194
 21
4.8157464601
 31
0.0
 11
6.1369988914
 21
4.8132432354
 31
0.0
 11
6.1415545306
 21
4.8106072169
 31
0.0
 11
6.1461815816
 21
4.807830779
 31
0.0
 11
6.1508727686
 21
4.8049060123
 31
0.0
 11
6.1556127958
 21
4.8018239831
 31
0.0
 11
6.1603845565
 21
4.7985755262
 31
0.0
  0
SPLINE
  5
49F
100
AcDbEntity
  8
0
100
AcDbSpline
 62
9
  6
CONTINUOUS
 70
0
 71
3
 72
32
 73
28
 74
26
 42
0.0000001
 43
0.0000001
 44
0.0000000001
 12
-0.0672205373
 22
0.0827844521
 32
0.0
 13
0.081442184
 23
0.0688406625
 33
0.0
 40
0.0
 40
0.0
 40
0.0
 40
0.0
 40
0.015546931
 40
0.0313611284
 40
0.0476671133
 40
0.0646657287
 40
0.0825307826
 40
0.1014086361
 40
0.1214152205
 40
0.1426371238
 40
0.1651381113
 40
0.1889636945
 40
0.2141448171
 40
0.2406945033
 40
0.2686058025
 40
0.2978625653
 40
0.3284421478
 40
0.3603168481
 40
0.3934522604
 40
0.427799447
 40
0.4999008488
 40
0.5761589245
 40
0.6560613137
 40
0.7390497696
 40
0.8245383814
 40
0.911797
 40
1.0
 40
1.0
 40
1.0
 40
1.0
 10
6.1551345026
 20
4.6659747914
 30
0.0
 10
6.1547861449
 20
4.6664038061
 30
0.0
 10
6.1541420414
 20
4.6673186146
 30
0.0
 10
6.1533580429
 20
4.6688258776
 30
0.0
 10
6.1527534352
 20
4.6704685796
 30
0.0
 10
6.1523295505
 20
4.6722413357
 30
0.0
 10
6.1520871787
 20
4.6741395897
 30
0.0
 10
6.1520276039
 20
4.6761587929
 30
0.0
 10
6.1521499517
 20
4.6782942085
 30
0.0
 10
6.1524526239
 20
4.6805412226
 30
0.0
 10
6.1529344737
 20
4.6828951519
 30
0.0
 10
6.1535943686
 20
4.6853512698
 30
0.0
 10
6.1544313159
 20
4.6879045291
 30
0.0
 10
6.1554435503
 20
4.690549436
 30
0.0
 10
6.1566281661
 20
4.6932802818
 30
0.0
 10
6.1579823734
 20
4.6960909038
 30
0.0
 10
6.1595033044
 20
4.6989750997
 30
0.0
 10
6.1611880684
 20
4.7019265391
 30
0.0
 10
6.1630334351
 20
4.7049385012
 30
0.0
 10
6.1657459462
 20
4.7090937726
 30
0.0
 10
6.1695147406
 20
4.7143866621
 30
0.0
 10
6.1745277366
 20
4.7207699551
 30
0.0
 10
6.1800596836
 20
4.7272277116
 30
0.0
 10
6.1860618308
 20
4.7337055043
 30
0.0
 10
6.192482827
 20
4.7401431323
 30
0.0
 10
6.19925889
 20
4.746480113
 30
0.0
 10
6.2039554705
 20
4.7505861558
 30
0.0
 10
6.2063499521
 20
4.7526101402
 30
0.0
 11
6.1551345026
 21
4.6659747914
 31
0.0
 11
6.1541790601
 21
4.6673297047
 31
0.0
 11
6.1533983523
 21
4.6688245197
 31
0.0
 11
6.1527940956
 21
4.6704550056
 31
0.0
 11
6.1523680068
 21
4.6722169313
 31
0.0
 11
6.1521218024
 21
4.674106066
 31
0.0
 11
6.1520570655
 21
4.6761181394
 31
0.0
 11
6.1521738247
 21
4.6782484232
 31
0.0
 11
6.1524711063
 21
4.6804918941
 31
0.0
 11
6.1529479197
 21
4.6828435237
 31
0.0
 11
6.1536032746
 21
4.6852982834
 31
0.0
 11
6.1544361685
 21
4.6878511372
 31
0.0
 11
6.1554448865
 21
4.6904965777
 31
0.0
 11
6.1566266094
 21
4.6932283677
 31
0.0
 11
6.157978423
 21
4.6960402073
 31
0.0
 11
6.159497413
 21
4.6989257964
 31
0.0
 11
6.1611806653
 21
4.7018788352
 31
0.0
 11
6.1630249177
 21
4.7048928918
 31
0.0
 11
6.1650255161
 21
4.7079610066
 31
0.0
 11
6.1694757439
 21
4.7142310461
 31
0.0
 11
6.1744912793
 21
4.7206322296
 31
0.0
 11
6.1800288016
 21
4.7271082079
 31
0.0
 11
6.1860399504
 21
4.7336032126
 31
0.0
 11
6.1924747244
 21
4.7400609773
 31
0.0
 11
6.1992690881
 21
4.7464188674
 31
0.0
 11
6.2063499521
 21
4.7526101402
 31
0.0
  0
SPLINE
  5
4A0
100
AcDbEntity
  8
0
100
AcDbSpline
 62
9
  6
CONTINUOUS
 70
0
 71
3
 72
49
 73
45
 74
43
 42
0.0000001
 43
0.0000001
 44
0.0000000001
 12
0.0646099541
 22
-0.0925944806
 32
0.0
 13
-0.0055330153
 23
-0.1127722029
 33
0.0
 40
0.0
 40
0.0
 40
0.0
 40
0.0
 40
0.0511251502
 40
0.1011993271
 40
0.1501590077
 40
0.1979480309
 40
0.2445618765
 40
0.2900062906
 40
0.3342843289
 40
0.3773987971
 40
0.4193532361
 40
0.4601501228
 40
0.4997907297
 40
0.5382718448
 40
0.6117172135
 40
0.6804044038
 40
0.7441552053
 40
0.7740811106
 40
0.8026512707
 40
0.8298186944
 40
0.8554990245
 40
0.8795904265
 40
0.9019905267
 40
0.9225964537
 40
0.9412726156
 40
0.9498231942
 40
0.9578126393
 40
0.9652137751
 40
0.9719993493
 40
0.978142044
 40
0.9836140295
 40
0.9883785091
 40
0.9923904519
 40
0.9941000077
 40
0.9956043436
 40
0.9968977416
 40
0.9979744738
 40
0.9988288031
 40
0.9991707723
 40
0.9994549865
 40
0.9996807274
 40
0.9998472781
 40
0.9999539272
 40
1.0
 40
1.0
 40
1.0
 40
1.0
 10
6.2063499521
 20
4.7526101402
 30
0.0
 10
6.2074510167
 20
4.7510321712
 30
0.0
 10
6.2095939662
 20
4.7478830181
 30
0.0
 10
6.2126728018
 20
4.7431435119
 30
0.0
 10
6.2155942671
 20
4.7384527781
 30
0.0
 10
6.2183699873
 20
4.7338256601
 30
0.0
 10
6.2210058045
 20
4.7292696911
 30
0.0
 10
6.2235088847
 20
4.7247902874
 30
0.0
 10
6.2258871247
 20
4.7203925713
 30
0.0
 10
6.2281465045
 20
4.716080393
 30
0.0
 10
6.2302909746
 20
4.7118563697
 30
0.0
 10
6.2323248993
 20
4.7077232673
 30
0.0
 10
6.23425264
 20
4.7036839687
 30
0.0
 10
6.2366491407
 20
4.6985073088
 30
0.0
 10
6.2393981616
 20
4.6922896732
 30
0.0
 10
6.2423666226
 20
4.6851315049
 30
0.0
 10
6.2445762879
 20
4.6794336169
 30
0.0
 10
6.2461609898
 20
4.6751141631
 30
0.0
 10
6.2472342228
 20
4.6720739194
 30
0.0
 10
6.2482174852
 20
4.6691716314
 30
0.0
 10
6.2491113217
 20
4.6664172748
 30
0.0
 10
6.2499158571
 20
4.6638228191
 30
0.0
 10
6.2506310255
 20
4.661400843
 30
0.0
 10
6.2512562069
 20
4.6591650522
 30
0.0
 10
6.2517142657
 20
4.6574239948
 30
0.0
 10
6.2520367129
 20
4.6561384108
 30
0.0
 10
6.2522493461
 20
4.6552628017
 30
0.0
 10
6.2524401426
 20
4.6544502736
 30
0.0
 10
6.2526092315
 20
4.6537040669
 30
0.0
 10
6.252756785
 20
4.6530274495
 30
0.0
 10
6.2528827813
 20
4.652424009
 30
0.0
 10
6.2529875965
 20
4.6518980928
 30
0.0
 10
6.2530613844
 20
4.651510397
 30
0.0
 10
6.2531104239
 20
4.6512429031
 30
0.0
 10
6.2531402922
 20
4.6510759167
 30
0.0
 10
6.2531653393
 20
4.650932264
 30
0.0
 10
6.2531856339
 20
4.6508126175
 30
0.0
 10
6.2531995342
 20
4.650728205
 30
0.0
 10
6.2532083118
 20
4.650673182
 30
0.0
 10
6.2532132766
 20
4.6506415018
 30
0.0
 10
6.2532170372
 20
4.6506163299
 30
0.0
 10
6.2532198682
 20
4.6505977429
 30
0.0
 10
6.2532212259
 20
4.6505858422
 30
0.0
 10
6.2532221793
 20
4.6505801207
 30
0.0
 10
6.2532220943
 20
4.6505783888
 30
0.0
 11
6.2063499521
 21
4.7526101402
 31
0.0
 11
6.2095988725
 21
4.747838822
 31
0.0
 11
6.2126803114
 21
4.7430985871
 31
0.0
 11
6.2156042722
 21
4.7384072662
 31
0.0
 11
6.2183803127
 21
4.7337804116
 31
0.0
 11
6.2210163222
 21
4.7292250463
 31
0.0
 11
6.2235197995
 21
4.7247461977
 31
0.0
 11
6.2258981785
 21
4.7203488465
 31
0.0
 11
6.2281573748
 21
4.7160368762
 31
0.0
 11
6.230301771
 21
4.7118130629
 31
0.0
 11
6.2323356818
 21
4.7076801335
 31
0.0
 11
6.2342634082
 21
4.7036408163
 31
0.0
 11
6.2360884844
 21
4.6996979038
 31
0.0
 11
6.2394401351
 21
4.6921128543
 31
0.0
 11
6.2424089828
 21
4.6849482898
 31
0.0
 11
6.2450085865
 21
4.6782361531
 31
0.0
 11
6.2461719101
 21
4.6750638606
 31
0.0
 11
6.2472451813
 21
4.6720218472
 31
0.0
 11
6.24822903
 21
4.6691164935
 31
0.0
 11
6.2491235542
 21
4.6663584161
 31
0.0
 11
6.2499286082
 21
4.6637601709
 31
0.0
 11
6.2506440454
 21
4.6613343235
 31
0.0
 11
6.2512697211
 21
4.6590934614
 31
0.0
 11
6.2518058498
 21
4.6570540693
 31
0.0
 11
6.2520406363
 21
4.6561176263
 31
0.0
 11
6.2522534189
 21
4.6552410101
 31
0.0
 11
6.2524443335
 21
4.6544274645
 31
0.0
 11
6.252613516
 21
4.653680233
 31
0.0
 11
6.2527611024
 21
4.6530025593
 31
0.0
 11
6.2528872404
 21
4.6523977426
 31
0.0
 11
6.2529923061
 21
4.6518701553
 31
0.0
 11
6.2530768822
 21
4.6514251411
 31
0.0
 11
6.2531116711
 21
4.6512352797
 31
0.0
 11
6.2531415589
 21
4.6510680786
 31
0.0
 11
6.2531666194
 21
4.6509242102
 31
0.0
 11
6.2531869264
 21
4.6508043467
 31
0.0
 11
6.2532025536
 21
4.6507091605
 31
0.0
 11
6.2532086353
 21
4.6506710314
 31
0.0
 11
6.2532135748
 21
4.6506393238
 31
0.0
 11
6.2532173812
 21
4.6506141218
 31
0.0
 11
6.2532200638
 21
4.6505955092
 31
0.0
 11
6.2532216317
 21
4.6505835702
 31
0.0
 11
6.2532220943
 21
4.6505783888
 31
0.0
  0
SPLINE
  5
4A1
100
AcDbEntity
  8
0
100
AcDbSpline
 62
9
  6
CONTINUOUS
 70
0
 71
3
 72
32
 73
28
 74
26
 42
0.0000001
 43
0.0000001
 44
0.0000000001
 12
-0.0827867354
 22
0.0672194338
 32
0.0
 13
-0.0688410974
 23
-0.0814432265
 33
0.0
 40
0.0
 40
0.0
 40
0.0
 40
0.0
 40
0.015547058
 40
0.0313614086
 40
0.047667568
 40
0.0646663735
 40
0.0825316273
 40
0.101409685
 40
0.1214164735
 40
0.142638576
 40
0.1651397542
 40
0.1889655158
 40
0.2141468011
 40
0.2406966319
 40
0.2686080555
 40
0.2978649204
 40
0.3284445804
 40
0.3603193315
 40
0.3934547666
 40
0.4278019479
 40
0.4999032557
 40
0.5761611258
 40
0.6560632048
 40
0.7390512618
 40
0.8245394039
 40
0.9117975131
 40
1.0
 40
1.0
 40
1.0
 40
1.0
 10
5.3709212712
 20
3.8817617336
 30
0.0
 10
5.3704922411
 20
3.8821100884
 30
0.0
 10
5.3695774016
 20
3.8827541848
 30
0.0
 10
5.3680700936
 20
3.8835381689
 30
0.0
 10
5.366427347
 20
3.8841427595
 30
0.0
 10
5.3646545467
 20
3.8845666245
 30
0.0
 10
5.3627562492
 20
3.8848089741
 30
0.0
 10
5.3607370033
 20
3.8848685243
 30
0.0
 10
5.358601546
 20
3.8847461496
 30
0.0
 10
5.3563544914
 20
3.8844434484
 30
0.0
 10
5.354000523
 20
3.8839615679
 30
0.0
 10
5.3515443677
 20
3.8833016406
 30
0.0
 10
5.3489910728
 20
3.8824646598
 30
0.0
 10
5.3463461321
 20
3.8814523906
 30
0.0
 10
5.3436152546
 20
3.8802677392
 30
0.0
 10
5.340804603
 20
3.8789134958
 30
0.0
 10
5.3379203799
 20
3.8773925284
 30
0.0
 10
5.3349689155
 20
3.875707728
 30
0.0
 10
5.331956931
 20
3.8738623251
 30
0.0
 10
5.3278016339
 20
3.8711497666
 30
0.0
 10
5.3225087183
 20
3.8673809145
 30
0.0
 10
5.3161254008
 20
3.8623678521
 30
0.0
 10
5.3096676276
 20
3.8568358427
 30
0.0
 10
5.3031898244
 20
3.8508336373
 30
0.0
 10
5.2967521903
 20
3.8444125867
 30
0.0
 10
5.2904152056
 20
3.8376364717
 30
0.0
 10
5.2863091608
 20
3.8329398576
 30
0.0
 10
5.2842851755
 20
3.8305453593
 30
0.0
 11
5.3709212712
 21
3.8817617336
 31
0.0
 11
5.369566313
 21
3.882717165
 31
0.0
 11
5.3680714531
 21
3.883497859
 31
0.0
 11
5.3664409224
 21
3.8841020989
 31
0.0
 11
5.3646789523
 21
3.8845281683
 31
0.0
 11
5.3627897738
 21
3.8847743506
 31
0.0
 11
5.3607776576
 21
3.8848390631
 31
0.0
 11
5.3586473318
 21
3.884722277
 31
0.0
 11
5.3564038202
 21
3.8844249665
 31
0.0
 11
5.3540521515
 21
3.8839481222
 31
0.0
 11
5.3515973541
 21
3.8832927349
 31
0.0
 11
5.3490444646
 21
3.8824598074
 31
0.0
 11
5.3463989903
 21
3.8814510546
 31
0.0
 11
5.3436671684
 21
3.880269296
 31
0.0
 11
5.3408552992
 21
3.8789174463
 31
0.0
 11
5.3379696827
 21
3.8773984198
 31
0.0
 11
5.3350166189
 21
3.875715131
 31
0.0
 11
5.3320025399
 21
3.8738708425
 31
0.0
 11
5.3289344049
 21
3.8718702081
 31
0.0
 11
5.3226643322
 21
3.8674199104
 31
0.0
 11
5.3162631243
 21
3.8624043085
 31
0.0
 11
5.3097871296
 21
3.8568667239
 31
0.0
 11
5.3032921148
 21
3.8508555171
 31
0.0
 11
5.2968343446
 21
3.8444206892
 31
0.0
 11
5.2904764513
 21
3.8376262741
 31
0.0
 11
5.2842851755
 21
3.8305453593
 31
0.0
  0
SPLINE
  5
4A2
100
AcDbEntity
  8
0
100
AcDbSpline
 62
9
  6
CONTINUOUS
 70
0
 71
3
 72
11
 73
7
 74
5
 42
0.0000001
 43
0.0000001
 44
0.0000000001
 12
-0.0268141421
 22
0.0187013037
 32
0.0
 13
-0.0231165918
 23
0.0231162316
 33
0.0
 40
0.0
 40
0.0
 40
0.0
 40
0.0
 40
0.2430795706
 40
0.4917333925
 40
0.7446625765
 40
1.0
 40
1.0
 40
1.0
 40
1.0
 10
5.2842851755
 20
3.8305453593
 30
0.0
 10
5.2821125188
 20
3.8320606609
 30
0.0
 10
5.2777668581
 20
3.8351978449
 30
0.0
 10
5.2713677766
 20
3.8401914548
 30
0.0
 10
5.2650920102
 20
3.8455484047
 30
0.0
 10
5.2610645892
 20
3.8493552633
 30
0.0
 10
5.2590970789
 20
3.851322743
 30
0.0
 11
5.2842851755
 21
3.8305453593
 31
0.0
 11
5.27784546
 21
3.8352014575
 31
0.0
 11
5.2714417524
 21
3.8402085695
 31
0.0
 11
5.2651582138
 21
3.8455832916
 31
0.0
 11
5.2590970789
 21
3.851322743
 31
0.0
  0
SPLINE
  5
4A3
100
AcDbEntity
  8
0
100
AcDbSpline
 62
9
  6
CONTINUOUS
 70
0
 71
3
 72
11
 73
7
 74
5
 42
0.0000001
 43
0.0000001
 44
0.0000000001
 12
-0.0231163612
 22
0.0231164645
 32
0.0
 13
-0.0187015553
 23
0.0268139686
 33
0.0
 40
0.0
 40
0.0
 40
0.0
 40
0.0
 40
0.2553373908
 40
0.5082665661
 40
0.7569203883
 40
1.0
 40
1.0
 40
1.0
 40
1.0
 10
5.2590970789
 20
3.851322743
 30
0.0
 10
5.2571295884
 20
3.8532902422
 30
0.0
 10
5.2533227578
 20
3.8573176902
 30
0.0
 10
5.2479657838
 20
3.8635934338
 30
0.0
 10
5.2429721559
 20
3.8699925045
 30
0.0
 10
5.2398350165
 20
3.8743381974
 30
0.0
 10
5.2383196942
 20
3.8765108404
 30
0.0
 11
5.2590970789
 21
3.851322743
 31
0.0
 11
5.2533576339
 21
3.857383883
 31
0.0
 11
5.2479828995
 21
3.8636674113
 31
0.0
 11
5.2429757831
 21
3.870071116
 31
0.0
 11
5.2383196942
 21
3.8765108404
 31
0.0
  0
SPLINE
  5
4A4
100
AcDbEntity
  8
0
100
AcDbSpline
 62
9
  6
CONTINUOUS
 70
0
 71
3
 72
32
 73
28
 74
26
 42
0.0000001
 43
0.0000001
 44
0.0000000001
 12
0.0672194341
 22
0.0827867352
 32
0.0
 13
-0.0814432262
 23
0.0688410978
 33
0.0
 40
0.0
 40
0.0
 40
0.0
 40
0.0
 40
0.0155470576
 40
0.0313614078
 40
0.0476675669
 40
0.0646663722
 40
0.0825316259
 40
0.1014096835
 40
0.1214164719
 40
0.1426385745
 40
0.1651397527
 40
0.1889655143
 40
0.2141467996
 40
0.2406966305
 40
0.2686080542
 40
0.2978649191
 40
0.3284445792
 40
0.3603193303
 40
0.3934547654
 40
0.4278019469
 40
0.4999032548
 40
0.576161125
 40
0.6560632041
 40
0.7390512613
 40
0.8245394036
 40
0.9117975129
 40
1.0
 40
1.0
 40
1.0
 40
1.0
 10
5.2895360696
 20
4.6659740424
 30
0.0
 10
5.2898844244
 20
4.6664030724
 30
0.0
 10
5.2905285208
 20
4.6673179119
 30
0.0
 10
5.2913125049
 20
4.6688252198
 30
0.0
 10
5.2919170955
 20
4.6704679664
 30
0.0
 10
5.2923409605
 20
4.6722407667
 30
0.0
 10
5.2925833101
 20
4.6741390642
 30
0.0
 10
5.2926428603
 20
4.6761583101
 30
0.0
 10
5.2925204855
 20
4.6782937674
 30
0.0
 10
5.2922177844
 20
4.680540822
 30
0.0
 10
5.2917359039
 20
4.6828947904
 30
0.0
 10
5.2910759766
 20
4.6853509457
 30
0.0
 10
5.2902389957
 20
4.6879042406
 30
0.0
 10
5.2892267266
 20
4.6905491814
 30
0.0
 10
5.2880420752
 20
4.6932800588
 30
0.0
 10
5.2866878317
 20
4.6960907104
 30
0.0
 10
5.2851668643
 20
4.6989749336
 30
0.0
 10
5.283482064
 20
4.7019263979
 30
0.0
 10
5.281636661
 20
4.7049383825
 30
0.0
 10
5.2789241025
 20
4.7090936796
 30
0.0
 10
5.2751552504
 20
4.7143865952
 30
0.0
 10
5.2701421881
 20
4.7207699127
 30
0.0
 10
5.2646101787
 20
4.727227686
 30
0.0
 10
5.2586079732
 20
4.7337054891
 30
0.0
 10
5.2521869226
 20
4.7401431233
 30
0.0
 10
5.2454108077
 20
4.746480108
 30
0.0
 10
5.2407141936
 20
4.7505861528
 30
0.0
 10
5.2383196952
 20
4.7526101382
 30
0.0
 11
5.2895360696
 21
4.6659740424
 31
0.0
 11
5.290491501
 21
4.6673290005
 31
0.0
 11
5.2912721949
 21
4.6688238604
 31
0.0
 11
5.2918764349
 21
4.670454391
 31
0.0
 11
5.2923025043
 21
4.6722163611
 31
0.0
 11
5.2925486866
 21
4.6741055396
 31
0.0
 11
5.292613399
 21
4.6761176558
 31
0.0
 11
5.292496613
 21
4.6782479816
 31
0.0
 11
5.2921993024
 21
4.6804914931
 31
0.0
 11
5.2917224581
 21
4.6828431619
 31
0.0
 11
5.2910670709
 21
4.6852979593
 31
0.0
 11
5.2902341433
 21
4.6878508488
 31
0.0
 11
5.2892253905
 21
4.6904963231
 31
0.0
 11
5.288043632
 21
4.693228145
 31
0.0
 11
5.2866917822
 21
4.6960400142
 31
0.0
 11
5.2851727557
 21
4.6989256307
 31
0.0
 11
5.283489467
 21
4.7018786945
 31
0.0
 11
5.2816451784
 21
4.7048927736
 31
0.0
 11
5.2796445441
 21
4.7079609085
 31
0.0
 11
5.2751942464
 21
4.7142309812
 31
0.0
 11
5.2701786445
 21
4.7206321892
 31
0.0
 11
5.2646410598
 21
4.727108184
 31
0.0
 11
5.258629853
 21
4.7336031987
 31
0.0
 11
5.2521950251
 21
4.740060969
 31
0.0
 11
5.2454006101
 21
4.7464188623
 31
0.0
 11
5.2383196952
 21
4.7526101382
 31
0.0
  0
SPLINE
  5
4A5
100
AcDbEntity
  8
0
100
AcDbSpline
 62
9
  6
CONTINUOUS
 70
0
 71
3
 72
11
 73
7
 74
5
 42
0.0000001
 43
0.0000001
 44
0.0000000001
 12
0.0187012959
 22
0.0268141474
 32
0.0
 13
0.023116231
 23
0.0231165922
 33
0.0
 40
0.0
 40
0.0
 40
0.0
 40
0.0
 40
0.2430795682
 40
0.4917333898
 40
0.7446625742
 40
1.0
 40
1.0
 40
1.0
 40
1.0
 10
5.2383196952
 20
4.7526101382
 30
0.0
 10
5.2398349962
 20
4.7547827953
 30
0.0
 10
5.2429721815
 20
4.759128455
 30
0.0
 10
5.2479657907
 20
4.765527537
 30
0.0
 10
5.2533227405
 20
4.7718033035
 30
0.0
 10
5.2571295992
 20
4.7758307244
 30
0.0
 10
5.2590970789
 20
4.7777982347
 30
0.0
 11
5.2383196952
 21
4.7526101382
 31
0.0
 11
5.2429757936
 21
4.7590498534
 31
0.0
 11
5.2479829055
 21
4.7654535611
 31
0.0
 11
5.2533576274
 21
4.7717370999
 31
0.0
 11
5.2590970789
 21
4.7777982347
 31
0.0
  0
SPLINE
  5
4A6
100
AcDbEntity
  8
0
100
AcDbSpline
 62
9
  6
CONTINUOUS
 70
0
 71
3
 72
11
 73
7
 74
5
 42
0.0000001
 43
0.0000001
 44
0.0000000001
 12
0.0231164649
 22
0.0231163607
 32
0.0
 13
0.026813975
 23
0.018701546
 33
0.0
 40
0.0
 40
0.0
 40
0.0
 40
0.0
 40
0.2553373932
 40
0.5082665689
 40
0.756920391
 40
1.0
 40
1.0
 40
1.0
 40
1.0
 10
5.2590970789
 20
4.7777982347
 30
0.0
 10
5.2610645782
 20
4.7797657252
 30
0.0
 10
5.265092026
 20
4.7835725559
 30
0.0
 10
5.2713677697
 20
4.7889295299
 30
0.0
 10
5.2777668411
 20
4.7939231568
 30
0.0
 10
5.2821125328
 20
4.7970602979
 30
0.0
 10
5.2842851763
 20
4.7985756194
 30
0.0
 11
5.2590970789
 21
4.7777982347
 31
0.0
 11
5.2651582189
 21
4.7835376798
 31
0.0
 11
5.2714417473
 21
4.788912414
 31
0.0
 11
5.2778454522
 21
4.7939195302
 31
0.0
 11
5.2842851763
 21
4.7985756194
 31
0.0
  0
SPLINE
  5
4A7
100
AcDbEntity
  8
0
100
AcDbSpline
 62
9
  6
CONTINUOUS
 70
0
 71
3
 72
11
 73
7
 74
5
 42
0.0000001
 43
0.0000001
 44
0.0000000001
 12
0.0231155606
 22
0.0231172645
 32
0.0
 13
0.018702497
 23
0.0268133114
 33
0.0
 40
0.0
 40
0.0
 40
0.0
 40
0.0
 40
0.2553423407
 40
0.5082715763
 40
0.7569285933
 40
1.0
 40
1.0
 40
1.0
 40
1.0
 10
6.1855725705
 20
3.8513227431
 30
0.0
 10
6.1875400309
 20
3.8532903486
 30
0.0
 10
6.1913470234
 20
3.857317714
 30
0.0
 10
6.1967039958
 20
3.8635935808
 30
0.0
 10
6.2016976419
 20
3.8699925709
 30
0.0
 10
6.204834605
 20
3.8743383213
 30
0.0
 10
6.2063499524
 20
3.8765108378
 30
0.0
 11
6.1855725705
 21
3.8513227431
 31
0.0
 11
6.1913121415
 21
3.8573839866
 31
0.0
 11
6.1966868768
 21
3.8636675165
 31
0.0
 11
6.2016940445
 21
3.8700713137
 31
0.0
 11
6.2063499524
 21
3.8765108378
 31
0.0
  0
SPLINE
  5
4A8
100
AcDbEntity
  8
0
100
AcDbSpline
 62
9
  6
CONTINUOUS
 70
0
 71
3
 72
11
 73
7
 74
5
 42
0.0000001
 43
0.0000001
 44
0.0000000001
 12
0.026813056
 22
0.0187028693
 32
0.0
 13
0.0231172128
 23
0.0231156173
 33
0.0
 40
0.0
 40
0.0
 40
0.0
 40
0.0
 40
0.2430716585
 40
0.4917288478
 40
0.7446579464
 40
1.0
 40
1.0
 40
1.0
 40
1.0
 10
6.1603844741
 20
3.8305453593
 30
0.0
 10
6.1625569721
 20
3.8320607384
 30
0.0
 10
6.166902774
 20
3.8351976376
 30
0.0
 10
6.173301744
 20
3.8401913191
 30
0.0
 10
6.1795775969
 20
3.8455483028
 30
0.0
 10
6.1836049716
 20
3.8493552801
 30
0.0
 10
6.1855725704
 20
3.8513227432
 30
0.0
 11
6.1603844741
 21
3.8305453593
 31
0.0
 11
6.166824016
 21
3.835201258
 31
0.0
 11
6.1732278128
 21
3.8402084367
 31
0.0
 11
6.1795113308
 21
3.8455831805
 31
0.0
 11
6.1855725704
 21
3.8513227432
 31
0.0
  0
SPLINE
  5
4A9
100
AcDbEntity
  8
0
100
AcDbSpline
 62
9
  6
CONTINUOUS
 70
0
 71
3
 72
32
 73
28
 74
26
 42
0.0000001
 43
0.0000001
 44
0.0000000001
 12
-0.0688410798
 22
0.0814432163
 32
0.0
 13
-0.082786682
 23
-0.0672194691
 33
0.0
 40
0.0
 40
0.0
 40
0.0
 40
0.0
 40
0.0882024947
 40
0.1754606113
 40
0.2609487599
 40
0.343936822
 40
0.4238389045
 40
0.5000967762
 40
0.5721980838
 40
0.6065452644
 40
0.6396806981
 40
0.6715554475
 40
0.7021351054
 40
0.7313919679
 40
0.7593033888
 40
0.7858532167
 40
0.811034499
 40
0.8348602575
 40
0.8573614325
 40
0.8785835322
 40
0.898590318
 40
0.9174683735
 40
0.9353336256
 40
0.95233243
 40
0.9686385891
 40
0.9844529404
 40
1.0
 40
1.0
 40
1.0
 40
1.0
 10
6.1603844741
 20
3.8305453593
 30
0.0
 10
6.1583604891
 20
3.8329398576
 30
0.0
 10
6.1542544449
 20
3.8376364715
 30
0.0
 10
6.1479174611
 20
3.844412586
 30
0.0
 10
6.1414798277
 20
3.850833636
 30
0.0
 10
6.1350020254
 20
3.8568358407
 30
0.0
 10
6.1285442529
 20
3.8623678492
 30
0.0
 10
6.1221609362
 20
3.8673809105
 30
0.0
 10
6.1168680213
 20
3.8711497616
 30
0.0
 10
6.1127127248
 20
3.8738623192
 30
0.0
 10
6.1097007407
 20
3.8757077214
 30
0.0
 10
6.1067492768
 20
3.877392521
 30
0.0
 10
6.1038650541
 20
3.8789134876
 30
0.0
 10
6.1010544031
 20
3.8802677302
 30
0.0
 10
6.0983235262
 20
3.8814523808
 30
0.0
 10
6.095678586
 20
3.8824646491
 30
0.0
 10
6.0931252916
 20
3.883301629
 30
0.0
 10
6.0906691369
 20
3.8839615555
 30
0.0
 10
6.088315169
 20
3.8844434351
 30
0.0
 10
6.0860681151
 20
3.8847461354
 30
0.0
 10
6.0839326584
 20
3.8848685093
 30
0.0
 10
6.0819134132
 20
3.8848089582
 30
0.0
 10
6.0800151162
 20
3.8845666078
 30
0.0
 10
6.0782423166
 20
3.884142742
 30
0.0
 10
6.0765995706
 20
3.8835381506
 30
0.0
 10
6.0750922633
 20
3.8827541657
 30
0.0
 10
6.0741774242
 20
3.8821100688
 30
0.0
 10
6.0737483944
 20
3.8817617138
 30
0.0
 11
6.1603844741
 21
3.8305453593
 31
0.0
 11
6.1541931992
 21
3.8376262738
 31
0.0
 11
6.1478353068
 21
3.8444206885
 31
0.0
 11
6.1413775373
 21
3.8508555158
 31
0.0
 11
6.1348825233
 21
3.8568667219
 31
0.0
 11
6.1284065293
 21
3.8624043057
 31
0.0
 11
6.1220053222
 21
3.8674199065
 31
0.0
 11
6.1157352503
 21
3.8718702029
 31
0.0
 11
6.1126671158
 21
3.8738708365
 31
0.0
 11
6.1096530372
 21
3.8757151244
 31
0.0
 11
6.106699974
 21
3.8773984124
 31
0.0
 11
6.1038143579
 21
3.8789174381
 31
0.0
 11
6.1010024892
 21
3.880269287
 31
0.0
 11
6.0982706679
 21
3.8814510447
 31
0.0
 11
6.0956251942
 21
3.8824597966
 31
0.0
 11
6.0930723052
 21
3.8832927234
 31
0.0
 11
6.0906175084
 21
3.8839481097
 31
0.0
 11
6.0882658403
 21
3.8844249531
 31
0.0
 11
6.0860223293
 21
3.8847222628
 31
0.0
 11
6.0838920042
 21
3.884839048
 31
0.0
 11
6.0818798885
 21
3.8847743347
 31
0.0
 11
6.0799907107
 21
3.8845281515
 31
0.0
 11
6.0782287412
 21
3.8841020813
 31
0.0
 11
6.0765982112
 21
3.8834978406
 31
0.0
 11
6.0751033519
 21
3.8827171459
 31
0.0
 11
6.0737483944
 21
3.8817617138
 31
0.0
  0
SPLINE
  5
4AA
100
AcDbEntity
  8
0
100
AcDbSpline
 62
9
  6
CONTINUOUS
 70
0
 71
3
 72
32
 73
28
 74
26
 42
0.0000001
 43
0.0000001
 44
0.0000000001
 12
0.0827867352
 22
-0.0672194341
 32
0.0
 13
0.0688410978
 23
0.0814432262
 33
0.0
 40
0.0
 40
0.0
 40
0.0
 40
0.0
 40
0.0155470576
 40
0.0313614078
 40
0.0476675669
 40
0.0646663722
 40
0.0825316259
 40
0.1014096835
 40
0.1214164719
 40
0.1426385745
 40
0.1651397527
 40
0.1889655144
 40
0.2141467997
 40
0.2406966305
 40
0.2686080543
 40
0.2978649192
 40
0.3284445792
 40
0.3603193304
 40
0.3934547655
 40
0.4278019469
 40
0.4999032549
 40
0.5761611251
 40
0.6560632042
 40
0.7390512613
 40
0.8245394036
 40
0.9117975129
 40
1.0
 40
1.0
 40
1.0
 40
1.0
 10
6.0737483783
 20
4.747359244
 30
0.0
 10
6.0741774083
 20
4.7470108892
 30
0.0
 10
6.0750922478
 20
4.7463667929
 30
0.0
 10
6.0765995558
 20
4.7455828087
 30
0.0
 10
6.0782423024
 20
4.7449782181
 30
0.0
 10
6.0800151026
 20
4.7445543531
 30
0.0
 10
6.0819134002
 20
4.7443120035
 30
0.0
 10
6.083932646
 20
4.7442524533
 30
0.0
 10
6.0860681033
 20
4.7443748281
 30
0.0
 10
6.0883151579
 20
4.7446775292
 30
0.0
 10
6.0906691263
 20
4.7451594098
 30
0.0
 10
6.0931252816
 20
4.7458193371
 30
0.0
 10
6.0956785766
 20
4.7466563179
 30
0.0
 10
6.0983235173
 20
4.747668587
 30
0.0
 10
6.1010543948
 20
4.7488532384
 30
0.0
 10
6.1038650463
 20
4.7502074819
 30
0.0
 10
6.1067492695
 20
4.7517284493
 30
0.0
 10
6.1097007339
 20
4.7534132496
 30
0.0
 10
6.1127127184
 20
4.7552586526
 30
0.0
 10
6.1168680155
 20
4.7579712111
 30
0.0
 10
6.1221609311
 20
4.7617400632
 30
0.0
 10
6.1285442487
 20
4.7667531255
 30
0.0
 10
6.1350020219
 20
4.7722851349
 30
0.0
 10
6.141479825
 20
4.7782873404
 30
0.0
 10
6.1479174592
 20
4.784708391
 30
0.0
 10
6.1542544439
 20
4.7914845059
 30
0.0
 10
6.1583604887
 20
4.79618112
 30
0.0
 10
6.1603844741
 20
4.7985756184
 30
0.0
 11
6.0737483783
 21
4.747359244
 31
0.0
 11
6.0751033364
 21
4.7464038126
 31
0.0
 11
6.0765981963
 21
4.7456231187
 31
0.0
 11
6.0782287269
 21
4.7450188788
 31
0.0
 11
6.079990697
 21
4.7445928094
 31
0.0
 11
6.0818798755
 21
4.744346627
 31
0.0
 11
6.0838919918
 21
4.7442819146
 31
0.0
 11
6.0860223175
 21
4.7443987006
 31
0.0
 11
6.0882658291
 21
4.7446960112
 31
0.0
 11
6.0906174978
 21
4.7451728555
 31
0.0
 11
6.0930722952
 21
4.7458282427
 31
0.0
 11
6.0956251847
 21
4.7466611703
 31
0.0
 11
6.0982706591
 21
4.7476699231
 31
0.0
 11
6.1010024809
 21
4.7488516816
 31
0.0
 11
6.1038143501
 21
4.7502035314
 31
0.0
 11
6.1066999667
 21
4.7517225579
 31
0.0
 11
6.1096530304
 21
4.7534058466
 31
0.0
 11
6.1126671095
 21
4.7552501352
 31
0.0
 11
6.1157352444
 21
4.7572507695
 31
0.0
 11
6.1220053172
 21
4.7617010672
 31
0.0
 11
6.1284065251
 21
4.7667166691
 31
0.0
 11
6.1348825199
 21
4.7722542538
 31
0.0
 11
6.1413775347
 21
4.7782654606
 31
0.0
 11
6.1478353049
 21
4.7847002885
 31
0.0
 11
6.1541931982
 21
4.7914947035
 31
0.0
 11
6.1603844741
 21
4.7985756184
 31
0.0
  0
SPLINE
  5
4AB
100
AcDbEntity
  8
0
100
AcDbSpline
 62
9
  6
CONTINUOUS
 70
0
 71
3
 72
11
 73
7
 74
5
 42
0.0000001
 43
0.0000001
 44
0.0000000001
 12
0.0268141474
 22
-0.0187012959
 32
0.0
 13
0.0231165922
 23
-0.023116231
 33
0.0
 40
0.0
 40
0.0
 40
0.0
 40
0.0
 40
0.2430795682
 40
0.4917333898
 40
0.7446625742
 40
1.0
 40
1.0
 40
1.0
 40
1.0
 10
6.1603844741
 20
4.7985756184
 30
0.0
 10
6.1625571312
 20
4.7970603174
 30
0.0
 10
6.166902791
 20
4.7939231321
 30
0.0
 10
6.1733018729
 20
4.7889295229
 30
0.0
 10
6.1795776394
 20
4.7835725731
 30
0.0
 10
6.1836050603
 20
4.7797657144
 30
0.0
 10
6.1855725707
 20
4.7777982347
 30
0.0
 11
6.1603844741
 21
4.7985756184
 31
0.0
 11
6.1668241893
 21
4.79391952
 31
0.0
 11
6.1732278971
 21
4.7889124081
 31
0.0
 11
6.1795114358
 21
4.7835376862
 31
0.0
 11
6.1855725707
 21
4.7777982347
 31
0.0
  0
SPLINE
  5
4AC
100
AcDbEntity
  8
0
100
AcDbSpline
 62
9
  6
CONTINUOUS
 70
0
 71
3
 72
11
 73
7
 74
5
 42
0.0000001
 43
0.0000001
 44
0.0000000001
 12
0.0231163607
 22
-0.0231164649
 32
0.0
 13
0.018701546
 23
-0.026813975
 33
0.0
 40
0.0
 40
0.0
 40
0.0
 40
0.0
 40
0.2553373932
 40
0.5082665689
 40
0.756920391
 40
1.0
 40
1.0
 40
1.0
 40
1.0
 10
6.1855725707
 20
4.7777982347
 30
0.0
 10
6.1875400611
 20
4.7758307354
 30
0.0
 10
6.1913468918
 20
4.7718032876
 30
0.0
 10
6.1967038658
 20
4.7655275439
 30
0.0
 10
6.2016974927
 20
4.7591284725
 30
0.0
 10
6.2048346338
 20
4.7547827809
 30
0.0
 10
6.2063499553
 20
4.7526101373
 30
0.0
 11
6.1855725707
 21
4.7777982347
 31
0.0
 11
6.1913120157
 21
4.7717370947
 31
0.0
 11
6.19668675
 21
4.7654535663
 31
0.0
 11
6.2016938661
 21
4.7590498614
 31
0.0
 11
6.2063499553
 21
4.7526101373
 31
0.0
  0
SPLINE
  5
4AD
100
AcDbEntity
  8
0
100
AcDbSpline
 62
6
  6
CONTINUOUS
 70
0
 71
3
 72
16
 73
12
 74
10
 42
0.0000001
 43
0.0000001
 44
0.0000000001
 12
-0.0845843316
 22
0.1152580787
 32
0.0
 13
-0.017488151
 23
0.1418911499
 33
0.0
 40
0.0
 40
0.0
 40
0.0
 40
0.0
 40
0.1250109984
 40
0.2500349917
 40
0.3750614399
 40
0.5000766208
 40
0.6250699093
 40
0.750040062
 40
0.8125284206
 40
0.8750180722
 40
1.0
 40
1.0
 40
1.0
 40
1.0
 10
4.7560244586
 20
4.9931756393
 30
0.0
 10
4.7524998014
 20
4.9979784818
 30
0.0
 10
4.7457551152
 20
5.0078127482
 30
0.0
 10
4.7365936506
 20
5.0231729131
 30
0.0
 10
4.7284181443
 20
5.0390807583
 30
0.0
 10
4.721262306
 20
5.0554709412
 30
0.0
 10
4.7151593384
 20
5.072278576
 30
0.0
 10
4.7109783136
 20
5.086580975
 30
0.0
 10
4.7081940105
 20
5.0981641987
 30
0.0
 10
4.7057888958
 20
5.1098322454
 30
0.0
 10
4.7044117925
 20
5.1186676601
 30
0.0
 10
4.7036832249
 20
5.1245789365
 30
0.0
 11
4.7560244586
 21
4.9931756393
 31
0.0
 11
4.7459147464
 21
5.0079136263
 31
0.0
 11
4.7367580552
 21
5.0232640647
 31
0.0
 11
4.7285877596
 21
5.039161856
 31
0.0
 11
4.7214372343
 21
5.055541902
 31
0.0
 11
4.7153398542
 21
5.0723391042
 31
0.0
 11
4.7103289938
 21
5.0894883644
 31
0.0
 11
4.7082414382
 21
5.0981746731
 31
0.0
 11
4.7064376117
 21
5.1069244936
 31
0.0
 11
4.7036832249
 21
5.1245789365
 31
0.0
  0
LINE
  5
4AE
100
AcDbEntity
  8
0
100
AcDbLine
 62
9
  6
CONTINUOUS
 10
5.2842851868
 20
3.8305453466
 11
5.2710090623
 21
3.8172231424
  0
SPLINE
  5
4AF
100
AcDbEntity
  8
0
100
AcDbSpline
 62
6
  6
CONTINUOUS
 70
0
 71
3
 72
16
 73
12
 74
10
 42
0.0000001
 43
0.0000001
 44
0.0000000001
 12
0.017495375
 22
0.1419633386
 32
0.0
 13
0.0846558186
 23
0.1152955768
 33
0.0
 40
0.0
 40
0.0
 40
0.0
 40
0.0
 40
0.1249819142
 40
0.1874715655
 40
0.2499599287
 40
0.3749300942
 40
0.4999234159
 40
0.6249386298
 40
0.7499650878
 40
0.8749890545
 40
1.0
 40
1.0
 40
1.0
 40
1.0
 10
4.7036828276
 20
3.504538818
 30
0.0
 10
4.7044116961
 20
3.5104531013
 30
0.0
 10
4.7057895391
 20
3.5192929998
 30
0.0
 10
4.7081962192
 20
3.530966896
 30
0.0
 10
4.7109824679
 20
3.5425558709
 30
0.0
 10
4.7151666183
 20
3.5568652462
 30
0.0
 10
4.7212743935
 20
3.5736808028
 30
0.0
 10
4.7284360462
 20
3.5900783642
 30
0.0
 10
4.7366183238
 20
3.6059929458
 30
0.0
 10
4.7457874654
 20
3.621359106
 30
0.0
 10
4.7525378432
 20
3.6311968124
 30
0.0
 10
4.7560654778
 20
3.6360012154
 30
0.0
 11
4.7036828276
 21
3.504538818
 31
0.0
 11
4.7064386945
 21
3.5222022028
 31
0.0
 11
4.7082436943
 21
3.530956409
 31
0.0
 11
4.7103327079
 21
3.5396470293
 31
0.0
 11
4.7153473096
 21
3.5568046413
 31
0.0
 11
4.7214494892
 21
3.5736097509
 31
0.0
 11
4.7286058214
 21
3.5899971606
 31
0.0
 11
4.7367828806
 21
3.6059016728
 31
0.0
 11
4.7459472412
 21
3.6212580903
 31
0.0
 11
4.7560654778
 21
3.6360012154
 31
0.0
  0
LINE
  5
4B0
100
AcDbEntity
  8
0
100
AcDbLine
 62
6
  6
CONTINUOUS
 10
5.1656784745
 20
3.5169362239
 11
5.1655211215
 21
3.5167002781
  0
LINE
  5
4B1
100
AcDbEntity
  8
0
100
AcDbLine
 62
6
  6
CONTINUOUS
 10
4.9247106751
 20
3.7579042155
 11
4.9244746155
 21
3.7577467866
  0
SPLINE
  5
4B2
100
AcDbEntity
  8
0
100
AcDbSpline
 62
9
  6
CONTINUOUS
 70
0
 71
3
 72
23
 73
19
 74
17
 42
0.0000001
 43
0.0000001
 44
0.0000000001
 12
-0.1380472549
 22
-0.1239899596
 32
0.0
 13
-0.1527080706
 23
0.1054077788
 33
0.0
 40
0.0
 40
0.0
 40
0.0
 40
0.0
 40
0.0707126258
 40
0.1376828309
 40
0.2016185568
 40
0.263225799
 40
0.3231882676
 40
0.3821456209
 40
0.4406735373
 40
0.4992686061
 40
0.5583376506
 40
0.6181858941
 40
0.6790227354
 40
0.7409723999
 40
0.8040846518
 40
0.8683456481
 40
0.9336880547
 40
1.0
 40
1.0
 40
1.0
 40
1.0
 10
5.1954183435
 20
3.5604263783
 30
0.0
 10
5.1921644489
 20
3.5575038264
 30
0.0
 10
5.1855774206
 20
3.5520839491
 30
0.0
 10
5.1752172059
 20
3.5451080338
 30
0.0
 10
5.1646993311
 20
3.5394806176
 30
0.0
 10
5.1540502463
 20
3.5351515846
 30
0.0
 10
5.1432962779
 20
3.5320685553
 30
0.0
 10
5.1324643798
 20
3.5301777364
 30
0.0
 10
5.1215809154
 20
3.52942367
 30
0.0
 10
5.1106712039
 20
3.52974988
 30
0.0
 10
5.0997602226
 20
3.5310992807
 30
0.0
 10
5.0888717485
 20
3.5334080849
 30
0.0
 10
5.0780288085
 20
3.5366133452
 30
0.0
 10
5.0672542216
 20
3.5406528727
 30
0.0
 10
5.0565707801
 20
3.5454651347
 30
0.0
 10
5.0460013381
 20
3.5509891484
 30
0.0
 10
5.035569277
 20
3.5571640415
 30
0.0
 10
5.0287660674
 20
3.5616450426
 30
0.0
 10
5.025390611
 20
3.5639749742
 30
0.0
 11
5.1954183435
 21
3.5604263783
 31
0.0
 11
5.1852696967
 21
3.5521096948
 31
0.0
 11
5.1749499516
 21
3.545186965
 31
0.0
 11
5.1644818826
 21
3.5396044958
 31
0.0
 11
5.1538882641
 21
3.5353085938
 31
0.0
 11
5.1431918704
 21
3.5322455658
 31
0.0
 11
5.132415476
 21
3.5303617185
 31
0.0
 11
5.1215818551
 21
3.5296033586
 31
0.0
 11
5.1107137822
 21
3.529916793
 31
0.0
 11
5.0998342824
 21
3.5312471778
 31
0.0
 11
5.0889673873
 21
3.5335350528
 31
0.0
 11
5.0781373806
 21
3.5367197997
 31
0.0
 11
5.0673685463
 21
3.5407408003
 31
0.0
 11
5.0566851683
 21
3.5455374363
 31
0.0
 11
5.0461115305
 21
3.5510490895
 31
0.0
 11
5.0356719168
 21
3.5572151415
 31
0.0
 11
5.025390611
 21
3.5639749742
 31
0.0
  0
SPLINE
  5
4B3
100
AcDbEntity
  8
0
100
AcDbSpline
 62
9
  6
CONTINUOUS
 70
0
 71
3
 72
15
 73
11
 74
9
 42
0.0000001
 43
0.0000001
 44
0.0000000001
 12
-0.248978569
 22
-0.2499533013
 32
0.0
 13
-0.2435343941
 23
-0.255260611
 33
0.0
 40
0.0
 40
0.0
 40
0.0
 40
0.0
 40
0.106249012
 40
0.2210067568
 40
0.3426963279
 40
0.4697401214
 40
0.6005617481
 40
0.7335912201
 40
0.8672601223
 40
1.0
 40
1.0
 40
1.0
 40
1.0
 10
5.2710090623
 20
3.8172231424
 30
0.0
 10
5.2621911533
 20
3.808370712
 30
0.0
 10
5.2439019398
 20
3.7899043374
 30
0.0
 10
5.2156607986
 20
3.7611535023
 30
0.0
 10
5.1858047759
 20
3.73056137
 30
0.0
 10
5.1547123188
 20
3.6985365109
 30
0.0
 10
5.1227611348
 20
3.6654868351
 30
0.0
 10
5.0903343309
 20
3.631813427
 30
0.0
 10
5.0578142024
 20
3.5979168305
 30
0.0
 10
5.0361661862
 20
3.575269395
 30
0.0
 10
5.025390611
 20
3.5639749742
 30
0.0
 11
5.2710090623
 21
3.8172231424
 31
0.0
 11
5.2446237173
 21
3.7905979107
 31
0.0
 11
5.2162471781
 21
3.7617202375
 31
0.0
 11
5.1862575743
 21
3.7309993246
 31
0.0
 11
5.1550330355
 21
3.6988443738
 31
0.0
 11
5.122952355
 21
3.6656631301
 31
0.0
 11
5.090396982
 21
3.6318575095
 31
0.0
 11
5.0577490296
 21
3.5978279711
 31
0.0
 11
5.025390611
 21
3.5639749742
 31
0.0
  0
SPLINE
  5
4B4
100
AcDbEntity
  8
0
100
AcDbSpline
 62
6
  6
CONTINUOUS
 70
0
 71
3
 72
11
 73
7
 74
5
 42
0.0000001
 43
0.0000001
 44
0.0000000001
 12
-0.0437883248
 22
-0.0656836173
 32
0.0
 13
-0.0422657366
 23
-0.0666735516
 33
0.0
 40
0.0
 40
0.0
 40
0.0
 40
0.0
 40
0.2686002064
 40
0.5245987788
 40
0.7683175574
 40
1.0
 40
1.0
 40
1.0
 40
1.0
 10
5.1655169867
 20
3.51669709
 30
0.0
 10
5.161596469
 20
3.5108162123
 30
0.0
 10
5.1539887791
 20
3.4992973667
 30
0.0
 10
5.1429671076
 20
3.4823483246
 30
0.0
 10
5.1325700387
 20
3.4661523404
 30
0.0
 10
5.1258581437
 20
3.4555957405
 30
0.0
 10
5.1225940673
 20
3.45044671
 30
0.0
 11
5.1655169867
 21
3.51669709
 31
0.0
 11
5.1538275839
 21
3.49900657
 31
0.0
 11
5.1428079873
 21
3.4820664334
 31
0.0
 11
5.1324110484
 21
3.4658780827
 31
0.0
 11
5.1225940673
 21
3.45044671
 31
0.0
  0
SPLINE
  5
4B5
100
AcDbEntity
  8
0
100
AcDbSpline
 62
6
  6
CONTINUOUS
 70
0
 71
3
 72
16
 73
12
 74
10
 42
0.0000001
 43
0.0000001
 44
0.0000000001
 12
-0.1153209179
 22
-0.0847055132
 32
0.0
 13
-0.1420128601
 23
-0.0175010184
 33
0.0
 40
0.0
 40
0.0
 40
0.0
 40
0.0
 40
0.1250108987
 40
0.2500348402
 40
0.3750613017
 40
0.5000765389
 40
0.6250698869
 40
0.7500400667
 40
0.8125284358
 40
0.8750180898
 40
1.0
 40
1.0
 40
1.0
 40
1.0
 10
5.0438150258
 20
3.3483201304
 30
0.0
 10
5.0390095686
 20
3.3447904263
 30
0.0
 10
5.0291695327
 20
3.3380360896
 30
0.0
 10
5.0137992986
 20
3.3288615985
 30
0.0
 10
4.9978801282
 20
3.3206745913
 30
0.0
 10
4.9814775313
 20
3.3135088641
 30
0.0
 10
4.9646565602
 20
3.3073977041
 30
0.0
 10
4.9503424109
 20
3.3032113362
 30
0.0
 10
4.9387494972
 20
3.3004236937
 30
0.0
 10
4.9270715927
 20
3.2980158806
 30
0.0
 10
4.9182286193
 20
3.2966374867
 30
0.0
 10
4.9123122731
 20
3.2959083832
 30
0.0
 11
5.0438150258
 21
3.3483201304
 31
0.0
 11
5.0290684217
 21
3.3381959645
 31
0.0
 11
5.0137079415
 21
3.3290262595
 31
0.0
 11
4.9977988511
 21
3.320844476
 31
0.0
 11
4.981406416
 21
3.3136840745
 31
0.0
 11
4.9645959019
 21
3.3075785155
 31
0.0
 11
4.9474325745
 21
3.3025612594
 31
0.0
 11
4.9387390013
 21
3.3004712014
 31
0.0
 11
4.9299817897
 21
3.2986653524
 31
0.0
 11
4.9123122731
 21
3.2959083832
 31
0.0
  0
SPLINE
  5
4B6
100
AcDbEntity
  8
0
100
AcDbSpline
 62
9
  6
CONTINUOUS
 70
0
 71
3
 72
24
 73
20
 74
18
 42
0.0000001
 43
0.0000001
 44
0.0000000001
 12
-0.2130724264
 22
-0.1898676602
 32
0.0
 13
-0.2597714876
 23
0.118187823
 33
0.0
 40
0.0
 40
0.0
 40
0.0
 40
0.0
 40
0.0804957678
 40
0.1574033999
 40
0.2309620907
 40
0.2665670833
 40
0.3014283734
 40
0.3690393183
 40
0.4340671977
 40
0.4967819422
 40
0.5574590206
 40
0.6163770457
 40
0.6738077658
 40
0.7300065216
 40
0.7852092713
 40
0.8396304304
 40
0.8934614087
 40
0.9468699113
 40
1.0
 40
1.0
 40
1.0
 40
1.0
 10
5.1225882336
 20
3.4504416144
 30
0.0
 10
5.1168710908
 20
3.4453471001
 30
0.0
 10
5.1054295979
 20
3.4356734878
 30
0.0
 10
5.0878694423
 20
3.4224485709
 30
0.0
 10
5.0731102399
 20
3.4126540102
 30
0.0
 10
5.0613440945
 20
3.4056297101
 30
0.0
 10
5.0498524899
 20
3.3992631571
 30
0.0
 10
5.0355397358
 20
3.3922294886
 30
0.0
 10
5.0183174903
 20
3.3852052889
 30
0.0
 10
5.0012570246
 20
3.379653471
 30
0.0
 10
4.9843901158
 20
3.3755431792
 30
0.0
 10
4.9677494945
 20
3.3728435914
 30
0.0
 10
4.9513720816
 20
3.3715053411
 30
0.0
 10
4.9352937809
 20
3.3714782634
 30
0.0
 10
4.9195504066
 20
3.3727120195
 30
0.0
 10
4.9041776419
 20
3.3751559988
 30
0.0
 10
4.8892105767
 20
3.3787596298
 30
0.0
 10
4.8746853319
 20
3.3834717202
 30
0.0
 10
4.8652997118
 20
3.3873265678
 30
0.0
 10
4.8606991511
 20
3.3894196776
 30
0.0
 11
5.1225882336
 21
3.4504416144
 31
0.0
 11
5.1050312265
 21
3.4356257549
 31
0.0
 11
5.0874855048
 21
3.4224384749
 31
0.0
 11
5.0699820246
 21
3.4108478664
 31
0.0
 11
5.0612557989
 21
3.4056413428
 31
0.0
 11
5.052551742
 21
3.4008220217
 31
0.0
 11
5.0352256131
 21
3.392329033
 31
0.0
 11
5.018034594
 21
3.3853369925
 31
0.0
 11
5.0010096408
 21
3.3798139922
 31
0.0
 11
4.9841817096
 21
3.3757281245
 31
0.0
 11
4.9675824077
 21
3.3730444938
 31
0.0
 11
4.9512459469
 21
3.3717162571
 31
0.0
 11
4.9352071898
 21
3.3716935852
 31
0.0
 11
4.919500999
 21
3.3729266489
 31
0.0
 11
4.9041622371
 21
3.3753656192
 31
0.0
 11
4.8892257667
 21
3.3789606668
 31
0.0
 11
4.8747264505
 21
3.3836619627
 31
0.0
 11
4.8606991511
 21
3.3894196776
 31
0.0
  0
SPLINE
  5
4B7
100
AcDbEntity
  8
0
100
AcDbSpline
 62
9
  6
CONTINUOUS
 70
0
 71
3
 72
16
 73
12
 74
10
 42
0.0000001
 43
0.0000001
 44
0.0000000001
 12
-0.1656625839
 22
-0.1736392616
 32
0.0
 13
-0.1616860242
 23
-0.1773480038
 33
0.0
 40
0.0
 40
0.0
 40
0.0
 40
0.0
 40
0.285315589
 40
0.425828964
 40
0.5609870642
 40
0.6880148036
 40
0.8048126373
 40
0.858772191
 40
0.9094505974
 40
0.9566068229
 40
1.0
 40
1.0
 40
1.0
 40
1.0
 10
5.025390611
 20
3.5639749742
 30
0.0
 10
5.0096352385
 20
3.5474609781
 30
0.0
 10
4.9861256103
 20
3.5228093014
 30
0.0
 10
4.9552033038
 20
3.4902862698
 30
0.0
 10
4.9330414129
 20
3.466906307
 30
0.0
 10
4.9122328746
 20
3.4448576156
 30
0.0
 10
4.895932792
 20
3.4274856895
 30
0.0
 10
4.8838517427
 20
3.4145305302
 30
0.0
 10
4.8755916525
 20
3.4056297942
 30
0.0
 10
4.8679306749
 20
3.3973263063
 30
0.0
 10
4.8630378412
 20
3.3919849087
 30
0.0
 10
4.8606991511
 20
3.3894196776
 30
0.0
 11
5.025390611
 21
3.5639749742
 31
0.0
 11
4.9781480045
 21
3.5144105655
 31
0.0
 11
4.9549144089
 21
3.4899698211
 31
0.0
 11
4.9326028344
 21
3.4664258885
 31
0.0
 11
4.9116823361
 21
3.4442519564
 31
0.0
 11
4.8925075419
 21
3.4238064523
 31
0.0
 11
4.8836766655
 21
3.4143349037
 31
0.0
 11
4.8754044732
 21
3.4054191136
 31
0.0
 11
4.8677317175
 21
3.3971002992
 31
0.0
 11
4.8606991511
 21
3.3894196776
 31
0.0
  0
LINE
  5
4B8
100
AcDbEntity
  8
0
100
AcDbLine
 62
9
  6
CONTINUOUS
 10
6.206349967
 20
3.8765108508
 11
6.2196721712
 21
3.8632347263
  0
SPLINE
  5
4B9
100
AcDbEntity
  8
0
100
AcDbSpline
 62
9
  6
CONTINUOUS
 70
0
 71
3
 72
23
 73
19
 74
17
 42
0.0000001
 43
0.0000001
 44
0.0000000001
 12
0.1239930361
 22
-0.1380471077
 32
0.0
 13
-0.1054088844
 23
-0.1527096723
 33
0.0
 40
0.0
 40
0.0
 40
0.0
 40
0.0
 40
0.0707130925
 40
0.1376836411
 40
0.2016195982
 40
0.2632269722
 40
0.3231894883
 40
0.3821468208
 40
0.4406746648
 40
0.4992696247
 40
0.5583385381
 40
0.6181866402
 40
0.6790233385
 40
0.7409728645
 40
0.804084986
 40
0.8683458616
 40
0.9336881572
 40
1.0
 40
1.0
 40
1.0
 40
1.0
 10
6.4764676337
 20
3.7876454568
 30
0.0
 10
6.4793902774
 20
3.7843915441
 30
0.0
 10
6.484810329
 20
3.7778044784
 30
0.0
 10
6.4917864876
 20
3.7674441918
 30
0.0
 10
6.4974141163
 20
3.7569262389
 30
0.0
 10
6.5017433322
 20
3.7462770705
 30
0.0
 10
6.504826516
 20
3.7355230137
 30
0.0
 10
6.5067174623
 20
3.7246910232
 30
0.0
 10
6.5074716302
 20
3.7138074631
 30
0.0
 10
6.5071454977
 20
3.7028976537
 30
0.0
 10
6.5057961516
 20
3.6919865728
 30
0.0
 10
6.5034873806
 20
3.6810979983
 30
0.0
 10
6.500282134
 20
3.6702549576
 30
0.0
 10
6.4962426024
 20
3.6594802703
 30
0.0
 10
6.4914303201
 20
3.6487967294
 30
0.0
 10
6.4859062718
 20
3.6382271895
 30
0.0
 10
6.4797313314
 20
3.6277950325
 30
0.0
 10
6.4752502919
 20
3.6209917617
 30
0.0
 10
6.4729203394
 20
3.6176162751
 30
0.0
 11
6.4764676337
 21
3.7876454568
 31
0.0
 11
6.4847845905
 21
3.777496744
 31
0.0
 11
6.4917075612
 21
3.7671769269
 31
0.0
 11
6.4972902405
 21
3.7567087802
 31
0.0
 11
6.5015863231
 21
3.7461150792
 31
0.0
 11
6.5046495037
 21
3.7354185986
 31
0.0
 11
6.506533477
 21
3.7246421136
 31
0.0
 11
6.5072919377
 21
3.7138083991
 31
0.0
 11
6.5069785806
 21
3.7029402301
 31
0.0
 11
6.5056482505
 21
3.6920606323
 31
0.0
 11
6.5033604092
 21
3.6811936379
 31
0.0
 11
6.5001756766
 21
3.6703635312
 31
0.0
 11
6.4961546725
 21
3.659594597
 31
0.0
 11
6.4913580168
 21
3.6489111197
 31
0.0
 11
6.4858463295
 21
3.6383373839
 31
0.0
 11
6.4796802304
 21
3.6278976742
 31
0.0
 11
6.4729203394
 21
3.6176162751
 31
0.0
  0
SPLINE
  5
4BA
100
AcDbEntity
  8
0
100
AcDbSpline
 62
9
  6
CONTINUOUS
 70
0
 71
3
 72
15
 73
11
 74
9
 42
0.0000001
 43
0.0000001
 44
0.0000000001
 12
0.2499533013
 22
-0.248978569
 32
0.0
 13
0.255260611
 23
-0.2435343941
 33
0.0
 40
0.0
 40
0.0
 40
0.0
 40
0.0
 40
0.106249012
 40
0.2210067568
 40
0.3426963279
 40
0.4697401214
 40
0.6005617481
 40
0.7335912201
 40
0.8672601223
 40
1.0
 40
1.0
 40
1.0
 40
1.0
 10
6.2196721712
 20
3.8632347263
 30
0.0
 10
6.2285246017
 20
3.8544168174
 30
0.0
 10
6.2469909762
 20
3.8361276039
 30
0.0
 10
6.2757418114
 20
3.8078864627
 30
0.0
 10
6.3063339436
 20
3.7780304399
 30
0.0
 10
6.3383588027
 20
3.7469379829
 30
0.0
 10
6.3714084785
 20
3.7149867989
 30
0.0
 10
6.4050818866
 20
3.682559995
 30
0.0
 10
6.4389784831
 20
3.6500398665
 30
0.0
 10
6.4616259187
 20
3.6283918503
 30
0.0
 10
6.4729203394
 20
3.6176162751
 30
0.0
 11
6.2196721712
 21
3.8632347263
 31
0.0
 11
6.2462974029
 21
3.8368493814
 31
0.0
 11
6.2751750761
 21
3.8084728422
 31
0.0
 11
6.305895989
 21
3.7784832384
 31
0.0
 11
6.3380509398
 21
3.7472586995
 31
0.0
 11
6.3712321836
 21
3.715178019
 31
0.0
 11
6.4050378042
 21
3.6826226461
 31
0.0
 11
6.4390673425
 21
3.6499746937
 31
0.0
 11
6.4729203394
 21
3.6176162751
 31
0.0
  0
SPLINE
  5
4BB
100
AcDbEntity
  8
0
100
AcDbSpline
 62
9
  6
CONTINUOUS
 70
0
 71
3
 72
38
 73
34
 74
32
 42
0.0000001
 43
0.0000001
 44
0.0000000001
 12
-0.0726825179
 22
-0.0797230281
 32
0.0
 13
0.0954113859
 23
-0.0503505417
 33
0.0
 40
0.0
 40
0.0
 40
0.0
 40
0.0
 40
0.2301129585
 40
0.3343731051
 40
0.4313313375
 40
0.5209096875
 40
0.6030304734
 40
0.6776164276
 40
0.7445909003
 40
0.7752002027
 40
0.8038783685
 40
0.830616189
 40
0.8554046198
 40
0.8782348384
 40
0.8990983306
 40
0.917987023
 40
0.9348934946
 40
0.9498113318
 40
0.962735761
 40
0.9684498581
 40
0.9736652723
 40
0.9783826512
 40
0.982603318
 40
0.9863296327
 40
0.9895656233
 40
0.9923181619
 40
0.9945993307
 40
0.9964316082
 40
0.9971932061
 40
0.9978631084
 40
0.9989848599
 40
0.9994908647
 40
1.0
 40
1.0
 40
1.0
 40
1.0
 10
4.8606991511
 20
3.3894196776
 30
0.0
 10
4.855124088
 20
3.383304577
 30
0.0
 10
4.847044713
 20
3.3743990151
 30
0.0
 10
4.8366794633
 20
3.3628598653
 30
0.0
 10
4.8297194773
 20
3.3550551901
 30
0.0
 10
4.8233189656
 20
3.3478184284
 30
0.0
 10
4.8174829334
 20
3.341156577
 30
0.0
 10
4.812216385
 20
3.3350766404
 30
0.0
 10
4.8081941177
 20
3.3303697508
 30
0.0
 10
4.80526673
 20
3.3268989714
 30
0.0
 10
4.8032834984
 20
3.3245247833
 30
0.0
 10
4.8014464459
 20
3.3223012831
 30
0.0
 10
4.7997561933
 20
3.3202293449
 30
0.0
 10
4.798213347
 20
3.3183098522
 30
0.0
 10
4.7968185026
 20
3.3165436915
 30
0.0
 10
4.7955722456
 20
3.3149317525
 30
0.0
 10
4.7944751098
 20
3.3134749387
 30
0.0
 10
4.7935276566
 20
3.3121741402
 30
0.0
 10
4.7928374009
 20
3.3111841752
 30
0.0
 10
4.7923624465
 20
3.3104698211
 30
0.0
 10
4.7920589718
 20
3.3099959645
 30
0.0
 10
4.7917933615
 20
3.3095617479
 30
0.0
 10
4.791565659
 20
3.3091672711
 30
0.0
 10
4.7913758658
 20
3.3088126247
 30
0.0
 10
4.7912239703
 20
3.3084978884
 30
0.0
 10
4.7911098144
 20
3.3082230268
 30
0.0
 10
4.7910333519
 20
3.3079879705
 30
0.0
 10
4.7909985738
 20
3.3078153639
 30
0.0
 10
4.7909930358
 20
3.3076977881
 30
0.0
 10
4.7910001682
 20
3.307606267
 30
0.0
 10
4.7910264546
 20
3.3075248728
 30
0.0
 10
4.7910765909
 20
3.307465513
 30
0.0
 10
4.7911070212
 20
3.3074445157
 30
0.0
 10
4.7911232136
 20
3.3074359706
 30
0.0
 11
4.8606991511
 21
3.3894196776
 31
0.0
 11
4.8440246543
 21
3.371028288
 31
0.0
 11
4.8365092125
 21
3.3626598468
 31
0.0
 11
4.8295483958
 21
3.3548521915
 31
0.0
 11
4.8231472698
 21
3.3476122844
 31
0.0
 11
4.8173108999
 21
3.3409470881
 31
0.0
 11
4.8120443519
 21
3.3348635651
 31
0.0
 11
4.8073526911
 21
3.3293686779
 31
0.0
 11
4.8052240264
 21
3.3268441486
 31
0.0
 11
4.8032409832
 21
3.3244693891
 31
0.0
 11
4.8014041945
 21
3.3222452698
 31
0.0
 11
4.7997142937
 21
3.3201726611
 31
0.0
 11
4.7981719138
 21
3.3182524331
 31
0.0
 11
4.7967776881
 21
3.3164854564
 31
0.0
 11
4.7955322498
 21
3.3148726011
 31
0.0
 11
4.794436232
 21
3.3134147375
 31
0.0
 11
4.793490268
 21
3.3121127361
 31
0.0
 11
4.792694991
 21
3.310967467
 31
0.0
 11
4.7923540579
 21
3.3104538791
 31
0.0
 11
4.7920510341
 21
3.3099798007
 31
0.0
 11
4.7917859986
 21
3.3095453405
 31
0.0
 11
4.7915590305
 21
3.3091506073
 31
0.0
 11
4.7913702091
 21
3.30879571
 31
0.0
 11
4.7912196135
 21
3.3084807574
 31
0.0
 11
4.7911073228
 21
3.3082058581
 31
0.0
 11
4.7910334162
 21
3.3079711211
 31
0.0
 11
4.7909979729
 21
3.307776655
 31
0.0
 11
4.7909946996
 21
3.3076945576
 31
0.0
 11
4.7910010719
 21
3.3076225687
 31
0.0
 11
4.7910427924
 21
3.307508971
 31
0.0
 11
4.7910781605
 21
3.3074673893
 31
0.0
 11
4.7911232136
 21
3.3074359706
 31
0.0
  0
SPLINE
  5
4BC
100
AcDbEntity
  8
0
100
AcDbSpline
 62
9
  6
CONTINUOUS
 70
0
 71
3
 72
9
 73
5
 74
3
 42
0.0000001
 43
0.0000001
 44
0.0000000001
 12
0.0000390276
 22
-0.0000205956
 32
0.0
 13
0.0000419688
 23
-0.0000136364
 33
0.0
 40
0.0
 40
0.0
 40
0.0
 40
0.0
 40
0.2442278708
 40
1.0
 40
1.0
 40
1.0
 40
1.0
 10
4.7911232136
 20
3.3074359706
 30
0.0
 10
4.7911263908
 20
3.307434294
 30
0.0
 10
4.7911395562
 20
3.3074277266
 30
0.0
 10
4.7911533071
 20
3.3074223517
 30
0.0
 10
4.79116388
 20
3.3074189164
 30
0.0
 11
4.7911232136
 21
3.3074359706
 31
0.0
 11
4.7911328564
 21
3.3074311572
 31
0.0
 11
4.79116388
 21
3.3074189164
 31
0.0
  0
SPLINE
  5
4BD
100
AcDbEntity
  8
0
100
AcDbSpline
 62
6
  6
CONTINUOUS
 70
0
 71
3
 72
11
 73
7
 74
5
 42
0.0000001
 43
0.0000001
 44
0.0000000001
 12
0.0656836175
 22
-0.0437883251
 32
0.0
 13
0.0666735519
 23
-0.0422657368
 33
0.0
 40
0.0
 40
0.0
 40
0.0
 40
0.0
 40
0.2686002068
 40
0.5245987795
 40
0.768317558
 40
1.0
 40
1.0
 40
1.0
 40
1.0
 10
6.5201982245
 20
3.7577426497
 30
0.0
 10
6.5260791023
 20
3.753822132
 30
0.0
 10
6.537597948
 20
3.746214442
 30
0.0
 10
6.5545469901
 20
3.7351927704
 30
0.0
 10
6.5707429743
 20
3.7247957014
 30
0.0
 10
6.5812995743
 20
3.7180838064
 30
0.0
 10
6.5864486048
 20
3.71481973
 30
0.0
 11
6.5201982245
 21
3.7577426497
 31
0.0
 11
6.5378887447
 21
3.7460532469
 31
0.0
 11
6.5548288814
 21
3.7350336501
 31
0.0
 11
6.5710172321
 21
3.7246367112
 31
0.0
 11
6.5864486048
 21
3.71481973
 31
0.0
  0
SPLINE
  5
4BE
100
AcDbEntity
  8
0
100
AcDbSpline
 62
9
  6
CONTINUOUS
 70
0
 71
3
 72
24
 73
20
 74
18
 42
0.0000001
 43
0.0000001
 44
0.0000000001
 12
0.1898676602
 22
-0.2130724264
 32
0.0
 13
-0.118187823
 23
-0.2597714876
 33
0.0
 40
0.0
 40
0.0
 40
0.0
 40
0.0
 40
0.0804957678
 40
0.1574033999
 40
0.2309620907
 40
0.2665670833
 40
0.3014283734
 40
0.3690393183
 40
0.4340671977
 40
0.4967819422
 40
0.5574590206
 40
0.6163770457
 40
0.6738077658
 40
0.7300065216
 40
0.7852092713
 40
0.8396304304
 40
0.8934614087
 40
0.9468699113
 40
1.0
 40
1.0
 40
1.0
 40
1.0
 10
6.5864536992
 20
3.7148138977
 30
0.0
 10
6.5915482136
 20
3.7090967549
 30
0.0
 10
6.6012218258
 20
3.697655262
 30
0.0
 10
6.6144467427
 20
3.6800951064
 30
0.0
 10
6.6242413034
 20
3.665335904
 30
0.0
 10
6.6312656035
 20
3.6535697586
 30
0.0
 10
6.6376321565
 20
3.6420781539
 30
0.0
 10
6.6446658251
 20
3.6277653999
 30
0.0
 10
6.6516900247
 20
3.6105431544
 30
0.0
 10
6.6572418426
 20
3.5934826886
 30
0.0
 10
6.6613521344
 20
3.5766157799
 30
0.0
 10
6.6640517222
 20
3.5599751586
 30
0.0
 10
6.6653899725
 20
3.5435977457
 30
0.0
 10
6.6654170502
 20
3.5275194449
 30
0.0
 10
6.6641832941
 20
3.5117760706
 30
0.0
 10
6.6617393148
 20
3.496403306
 30
0.0
 10
6.6581356838
 20
3.4814362408
 30
0.0
 10
6.6534235935
 20
3.466910996
 30
0.0
 10
6.6495687459
 20
3.4575253759
 30
0.0
 10
6.647475636
 20
3.4529248152
 30
0.0
 11
6.5864536992
 21
3.7148138977
 31
0.0
 11
6.6012695587
 21
3.6972568906
 31
0.0
 11
6.6144568388
 21
3.6797111689
 31
0.0
 11
6.6260474472
 21
3.6622076887
 31
0.0
 11
6.6312539708
 21
3.6534814629
 31
0.0
 11
6.6360732919
 21
3.6447774061
 31
0.0
 11
6.6445662806
 21
3.6274512772
 31
0.0
 11
6.6515583212
 21
3.6102602581
 31
0.0
 11
6.6570813214
 21
3.5932353049
 31
0.0
 11
6.6611671891
 21
3.5764073737
 31
0.0
 11
6.6638508198
 21
3.5598080718
 31
0.0
 11
6.6651790565
 21
3.543471611
 31
0.0
 11
6.6652017285
 21
3.5274328539
 31
0.0
 11
6.6639686647
 21
3.5117266631
 31
0.0
 11
6.6615296944
 21
3.4963879012
 31
0.0
 11
6.6579346468
 21
3.4814514308
 31
0.0
 11
6.6532333509
 21
3.4669521146
 31
0.0
 11
6.647475636
 21
3.4529248152
 31
0.0
  0
SPLINE
  5
4BF
100
AcDbEntity
  8
0
100
AcDbSpline
 62
9
  6
CONTINUOUS
 70
0
 71
3
 72
16
 73
12
 74
10
 42
0.0000001
 43
0.0000001
 44
0.0000000001
 12
0.1736392616
 22
-0.1656625839
 32
0.0
 13
0.1773480038
 23
-0.1616860242
 33
0.0
 40
0.0
 40
0.0
 40
0.0
 40
0.0
 40
0.285315589
 40
0.425828964
 40
0.5609870642
 40
0.6880148036
 40
0.8048126373
 40
0.858772191
 40
0.9094505974
 40
0.9566068229
 40
1.0
 40
1.0
 40
1.0
 40
1.0
 10
6.4729203394
 20
3.6176162751
 30
0.0
 10
6.4894343355
 20
3.6018609025
 30
0.0
 10
6.5140860122
 20
3.5783512744
 30
0.0
 10
6.5466090438
 20
3.5474289678
 30
0.0
 10
6.5699890066
 20
3.525267077
 30
0.0
 10
6.592037698
 20
3.5044585387
 30
0.0
 10
6.6094096241
 20
3.4881584561
 30
0.0
 10
6.6223647834
 20
3.4760774067
 30
0.0
 10
6.6312655194
 20
3.4678173165
 30
0.0
 10
6.6395690073
 20
3.460156339
 30
0.0
 10
6.6449104049
 20
3.4552635053
 30
0.0
 10
6.647475636
 20
3.4529248152
 30
0.0
 11
6.4729203394
 21
3.6176162751
 31
0.0
 11
6.5224847481
 21
3.5703736686
 31
0.0
 11
6.5469254925
 21
3.547140073
 31
0.0
 11
6.5704694251
 21
3.5248284985
 31
0.0
 11
6.5926433572
 21
3.5039080002
 31
0.0
 11
6.6130888613
 21
3.484733206
 31
0.0
 11
6.6225604099
 21
3.4759023296
 31
0.0
 11
6.6314762
 21
3.4676301372
 31
0.0
 11
6.6397950144
 21
3.4599573815
 31
0.0
 11
6.647475636
 21
3.4529248152
 31
0.0
  0
LINE
  5
4C0
100
AcDbEntity
  8
0
100
AcDbLine
 62
6
  6
CONTINUOUS
 10
5.1225866764
 20
3.4504402542
 11
5.1064739921
 21
3.424960718
  0
LINE
  5
4C1
100
AcDbEntity
  8
0
100
AcDbLine
 62
6
  6
CONTINUOUS
 10
5.1064739921
 20
3.424960718
 11
5.1021993833
 21
3.4182127331
  0
SPLINE
  5
4C2
100
AcDbEntity
  8
0
100
AcDbSpline
 62
9
  6
CONTINUOUS
 70
0
 71
3
 72
38
 73
34
 74
32
 42
0.0000001
 43
0.0000001
 44
0.0000000001
 12
0.0797230281
 22
-0.0726825179
 32
0.0
 13
0.0503505418
 23
0.0954113859
 33
0.0
 40
0.0
 40
0.0
 40
0.0
 40
0.0
 40
0.2301129585
 40
0.334373105
 40
0.4313313375
 40
0.5209096875
 40
0.6030304734
 40
0.6776164276
 40
0.7445909002
 40
0.7752002027
 40
0.8038783684
 40
0.830616189
 40
0.8554046198
 40
0.8782348384
 40
0.8990983306
 40
0.917987023
 40
0.9348934946
 40
0.9498113318
 40
0.962735761
 40
0.968449858
 40
0.9736652723
 40
0.9783826512
 40
0.982603318
 40
0.9863296327
 40
0.9895656233
 40
0.9923181619
 40
0.9945993307
 40
0.9964316082
 40
0.9971932061
 40
0.9978631084
 40
0.9989848599
 40
0.9994908647
 40
1.0
 40
1.0
 40
1.0
 40
1.0
 10
6.647475636
 20
3.4529248152
 30
0.0
 10
6.6535907366
 20
3.4473497521
 30
0.0
 10
6.6624962985
 20
3.4392703771
 30
0.0
 10
6.6740354483
 20
3.4289051273
 30
0.0
 10
6.6818401235
 20
3.4219451414
 30
0.0
 10
6.6890768852
 20
3.4155446296
 30
0.0
 10
6.6957387366
 20
3.4097085975
 30
0.0
 10
6.7018186733
 20
3.404442049
 30
0.0
 10
6.7065255628
 20
3.4004197818
 30
0.0
 10
6.7099963422
 20
3.397492394
 30
0.0
 10
6.7123705303
 20
3.3955091625
 30
0.0
 10
6.7145940305
 20
3.39367211
 30
0.0
 10
6.7166659688
 20
3.3919818574
 30
0.0
 10
6.7185854614
 20
3.3904390111
 30
0.0
 10
6.7203516221
 20
3.3890441667
 30
0.0
 10
6.7219635611
 20
3.3877979097
 30
0.0
 10
6.7234203749
 20
3.3867007739
 30
0.0
 10
6.7247211734
 20
3.3857533207
 30
0.0
 10
6.7257111384
 20
3.3850630649
 30
0.0
 10
6.7264254926
 20
3.3845881106
 30
0.0
 10
6.7268993491
 20
3.3842846359
 30
0.0
 10
6.7273335657
 20
3.3840190256
 30
0.0
 10
6.7277280425
 20
3.383791323
 30
0.0
 10
6.728082689
 20
3.3836015299
 30
0.0
 10
6.7283974253
 20
3.3834496343
 30
0.0
 10
6.7286722868
 20
3.3833354785
 30
0.0
 10
6.7289073431
 20
3.383259016
 30
0.0
 10
6.7290799497
 20
3.3832242378
 30
0.0
 10
6.7291975255
 20
3.3832186999
 30
0.0
 10
6.7292890467
 20
3.3832258323
 30
0.0
 10
6.7293704408
 20
3.3832521187
 30
0.0
 10
6.7294298006
 20
3.383302255
 30
0.0
 10
6.7294507979
 20
3.3833326853
 30
0.0
 10
6.729459343
 20
3.3833488777
 30
0.0
 11
6.647475636
 21
3.4529248152
 31
0.0
 11
6.6658670256
 21
3.4362503184
 31
0.0
 11
6.6742354668
 21
3.4287348766
 31
0.0
 11
6.6820431222
 21
3.4217740599
 31
0.0
 11
6.6892830292
 21
3.4153729338
 31
0.0
 11
6.6959482255
 21
3.409536564
 31
0.0
 11
6.7020317485
 21
3.4042700159
 31
0.0
 11
6.7075266357
 21
3.3995783552
 31
0.0
 11
6.710051165
 21
3.3974496905
 31
0.0
 11
6.7124259245
 21
3.3954666473
 31
0.0
 11
6.7146500438
 21
3.3936298586
 31
0.0
 11
6.7167226526
 21
3.3919399577
 31
0.0
 11
6.7186428805
 21
3.3903975779
 31
0.0
 11
6.7204098573
 21
3.3890033522
 31
0.0
 11
6.7220227126
 21
3.3877579139
 31
0.0
 11
6.7234805761
 21
3.3866618961
 31
0.0
 11
6.7247825776
 21
3.3857159321
 31
0.0
 11
6.7259278466
 21
3.3849206551
 31
0.0
 11
6.7264414345
 21
3.384579722
 31
0.0
 11
6.726915513
 21
3.3842766982
 31
0.0
 11
6.7273499731
 21
3.3840116627
 31
0.0
 11
6.7277447063
 21
3.3837846946
 31
0.0
 11
6.7280996036
 21
3.3835958732
 31
0.0
 11
6.7284145562
 21
3.3834452776
 31
0.0
 11
6.7286894555
 21
3.3833329869
 31
0.0
 11
6.7289241926
 21
3.3832590803
 31
0.0
 11
6.7291186586
 21
3.3832236369
 31
0.0
 11
6.729200756
 21
3.3832203637
 31
0.0
 11
6.7292727449
 21
3.3832267359
 31
0.0
 11
6.7293863426
 21
3.3832684565
 31
0.0
 11
6.7294279243
 21
3.3833038246
 31
0.0
 11
6.729459343
 21
3.3833488777
 31
0.0
  0
SPLINE
  5
4C3
100
AcDbEntity
  8
0
100
AcDbSpline
 62
9
  6
CONTINUOUS
 70
0
 71
3
 72
9
 73
5
 74
3
 42
0.0000001
 43
0.0000001
 44
0.0000000001
 12
0.0000205956
 22
0.0000390276
 32
0.0
 13
0.0000136364
 23
0.0000419688
 33
0.0
 40
0.0
 40
0.0
 40
0.0
 40
0.0
 40
0.2442278708
 40
1.0
 40
1.0
 40
1.0
 40
1.0
 10
6.729459343
 20
3.3833488777
 30
0.0
 10
6.7294610197
 20
3.3833520549
 30
0.0
 10
6.729467587
 20
3.3833652203
 30
0.0
 10
6.7294729619
 20
3.3833789711
 30
0.0
 10
6.7294763972
 20
3.3833895441
 30
0.0
 11
6.729459343
 21
3.3833488777
 31
0.0
 11
6.7294641564
 21
3.3833585205
 31
0.0
 11
6.7294763972
 21
3.3833895441
 31
0.0
  0
LINE
  5
4C4
100
AcDbEntity
  8
0
100
AcDbLine
 62
6
  6
CONTINUOUS
 10
6.5864550585
 20
3.7148123415
 11
6.6119344489
 21
3.6986997494
  0
LINE
  5
4C5
100
AcDbEntity
  8
0
100
AcDbLine
 62
6
  6
CONTINUOUS
 10
6.6119344489
 20
3.6986997494
 11
6.6186825796
 21
3.6944250485
  0
SPLINE
  5
4C6
100
AcDbEntity
  8
0
100
AcDbSpline
 62
6
  6
CONTINUOUS
 70
0
 71
3
 72
16
 73
12
 74
10
 42
0.0000001
 43
0.0000001
 44
0.0000000001
 12
0.0449293714
 22
-0.0285071075
 32
0.0
 13
0.0420785738
 23
-0.0325683469
 33
0.0
 40
0.0
 40
0.0
 40
0.0
 40
0.0
 40
0.1552218079
 40
0.3026380319
 40
0.4418579862
 40
0.5724938062
 40
0.6941236831
 40
0.8062483536
 40
0.908370514
 40
0.9555310334
 40
1.0
 40
1.0
 40
1.0
 40
1.0
 10
6.6186798445
 20
3.6944281941
 30
0.0
 10
6.6210045173
 20
3.6929532192
 30
0.0
 10
6.6255346025
 20
3.6900737146
 30
0.0
 10
6.6321359391
 20
3.685849669
 30
0.0
 10
6.6383516157
 20
3.6818320927
 30
0.0
 10
6.6441586475
 20
3.6780250571
 30
0.0
 10
6.6495321233
 20
3.6744335913
 30
0.0
 10
6.6544439577
 20
3.6710622722
 30
0.0
 10
6.6582223125
 20
3.6683744339
 30
0.0
 10
6.6609865518
 20
3.6663325911
 30
0.0
 10
6.6622803032
 20
3.6653488547
 30
0.0
 10
6.6629040334
 20
3.6648660944
 30
0.0
 11
6.6186798445
 21
3.6944281941
 31
0.0
 11
6.6256491562
 21
3.6899958601
 31
0.0
 11
6.6322550575
 21
3.6857661245
 31
0.0
 11
6.638474984
 21
3.6817425199
 31
0.0
 11
6.6442863609
 21
3.6779285815
 31
0.0
 11
6.6496645351
 21
3.6743284345
 31
0.0
 11
6.6545802566
 21
3.6709475078
 31
0.0
 11
6.6590036601
 21
3.6677914051
 31
0.0
 11
6.6610213707
 21
3.6662994307
 31
0.0
 11
6.6629040334
 21
3.6648660944
 31
0.0
  0
SPLINE
  5
4C7
100
AcDbEntity
  8
0
100
AcDbSpline
 62
6
  6
CONTINUOUS
 70
0
 71
3
 72
11
 73
7
 74
5
 42
0.0000001
 43
0.0000001
 44
0.0000000001
 12
0.0070838893
 22
-0.0054828513
 32
0.0
 13
0.0063309079
 23
-0.0063374089
 33
0.0
 40
0.0
 40
0.0
 40
0.0
 40
0.0
 40
0.2845584259
 40
0.5464736661
 40
0.7851263067
 40
1.0
 40
1.0
 40
1.0
 40
1.0
 10
6.6629040334
 20
3.6648660944
 30
0.0
 10
6.6635759602
 20
3.6643460306
 30
0.0
 10
6.6648572112
 20
3.663335371
 30
0.0
 10
6.666663095
 20
3.66184002
 30
0.0
 10
6.6682674008
 20
3.6604288708
 30
0.0
 10
6.6692498319
 20
3.6594960478
 30
0.0
 10
6.6697032804
 20
3.6590421336
 30
0.0
 11
6.6629040334
 21
3.6648660944
 31
0.0
 11
6.664903712
 21
3.6632853181
 31
0.0
 11
6.6667086917
 21
3.66178642
 31
0.0
 11
6.668311154
 21
3.6603713689
 31
0.0
 11
6.6697032804
 21
3.6590421336
 31
0.0
  0
SPLINE
  5
4C8
100
AcDbEntity
  8
0
100
AcDbSpline
 62
6
  6
CONTINUOUS
 70
0
 71
3
 72
16
 73
12
 74
10
 42
0.0000001
 43
0.0000001
 44
0.0000000001
 12
-0.1420004756
 22
0.0174996822
 32
0.0
 13
-0.115314542
 23
0.0846931542
 33
0.0
 40
0.0
 40
0.0
 40
0.0
 40
0.0
 40
0.124981912
 40
0.1874715656
 40
0.2499599336
 40
0.3749301105
 40
0.4999234524
 40
0.6249386838
 40
0.749965144
 40
0.874989091
 40
1.0
 40
1.0
 40
1.0
 40
1.0
 10
6.532357011
 20
3.2959084282
 30
0.0
 10
6.5264411806
 20
3.2966374761
 30
0.0
 10
6.5175989763
 20
3.2980157369
 30
0.0
 10
6.5059220747
 20
3.3004232731
 30
0.0
 10
6.4943301467
 20
3.3032105734
 30
0.0
 10
6.4800171925
 20
3.3073963946
 30
0.0
 10
6.4631975776
 20
3.3135067175
 30
0.0
 10
6.4467962427
 20
3.3206714348
 30
0.0
 10
6.4308782232
 20
3.3288572682
 30
0.0
 10
6.4155090119
 20
3.3380304302
 30
0.0
 10
6.4056695617
 20
3.3447837826
 30
0.0
 10
6.4008643698
 20
3.348312972
 30
0.0
 11
6.532357011
 21
3.2959084282
 31
0.0
 11
6.514689028
 21
3.2986651312
 31
0.0
 11
6.5059325684
 21
3.3004707726
 31
0.0
 11
6.4972397342
 21
3.3025605743
 31
0.0
 11
6.4800778376
 21
3.307577176
 31
0.0
 11
6.4632686771
 21
3.3136818992
 31
0.0
 11
6.4468775015
 21
3.3208412922
 31
0.0
 11
6.4309695593
 21
3.3290219031
 31
0.0
 11
6.4156100992
 21
3.3381902803
 31
0.0
 11
6.4008643698
 21
3.348312972
 31
0.0
  0
SPLINE
  5
4C9
100
AcDbEntity
  8
0
100
AcDbSpline
 62
9
  6
CONTINUOUS
 70
0
 71
3
 72
11
 73
7
 74
5
 42
0.0000001
 43
0.0000001
 44
0.0000000001
 12
-0.0216573495
 22
-0.0313757873
 32
0.0
 13
-0.0269581232
 23
-0.0269581232
 33
0.0
 40
0.0
 40
0.0
 40
0.0
 40
0.0
 40
0.2467924469
 40
0.4962971367
 40
0.7476666945
 40
1.0
 40
1.0
 40
1.0
 40
1.0
 10
6.4729203394
 20
3.6176162751
 30
0.0
 10
6.471138716
 20
3.6150351727
 30
0.0
 10
6.467424879
 20
3.6099338851
 30
0.0
 10
6.4614756702
 20
3.6025213752
 30
0.0
 10
6.4551540335
 20
3.5953300319
 30
0.0
 10
6.4507225453
 20
3.5907077232
 30
0.0
 10
6.4484550679
 20
3.5884402458
 30
0.0
 11
6.4729203394
 21
3.6176162751
 31
0.0
 11
6.4673870119
 21
3.6100064963
 31
0.0
 11
6.4614363293
 21
3.6025854235
 31
0.0
 11
6.4551113338
 21
3.5953857691
 31
0.0
 11
6.4484550679
 21
3.5884402458
 31
0.0
  0
SPLINE
  5
4CA
100
AcDbEntity
  8
0
100
AcDbSpline
 62
9
  6
CONTINUOUS
 70
0
 71
3
 72
12
 73
8
 74
6
 42
0.0000001
 43
0.0000001
 44
0.0000000001
 12
-0.0189879473
 22
-0.0417346491
 32
0.0
 13
-0.0324216215
 23
-0.0324216215
 33
0.0
 40
0.0
 40
0.0
 40
0.0
 40
0.0
 40
0.2493582906
 40
0.3742533165
 40
0.4992638234
 40
0.749510259
 40
1.0
 40
1.0
 40
1.0
 40
1.0
 10
6.647475636
 20
3.4529248152
 30
0.0
 10
6.6458973687
 20
3.4494558549
 30
0.0
 10
6.6432833469
 20
3.4443561786
 30
0.0
 10
6.6393480634
 20
3.4378165735
 30
0.0
 10
6.6351154495
 20
3.4314482799
 30
0.0
 10
6.6292943255
 20
3.4238439379
 30
0.0
 10
6.6241182321
 20
3.4181912706
 30
0.0
 10
6.6214111375
 20
3.4154841761
 30
0.0
 11
6.647475636
 21
3.4529248152
 31
0.0
 11
6.6422648968
 21
3.4427478945
 31
0.0
 11
6.6393127406
 21
3.4378409175
 31
0.0
 11
6.6361402949
 21
3.4330670398
 31
0.0
 11
6.629167239
 21
3.423954913
 31
0.0
 11
6.6214111375
 21
3.4154841761
 31
0.0
  0
SPLINE
  5
4CB
100
AcDbEntity
  8
0
100
AcDbSpline
 62
6
  6
CONTINUOUS
 70
0
 71
3
 72
16
 73
12
 74
10
 42
0.0000001
 43
0.0000001
 44
0.0000000001
 12
-0.0285028589
 22
-0.0449226753
 32
0.0
 13
-0.032561084
 23
-0.042074167
 33
0.0
 40
0.0
 40
0.0
 40
0.0
 40
0.0
 40
0.155212426
 40
0.3026218973
 40
0.4418375165
 40
0.5724712364
 40
0.6941020524
 40
0.8062308981
 40
0.9083601336
 40
0.9555252606
 40
1.0
 40
1.0
 40
1.0
 40
1.0
 10
5.1022025301
 20
3.4182154691
 30
0.0
 10
5.1007278641
 20
3.4158912833
 30
0.0
 10
5.0978489437
 20
3.4113621137
 30
0.0
 10
5.0936257318
 20
3.4047620612
 30
0.0
 10
5.0896088991
 20
3.398547496
 30
0.0
 10
5.0858025079
 20
3.3927413957
 30
0.0
 10
5.0822116003
 20
3.3873686413
 30
0.0
 10
5.0788407492
 20
3.3824573007
 30
0.0
 10
5.0761532537
 20
3.3786792055
 30
0.0
 10
5.0741116358
 20
3.375915052
 30
0.0
 10
5.0731279989
 20
3.3746212982
 30
0.0
 10
5.0726452836
 20
3.3739975523
 30
0.0
 11
5.1022025301
 21
3.4182154691
 31
0.0
 11
5.0977711272
 21
3.4112476155
 31
0.0
 11
5.0935422251
 21
3.4046429953
 31
0.0
 11
5.089519363
 21
3.398424178
 31
0.0
 11
5.0857060827
 21
3.392613742
 31
0.0
 11
5.0821064999
 21
3.3872362908
 31
0.0
 11
5.0787260415
 21
3.3823210567
 31
0.0
 11
5.075570317
 21
3.3778979158
 31
0.0
 11
5.0740784976
 21
3.3758802509
 31
0.0
 11
5.0726452836
 21
3.3739975523
 31
0.0
  0
SPLINE
  5
4CC
100
AcDbEntity
  8
0
100
AcDbSpline
 62
6
  6
CONTINUOUS
 70
0
 71
3
 72
11
 73
7
 74
5
 42
0.0000001
 43
0.0000001
 44
0.0000000001
 12
-0.0054872989
 22
-0.0070904743
 32
0.0
 13
-0.0063430189
 23
-0.0063365122
 33
0.0
 40
0.0
 40
0.0
 40
0.0
 40
0.0
 40
0.2845771038
 40
0.5464994477
 40
0.7851462604
 40
1.0
 40
1.0
 40
1.0
 40
1.0
 10
5.0726452836
 20
3.3739975523
 30
0.0
 10
5.0721247637
 20
3.3733249567
 30
0.0
 10
5.0711132345
 20
3.3720424536
 30
0.0
 10
5.0696166152
 20
3.3702348476
 30
0.0
 10
5.0682043192
 20
3.3686291057
 30
0.0
 10
5.0672707433
 20
3.367645841
 30
0.0
 10
5.0668164695
 20
3.3671920332
 30
0.0
 11
5.0726452836
 21
3.3739975523
 31
0.0
 11
5.0710631162
 21
3.3719958836
 31
0.0
 11
5.0695629417
 21
3.3701891814
 31
0.0
 11
5.0681467347
 21
3.3685852849
 31
0.0
 11
5.0668164695
 21
3.3671920332
 31
0.0
  0
LINE
  5
4CD
100
AcDbEntity
  8
0
100
AcDbLine
 62
6
  6
CONTINUOUS
 10
6.5199590755
 20
3.7579041482
 11
6.520195031
 21
3.7577467887
  0
LINE
  5
4CE
100
AcDbEntity
  8
0
100
AcDbLine
 62
9
  6
CONTINUOUS
 10
6.1603844628
 20
3.8305453466
 11
6.1736605873
 21
3.8172231424
  0
LINE
  5
4CF
100
AcDbEntity
  8
0
100
AcDbLine
 62
6
  6
CONTINUOUS
 10
6.2789910876
 20
3.5169363547
 11
6.2791485233
 21
3.5167002849
  0
SPLINE
  5
4D0
100
AcDbEntity
  8
0
100
AcDbSpline
 62
9
  6
CONTINUOUS
 70
0
 71
3
 72
11
 73
7
 74
5
 42
0.0000001
 43
0.0000001
 44
0.0000000001
 12
-0.0269581232
 22
-0.0269581232
 32
0.0
 13
-0.0313757873
 23
-0.0216573495
 33
0.0
 40
0.0
 40
0.0
 40
0.0
 40
0.0
 40
0.2523333055
 40
0.5037028633
 40
0.7532075531
 40
1.0
 40
1.0
 40
1.0
 40
1.0
 10
6.4484550679
 20
3.5884402458
 30
0.0
 10
6.4461875904
 20
3.5861727683
 30
0.0
 10
6.4415652818
 20
3.5817412802
 30
0.0
 10
6.4343739384
 20
3.5754196434
 30
0.0
 10
6.4269614285
 20
3.5694704346
 30
0.0
 10
6.421860141
 20
3.5657565976
 30
0.0
 10
6.4192790385
 20
3.5639749742
 30
0.0
 11
6.4484550679
 21
3.5884402458
 31
0.0
 11
6.4415095445
 21
3.5817839798
 31
0.0
 11
6.4343098901
 21
3.5754589843
 31
0.0
 11
6.4268888173
 21
3.5695083017
 31
0.0
 11
6.4192790385
 21
3.5639749742
 31
0.0
  0
SPLINE
  5
4D1
100
AcDbEntity
  8
0
100
AcDbSpline
 62
9
  6
CONTINUOUS
 70
0
 71
3
 72
15
 73
11
 74
9
 42
0.0000001
 43
0.0000001
 44
0.0000000001
 12
0.248978569
 22
-0.2499533013
 32
0.0
 13
0.2435343941
 23
-0.255260611
 33
0.0
 40
0.0
 40
0.0
 40
0.0
 40
0.0
 40
0.106249012
 40
0.2210067568
 40
0.3426963279
 40
0.4697401214
 40
0.6005617481
 40
0.7335912201
 40
0.8672601223
 40
1.0
 40
1.0
 40
1.0
 40
1.0
 10
6.1736605873
 20
3.8172231424
 30
0.0
 10
6.1824784963
 20
3.808370712
 30
0.0
 10
6.2007677097
 20
3.7899043374
 30
0.0
 10
6.2290088509
 20
3.7611535023
 30
0.0
 10
6.2588648737
 20
3.73056137
 30
0.0
 10
6.2899573307
 20
3.6985365109
 30
0.0
 10
6.3219085147
 20
3.6654868351
 30
0.0
 10
6.3543353186
 20
3.631813427
 30
0.0
 10
6.3868554471
 20
3.5979168305
 30
0.0
 10
6.4085034633
 20
3.575269395
 30
0.0
 10
6.4192790385
 20
3.5639749742
 30
0.0
 11
6.1736605873
 21
3.8172231424
 31
0.0
 11
6.2000459323
 21
3.7905979107
 31
0.0
 11
6.2284224714
 21
3.7617202375
 31
0.0
 11
6.2584120752
 21
3.7309993246
 31
0.0
 11
6.2896366141
 21
3.6988443738
 31
0.0
 11
6.3217172946
 21
3.6656631301
 31
0.0
 11
6.3542726675
 21
3.6318575095
 31
0.0
 11
6.3869206199
 21
3.5978279711
 31
0.0
 11
6.4192790385
 21
3.5639749742
 31
0.0
  0
SPLINE
  5
4D2
100
AcDbEntity
  8
0
100
AcDbSpline
 62
9
  6
CONTINUOUS
 70
0
 71
3
 72
12
 73
8
 74
6
 42
0.0000001
 43
0.0000001
 44
0.0000000001
 12
-0.0324216215
 22
-0.0324216215
 32
0.0
 13
-0.0417346491
 23
-0.0189879473
 33
0.0
 40
0.0
 40
0.0
 40
0.0
 40
0.0
 40
0.250489741
 40
0.5007361766
 40
0.6257466835
 40
0.7506417094
 40
1.0
 40
1.0
 40
1.0
 40
1.0
 10
6.6214111375
 20
3.4154841761
 30
0.0
 10
6.618704043
 20
3.4127770816
 30
0.0
 10
6.6130513757
 20
3.4076009881
 30
0.0
 10
6.6054470337
 20
3.4017798641
 30
0.0
 10
6.5990787402
 20
3.3975472502
 30
0.0
 10
6.592539135
 20
3.3936119667
 30
0.0
 10
6.5874394587
 20
3.390997945
 30
0.0
 10
6.5839704985
 20
3.3894196776
 30
0.0
 11
6.6214111375
 21
3.4154841761
 31
0.0
 11
6.6129404006
 21
3.4077280746
 31
0.0
 11
6.6038282738
 21
3.4007550187
 31
0.0
 11
6.5990543961
 21
3.397582573
 31
0.0
 11
6.5941474191
 21
3.3946304168
 31
0.0
 11
6.5839704985
 21
3.3894196776
 31
0.0
  0
SPLINE
  5
4D3
100
AcDbEntity
  8
0
100
AcDbSpline
 62
9
  6
CONTINUOUS
 70
0
 71
3
 72
16
 73
12
 74
10
 42
0.0000001
 43
0.0000001
 44
0.0000000001
 12
0.1656625839
 22
-0.1736392616
 32
0.0
 13
0.1616860242
 23
-0.1773480038
 33
0.0
 40
0.0
 40
0.0
 40
0.0
 40
0.0
 40
0.285315589
 40
0.425828964
 40
0.5609870642
 40
0.6880148036
 40
0.8048126373
 40
0.858772191
 40
0.9094505974
 40
0.9566068229
 40
1.0
 40
1.0
 40
1.0
 40
1.0
 10
6.4192790385
 20
3.5639749742
 30
0.0
 10
6.4350344111
 20
3.5474609781
 30
0.0
 10
6.4585440392
 20
3.5228093014
 30
0.0
 10
6.4894663458
 20
3.4902862698
 30
0.0
 10
6.5116282366
 20
3.466906307
 30
0.0
 10
6.5324367749
 20
3.4448576156
 30
0.0
 10
6.5487368576
 20
3.4274856895
 30
0.0
 10
6.5608179069
 20
3.4145305302
 30
0.0
 10
6.5690779971
 20
3.4056297942
 30
0.0
 10
6.5767389746
 20
3.3973263063
 30
0.0
 10
6.5816318084
 20
3.3919849087
 30
0.0
 10
6.5839704985
 20
3.3894196776
 30
0.0
 11
6.4192790385
 21
3.5639749742
 31
0.0
 11
6.466521645
 21
3.5144105655
 31
0.0
 11
6.4897552406
 21
3.4899698211
 31
0.0
 11
6.5120668151
 21
3.4664258885
 31
0.0
 11
6.5329873135
 21
3.4442519564
 31
0.0
 11
6.5521621076
 21
3.4238064523
 31
0.0
 11
6.560992984
 21
3.4143349037
 31
0.0
 11
6.5692651764
 21
3.4054191136
 31
0.0
 11
6.5769379321
 21
3.3971002992
 31
0.0
 11
6.5839704985
 21
3.3894196776
 31
0.0
  0
SPLINE
  5
4D4
100
AcDbEntity
  8
0
100
AcDbSpline
 62
9
  6
CONTINUOUS
 70
0
 71
3
 72
38
 73
34
 74
32
 42
0.0000001
 43
0.0000001
 44
0.0000000001
 12
0.0726825087
 22
-0.079723018
 32
0.0
 13
-0.0954084268
 23
-0.0503561194
 33
0.0
 40
0.0
 40
0.0
 40
0.0
 40
0.0
 40
0.2301125761
 40
0.3343725716
 40
0.4313306804
 40
0.5209089346
 40
0.6030296529
 40
0.6776155682
 40
0.744590031
 40
0.7751993396
 40
0.8038775189
 40
0.8306153605
 40
0.8554038198
 40
0.8782340745
 40
0.8990976103
 40
0.917986354
 40
0.9348928845
 40
0.9498107882
 40
0.9627352914
 40
0.9684494283
 40
0.9736648841
 40
0.9783823063
 40
0.982603018
 40
0.9863293792
 40
0.9895654176
 40
0.9923180046
 40
0.9945992218
 40
0.996431546
 40
0.9971931651
 40
0.9978630864
 40
0.9989848632
 40
0.9994908704
 40
1.0
 40
1.0
 40
1.0
 40
1.0
 10
6.5839704985
 20
3.3894196776
 30
0.0
 10
6.5895455516
 20
3.3833045879
 30
0.0
 10
6.5976249127
 20
3.3743990414
 30
0.0
 10
6.6079901455
 20
3.3628599108
 30
0.0
 10
6.6149501219
 20
3.3550552468
 30
0.0
 10
6.6213506263
 20
3.3478184939
 30
0.0
 10
6.6271866533
 20
3.3411566492
 30
0.0
 10
6.6324531987
 20
3.3350767168
 30
0.0
 10
6.636475465
 20
3.3303698294
 30
0.0
 10
6.6394028531
 20
3.3268990506
 30
0.0
 10
6.6413860857
 20
3.324524862
 30
0.0
 10
6.6432231399
 20
3.3223013607
 30
0.0
 10
6.6449133948
 20
3.3202294208
 30
0.0
 10
6.6464562438
 20
3.3183099258
 30
0.0
 10
6.6478510917
 20
3.3165437622
 30
0.0
 10
6.6490973527
 20
3.3149318196
 30
0.0
 10
6.650194493
 20
3.3134750016
 30
0.0
 10
6.6511419515
 20
3.3121741982
 30
0.0
 10
6.651832212
 20
3.3111842289
 30
0.0
 10
6.6523071705
 20
3.3104698709
 30
0.0
 10
6.6526106485
 20
3.3099960112
 30
0.0
 10
6.6528762622
 20
3.3095617913
 30
0.0
 10
6.6531039683
 20
3.309167311
 30
0.0
 10
6.6532937651
 20
3.308812661
 30
0.0
 10
6.6534456646
 20
3.3084979209
 30
0.0
 10
6.6535598244
 20
3.3082230554
 30
0.0
 10
6.653636291
 20
3.3079879951
 30
0.0
 10
6.6536710728
 20
3.307815385
 30
0.0
 10
6.653676614
 20
3.3076978063
 30
0.0
 10
6.6536694844
 20
3.3076062826
 30
0.0
 10
6.6536432017
 20
3.3075248858
 30
0.0
 10
6.6535930687
 20
3.3074655221
 30
0.0
 10
6.6535626399
 20
3.307444523
 30
0.0
 10
6.6535464481
 20
3.3074359771
 30
0.0
 11
6.5839704985
 21
3.3894196776
 31
0.0
 11
6.6006449655
 21
3.371028321
 31
0.0
 11
6.6081603956
 21
3.3626598931
 31
0.0
 11
6.6151212028
 21
3.3548522489
 31
0.0
 11
6.6215223214
 21
3.3476123507
 31
0.0
 11
6.6273586861
 21
3.3409471611
 31
0.0
 11
6.6326252312
 21
3.3348636424
 31
0.0
 11
6.6373168913
 21
3.3293687573
 31
0.0
 11
6.6394455564
 21
3.326844228
 31
0.0
 11
6.6414286008
 21
3.324469468
 31
0.0
 11
6.6432653911
 21
3.3222453477
 31
0.0
 11
6.6449552942
 21
3.3201727372
 31
0.0
 11
6.6464976769
 21
3.318252507
 31
0.0
 11
6.6478919061
 21
3.3164855273
 31
0.0
 11
6.6491373484
 21
3.3148726684
 31
0.0
 11
6.6502333708
 21
3.3134148007
 31
0.0
 11
6.65117934
 21
3.3121127944
 31
0.0
 11
6.6519746229
 21
3.3109675199
 31
0.0
 11
6.652315559
 21
3.310453929
 31
0.0
 11
6.6526185862
 21
3.3099798475
 31
0.0
 11
6.6528836252
 21
3.309545384
 31
0.0
 11
6.6531105968
 21
3.3091506474
 31
0.0
 11
6.6532994219
 21
3.3087957465
 31
0.0
 11
6.6534500215
 21
3.30848079
 31
0.0
 11
6.6535623162
 21
3.3082058868
 31
0.0
 11
6.653636227
 21
3.3079711456
 31
0.0
 11
6.6536716748
 21
3.3077766753
 31
0.0
 11
6.6536749503
 21
3.3076945757
 31
0.0
 11
6.6536685803
 21
3.3076225845
 31
0.0
 11
6.6536268645
 21
3.3075089822
 31
0.0
 11
6.6535914988
 21
3.3074673982
 31
0.0
 11
6.6535464481
 21
3.3074359771
 31
0.0
  0
SPLINE
  5
4D5
100
AcDbEntity
  8
0
100
AcDbSpline
 62
9
  6
CONTINUOUS
 70
0
 71
3
 72
9
 73
5
 74
3
 42
0.0000001
 43
0.0000001
 44
0.0000000001
 12
-0.0000390326
 22
-0.0000206012
 32
0.0
 13
-0.0000419752
 23
-0.0000136395
 33
0.0
 40
0.0
 40
0.0
 40
0.0
 40
0.0
 40
0.2442275017
 40
1.0
 40
1.0
 40
1.0
 40
1.0
 10
6.6535464481
 20
3.3074359771
 30
0.0
 10
6.6535432705
 20
3.3074342999
 30
0.0
 10
6.6535301034
 20
3.3074277309
 30
0.0
 10
6.6535163505
 20
3.3074223546
 30
0.0
 10
6.6535057759
 20
3.3074189185
 30
0.0
 11
6.6535464481
 21
3.3074359771
 31
0.0
 11
6.653536804
 21
3.3074311624
 31
0.0
 11
6.6535057759
 21
3.3074189185
 31
0.0
  0
SPLINE
  5
4D6
100
AcDbEntity
  8
0
100
AcDbSpline
 62
9
  6
CONTINUOUS
 70
0
 71
3
 72
23
 73
19
 74
17
 42
0.0000001
 43
0.0000001
 44
0.0000000001
 12
-0.1526996169
 22
-0.1054019436
 32
0.0
 13
-0.1380480316
 23
0.1239737218
 33
0.0
 40
0.0
 40
0.0
 40
0.0
 40
0.0
 40
0.0663124862
 40
0.1316554784
 40
0.1959171116
 40
0.2590300519
 40
0.3209804475
 40
0.3818180434
 40
0.4416670334
 40
0.5007367699
 40
0.5593324131
 40
0.6178607121
 40
0.6768181747
 40
0.7367803929
 40
0.7983869395
 40
0.8623214456
 40
0.9292898375
 40
1.0
 40
1.0
 40
1.0
 40
1.0
 10
6.4192790385
 20
3.5639749742
 30
0.0
 10
6.4159037414
 20
3.5616451526
 30
0.0
 10
6.4091008551
 20
3.5571643544
 30
0.0
 10
6.3986692998
 20
3.5509897113
 30
0.0
 10
6.3881003747
 20
3.5454658801
 30
0.0
 10
6.3774174581
 20
3.5406537246
 30
0.0
 10
6.3666434009
 20
3.5366142188
 30
0.0
 10
6.3558009924
 20
3.5334088864
 30
0.0
 10
6.3449130485
 20
3.5310999071
 30
0.0
 10
6.3340025927
 20
3.5297502185
 30
0.0
 10
6.3230933982
 20
3.5294235998
 30
0.0
 10
6.3122104383
 20
3.5301771299
 30
0.0
 10
6.3013790282
 20
3.5320672766
 30
0.0
 10
6.2906255265
 20
3.5351494906
 30
0.0
 10
6.2799768829
 20
3.5394775583
 30
0.0
 10
6.2694594201
 20
3.5451038529
 30
0.0
 10
6.2590995852
 20
3.5520784839
 30
0.0
 10
6.2525127545
 20
3.5574974414
 30
0.0
 10
6.2492589549
 20
3.5604195087
 30
0.0
 11
6.4192790385
 21
3.5639749742
 31
0.0
 11
6.4089982255
 21
3.5572154493
 31
0.0
 11
6.3985591184
 21
3.5510496456
 31
0.0
 11
6.3879859977
 21
3.5455381729
 31
0.0
 11
6.3773031437
 21
3.5407416407
 31
0.0
 11
6.366534837
 21
3.5367206586
 31
0.0
 11
6.3557053579
 21
3.5335358363
 31
0.0
 11
6.3448389869
 21
3.5312477833
 31
0.0
 11
6.3339600045
 21
3.5299171092
 31
0.0
 11
6.3230924388
 21
3.5296032674
 31
0.0
 11
6.3122593122
 21
3.5303610948
 31
0.0
 11
6.3014833958
 21
3.5322442771
 31
0.0
 11
6.2907874606
 21
3.5353065
 31
0.0
 11
6.2801942778
 21
3.539601449
 31
0.0
 11
6.2697266185
 21
3.5451828097
 31
0.0
 11
6.2594072538
 21
3.5521042677
 31
0.0
 11
6.2492589549
 21
3.5604195087
 31
0.0
  0
SPLINE
  5
4D7
100
AcDbEntity
  8
0
100
AcDbSpline
 62
9
  6
CONTINUOUS
 70
0
 71
3
 72
24
 73
20
 74
18
 42
0.0000001
 43
0.0000001
 44
0.0000000001
 12
-0.2597714876
 22
-0.118187823
 32
0.0
 13
-0.2130724264
 23
0.1898676602
 33
0.0
 40
0.0
 40
0.0
 40
0.0
 40
0.0
 40
0.0531300887
 40
0.1065385913
 40
0.1603695696
 40
0.2147907287
 40
0.2699934784
 40
0.3261922342
 40
0.3836229543
 40
0.4425409794
 40
0.5032180578
 40
0.5659328023
 40
0.6309606817
 40
0.6985716266
 40
0.7334329167
 40
0.7690379093
 40
0.8425966001
 40
0.9195042322
 40
1.0
 40
1.0
 40
1.0
 40
1.0
 10
6.5839704985
 20
3.3894196776
 30
0.0
 10
6.5793699377
 20
3.3873265678
 30
0.0
 10
6.5699843176
 20
3.3834717202
 30
0.0
 10
6.5554590728
 20
3.3787596298
 30
0.0
 10
6.5404920076
 20
3.3751559988
 30
0.0
 10
6.525119243
 20
3.3727120195
 30
0.0
 10
6.5093758687
 20
3.3714782634
 30
0.0
 10
6.4932975679
 20
3.3715053411
 30
0.0
 10
6.4769201551
 20
3.3728435914
 30
0.0
 10
6.4602795337
 20
3.3755431792
 30
0.0
 10
6.443412625
 20
3.379653471
 30
0.0
 10
6.4263521592
 20
3.3852052889
 30
0.0
 10
6.4091299137
 20
3.3922294886
 30
0.0
 10
6.3948171597
 20
3.3992631571
 30
0.0
 10
6.383325555
 20
3.4056297101
 30
0.0
 10
6.3715594097
 20
3.4126540102
 30
0.0
 10
6.3568002072
 20
3.4224485709
 30
0.0
 10
6.3392400516
 20
3.4356734878
 30
0.0
 10
6.3277985588
 20
3.4453471001
 30
0.0
 10
6.3220814159
 20
3.4504416144
 30
0.0
 11
6.5839704985
 21
3.3894196776
 31
0.0
 11
6.569943199
 21
3.3836619627
 31
0.0
 11
6.5554438828
 21
3.3789606668
 31
0.0
 11
6.5405074125
 21
3.3753656192
 31
0.0
 11
6.5251686505
 21
3.3729266489
 31
0.0
 11
6.5094624597
 21
3.3716935852
 31
0.0
 11
6.4934237026
 21
3.3717162571
 31
0.0
 11
6.4770872418
 21
3.3730444938
 31
0.0
 11
6.4604879399
 21
3.3757281245
 31
0.0
 11
6.4436600087
 21
3.3798139922
 31
0.0
 11
6.4266350555
 21
3.3853369925
 31
0.0
 11
6.4094440364
 21
3.392329033
 31
0.0
 11
6.3921179075
 21
3.4008220217
 31
0.0
 11
6.3834138507
 21
3.4056413428
 31
0.0
 11
6.3746876249
 21
3.4108478664
 31
0.0
 11
6.3571841447
 21
3.4224384749
 31
0.0
 11
6.339638423
 21
3.4356257549
 31
0.0
 11
6.3220814159
 21
3.4504416144
 31
0.0
  0
SPLINE
  5
4D8
100
AcDbEntity
  8
0
100
AcDbSpline
 62
6
  6
CONTINUOUS
 70
0
 71
3
 72
16
 73
12
 74
10
 42
0.0000001
 43
0.0000001
 44
0.0000000001
 12
0.0847166406
 22
-0.1153262522
 32
0.0
 13
0.017502585
 23
-0.1420236359
 33
0.0
 40
0.0
 40
0.0
 40
0.0
 40
0.0
 40
0.1250108873
 40
0.2500348226
 40
0.3750612849
 40
0.5000765277
 40
0.6250698825
 40
0.7500400663
 40
0.812528437
 40
0.8750180914
 40
1.0
 40
1.0
 40
1.0
 40
1.0
 10
6.6885684616
 20
3.636049841
 30
0.0
 10
6.692098629
 20
3.6312441619
 30
0.0
 10
6.6988538536
 20
3.6214036332
 30
0.0
 10
6.7080295491
 20
3.6060325308
 30
0.0
 10
6.7162176264
 20
3.5901123771
 30
0.0
 10
6.7233842818
 20
3.573708697
 30
0.0
 10
6.7294962206
 20
3.5568865574
 30
0.0
 10
6.7336831067
 20
3.5425713751
 30
0.0
 10
6.7364710813
 20
3.5309776077
 30
0.0
 10
6.7388791699
 20
3.5192988335
 30
0.0
 10
6.740257705
 20
3.5104551917
 30
0.0
 10
6.7409868738
 20
3.5045383967
 30
0.0
 11
6.6885684616
 21
3.636049841
 31
0.0
 11
6.6986939573
 21
3.621302501
 31
0.0
 11
6.7078648654
 21
3.605941155
 31
0.0
 11
6.7160477178
 21
3.5900310836
 31
0.0
 11
6.7232090464
 21
3.5736375674
 31
0.0
 11
6.7293153831
 21
3.556825887
 31
0.0
 11
6.7343332596
 21
3.539661323
 31
0.0
 11
6.7364235666
 21
3.5309671097
 31
0.0
 11
6.738229622
 21
3.5222092461
 31
0.0
 11
6.7409868738
 21
3.5045383967
 31
0.0
  0
SPLINE
  5
4D9
100
AcDbEntity
  8
0
100
AcDbSpline
 62
9
  6
CONTINUOUS
 70
0
 71
3
 72
11
 73
7
 74
5
 42
0.0000001
 43
0.0000001
 44
0.0000000001
 12
-0.0313757873
 22
0.0216573495
 32
0.0
 13
-0.0269581232
 23
0.0269581232
 33
0.0
 40
0.0
 40
0.0
 40
0.0
 40
0.0
 40
0.2467924469
 40
0.4962971367
 40
0.7476666945
 40
1.0
 40
1.0
 40
1.0
 40
1.0
 10
5.025390611
 20
3.5639749742
 30
0.0
 10
5.0228095086
 20
3.5657565976
 30
0.0
 10
5.017708221
 20
3.5694704346
 30
0.0
 10
5.0102957111
 20
3.5754196434
 30
0.0
 10
5.0031043678
 20
3.5817412802
 30
0.0
 10
4.9984820591
 20
3.5861727683
 30
0.0
 10
4.9962145817
 20
3.5884402458
 30
0.0
 11
5.025390611
 21
3.5639749742
 31
0.0
 11
5.0177808322
 21
3.5695083017
 31
0.0
 11
5.0103597594
 21
3.5754589843
 31
0.0
 11
5.0031601051
 21
3.5817839798
 31
0.0
 11
4.9962145817
 21
3.5884402458
 31
0.0
  0
SPLINE
  5
4DA
100
AcDbEntity
  8
0
100
AcDbSpline
 62
9
  6
CONTINUOUS
 70
0
 71
3
 72
12
 73
8
 74
6
 42
0.0000001
 43
0.0000001
 44
0.0000000001
 12
-0.0417346491
 22
0.0189879473
 32
0.0
 13
-0.0324216215
 23
0.0324216215
 33
0.0
 40
0.0
 40
0.0
 40
0.0
 40
0.0
 40
0.2493582906
 40
0.3742533165
 40
0.4992638234
 40
0.749510259
 40
1.0
 40
1.0
 40
1.0
 40
1.0
 10
4.8606991511
 20
3.3894196776
 30
0.0
 10
4.8572301908
 20
3.390997945
 30
0.0
 10
4.8521305146
 20
3.3936119667
 30
0.0
 10
4.8455909094
 20
3.3975472502
 30
0.0
 10
4.8392226159
 20
3.4017798641
 30
0.0
 10
4.8316182739
 20
3.4076009881
 30
0.0
 10
4.8259656065
 20
3.4127770816
 30
0.0
 10
4.823258512
 20
3.4154841761
 30
0.0
 11
4.8606991511
 21
3.3894196776
 31
0.0
 11
4.8505222304
 21
3.3946304168
 31
0.0
 11
4.8456152534
 21
3.397582573
 31
0.0
 11
4.8408413757
 21
3.4007550187
 31
0.0
 11
4.8317292489
 21
3.4077280746
 31
0.0
 11
4.823258512
 21
3.4154841761
 31
0.0
  0
SPLINE
  5
4DB
100
AcDbEntity
  8
0
100
AcDbSpline
 62
6
  6
CONTINUOUS
 70
0
 71
3
 72
11
 73
7
 74
5
 42
0.0000001
 43
0.0000001
 44
0.0000000001
 12
0.043788244
 22
-0.065683496
 32
0.0
 13
0.0422656599
 23
-0.0666734276
 33
0.0
 40
0.0
 40
0.0
 40
0.0
 40
0.0
 40
0.2686001661
 40
0.5245987257
 40
0.7683175181
 40
1.0
 40
1.0
 40
1.0
 40
1.0
 10
6.2791526627
 20
3.5166970902
 30
0.0
 10
6.2830731725
 20
3.5108162242
 30
0.0
 10
6.2906808477
 20
3.4992974011
 30
0.0
 10
6.3017024987
 20
3.4823483914
 30
0.0
 10
6.3120995493
 20
3.4661524365
 30
0.0
 10
6.318811433
 20
3.455595855
 30
0.0
 10
6.322075504
 20
3.4504468333
 30
0.0
 11
6.2791526627
 21
3.5166970902
 31
0.0
 11
6.2908420422
 21
3.4990066055
 31
0.0
 11
6.3018616183
 21
3.4820665013
 31
0.0
 11
6.3122585389
 21
3.4658781798
 31
0.0
 11
6.322075504
 21
3.4504468333
 31
0.0
  0
LINE
  5
4DC
100
AcDbEntity
  8
0
100
AcDbLine
 62
6
  6
CONTINUOUS
 10
6.3220828936
 20
3.4504403786
 11
6.3381955142
 21
3.4249609433
  0
LINE
  5
4DD
100
AcDbEntity
  8
0
100
AcDbLine
 62
6
  6
CONTINUOUS
 10
6.3381955142
 20
3.4249609433
 11
6.3424702646
 21
3.4182127345
  0
SPLINE
  5
4DE
100
AcDbEntity
  8
0
100
AcDbSpline
 62
6
  6
CONTINUOUS
 70
0
 71
3
 72
16
 73
12
 74
10
 42
0.0000001
 43
0.0000001
 44
0.0000000001
 12
0.0285070425
 22
-0.0449292689
 32
0.0
 13
0.0325682264
 23
-0.0420785136
 33
0.0
 40
0.0
 40
0.0
 40
0.0
 40
0.0
 40
0.1552218497
 40
0.3026376842
 40
0.4418571552
 40
0.5724927168
 40
0.6941227123
 40
0.8062477176
 40
0.9083702452
 40
0.9555309139
 40
1.0
 40
1.0
 40
1.0
 40
1.0
 10
6.3424667032
 20
3.4182150569
 30
0.0
 10
6.3439416751
 20
3.4158903888
 30
0.0
 10
6.3468212168
 20
3.4113603489
 30
0.0
 10
6.3510454022
 20
3.4047591402
 30
0.0
 10
6.3550631366
 20
3.39854361
 30
0.0
 10
6.3588702876
 20
3.3927366862
 30
0.0
 10
6.3624617794
 20
3.3873632417
 30
0.0
 10
6.3658330786
 20
3.3824513928
 30
0.0
 10
6.3685208866
 20
3.3786730109
 30
0.0
 10
6.3705627164
 20
3.3759087575
 30
0.0
 10
6.3715464505
 20
3.3746150031
 30
0.0
 10
6.3720292103
 20
3.3739912721
 30
0.0
 11
6.3424667032
 21
3.4182150569
 31
0.0
 11
6.3468990924
 21
3.4112458001
 31
0.0
 11
6.3511289556
 21
3.4046400263
 31
0.0
 11
6.355152704
 21
3.3984202434
 31
0.0
 11
6.3589667458
 21
3.3926089699
 31
0.0
 11
6.3625669253
 21
3.3872308276
 31
0.0
 11
6.3659478381
 21
3.3823150914
 31
0.0
 11
6.3691039128
 21
3.3778916592
 31
0.0
 11
6.370595878
 21
3.375873939
 31
0.0
 11
6.3720292103
 21
3.3739912721
 31
0.0
  0
SPLINE
  5
4DF
100
AcDbEntity
  8
0
100
AcDbSpline
 62
6
  6
CONTINUOUS
 70
0
 71
3
 72
11
 73
7
 74
5
 42
0.0000001
 43
0.0000001
 44
0.0000000001
 12
0.0054828434
 22
-0.0070838951
 32
0.0
 13
0.0063374087
 23
-0.0063309077
 33
0.0
 40
0.0
 40
0.0
 40
0.0
 40
0.0
 40
0.2845584507
 40
0.5464736697
 40
0.7851262953
 40
1.0
 40
1.0
 40
1.0
 40
1.0
 10
6.3720292103
 20
3.3739912721
 30
0.0
 10
6.3725492734
 20
3.3733193447
 30
0.0
 10
6.3735599333
 20
3.3720380939
 30
0.0
 10
6.3750552879
 20
3.3702322131
 30
0.0
 10
6.3764664413
 20
3.3686279112
 30
0.0
 10
6.3773992658
 20
3.3676454817
 30
0.0
 10
6.37785318
 20
3.3671920332
 30
0.0
 11
6.3720292103
 21
3.3739912721
 31
0.0
 11
6.3736099869
 21
3.3719915935
 31
0.0
 11
6.3751088881
 21
3.3701866168
 31
0.0
 11
6.3765239429
 21
3.368584158
 31
0.0
 11
6.37785318
 21
3.3671920332
 31
0.0
  0
SPLINE
  5
4E0
100
AcDbEntity
  8
0
100
AcDbSpline
 62
6
  6
CONTINUOUS
 70
0
 71
3
 72
16
 73
12
 74
10
 42
0.0000001
 43
0.0000001
 44
0.0000000001
 12
-0.0175008478
 22
-0.1420092541
 32
0.0
 13
-0.0847021164
 23
-0.1153189464
 33
0.0
 40
0.0
 40
0.0
 40
0.0
 40
0.0
 40
0.1249819108
 40
0.1874715649
 40
0.249959934
 40
0.3749301139
 40
0.4999234609
 40
0.6249386967
 40
0.7499651576
 40
0.8749890998
 40
1.0
 40
1.0
 40
1.0
 40
1.0
 10
6.7409868655
 20
5.1245825135
 30
0.0
 10
6.740257769
 20
5.1186663175
 30
0.0
 10
6.7388794002
 20
5.1098235685
 30
0.0
 10
6.736471649
 20
5.0981459576
 30
0.0
 10
6.7336840876
 20
5.086553333
 30
0.0
 10
6.7294978558
 20
5.0722395354
 30
0.0
 10
6.7233869124
 20
5.0554189654
 30
0.0
 10
6.7162214525
 20
5.039016744
 30
0.0
 10
6.7080347607
 20
5.0230979185
 30
0.0
 10
6.6988606308
 20
5.0077279938
 30
0.0
 10
6.6921065637
 20
4.9978881375
 30
0.0
 10
6.6885770011
 20
4.9930827624
 30
0.0
 11
6.7409868655
 21
5.1245825135
 31
0.0
 11
6.7382299462
 21
5.1069134444
 31
0.0
 11
6.7364241437
 21
5.0981564529
 31
0.0
 11
6.7343341464
 21
5.0894630965
 31
0.0
 11
6.7293170532
 21
5.0723001901
 31
0.0
 11
6.7232117104
 21
5.0554900764
 31
0.0
 11
6.7160515757
 21
5.039098016
 31
0.0
 11
6.7078701074
 21
5.0231892697
 31
0.0
 11
6.6987007632
 21
5.0078290983
 31
0.0
 11
6.6885770011
 21
4.9930827624
 31
0.0
  0
LINE
  5
4E1
100
AcDbEntity
  8
0
100
AcDbLine
 62
6
  6
CONTINUOUS
 10
6.2789925701
 20
5.1121868458
 11
6.2791485227
 21
5.112420692
  0
LINE
  5
4E2
100
AcDbEntity
  8
0
100
AcDbLine
 62
6
  6
CONTINUOUS
 10
6.5199610655
 20
4.8712181566
 11
6.5201950249
 21
4.8713741846
  0
SPLINE
  5
4E3
100
AcDbEntity
  8
0
100
AcDbSpline
 62
6
  6
CONTINUOUS
 70
0
 71
3
 72
16
 73
12
 74
10
 42
0.0000001
 43
0.0000001
 44
0.0000000001
 12
0.115258069
 22
0.0845843131
 32
0.0
 13
0.1418911313
 23
0.0174881491
 33
0.0
 40
0.0
 40
0.0
 40
0.0
 40
0.0
 40
0.1250109985
 40
0.2500349917
 40
0.3750614399
 40
0.5000766208
 40
0.6250699093
 40
0.750040062
 40
0.8125284206
 40
0.8750180722
 40
1.0
 40
1.0
 40
1.0
 40
1.0
 10
6.4009499897
 20
5.2808708656
 30
0.0
 10
6.4057528318
 20
5.2843955221
 30
0.0
 10
6.4155870973
 20
5.2911402068
 30
0.0
 10
6.4309472606
 20
5.3003016694
 30
0.0
 10
6.4468551041
 20
5.308477174
 30
0.0
 10
6.4632452851
 20
5.3156330108
 30
0.0
 10
6.4800529179
 20
5.3217359771
 30
0.0
 10
6.494355315
 20
5.3259170011
 30
0.0
 10
6.5059385373
 20
5.3287013037
 30
0.0
 10
6.5176065825
 20
5.331106418
 30
0.0
 10
6.526441996
 20
5.3324835211
 30
0.0
 10
6.5323532717
 20
5.3332120887
 30
0.0
 11
6.4009499897
 21
5.2808708656
 31
0.0
 11
6.4156879754
 21
5.2909805756
 31
0.0
 11
6.4310384122
 21
5.3001372649
 31
0.0
 11
6.4469362018
 21
5.3083075587
 31
0.0
 11
6.4633162459
 21
5.3154580825
 31
0.0
 11
6.4801134461
 21
5.3215554614
 31
0.0
 11
6.4972627041
 21
5.3265663208
 31
0.0
 11
6.5059490116
 21
5.3286538761
 31
0.0
 11
6.514698831
 21
5.3304577022
 31
0.0
 11
6.5323532717
 21
5.3332120887
 31
0.0
  0
SPLINE
  5
4E4
100
AcDbEntity
  8
0
100
AcDbSpline
 62
6
  6
CONTINUOUS
 70
0
 71
3
 72
16
 73
12
 74
10
 42
0.0000001
 43
0.0000001
 44
0.0000000001
 12
0.1420092683
 22
-0.0175008497
 32
0.0
 13
0.1153189535
 23
-0.084702131
 33
0.0
 40
0.0
 40
0.0
 40
0.0
 40
0.0
 40
0.1249819108
 40
0.1874715649
 40
0.249959934
 40
0.3749301139
 40
0.4999234609
 40
0.6249386967
 40
0.7499651576
 40
0.8749890998
 40
1.0
 40
1.0
 40
1.0
 40
1.0
 10
4.9123128004
 20
5.3332125295
 30
0.0
 10
4.918228997
 20
5.332483433
 30
0.0
 10
4.9270717469
 20
5.3311050639
 30
0.0
 10
4.938749359
 20
5.3286973124
 30
0.0
 10
4.9503419847
 20
5.3259097506
 30
0.0
 10
4.9646557837
 20
5.3217235182
 30
0.0
 10
4.9814763552
 20
5.3156125737
 30
0.0
 10
4.9978785781
 20
5.3084471126
 30
0.0
 10
5.0137974049
 20
5.3002604195
 30
0.0
 10
5.0291673307
 20
5.2910862879
 30
0.0
 10
5.0390071876
 20
5.2843322197
 30
0.0
 10
5.043812563
 20
5.2808026565
 30
0.0
 11
4.9123128004
 21
5.3332125295
 31
0.0
 11
4.9299818714
 21
5.3304556099
 31
0.0
 11
4.9387388637
 21
5.3286498072
 31
0.0
 11
4.947432221
 21
5.3265598095
 31
0.0
 11
4.9645951289
 21
5.3215427155
 31
0.0
 11
4.9814052442
 21
5.3154373716
 31
0.0
 11
4.997797306
 21
5.3082772358
 31
0.0
 11
5.0137060536
 21
5.300095766
 31
0.0
 11
5.0290662262
 21
5.2909264203
 31
0.0
 11
5.043812563
 21
5.2808026565
 31
0.0
  0
LINE
  5
4E5
100
AcDbEntity
  8
0
100
AcDbLine
 62
6
  6
CONTINUOUS
 10
4.9247084678
 20
4.8712182342
 11
4.9244746216
 21
4.8713741868
  0
LINE
  5
4E6
100
AcDbEntity
  8
0
100
AcDbLine
 62
6
  6
CONTINUOUS
 10
5.1656771571
 20
5.1121867296
 11
5.165521129
 21
5.1124206889
  0
ENDSEC
  0
SECTION
  2
OBJECTS
  0
DICTIONARY
  5
C
100
AcDbDictionary
280
0
281
1
  3
ACAD_GROUP
350
D
  3
ACAD_MLINESTYLE
350
17
  3
ACAD_LAYOUT
350
1A
  3
ACAD_PLOTSETTINGS
350
19
  3
ACAD_PLOTSTYLENAME
350
E
  0
DICTIONARY
  5
D
102
{ACAD_REACTORS
330
C
102
}
100
AcDbDictionary
280
0
281
1
  0
ACDBDICTIONARYWDFLT
  5
E
102
{ACAD_REACTORS
330
C
102
}
100
AcDbDictionary
281
1
  3
Normal
350
F
100
AcDbDictionaryWithDefault
340
F
  0
DICTIONARY
  5
17
102
{ACAD_REACTORS
330
C
102
}
100
AcDbDictionary
280
0
281
1
  3
Standard
350
18
  0
DICTIONARY
  5
19
102
{ACAD_REACTORS
330
C
102
}
100
AcDbDictionary
281
1
  0
DICTIONARY
  5
1A
102
{ACAD_REACTORS
330
C
102
}
100
AcDbDictionary
281
1
  3
Model
350
4E7
  3
Layout1
350
4E8
  0
ACDBPLACEHOLDER
  5
F
102
{ACAD_REACTORS
330
E
102
}
  0
MLINESTYLE
  5
18
102
{ACAD_REACTORS
330
17
102
}
100
AcDbMlineStyle
  2
STANDARD
 70
0
  3

 62
256
 51
90.0
 52
90.0
 71
2
 49
0.5
 62
256
  6
BYLAYER
 49
-0.5
 62
256
  6
BYLAYER
  0
LAYOUT
  5
4E7
102
{ACAD_REACTORS
330
1A
102
}
100
AcDbPlotSettings
  1

  2
none_device
  4
ISO_A4_(297.00_x_210.00_MM)
  6

 40
0.0
 41
0.0
 42
0.0
 43
0.0
 44
297.0
 45
210.0
 46
0.0
 47
0.0
 48
0.0
 49
0.0
140
0.0
141
0.0
142
1.0
143
1.0
 70
1024
 72
0
 73
0
 74
0
  7

 75
0
147
1.0
148
0.0
149
0.0
100
AcDbLayout
  1
Model
 70
0
 71
0
 10
0.0
 20
0.0
 11
11.6929133858
 21
8.2677165354
 12
0.0
 22
0.0
 32
0.0
 14
0.0
 24
0.0
 34
0.0
 15
0.0
 25
0.0
 35
0.0
146
0.0
 13
0.0
 23
0.0
 33
0.0
 16
1.0
 26
0.0
 36
0.0
 17
0.0
 27
1.0
 37
0.0
 76
0
330
203
345
0
346
0
  0
LAYOUT
  5
4E8
102
{ACAD_REACTORS
330
1A
102
}
100
AcDbPlotSettings
  1

  2
none_device
  4
ISO_A4_(297.00_x_210.00_MM)
  6

 40
0.0
 41
0.0
 42
0.0
 43
0.0
 44
297.0
 45
210.0
 46
0.0
 47
0.0
 48
0.0
 49
0.0
140
0.0
141
0.0
142
1.0
143
1.0
 70
0
 72
0
 73
0
 74
0
  7

 75
0
147
1.0
148
0.0
149
0.0
100
AcDbLayout
  1
Layout1
 70
0
 71
1
 10
0.0
 20
0.0
 11
11.6929133858
 21
8.2677165354
 12
0.0
 22
0.0
 32
0.0
 14
0.0
 24
0.0
 34
0.0
 15
0.0
 25
0.0
 35
0.0
146
0.0
 13
0.0
 23
0.0
 33
0.0
 16
1.0
 26
0.0
 36
0.0
 17
0.0
 27
1.0
 37
0.0
 76
0
330
204
345
0
346
0
  0
ENDSEC
  0
EOF
