999
DXF file: 3-2903tr_FRONT.dxf
999
Pro/ENGINEER 2013150 by Parametric Technology Corporation
  0
SECTION
  2
HEADER
  9
$ACADVER
  1
AC1021
  9
$DWGCODEPAGE
  3
ANSI_1252
  9
$EXTMAX
 10
11.0
 20
8.5
 30
0.0
  9
$EXTMIN
 10
0.0
 20
0.0
 30
0.0
  9
$LIMMIN
 10
0.0
 20
0.0
  9
$LIMMAX
 10
11.0
 20
8.5
  9
$VIEWCTR
 10
5.5
 20
4.25
  9
$VIEWSIZE
 40
8.5
  9
$CLAYER
  8
0
  9
$LTSCALE
 40
0.605
  9
$CELTYPE
  6
BYLAYER
  9
$DIMSCALE
 40
1.0
  9
$DIMASZ
 40
0.1
  9
$DIMEXO
 40
0.0625
  9
$DIMDLI
 40
0.418
  9
$DIMEXE
 40
0.125
  9
$DIMCEN
 40
0.099
  9
$DIMLFAC
 40
1.0
  9
$DIMBLK
  1
_FILLED
  9
$DIMTXT
 40
0.08
  9
$DIMTOL
 70
1
  9
$DIMLIM
 70
0
  9
$DIMTFAC
 40
1.0
  9
$DIMTP
 40
0.001
  9
$DIMTM
 40
0.001
  9
$DIMGAP
 40
0.09
  9
$DIMDSEP
 70
46
  9
$PDMODE
 70
3
  9
$PDSIZE
 40
0.06
  9
$HANDSEED
  5
38D
  9
$TILEMODE
 70
1
  9
$MEASUREMENT
 70
0
  9
$INSUNITS
 70
1
  0
ENDSEC
  0
SECTION
  2
CLASSES
  0
CLASS
  1
ACDBDICTIONARYWDFLT
  2
AcDbDictionaryWithDefault
  3
AutoCAD 2000
 90
0
 91
1
280
0
281
0
  0
CLASS
  1
ACDBPLACEHOLDER
  2
AcDbPlaceHolder
  3
AutoCAD 2000
 90
0
 91
1
280
0
281
0
  0
CLASS
  1
LAYOUT
  2
AcDbLayout
  3
AutoCAD 2000
 90
0
 91
0
280
0
281
0
  0
ENDSEC
  0
SECTION
  2
TABLES
  0
TABLE
  2
VPORT
  5
8
100
AcDbSymbolTable
 70
2
  0
VPORT
  5
1F4
100
AcDbSymbolTableRecord
100
AcDbViewportTableRecord
  2
*ACTIVE
 70
0
 10
0.0
 20
0.0
 11
1.0
 21
1.0
 12
5.5
 22
4.25
 13
0.0
 23
0.0
 14
1.0
 24
1.0
 15
0.0
 25
0.0
 16
0.0
 26
0.0
 36
1.0
 17
0.0
 27
0.0
 37
0.0
 40
8.5
 41
1.2941176471
 42
50.0
 43
0.0
 44
0.0
 50
0.0
 51
0.0
 71
0
 72
100
 73
1
 74
1
 75
0
 76
0
 77
0
 78
0
  0
ENDTAB
  0
TABLE
  2
LTYPE
  5
5
100
AcDbSymbolTable
 70
6
  0
LTYPE
  5
14
100
AcDbSymbolTableRecord
100
AcDbLinetypeTableRecord
  2
BYBLOCK
 70
0
  3

 72
65
 73
0
 40
0.0
  0
LTYPE
  5
15
100
AcDbSymbolTableRecord
100
AcDbLinetypeTableRecord
  2
BYLAYER
 70
0
  3

 72
65
 73
0
 40
0.0
  0
LTYPE
  5
16
100
AcDbSymbolTableRecord
100
AcDbLinetypeTableRecord
  2
CONTINUOUS
 70
64
  3
Solid line
 72
65
 73
0
 40
0.0
  0
LTYPE
  5
1F5
100
AcDbSymbolTableRecord
100
AcDbLinetypeTableRecord
  2
CENTER
 70
64
  3
____ _ ____ _ ____ _ ____ _ ____ _ ____ _ ____
 72
65
 73
4
 40
0.6
 49
0.375
 74
0
 49
-0.075
 74
0
 49
0.075
 74
0
 49
-0.075
 74
0
  0
LTYPE
  5
1F6
100
AcDbSymbolTableRecord
100
AcDbLinetypeTableRecord
  2
HIDDEN
 70
64
  3
- - - - - - - - - - - - - - - - - - - -
 72
65
 73
2
 40
0.2
 49
0.1
 74
0
 49
-0.1
 74
0
  0
LTYPE
  5
1F7
100
AcDbSymbolTableRecord
100
AcDbLinetypeTableRecord
  2
PHANTOM
 70
64
  3
_____ _ _ _____ _ _ _____ _ _ _____
 72
65
 73
6
 40
0.8
 49
0.45
 74
0
 49
-0.05
 74
0
 49
0.1
 74
0
 49
-0.05
 74
0
 49
0.1
 74
0
 49
-0.05
 74
0
  0
LTYPE
  5
1F8
100
AcDbSymbolTableRecord
100
AcDbLinetypeTableRecord
  2
DOT
 70
64
  3
. . . . . . . . . . . . . . . . . . . .
 72
65
 73
2
 40
0.2
 49
0.1
 74
0
 49
-0.1
 74
0
  0
LTYPE
  5
1F9
100
AcDbSymbolTableRecord
100
AcDbLinetypeTableRecord
  2
DASHED
 70
64
  3
- - - - - - - - - - - - - - - - - - - -
 72
65
 73
2
 40
0.2
 49
0.1
 74
0
 49
-0.1
 74
0
  0
ENDTAB
  0
TABLE
  2
LAYER
  5
2
100
AcDbSymbolTable
 70
36
  0
LAYER
  5
10
100
AcDbSymbolTableRecord
100
AcDbLayerTableRecord
  2
0
 70
0
 62
7
  6
CONTINUOUS
370
-3
390
F
  0
LAYER
  5
1FA
100
AcDbSymbolTableRecord
100
AcDbLayerTableRecord
  2
DEFAULT_1
 70
0
 62
7
  6
CENTER
370
-3
390
F
  0
LAYER
  5
1FB
100
AcDbSymbolTableRecord
100
AcDbLayerTableRecord
  2
DEFAULT_2
 70
0
 62
8
  6
HIDDEN
370
-3
390
F
  0
LAYER
  5
1FC
100
AcDbSymbolTableRecord
100
AcDbLayerTableRecord
  2
DEFAULT_3
 70
0
 62
7
  6
PHANTOM
370
-3
390
F
  0
LAYER
  5
1FD
100
AcDbSymbolTableRecord
100
AcDbLayerTableRecord
  2
ALL_FEATURES
 70
0
 62
7
  6
CONTINUOUS
370
-3
390
F
  0
LAYER
  5
1FE
100
AcDbSymbolTableRecord
100
AcDbLayerTableRecord
  2
AXES_FEATURES
 70
0
 62
7
  6
CONTINUOUS
370
-3
390
F
  0
LAYER
  5
1FF
100
AcDbSymbolTableRecord
100
AcDbLayerTableRecord
  2
CHAMFER_FEATURES
 70
0
 62
7
  6
CONTINUOUS
370
-3
390
F
  0
LAYER
  5
200
100
AcDbSymbolTableRecord
100
AcDbLayerTableRecord
  2
COORDINATE_SYSTEMS
 70
0
 62
7
  6
CONTINUOUS
370
-3
390
F
  0
LAYER
  5
201
100
AcDbSymbolTableRecord
100
AcDbLayerTableRecord
  2
CUT_FEATURES
 70
0
 62
7
  6
CONTINUOUS
370
-3
390
F
  0
LAYER
  5
202
100
AcDbSymbolTableRecord
100
AcDbLayerTableRecord
  2
DATUM_CURVES
 70
0
 62
7
  6
CONTINUOUS
370
-3
390
F
  0
LAYER
  5
203
100
AcDbSymbolTableRecord
100
AcDbLayerTableRecord
  2
DATUM_PLANES
 70
0
 62
7
  6
CONTINUOUS
370
-3
390
F
  0
LAYER
  5
204
100
AcDbSymbolTableRecord
100
AcDbLayerTableRecord
  2
DATUM_POINTS
 70
0
 62
7
  6
CONTINUOUS
370
-3
390
F
  0
LAYER
  5
205
100
AcDbSymbolTableRecord
100
AcDbLayerTableRecord
  2
DEFAULT_COORDINATE_SYSTEM
 70
0
 62
7
  6
CONTINUOUS
370
-3
390
F
  0
LAYER
  5
206
100
AcDbSymbolTableRecord
100
AcDbLayerTableRecord
  2
DEFAULT_DATUM_AXES
 70
0
 62
7
  6
CONTINUOUS
370
-3
390
F
  0
LAYER
  5
207
100
AcDbSymbolTableRecord
100
AcDbLayerTableRecord
  2
DEFAULT_DATUM_CURVES
 70
0
 62
7
  6
CONTINUOUS
370
-3
390
F
  0
LAYER
  5
208
100
AcDbSymbolTableRecord
100
AcDbLayerTableRecord
  2
DEFAULT_DATUM_PLANES
 70
0
 62
7
  6
CONTINUOUS
370
-3
390
F
  0
LAYER
  5
209
100
AcDbSymbolTableRecord
100
AcDbLayerTableRecord
  2
DEFAULT_SURFACES
 70
0
 62
7
  6
CONTINUOUS
370
-3
390
F
  0
LAYER
  5
20A
100
AcDbSymbolTableRecord
100
AcDbLayerTableRecord
  2
DIMENSIONS
 70
0
 62
7
  6
CONTINUOUS
370
-3
390
F
  0
LAYER
  5
20B
100
AcDbSymbolTableRecord
100
AcDbLayerTableRecord
  2
HOLE_FEATURES
 70
0
 62
7
  6
CONTINUOUS
370
-3
390
F
  0
LAYER
  5
20C
100
AcDbSymbolTableRecord
100
AcDbLayerTableRecord
  2
IMPORT_FEATURE
 70
0
 62
7
  6
CONTINUOUS
370
-3
390
F
  0
LAYER
  5
20D
100
AcDbSymbolTableRecord
100
AcDbLayerTableRecord
  2
INTFCLR_1
 70
0
 62
7
  6
CONTINUOUS
370
-3
390
F
  0
LAYER
  5
20E
100
AcDbSymbolTableRecord
100
AcDbLayerTableRecord
  2
NOTES
 70
0
 62
7
  6
CONTINUOUS
370
-3
390
F
  0
LAYER
  5
20F
100
AcDbSymbolTableRecord
100
AcDbLayerTableRecord
  2
PART_REFERENCE_DIMENSIONS
 70
0
 62
7
  6
CONTINUOUS
370
-3
390
F
  0
LAYER
  5
210
100
AcDbSymbolTableRecord
100
AcDbLayerTableRecord
  2
PLATED_SURFACES
 70
0
 62
7
  6
CONTINUOUS
370
-3
390
F
  0
LAYER
  5
211
100
AcDbSymbolTableRecord
100
AcDbLayerTableRecord
  2
PLATED_SURFACE_AREA
 70
0
 62
7
  6
CONTINUOUS
370
-3
390
F
  0
LAYER
  5
212
100
AcDbSymbolTableRecord
100
AcDbLayerTableRecord
  2
POINTS
 70
0
 62
7
  6
CONTINUOUS
370
-3
390
F
  0
LAYER
  5
213
100
AcDbSymbolTableRecord
100
AcDbLayerTableRecord
  2
PROTRUSION
 70
0
 62
7
  6
CONTINUOUS
370
-3
390
F
  0
LAYER
  5
214
100
AcDbSymbolTableRecord
100
AcDbLayerTableRecord
  2
PROTRUSION_FEATURES
 70
0
 62
7
  6
CONTINUOUS
370
-3
390
F
  0
LAYER
  5
215
100
AcDbSymbolTableRecord
100
AcDbLayerTableRecord
  2
QUILTS
 70
0
 62
7
  6
CONTINUOUS
370
-3
390
F
  0
LAYER
  5
216
100
AcDbSymbolTableRecord
100
AcDbLayerTableRecord
  2
REFERENCE_DIMENSIONS
 70
0
 62
7
  6
CONTINUOUS
370
-3
390
F
  0
LAYER
  5
217
100
AcDbSymbolTableRecord
100
AcDbLayerTableRecord
  2
ROUND_FEATURES
 70
0
 62
7
  6
CONTINUOUS
370
-3
390
F
  0
LAYER
  5
218
100
AcDbSymbolTableRecord
100
AcDbLayerTableRecord
  2
SHELL_FEATURES
 70
0
 62
7
  6
CONTINUOUS
370
-3
390
F
  0
LAYER
  5
219
100
AcDbSymbolTableRecord
100
AcDbLayerTableRecord
  2
SIZE_REF
 70
0
 62
7
  6
CONTINUOUS
370
-3
390
F
  0
LAYER
  5
21A
100
AcDbSymbolTableRecord
100
AcDbLayerTableRecord
  2
SURFACE_FEATURES
 70
0
 62
7
  6
CONTINUOUS
370
-3
390
F
  0
ENDTAB
  0
TABLE
  2
STYLE
  5
3
100
AcDbSymbolTable
 70
1
  0
STYLE
  5
11
100
AcDbSymbolTableRecord
100
AcDbTextStyleTableRecord
  2
STANDARD
 70
0
 40
0.0
 41
0.8
 50
0.0
 71
0
 42
0.2
  3
txt
  4

  0
STYLE
  5
21B
100
AcDbSymbolTableRecord
100
AcDbTextStyleTableRecord
  2
TEXTSTYLE_1
 70
0
 40
0.0
 41
0.8
 50
0.0
 71
0
 42
0.2
  3
gdt
  4

  0
ENDTAB
  0
TABLE
  2
VIEW
  5
6
100
AcDbSymbolTable
 70
0
  0
ENDTAB
  0
TABLE
  2
UCS
  5
7
100
AcDbSymbolTable
 70
0
  0
ENDTAB
  0
TABLE
  2
APPID
  5
9
100
AcDbSymbolTable
 70
1
  0
APPID
  5
21C
100
AcDbSymbolTableRecord
100
AcDbRegAppTableRecord
  2
ACAD
 70
0
  0
ENDTAB
  0
TABLE
  2
BLOCK_RECORD
  5
1
100
AcDbSymbolTable
 70
0
  0
BLOCK_RECORD
  5
21D
100
AcDbSymbolTableRecord
100
AcDbBlockTableRecord
  2
*Model_Space
  0
BLOCK_RECORD
  5
21E
100
AcDbSymbolTableRecord
100
AcDbBlockTableRecord
  2
*Paper_Space
  0
ENDTAB
  0
TABLE
  2
DIMSTYLE
  5
A
100
AcDbSymbolTable
 70
1
100
AcDbDimStyleTable
 71
0
  0
DIMSTYLE
105
21F
100
AcDbSymbolTableRecord
100
AcDbDimStyleTableRecord
  2
STANDARD
 70
0
  3

  4

 40
1.0
 41
0.1
 42
0.0625
 43
0.38
 44
0.125
 45
0.0
 46
0.0
 47
0.001
 48
0.001
140
0.08
141
0.09
142
0.0
143
25.4
144
1.0
145
0.0
146
1.0
147
0.09
 71
1.0
 72
0.0
 73
1
 74
1
 75
0
 76
0
 77
0
 78
4
170
0
171
2
172
0
173
0
174
0
175
0
176
0
177
0
178
0
270
2
271
3
272
3
273
2
274
2
275
0
280
0
281
0
282
0
283
1
284
4
285
0
286
0
287
3
288
0
340
11
278
46
  0
ENDTAB
  0
ENDSEC
  0
SECTION
  2
BLOCKS
  0
BLOCK
  5
20
100
AcDbEntity
  8
0
100
AcDbBlockBegin
  2
*Model_Space
 70
0
 10
0.0
 20
0.0
 30
0.0
  3
*Model_Space
  1

  0
ENDBLK
  5
21
100
AcDbEntity
  8
0
100
AcDbBlockEnd
  0
BLOCK
  5
1C
100
AcDbEntity
  8
0
100
AcDbBlockBegin
  2
*Paper_Space
 70
0
 10
0.0
 20
0.0
 30
0.0
  3
*Paper_Space
  1

  0
ENDBLK
  5
1D
100
AcDbEntity
  8
0
100
AcDbBlockEnd
  0
ENDSEC
  0
SECTION
  2
ENTITIES
  0
LINE
  5
220
100
AcDbEntity
  8
0
100
AcDbLine
 62
7
  6
CONTINUOUS
 10
0.0
 20
0.0
 11
0.0
 21
8.5
  0
LINE
  5
221
100
AcDbEntity
  8
0
100
AcDbLine
 62
7
  6
CONTINUOUS
 10
0.0
 20
0.0
 11
11.0
 21
0.0
  0
LINE
  5
222
100
AcDbEntity
  8
0
100
AcDbLine
 62
7
  6
CONTINUOUS
 10
0.0
 20
8.5
 11
11.0
 21
8.5
  0
LINE
  5
223
100
AcDbEntity
  8
0
100
AcDbLine
 62
7
  6
CONTINUOUS
 10
11.0
 20
0.0
 11
11.0
 21
8.5
  0
LINE
  5
224
100
AcDbEntity
  8
0
100
AcDbLine
 62
9
  6
CONTINUOUS
 10
4.5883267337
 20
2.9939723614
 11
4.9031822613
 21
2.9939723614
  0
LINE
  5
225
100
AcDbEntity
  8
0
100
AcDbLine
 62
7
  6
CONTINUOUS
 10
4.5895063283
 20
3.0239260523
 11
4.9020044975
 21
3.0239260523
  0
LINE
  5
226
100
AcDbEntity
  8
0
100
AcDbLine
 62
7
  6
CONTINUOUS
 10
4.3244671983
 20
3.2095150403
 11
4.3289350159
 21
3.204216827
  0
LINE
  5
227
100
AcDbEntity
  8
0
100
AcDbLine
 62
7
  6
CONTINUOUS
 10
4.3296073582
 20
3.3269810311
 11
4.3582954084
 21
3.2929609744
  0
LINE
  5
228
100
AcDbEntity
  8
0
100
AcDbLine
 62
7
  6
CONTINUOUS
 10
4.4007405077
 20
3.2595571983
 11
4.3937046169
 21
3.2679007908
  0
LINE
  5
229
100
AcDbEntity
  8
0
100
AcDbLine
 62
7
  6
CONTINUOUS
 10
4.3763895752
 20
3.2884340336
 11
4.3379509507
 21
3.3340169218
  0
LINE
  5
22A
100
AcDbEntity
  8
0
100
AcDbLine
 62
7
  6
CONTINUOUS
 10
4.3255548099
 20
3.248825177
 11
4.3193687017
 21
3.2578169154
  0
LINE
  5
22B
100
AcDbEntity
  8
0
100
AcDbLine
 62
7
  6
CONTINUOUS
 10
4.1693981677
 20
3.4577823821
 11
4.514888228
 21
3.5029747133
  0
LINE
  5
22C
100
AcDbEntity
  8
0
100
AcDbLine
 62
7
  6
CONTINUOUS
 10
5.3221108274
 20
3.4577823821
 11
4.9766199265
 21
3.5029748232
  0
LINE
  5
22D
100
AcDbEntity
  8
0
100
AcDbLine
 62
7
  6
CONTINUOUS
 10
5.3221108274
 20
3.7427823821
 11
4.976620767
 21
3.697590051
  0
LINE
  5
22E
100
AcDbEntity
  8
0
100
AcDbLine
 62
2
  6
CONTINUOUS
 10
5.29868799
 20
3.7637325524
 11
5.2662936132
 21
3.7612850778
  0
LINE
  5
22F
100
AcDbEntity
  8
0
100
AcDbLine
 62
2
  6
CONTINUOUS
 10
5.2648722045
 20
3.7611776868
 11
5.2581507069
 21
3.7606698612
  0
LINE
  5
230
100
AcDbEntity
  8
0
100
AcDbLine
 62
7
  6
CONTINUOUS
 10
4.1693981677
 20
3.7427823821
 11
4.5148890686
 21
3.697589941
  0
LINE
  5
231
100
AcDbEntity
  8
0
100
AcDbLine
 62
7
  6
CONTINUOUS
 10
4.2081952267
 20
3.7757425036
 11
4.2751207376
 21
3.754459091
  0
LINE
  5
232
100
AcDbEntity
  8
0
100
AcDbLine
 62
7
  6
CONTINUOUS
 10
4.2037580669
 20
3.7541559658
 11
4.2139173744
 21
3.7508550067
  0
LINE
  5
233
100
AcDbEntity
  8
0
100
AcDbLine
 62
2
  6
CONTINUOUS
 10
4.1952580669
 20
3.7821559658
 11
4.2054173744
 21
3.7788550067
  0
LINE
  5
234
100
AcDbEntity
  8
0
100
AcDbLine
 62
7
  6
CONTINUOUS
 10
4.2784614772
 20
3.7647408302
 11
4.1925160661
 21
3.792666187
  0
LINE
  5
235
100
AcDbEntity
  8
0
100
AcDbLine
 62
7
  6
CONTINUOUS
 10
4.2299531492
 20
3.8685495607
 11
4.2199106132
 21
3.8718125785
  0
LINE
  5
236
100
AcDbEntity
  8
0
100
AcDbLine
 62
7
  6
CONTINUOUS
 10
4.2060807312
 20
3.8292485782
 11
4.2473521263
 21
3.8066724643
  0
LINE
  5
237
100
AcDbEntity
  8
0
100
AcDbLine
 62
2
  6
CONTINUOUS
 10
4.2125227448
 20
3.8490750575
 11
4.2219499443
 21
3.8439182285
  0
LINE
  5
238
100
AcDbEntity
  8
0
100
AcDbLine
 62
7
  6
CONTINUOUS
 10
4.2403607945
 20
3.822306119
 11
4.2188550944
 21
3.83439326
  0
LINE
  5
239
100
AcDbEntity
  8
0
100
AcDbLine
 62
2
  6
CONTINUOUS
 10
4.225235416
 20
3.8540298706
 11
4.2158471392
 21
3.8593064914
  0
LINE
  5
23A
100
AcDbEntity
  8
0
100
AcDbLine
 62
7
  6
CONTINUOUS
 10
5.1803225392
 20
3.2220142046
 11
5.1889722501
 21
3.2159576118
  0
LINE
  5
23B
100
AcDbEntity
  8
0
100
AcDbLine
 62
2
  6
CONTINUOUS
 10
5.1718225392
 20
3.2500142046
 11
5.1750651005
 21
3.2477437387
  0
LINE
  5
23C
100
AcDbEntity
  8
0
100
AcDbLine
 62
9
  6
CONTINUOUS
 10
4.1394444767
 20
3.4428546183
 11
4.1394444767
 21
3.757710146
  0
LINE
  5
23D
100
AcDbEntity
  8
0
100
AcDbLine
 62
9
  6
CONTINUOUS
 10
4.1394444767
 20
5.0178546183
 11
4.1394444767
 21
5.332710146
  0
LINE
  5
23E
100
AcDbEntity
  8
0
100
AcDbLine
 62
7
  6
CONTINUOUS
 10
4.1693981677
 20
5.3315323821
 11
4.1693981677
 21
5.0190323821
  0
LINE
  5
23F
100
AcDbEntity
  8
0
100
AcDbLine
 62
7
  6
CONTINUOUS
 10
4.1693981677
 20
3.7565323821
 11
4.1693981677
 21
3.4440323821
  0
LINE
  5
240
100
AcDbEntity
  8
0
100
AcDbLine
 62
7
  6
CONTINUOUS
 10
5.2200470468
 20
3.2752145959
 11
5.2270875086
 21
3.2702848114
  0
LINE
  5
241
100
AcDbEntity
  8
0
100
AcDbLine
 62
2
  6
CONTINUOUS
 10
5.2115470468
 20
3.3032145959
 11
5.2185875086
 21
3.2982848114
  0
LINE
  5
242
100
AcDbEntity
  8
0
100
AcDbLine
 62
7
  6
CONTINUOUS
 10
5.2605044017
 20
3.3180090807
 11
5.2518044027
 21
3.3241008855
  0
LINE
  5
243
100
AcDbEntity
  8
0
100
AcDbLine
 62
7
  6
CONTINUOUS
 10
4.4054318811
 20
4.0425042262
 11
4.4430269171
 21
3.9926139284
  0
LINE
  5
244
100
AcDbEntity
  8
0
100
AcDbLine
 62
7
  6
CONTINUOUS
 10
4.2674379196
 20
3.810280687
 11
4.2647865818
 21
3.7989420313
  0
LINE
  5
245
100
AcDbEntity
  8
0
100
AcDbLine
 62
7
  6
CONTINUOUS
 10
4.1925160661
 20
3.792666187
 11
4.1903154278
 21
3.7858933188
  0
LINE
  5
246
100
AcDbEntity
  8
0
100
AcDbLine
 62
7
  6
CONTINUOUS
 10
4.2199106132
 20
3.8718125785
 11
4.2060807312
 21
3.8292485782
  0
LINE
  5
247
100
AcDbEntity
  8
0
100
AcDbLine
 62
7
  6
CONTINUOUS
 10
4.2188550944
 20
3.83439326
 11
4.2299531492
 21
3.8685495607
  0
LINE
  5
248
100
AcDbEntity
  8
0
100
AcDbLine
 62
7
  6
CONTINUOUS
 10
5.2146423352
 20
3.2526182927
 11
5.1817749238
 21
3.2862745303
  0
LINE
  5
249
100
AcDbEntity
  8
0
100
AcDbLine
 62
7
  6
CONTINUOUS
 10
5.1838777933
 20
3.2704698237
 11
5.2004722963
 21
3.25079104
  0
LINE
  5
24A
100
AcDbEntity
  8
0
100
AcDbLine
 62
7
  6
CONTINUOUS
 10
4.4525092217
 20
3.9991375348
 11
4.4143916435
 21
4.0486683356
  0
LINE
  5
24B
100
AcDbEntity
  8
0
100
AcDbLine
 62
2
  6
CONTINUOUS
 10
4.4137504835
 20
4.0481851869
 11
4.4345269171
 21
4.0206139284
  0
LINE
  5
24C
100
AcDbEntity
  8
0
100
AcDbLine
 62
7
  6
CONTINUOUS
 10
4.6032544975
 20
4.5989260523
 11
4.6484476904
 21
4.9444227006
  0
LINE
  5
24D
100
AcDbEntity
  8
0
100
AcDbLine
 62
7
  6
CONTINUOUS
 10
4.2751207376
 20
3.754459091
 11
4.2784614772
 21
3.7647408302
  0
LINE
  5
24E
100
AcDbEntity
  8
0
100
AcDbLine
 62
2
  6
CONTINUOUS
 10
4.239126736
 20
3.8352503507
 11
4.2433427396
 21
3.8441224757
  0
LINE
  5
24F
100
AcDbEntity
  8
0
100
AcDbLine
 62
7
  6
CONTINUOUS
 10
4.2473521263
 20
3.8066724643
 11
4.2518427396
 21
3.8161224757
  0
LINE
  5
250
100
AcDbEntity
  8
0
100
AcDbLine
 62
7
  6
CONTINUOUS
 10
4.9020044975
 20
4.176638712
 11
4.5895044975
 21
4.176638712
  0
LINE
  5
251
100
AcDbEntity
  8
0
100
AcDbLine
 62
9
  6
CONTINUOUS
 10
4.5883267337
 20
4.2065924029
 11
4.9031822613
 21
4.2065924029
  0
LINE
  5
252
100
AcDbEntity
  8
0
100
AcDbLine
 62
7
  6
CONTINUOUS
 10
4.6032544975
 20
4.176638712
 11
4.6484476634
 21
3.8311422701
  0
LINE
  5
253
100
AcDbEntity
  8
0
100
AcDbLine
 62
9
  6
CONTINUOUS
 10
4.7457544975
 20
3.3496821597
 11
4.7457544975
 21
3.4381664504
  0
LINE
  5
254
100
AcDbEntity
  8
0
100
AcDbLine
 62
9
  6
CONTINUOUS
 10
4.7457544975
 20
3.7623983138
 11
4.7457544975
 21
3.8508826046
  0
LINE
  5
255
100
AcDbEntity
  8
0
100
AcDbLine
 62
9
  6
CONTINUOUS
 10
4.7457544975
 20
4.9246821597
 11
4.7457544975
 21
5.0131664504
  0
LINE
  5
256
100
AcDbEntity
  8
0
100
AcDbLine
 62
9
  6
CONTINUOUS
 10
4.7457544975
 20
5.3373983138
 11
4.7457544975
 21
5.4258826046
  0
LINE
  5
257
100
AcDbEntity
  8
0
100
AcDbLine
 62
7
  6
CONTINUOUS
 10
4.8882544975
 20
5.751638712
 11
4.8430613046
 21
5.4061420636
  0
LINE
  5
258
100
AcDbEntity
  8
0
100
AcDbLine
 62
7
  6
CONTINUOUS
 10
5.059434744
 20
3.9832882276
 11
5.068052744
 21
3.976056867
  0
LINE
  5
259
100
AcDbEntity
  8
0
100
AcDbLine
 62
7
  6
CONTINUOUS
 10
5.1082269696
 20
4.0239346447
 11
5.0996089696
 21
4.0311660053
  0
LINE
  5
25A
100
AcDbEntity
  8
0
100
AcDbLine
 62
7
  6
CONTINUOUS
 10
4.8882544975
 20
3.0239260523
 11
4.8430613316
 21
3.3694224942
  0
LINE
  5
25B
100
AcDbEntity
  8
0
100
AcDbLine
 62
7
  6
CONTINUOUS
 10
4.6032544975
 20
3.0239260523
 11
4.6484476904
 21
3.3694227006
  0
LINE
  5
25C
100
AcDbEntity
  8
0
100
AcDbLine
 62
7
  6
CONTINUOUS
 10
4.8882544975
 20
4.176638712
 11
4.8430613046
 21
3.8311420636
  0
LINE
  5
25D
100
AcDbEntity
  8
0
100
AcDbLine
 62
7
  6
CONTINUOUS
 10
4.4143916435
 20
4.0486683356
 11
4.4054318811
 21
4.0425042262
  0
LINE
  5
25E
100
AcDbEntity
  8
0
100
AcDbLine
 62
2
  6
CONTINUOUS
 10
4.4345269171
 20
4.0206139284
 11
4.4354780096
 21
4.0212682581
  0
LINE
  5
25F
100
AcDbEntity
  8
0
100
AcDbLine
 62
7
  6
CONTINUOUS
 10
4.4430269171
 20
3.9926139284
 11
4.4525092217
 21
3.9991375348
  0
LINE
  5
260
100
AcDbEntity
  8
0
100
AcDbLine
 62
9
  6
CONTINUOUS
 10
4.5883267337
 20
4.5689723614
 11
4.9031822613
 21
4.5689723614
  0
LINE
  5
261
100
AcDbEntity
  8
0
100
AcDbLine
 62
7
  6
CONTINUOUS
 10
4.6032544975
 20
5.751638712
 11
4.6484476634
 21
5.4061422701
  0
LINE
  5
262
100
AcDbEntity
  8
0
100
AcDbLine
 62
7
  6
CONTINUOUS
 10
4.8882544975
 20
4.5989260523
 11
4.8430613316
 21
4.9444224942
  0
LINE
  5
263
100
AcDbEntity
  8
0
100
AcDbLine
 62
7
  6
CONTINUOUS
 10
4.5895063283
 20
4.5989260523
 11
4.9020044975
 21
4.5989260523
  0
LINE
  5
264
100
AcDbEntity
  8
0
100
AcDbLine
 62
2
  6
CONTINUOUS
 10
5.243477361
 20
3.7467941051
 11
5.2417802641
 21
3.7509823497
  0
LINE
  5
265
100
AcDbEntity
  8
0
100
AcDbLine
 62
7
  6
CONTINUOUS
 10
5.0996089696
 20
4.0311660053
 11
5.059434744
 21
3.9832882276
  0
LINE
  5
266
100
AcDbEntity
  8
0
100
AcDbLine
 62
7
  6
CONTINUOUS
 10
5.068052744
 20
3.976056867
 11
5.1082269696
 21
4.0239346447
  0
LINE
  5
267
100
AcDbEntity
  8
0
100
AcDbLine
 62
2
  6
CONTINUOUS
 10
5.2581507069
 20
3.7606698612
 11
5.2595314068
 21
3.7502986515
  0
LINE
  5
268
100
AcDbEntity
  8
0
100
AcDbLine
 62
7
  6
CONTINUOUS
 10
5.3221108274
 20
3.4440342129
 11
5.3221108274
 21
3.7565323821
  0
LINE
  5
269
100
AcDbEntity
  8
0
100
AcDbLine
 62
7
  6
CONTINUOUS
 10
5.3221108274
 20
5.0190342129
 11
5.3221108274
 21
5.3315323821
  0
LINE
  5
26A
100
AcDbEntity
  8
0
100
AcDbLine
 62
9
  6
CONTINUOUS
 10
5.3520645183
 20
3.4428546183
 11
5.3520645183
 21
3.757710146
  0
LINE
  5
26B
100
AcDbEntity
  8
0
100
AcDbLine
 62
9
  6
CONTINUOUS
 10
5.3520645183
 20
5.0178546183
 11
5.3520645183
 21
5.332710146
  0
LINE
  5
26C
100
AcDbEntity
  8
0
100
AcDbLine
 62
7
  6
CONTINUOUS
 10
4.3379509507
 20
3.3340169218
 11
4.3296073582
 21
3.3269810311
  0
LINE
  5
26D
100
AcDbEntity
  8
0
100
AcDbLine
 62
2
  6
CONTINUOUS
 10
4.3763731603
 20
3.2884534995
 11
4.3746977618
 21
3.2870406883
  0
LINE
  5
26E
100
AcDbEntity
  8
0
100
AcDbLine
 62
7
  6
CONTINUOUS
 10
4.3937046169
 20
3.2679007908
 11
4.3244671983
 21
3.2095150403
  0
LINE
  5
26F
100
AcDbEntity
  8
0
100
AcDbLine
 62
2
  6
CONTINUOUS
 10
4.3543865472
 20
3.2267083847
 11
4.3627301398
 21
3.2337442754
  0
LINE
  5
270
100
AcDbEntity
  8
0
100
AcDbLine
 62
7
  6
CONTINUOUS
 10
4.3467421921
 20
3.214022107
 11
4.4007405077
 21
3.2595571983
  0
LINE
  5
271
100
AcDbEntity
  8
0
100
AcDbLine
 62
7
  6
CONTINUOUS
 10
4.3628865472
 20
3.1987083847
 11
4.3712301398
 21
3.2057442754
  0
LINE
  5
272
100
AcDbEntity
  8
0
100
AcDbLine
 62
7
  6
CONTINUOUS
 10
4.1693981677
 20
5.0327823821
 11
4.514888228
 21
5.0779747133
  0
LINE
  5
273
100
AcDbEntity
  8
0
100
AcDbLine
 62
7
  6
CONTINUOUS
 10
5.3221108274
 20
5.3177823821
 11
4.976620767
 21
5.272590051
  0
LINE
  5
274
100
AcDbEntity
  8
0
100
AcDbLine
 62
7
  6
CONTINUOUS
 10
5.3221108274
 20
5.0327823821
 11
4.9766199265
 21
5.0779748232
  0
LINE
  5
275
100
AcDbEntity
  8
0
100
AcDbLine
 62
7
  6
CONTINUOUS
 10
4.1693981677
 20
5.3177823821
 11
4.5148890686
 21
5.272589941
  0
LINE
  5
276
100
AcDbEntity
  8
0
100
AcDbLine
 62
7
  6
CONTINUOUS
 10
5.1615118419
 20
3.2886964874
 11
5.1673624279
 21
3.2987645173
  0
LINE
  5
277
100
AcDbEntity
  8
0
100
AcDbLine
 62
7
  6
CONTINUOUS
 10
5.1805175966
 20
3.3586526716
 11
5.1740032398
 21
3.3493492059
  0
LINE
  5
278
100
AcDbEntity
  8
0
100
AcDbLine
 62
2
  6
CONTINUOUS
 10
5.1907657535
 20
3.2770679184
 11
5.1851168599
 21
3.2690004622
  0
LINE
  5
279
100
AcDbEntity
  8
0
100
AcDbLine
 62
2
  6
CONTINUOUS
 10
5.1838185983
 20
3.2671463525
 11
5.1718225392
 21
3.2500142046
  0
LINE
  5
27A
100
AcDbEntity
  8
0
100
AcDbLine
 62
2
  6
CONTINUOUS
 10
5.1921595503
 20
3.2606488062
 11
5.1982733176
 21
3.2693801709
  0
LINE
  5
27B
100
AcDbEntity
  8
0
100
AcDbLine
 62
2
  6
CONTINUOUS
 10
5.2185875086
 20
3.2982848114
 11
5.2217203459
 21
3.3027589666
  0
LINE
  5
27C
100
AcDbEntity
  8
0
100
AcDbLine
 62
7
  6
CONTINUOUS
 10
5.2518044027
 20
3.3241008855
 11
5.2265216556
 21
3.2879933805
  0
LINE
  5
27D
100
AcDbEntity
  8
0
100
AcDbLine
 62
7
  6
CONTINUOUS
 10
5.2004722963
 20
3.25079104
 11
5.1803225392
 21
3.2220142046
  0
LINE
  5
27E
100
AcDbEntity
  8
0
100
AcDbLine
 62
7
  6
CONTINUOUS
 10
5.1889722501
 20
3.2159576118
 11
5.2146423352
 21
3.2526182927
  0
LINE
  5
27F
100
AcDbEntity
  8
0
100
AcDbLine
 62
7
  6
CONTINUOUS
 10
5.2270875086
 20
3.2702848114
 11
5.2605044017
 21
3.3180090807
  0
LINE
  5
280
100
AcDbEntity
  8
0
100
AcDbLine
 62
7
  6
CONTINUOUS
 10
5.1817749238
 20
3.2862745303
 11
5.174717613
 21
3.2785503678
  0
LINE
  5
281
100
AcDbEntity
  8
0
100
AcDbLine
 62
7
  6
CONTINUOUS
 10
4.9020044975
 20
5.751638712
 11
4.5895044975
 21
5.751638712
  0
LINE
  5
282
100
AcDbEntity
  8
0
100
AcDbLine
 62
9
  6
CONTINUOUS
 10
4.5883267337
 20
5.7815924029
 11
4.9031822613
 21
5.7815924029
  0
ARC
  5
283
100
AcDbEntity
  8
0
100
AcDbCircle
 62
7
  6
CONTINUOUS
 10
3.3532544975
 20
3.6002823821
 40
2.005
100
AcDbArc
 50
355.4966382723
 51
4.5033617277
  0
ARC
  5
284
100
AcDbEntity
  8
0
100
AcDbCircle
 62
2
  6
CONTINUOUS
 10
4.1299275609
 20
3.7748235969
 40
0.0656945561
100
AcDbArc
 50
15.3328968855
 51
15.5547661507
  0
ARC
  5
285
100
AcDbEntity
  8
0
100
AcDbCircle
 62
2
  6
CONTINUOUS
 10
4.3021824188
 20
3.2820139842
 40
0.0335924255
100
AcDbArc
 50
98.2729893574
 51
99.3167173631
  0
ARC
  5
286
100
AcDbEntity
  8
0
100
AcDbCircle
 62
2
  6
CONTINUOUS
 10
4.3018240327
 20
3.284164665
 40
0.0314120962
100
AcDbArc
 50
99.3067201314
 51
101.1572711165
  0
ARC
  5
287
100
AcDbEntity
  8
0
100
AcDbCircle
 62
2
  6
CONTINUOUS
 10
4.2562516321
 20
3.3534397993
 40
0.0287335553
100
AcDbArc
 50
228.6684224533
 51
229.0985498849
  0
ARC
  5
288
100
AcDbEntity
  8
0
100
AcDbCircle
 62
2
  6
CONTINUOUS
 10
4.2558739989
 20
3.3530017043
 40
0.028155168
100
AcDbArc
 50
229.0956644196
 51
230.3955770807
  0
ARC
  5
289
100
AcDbEntity
  8
0
100
AcDbCircle
 62
2
  6
CONTINUOUS
 10
4.2955190403
 20
3.3011897369
 40
0.0247943354
100
AcDbArc
 50
176.798432268
 51
184.7019086615
  0
ARC
  5
28A
100
AcDbEntity
  8
0
100
AcDbCircle
 62
2
  6
CONTINUOUS
 10
4.2763853867
 20
3.3803634718
 40
0.0243750387
100
AcDbArc
 50
345.1129651666
 51
347.5902564899
  0
ARC
  5
28B
100
AcDbEntity
  8
0
100
AcDbCircle
 62
2
  6
CONTINUOUS
 10
4.3028587698
 20
3.3026277609
 40
0.0226567771
100
AcDbArc
 50
217.7889154013
 51
220.4062853542
  0
ARC
  5
28C
100
AcDbEntity
  8
0
100
AcDbCircle
 62
2
  6
CONTINUOUS
 10
4.252128095
 20
3.3470634472
 40
0.0210964081
100
AcDbArc
 50
252.8782458734
 51
254.4536571176
  0
ARC
  5
28D
100
AcDbEntity
  8
0
100
AcDbCircle
 62
2
  6
CONTINUOUS
 10
4.2560078147
 20
3.8548385322
 40
0.0165902982
100
AcDbArc
 50
214.9997075123
 51
220.2349201357
  0
ARC
  5
28E
100
AcDbEntity
  8
0
100
AcDbCircle
 62
7
  6
CONTINUOUS
 10
4.5895044975
 20
4.191638712
 40
0.015
100
AcDbArc
 50
94.5033617277
 51
270.0
  0
ARC
  5
28F
100
AcDbEntity
  8
0
100
AcDbCircle
 62
7
  6
CONTINUOUS
 10
4.5895044975
 20
3.0089260523
 40
0.015
100
AcDbArc
 50
90.0
 51
265.4966382723
  0
ARC
  5
290
100
AcDbEntity
  8
0
100
AcDbCircle
 62
7
  6
CONTINUOUS
 10
4.1543981677
 20
3.4440323821
 40
0.015
100
AcDbArc
 50
184.5033617277
 51
360.0
  0
ARC
  5
291
100
AcDbEntity
  8
0
100
AcDbCircle
 62
7
  6
CONTINUOUS
 10
4.1543981677
 20
3.7565323821
 40
0.015
100
AcDbArc
 50
0.0
 51
175.4966382723
  0
ARC
  5
292
100
AcDbEntity
  8
0
100
AcDbCircle
 62
7
  6
CONTINUOUS
 10
3.3532544975
 20
5.1752823821
 40
2.005
100
AcDbArc
 50
355.4966382723
 51
4.5033617277
  0
ARC
  5
293
100
AcDbEntity
  8
0
100
AcDbCircle
 62
7
  6
CONTINUOUS
 10
4.5895044975
 20
4.5839260523
 40
0.015
100
AcDbArc
 50
90.0
 51
265.4966382723
  0
ARC
  5
294
100
AcDbEntity
  8
0
100
AcDbCircle
 62
7
  6
CONTINUOUS
 10
4.1543981677
 20
5.0190323821
 40
0.015
100
AcDbArc
 50
184.5033617277
 51
360.0
  0
ARC
  5
295
100
AcDbEntity
  8
0
100
AcDbCircle
 62
7
  6
CONTINUOUS
 10
4.1543981677
 20
5.3315323821
 40
0.015
100
AcDbArc
 50
0.0
 51
175.4966382723
  0
ARC
  5
296
100
AcDbEntity
  8
0
100
AcDbCircle
 62
7
  6
CONTINUOUS
 10
4.5895044975
 20
5.766638712
 40
0.015
100
AcDbArc
 50
94.5033617277
 51
270.0
  0
ARC
  5
297
100
AcDbEntity
  8
0
100
AcDbCircle
 62
7
  6
CONTINUOUS
 10
4.7457544975
 20
2.2077823821
 40
2.005
100
AcDbArc
 50
85.4966382723
 51
94.5033617277
  0
ARC
  5
298
100
AcDbEntity
  8
0
100
AcDbCircle
 62
7
  6
CONTINUOUS
 10
4.9020044975
 20
3.0089260523
 40
0.015
100
AcDbArc
 50
274.5033617277
 51
90.0
  0
CIRCLE
  5
299
100
AcDbEntity
  8
ALL_FEATURES
100
AcDbCircle
 62
9
  6
CONTINUOUS
 10
4.7457544975
 20
3.6002823821
 40
0.6847415687
  0
CIRCLE
  5
29A
100
AcDbEntity
  8
ALL_FEATURES
100
AcDbCircle
 62
9
  6
CONTINUOUS
 10
4.7457544975
 20
3.6002823821
 40
0.6747449955
  0
CIRCLE
  5
29B
100
AcDbEntity
  8
ALL_FEATURES
100
AcDbCircle
 62
9
  6
CONTINUOUS
 10
4.7457544975
 20
3.6002823821
 40
0.6740766381
  0
CIRCLE
  5
29C
100
AcDbEntity
  8
ALL_FEATURES
100
AcDbCircle
 62
9
  6
CONTINUOUS
 10
4.7457544975
 20
3.6002823821
 40
0.6640800648
  0
ARC
  5
29D
100
AcDbEntity
  8
0
100
AcDbCircle
 62
7
  6
CONTINUOUS
 10
4.7457544975
 20
3.6002823821
 40
0.4183
100
AcDbArc
 50
106.605906987
 51
163.3939764695
  0
ARC
  5
29E
100
AcDbEntity
  8
0
100
AcDbCircle
 62
7
  6
CONTINUOUS
 10
4.7457544975
 20
3.6002823821
 40
0.4183
100
AcDbArc
 50
196.6060235305
 51
253.394093013
  0
ARC
  5
29F
100
AcDbEntity
  8
0
100
AcDbCircle
 62
7
  6
CONTINUOUS
 10
4.7457544975
 20
3.6002823821
 40
0.4183
100
AcDbArc
 50
286.605906987
 51
343.3939764695
  0
ARC
  5
2A0
100
AcDbEntity
  8
0
100
AcDbCircle
 62
7
  6
CONTINUOUS
 10
4.7457544975
 20
3.6002823821
 40
0.4183
100
AcDbArc
 50
16.6060235305
 51
73.394093013
  0
ARC
  5
2A1
100
AcDbEntity
  8
0
100
AcDbCircle
 62
7
  6
CONTINUOUS
 10
4.7457544975
 20
3.6002823821
 40
0.4135
100
AcDbArc
 50
196.7134244962
 51
253.2865755038
  0
ARC
  5
2A2
100
AcDbEntity
  8
0
100
AcDbCircle
 62
7
  6
CONTINUOUS
 10
4.7457544975
 20
3.6002823821
 40
0.4135
100
AcDbArc
 50
106.7134244962
 51
163.2865755038
  0
ARC
  5
2A3
100
AcDbEntity
  8
0
100
AcDbCircle
 62
7
  6
CONTINUOUS
 10
4.7457544975
 20
3.6002823821
 40
0.4135
100
AcDbArc
 50
286.7141282316
 51
343.2858728558
  0
ARC
  5
2A4
100
AcDbEntity
  8
0
100
AcDbCircle
 62
7
  6
CONTINUOUS
 10
4.7457544975
 20
3.6002823821
 40
0.4135
100
AcDbArc
 50
16.7134244962
 51
73.2865755038
  0
ARC
  5
2A5
100
AcDbEntity
  8
0
100
AcDbCircle
 62
9
  6
CONTINUOUS
 10
4.7457544975
 20
3.6002823821
 40
0.3946764127
100
AcDbArc
 50
197.1610792145
 51
252.8389182469
  0
ARC
  5
2A6
100
AcDbEntity
  8
0
100
AcDbCircle
 62
9
  6
CONTINUOUS
 10
4.7457544975
 20
3.6002823821
 40
0.3946764125
100
AcDbArc
 50
287.1610749482
 51
342.8389270108
  0
ARC
  5
2A7
100
AcDbEntity
  8
0
100
AcDbCircle
 62
9
  6
CONTINUOUS
 10
4.7457544975
 20
3.6002823821
 40
0.3946764102
100
AcDbArc
 50
17.16109788
 51
72.8389029213
  0
ARC
  5
2A8
100
AcDbEntity
  8
0
100
AcDbCircle
 62
9
  6
CONTINUOUS
 10
4.7457544975
 20
3.6002823821
 40
0.3946764102
100
AcDbArc
 50
107.1610970673
 51
162.8389021101
  0
ARC
  5
2A9
100
AcDbEntity
  8
0
100
AcDbCircle
 62
9
  6
CONTINUOUS
 10
4.7457544975
 20
3.6002823821
 40
0.3893339827
100
AcDbArc
 50
17.2894744854
 51
72.7052907923
  0
ARC
  5
2AA
100
AcDbEntity
  8
0
100
AcDbCircle
 62
9
  6
CONTINUOUS
 10
4.7457544975
 20
3.6002823821
 40
0.3893339827
100
AcDbArc
 50
107.2936506324
 51
162.7085367424
  0
ARC
  5
2AB
100
AcDbEntity
  8
0
100
AcDbCircle
 62
9
  6
CONTINUOUS
 10
4.7457544975
 20
3.6002823821
 40
0.3893339827
100
AcDbArc
 50
197.2894744752
 51
252.7052907409
  0
ARC
  5
2AC
100
AcDbEntity
  8
0
100
AcDbCircle
 62
9
  6
CONTINUOUS
 10
4.7457544975
 20
3.6002823821
 40
0.3893339827
100
AcDbArc
 50
287.2936505974
 51
342.7085367557
  0
ARC
  5
2AD
100
AcDbEntity
  8
0
100
AcDbCircle
 62
9
  6
CONTINUOUS
 10
4.7457544975
 20
3.6002823821
 40
0.3787057616
100
AcDbArc
 50
17.5685169172
 51
72.4272372545
  0
ARC
  5
2AE
100
AcDbEntity
  8
0
100
AcDbCircle
 62
9
  6
CONTINUOUS
 10
4.7457544975
 20
3.6002823821
 40
0.3787057616
100
AcDbArc
 50
107.5728556966
 51
162.4279802279
  0
ARC
  5
2AF
100
AcDbEntity
  8
0
100
AcDbCircle
 62
9
  6
CONTINUOUS
 10
4.7457544975
 20
3.6002823821
 40
0.3787057616
100
AcDbArc
 50
197.5685169313
 51
252.4272371904
  0
ARC
  5
2B0
100
AcDbEntity
  8
0
100
AcDbCircle
 62
9
  6
CONTINUOUS
 10
4.7457544975
 20
3.6002823821
 40
0.3787057616
100
AcDbArc
 50
287.5728557459
 51
342.427980199
  0
ARC
  5
2B1
100
AcDbEntity
  8
0
100
AcDbCircle
 62
9
  6
CONTINUOUS
 10
4.7457544975
 20
3.6002823821
 40
0.3772132464
100
AcDbArc
 50
107.6134167481
 51
162.3919871603
  0
ARC
  5
2B2
100
AcDbEntity
  8
0
100
AcDbCircle
 62
9
  6
CONTINUOUS
 10
4.7457544975
 20
3.6002823821
 40
0.3772132464
100
AcDbArc
 50
17.6058314854
 51
72.384483905
  0
ARC
  5
2B3
100
AcDbEntity
  8
0
100
AcDbCircle
 62
9
  6
CONTINUOUS
 10
4.7457544975
 20
3.6002823821
 40
0.3772132464
100
AcDbArc
 50
287.6134167408
 51
342.3919871562
  0
ARC
  5
2B4
100
AcDbEntity
  8
0
100
AcDbCircle
 62
9
  6
CONTINUOUS
 10
4.7457544975
 20
3.6002823821
 40
0.3772132464
100
AcDbArc
 50
197.6058314815
 51
252.3844839107
  0
ARC
  5
2B5
100
AcDbEntity
  8
0
100
AcDbCircle
 62
9
  6
CONTINUOUS
 10
4.7457544975
 20
3.6002823821
 40
0.3582598795
100
AcDbArc
 50
108.1588997054
 51
161.8459533106
  0
ARC
  5
2B6
100
AcDbEntity
  8
0
100
AcDbCircle
 62
9
  6
CONTINUOUS
 10
4.7457544975
 20
3.6002823821
 40
0.3582598795
100
AcDbArc
 50
18.1529975353
 51
71.8423339574
  0
ARC
  5
2B7
100
AcDbEntity
  8
0
100
AcDbCircle
 62
9
  6
CONTINUOUS
 10
4.7457544975
 20
3.6002823821
 40
0.3582598795
100
AcDbArc
 50
288.1588997013
 51
341.8459533169
  0
ARC
  5
2B8
100
AcDbEntity
  8
0
100
AcDbCircle
 62
9
  6
CONTINUOUS
 10
4.7457544975
 20
3.6002823821
 40
0.3582598795
100
AcDbArc
 50
198.1529975196
 51
251.8423339678
  0
CIRCLE
  5
2B9
100
AcDbEntity
  8
0
100
AcDbCircle
 62
7
  6
CONTINUOUS
 10
4.7457544975
 20
3.6002823821
 40
0.2506002225
  0
CIRCLE
  5
2BA
100
AcDbEntity
  8
0
100
AcDbCircle
 62
9
  6
CONTINUOUS
 10
4.7457544975
 20
3.6002823821
 40
0.2347495189
  0
CIRCLE
  5
2BB
100
AcDbEntity
  8
0
100
AcDbCircle
 62
9
  6
CONTINUOUS
 10
4.7457544975
 20
3.6002823821
 40
0.1621159319
  0
ARC
  5
2BC
100
AcDbEntity
  8
0
100
AcDbCircle
 62
7
  6
CONTINUOUS
 10
4.7457544975
 20
3.7827823821
 40
2.005
100
AcDbArc
 50
85.4966382723
 51
94.5033617277
  0
ARC
  5
2BD
100
AcDbEntity
  8
0
100
AcDbCircle
 62
7
  6
CONTINUOUS
 10
4.9020044975
 20
4.191638712
 40
0.015
100
AcDbArc
 50
270.0
 51
85.4966382723
  0
ARC
  5
2BE
100
AcDbEntity
  8
0
100
AcDbCircle
 62
2
  6
CONTINUOUS
 10
5.0674423071
 20
3.2665331916
 40
0.1487278293
100
AcDbArc
 50
25.7437501532
 51
34.0980204614
  0
ARC
  5
2BF
100
AcDbEntity
  8
0
100
AcDbCircle
 62
2
  6
CONTINUOUS
 10
5.1545260012
 20
3.3101774795
 40
0.0318722155
100
AcDbArc
 50
234.9878482437
 51
236.9496339656
  0
ARC
  5
2C0
100
AcDbEntity
  8
0
100
AcDbCircle
 62
7
  6
CONTINUOUS
 10
5.3371108274
 20
3.4440323821
 40
0.015
100
AcDbArc
 50
180.0
 51
355.4966382723
  0
ARC
  5
2C1
100
AcDbEntity
  8
0
100
AcDbCircle
 62
2
  6
CONTINUOUS
 10
5.2472135748
 20
3.7325330528
 40
0.0261621567
100
AcDbArc
 50
129.1750087952
 51
129.6024896078
  0
ARC
  5
2C2
100
AcDbEntity
  8
0
100
AcDbCircle
 62
2
  6
CONTINUOUS
 10
5.2471260046
 20
3.7326384699
 40
0.0260251121
100
AcDbArc
 50
129.6018892697
 51
130.7158683029
  0
ARC
  5
2C3
100
AcDbEntity
  8
0
100
AcDbCircle
 62
2
  6
CONTINUOUS
 10
5.2766555282
 20
3.804832817
 40
0.024443764
100
AcDbArc
 50
222.3842614525
 51
223.9629206637
  0
ARC
  5
2C4
100
AcDbEntity
  8
0
100
AcDbCircle
 62
2
  6
CONTINUOUS
 10
5.2707974016
 20
3.8053668926
 40
0.0236884466
100
AcDbArc
 50
331.4324726674
 51
346.9921719541
  0
ARC
  5
2C5
100
AcDbEntity
  8
0
100
AcDbCircle
 62
2
  6
CONTINUOUS
 10
5.2306630686
 20
3.7971444835
 40
0.0186239104
100
AcDbArc
 50
325.6788629353
 51
330.7929952618
  0
ARC
  5
2C6
100
AcDbEntity
  8
0
100
AcDbCircle
 62
2
  6
CONTINUOUS
 10
5.2547474791
 20
3.7344179251
 40
0.0165856395
100
AcDbArc
 50
68.4552146034
 51
73.2355392144
  0
ARC
  5
2C7
100
AcDbEntity
  8
0
100
AcDbCircle
 62
7
  6
CONTINUOUS
 10
5.3371108274
 20
3.7565323821
 40
0.015
100
AcDbArc
 50
4.5033617277
 51
180.0
  0
ARC
  5
2C8
100
AcDbEntity
  8
0
100
AcDbCircle
 62
7
  6
CONTINUOUS
 10
6.1382544975
 20
3.6002823821
 40
2.005
100
AcDbArc
 50
175.4966382723
 51
184.5033617277
  0
CIRCLE
  5
2C9
100
AcDbEntity
  8
ALL_FEATURES
100
AcDbCircle
 62
7
  6
CONTINUOUS
 10
4.7457544975
 20
4.3881823821
 40
1.77165
  0
CIRCLE
  5
2CA
100
AcDbEntity
  8
ALL_FEATURES
100
AcDbCircle
 62
9
  6
CONTINUOUS
 10
4.7457544975
 20
4.3881823821
 40
1.7371455388
  0
CIRCLE
  5
2CB
100
AcDbEntity
  8
ALL_FEATURES
100
AcDbCircle
 62
9
  6
CONTINUOUS
 10
4.7457544975
 20
4.3881823821
 40
1.6400582839
  0
CIRCLE
  5
2CC
100
AcDbEntity
  8
ALL_FEATURES
100
AcDbCircle
 62
9
  6
CONTINUOUS
 10
4.7457544975
 20
4.3881823821
 40
1.6165
  0
ARC
  5
2CD
100
AcDbEntity
  8
0
100
AcDbCircle
 62
7
  6
CONTINUOUS
 10
4.9020044975
 20
4.5839260523
 40
0.015
100
AcDbArc
 50
274.5033617277
 51
90.0
  0
ARC
  5
2CE
100
AcDbEntity
  8
0
100
AcDbCircle
 62
7
  6
CONTINUOUS
 10
4.7457544975
 20
4.9927823821
 40
2.005
100
AcDbArc
 50
265.4966382723
 51
274.5033617277
  0
ARC
  5
2CF
100
AcDbEntity
  8
0
100
AcDbCircle
 62
7
  6
CONTINUOUS
 10
4.7457544975
 20
5.1752823821
 40
0.413385
100
AcDbArc
 50
196.7167473353
 51
253.2832526648
  0
ARC
  5
2D0
100
AcDbEntity
  8
0
100
AcDbCircle
 62
7
  6
CONTINUOUS
 10
4.7457544975
 20
5.1752823821
 40
0.413385
100
AcDbArc
 50
286.7167473352
 51
343.2832526647
  0
ARC
  5
2D1
100
AcDbEntity
  8
0
100
AcDbCircle
 62
7
  6
CONTINUOUS
 10
4.7457544975
 20
5.1752823821
 40
0.413385
100
AcDbArc
 50
16.7167473353
 51
73.2832526648
  0
ARC
  5
2D2
100
AcDbEntity
  8
0
100
AcDbCircle
 62
7
  6
CONTINUOUS
 10
4.7457544975
 20
5.1752823821
 40
0.413385
100
AcDbArc
 50
106.7167473352
 51
163.2832526647
  0
ARC
  5
2D3
100
AcDbEntity
  8
0
100
AcDbCircle
 62
9
  6
CONTINUOUS
 10
4.7457544975
 20
5.1752823821
 40
0.338385
100
AcDbArc
 50
18.7951411554
 51
71.20519505
  0
ARC
  5
2D4
100
AcDbEntity
  8
0
100
AcDbCircle
 62
9
  6
CONTINUOUS
 10
4.7457544975
 20
5.1752823821
 40
0.338385
100
AcDbArc
 50
108.7948049488
 51
161.204858845
  0
ARC
  5
2D5
100
AcDbEntity
  8
0
100
AcDbCircle
 62
9
  6
CONTINUOUS
 10
4.7457544975
 20
5.1752823821
 40
0.338385
100
AcDbArc
 50
198.7951411554
 51
251.20519505
  0
ARC
  5
2D6
100
AcDbEntity
  8
0
100
AcDbCircle
 62
9
  6
CONTINUOUS
 10
4.7457544975
 20
5.1752823821
 40
0.338385
100
AcDbArc
 50
288.7948049488
 51
341.204858845
  0
ARC
  5
2D7
100
AcDbEntity
  8
0
100
AcDbCircle
 62
7
  6
CONTINUOUS
 10
4.7457544975
 20
5.1752823821
 40
0.3355
100
AcDbArc
 50
198.8943574084
 51
251.1045926744
  0
ARC
  5
2D8
100
AcDbEntity
  8
0
100
AcDbCircle
 62
7
  6
CONTINUOUS
 10
4.7457544975
 20
5.1752823821
 40
0.3355
100
AcDbArc
 50
288.8954073256
 51
341.1056425916
  0
ARC
  5
2D9
100
AcDbEntity
  8
0
100
AcDbCircle
 62
7
  6
CONTINUOUS
 10
4.7457544975
 20
5.1752823821
 40
0.3355
100
AcDbArc
 50
108.8954073256
 51
161.1056425916
  0
ARC
  5
2DA
100
AcDbEntity
  8
0
100
AcDbCircle
 62
7
  6
CONTINUOUS
 10
4.7457544975
 20
5.1752823821
 40
0.3355
100
AcDbArc
 50
18.8943574084
 51
71.1045926744
  0
ARC
  5
2DB
100
AcDbEntity
  8
ALL_FEATURES
100
AcDbCircle
 62
7
  6
CONTINUOUS
 10
4.7457544975
 20
5.1752823821
 40
0.3257992626
100
AcDbArc
 50
109.2394515262
 51
160.759511555
  0
ARC
  5
2DC
100
AcDbEntity
  8
ALL_FEATURES
100
AcDbCircle
 62
7
  6
CONTINUOUS
 10
4.7457544975
 20
5.1752823821
 40
0.3257992626
100
AcDbArc
 50
19.240488445
 51
70.7605484738
  0
ARC
  5
2DD
100
AcDbEntity
  8
ALL_FEATURES
100
AcDbCircle
 62
7
  6
CONTINUOUS
 10
4.7457544975
 20
5.1752823821
 40
0.3257992626
100
AcDbArc
 50
289.2394515262
 51
340.759511555
  0
ARC
  5
2DE
100
AcDbEntity
  8
ALL_FEATURES
100
AcDbCircle
 62
7
  6
CONTINUOUS
 10
4.7457544975
 20
5.1752823821
 40
0.3257992626
100
AcDbArc
 50
199.240488445
 51
250.7605484738
  0
ARC
  5
2DF
100
AcDbEntity
  8
0
100
AcDbCircle
 62
7
  6
CONTINUOUS
 10
4.7457544975
 20
5.1752823821
 40
0.32375
100
AcDbArc
 50
289.3147458243
 51
340.6852541757
  0
ARC
  5
2E0
100
AcDbEntity
  8
0
100
AcDbCircle
 62
7
  6
CONTINUOUS
 10
4.7457544975
 20
5.1752823821
 40
0.32375
100
AcDbArc
 50
199.3147458243
 51
250.6852541757
  0
ARC
  5
2E1
100
AcDbEntity
  8
0
100
AcDbCircle
 62
7
  6
CONTINUOUS
 10
4.7457544975
 20
5.1752823821
 40
0.32375
100
AcDbArc
 50
19.3142656712
 51
70.6857337335
  0
ARC
  5
2E2
100
AcDbEntity
  8
0
100
AcDbCircle
 62
7
  6
CONTINUOUS
 10
4.7457544975
 20
5.1752823821
 40
0.32375
100
AcDbArc
 50
109.3147458242
 51
160.6852541757
  0
ARC
  5
2E3
100
AcDbEntity
  8
0
100
AcDbCircle
 62
9
  6
CONTINUOUS
 10
4.7457544975
 20
5.1752823821
 40
0.3032748045
100
AcDbArc
 50
290.1303247465
 51
339.8696754264
  0
ARC
  5
2E4
100
AcDbEntity
  8
0
100
AcDbCircle
 62
9
  6
CONTINUOUS
 10
4.7457544975
 20
5.1752823821
 40
0.3032748038
100
AcDbArc
 50
20.1303250601
 51
69.8696743488
  0
ARC
  5
2E5
100
AcDbEntity
  8
0
100
AcDbCircle
 62
9
  6
CONTINUOUS
 10
4.7457544975
 20
5.1752823821
 40
0.3032748027
100
AcDbArc
 50
110.1303233149
 51
159.8696770428
  0
ARC
  5
2E6
100
AcDbEntity
  8
0
100
AcDbCircle
 62
9
  6
CONTINUOUS
 10
4.7457544975
 20
5.1752823821
 40
0.3032748027
100
AcDbArc
 50
200.1303228817
 51
249.8696764913
  0
CIRCLE
  5
2E7
100
AcDbEntity
  8
0
100
AcDbCircle
 62
7
  6
CONTINUOUS
 10
4.7457544975
 20
5.1752823821
 40
0.2506002225
  0
CIRCLE
  5
2E8
100
AcDbEntity
  8
0
100
AcDbCircle
 62
9
  6
CONTINUOUS
 10
4.7457544975
 20
5.1752823821
 40
0.2347495189
  0
CIRCLE
  5
2E9
100
AcDbEntity
  8
0
100
AcDbCircle
 62
9
  6
CONTINUOUS
 10
4.7457544975
 20
5.1752823821
 40
0.1621159319
  0
ARC
  5
2EA
100
AcDbEntity
  8
0
100
AcDbCircle
 62
7
  6
CONTINUOUS
 10
5.3371108274
 20
5.3315323821
 40
0.015
100
AcDbArc
 50
4.5033617277
 51
180.0
  0
ARC
  5
2EB
100
AcDbEntity
  8
0
100
AcDbCircle
 62
7
  6
CONTINUOUS
 10
5.3371108274
 20
5.0190323821
 40
0.015
100
AcDbArc
 50
180.0
 51
355.4966382723
  0
ARC
  5
2EC
100
AcDbEntity
  8
0
100
AcDbCircle
 62
7
  6
CONTINUOUS
 10
4.7457544975
 20
6.5677823821
 40
2.005
100
AcDbArc
 50
265.4966382723
 51
274.5033617277
  0
ARC
  5
2ED
100
AcDbEntity
  8
0
100
AcDbCircle
 62
7
  6
CONTINUOUS
 10
4.9020044975
 20
5.766638712
 40
0.015
100
AcDbArc
 50
270.0
 51
85.4966382723
  0
ARC
  5
2EE
100
AcDbEntity
  8
0
100
AcDbCircle
 62
7
  6
CONTINUOUS
 10
6.1382544975
 20
5.1752823821
 40
2.005
100
AcDbArc
 50
175.4966382723
 51
184.5033617277
  0
SPLINE
  5
2EF
100
AcDbEntity
  8
0
100
AcDbSpline
 62
7
  6
CONTINUOUS
 70
0
 71
3
 72
16
 73
12
 74
0
 42
0.0000001
 43
0.0000001
 44
0.0000000001
 40
0.0
 40
0.0
 40
0.0
 40
0.0
 40
0.1250029949
 40
0.250005381
 40
0.3750063991
 40
0.5000059728
 40
0.5625094417
 40
0.625013486
 40
0.7500110263
 40
0.8750055172
 40
1.0
 40
1.0
 40
1.0
 40
1.0
 10
4.3444603735
 20
3.2044237073
 30
0.0
 10
4.343816187
 20
3.204514954
 30
0.0
 10
4.3425252585
 20
3.2046799669
 30
0.0
 10
4.3405823936
 20
3.2048700629
 30
0.0
 10
4.3386342206
 20
3.2049956828
 30
0.0
 10
4.3370076876
 20
3.205037067
 30
0.0
 10
4.3357063848
 20
3.2050259397
 30
0.0
 10
4.3344057294
 20
3.2049844507
 30
0.0
 10
4.3327822894
 20
3.2048713636
 30
0.0
 10
4.3308455724
 20
3.2046205256
 30
0.0
 10
4.329567837
 20
3.2043677642
 30
0.0
 10
4.3289350159
 20
3.204216827
 30
0.0
  0
SPLINE
  5
2F0
100
AcDbEntity
  8
0
100
AcDbSpline
 62
7
  6
CONTINUOUS
 70
0
 71
3
 72
11
 73
7
 74
0
 42
0.0000001
 43
0.0000001
 44
0.0000000001
 40
0.0
 40
0.0
 40
0.0
 40
0.0
 40
0.2500102704
 40
0.5000199593
 40
0.7500144387
 40
1.0
 40
1.0
 40
1.0
 40
1.0
 10
4.3628865472
 20
3.1987083847
 30
0.0
 10
4.361425968
 20
3.1993937133
 30
0.0
 10
4.358464293
 20
3.2006804099
 30
0.0
 10
4.3539037308
 20
3.2023129345
 30
0.0
 10
4.3492333365
 20
3.2036004307
 30
0.0
 10
4.3460576413
 20
3.20419746
 30
0.0
 10
4.3444603735
 20
3.2044237073
 30
0.0
  0
SPLINE
  5
2F1
100
AcDbEntity
  8
0
100
AcDbSpline
 62
7
  6
CONTINUOUS
 70
0
 71
3
 72
14
 73
10
 74
0
 42
0.0000001
 43
0.0000001
 44
0.0000000001
 40
0.0
 40
0.0
 40
0.0
 40
0.0
 40
0.2499972892
 40
0.3749986139
 40
0.4999996771
 40
0.6250004193
 40
0.7500008759
 40
0.8750005249
 40
1.0
 40
1.0
 40
1.0
 40
1.0
 10
4.3593267163
 20
3.2109028662
 30
0.0
 10
4.3603490634
 20
3.210546885
 30
0.0
 10
4.361876222
 20
3.2099941342
 30
0.0
 10
4.3638945282
 20
3.2092101994
 30
0.0
 10
4.3653973572
 20
3.2085947526
 30
0.0
 10
4.3668865495
 20
3.2079469236
 30
0.0
 10
4.3683587678
 20
3.2072612555
 30
0.0
 10
4.3698101764
 20
3.2065325223
 30
0.0
 10
4.3707607192
 20
3.2060137699
 30
0.0
 10
4.3712301398
 20
3.2057442754
 30
0.0
  0
SPLINE
  5
2F2
100
AcDbEntity
  8
0
100
AcDbSpline
 62
7
  6
CONTINUOUS
 70
0
 71
3
 72
14
 73
10
 74
0
 42
0.0000001
 43
0.0000001
 44
0.0000000001
 40
0.0
 40
0.0
 40
0.0
 40
0.0
 40
0.1249997592
 40
0.2499997086
 40
0.3750005188
 40
0.5000016043
 40
0.625003129
 40
0.7500050648
 40
1.0
 40
1.0
 40
1.0
 40
1.0
 10
4.3467421921
 20
3.214022107
 30
0.0
 10
4.3472802103
 20
3.2139625486
 30
0.0
 10
4.3483534691
 20
3.2138174185
 30
0.0
 10
4.3499532167
 20
3.2135363593
 30
0.0
 10
4.3515421946
 20
3.2131998078
 30
0.0
 10
4.3531198849
 20
3.2128140995
 30
0.0
 10
4.3546866266
 20
3.2123862576
 30
0.0
 10
4.3567619182
 20
3.2117682925
 30
0.0
 10
4.3583043325
 20
3.2112588601
 30
0.0
 10
4.3593267163
 20
3.2109028662
 30
0.0
  0
SPLINE
  5
2F3
100
AcDbEntity
  8
0
100
AcDbSpline
 62
7
  6
CONTINUOUS
 70
0
 71
3
 72
14
 73
10
 74
0
 42
0.0000001
 43
0.0000001
 44
0.0000000001
 40
0.0
 40
0.0
 40
0.0
 40
0.0
 40
0.1249986046
 40
0.2499976649
 40
0.3749980553
 40
0.4999987437
 40
0.6249997887
 40
0.7500010969
 40
1.0
 40
1.0
 40
1.0
 40
1.0
 10
4.3557585697
 20
3.2822621535
 30
0.0
 10
4.3549286972
 20
3.2822623868
 30
0.0
 10
4.3532688709
 20
3.2823069581
 30
0.0
 10
4.3507839572
 20
3.2824661982
 30
0.0
 10
4.3483050663
 20
3.2827009333
 30
0.0
 10
4.3458328677
 20
3.2829969232
 30
0.0
 10
4.3433670921
 20
3.283341978
 30
0.0
 10
4.3400873093
 20
3.2838547902
 30
0.0
 10
4.3376354221
 20
3.2842885218
 30
0.0
 10
4.3360040855
 20
3.2845943519
 30
0.0
  0
SPLINE
  5
2F4
100
AcDbEntity
  8
0
100
AcDbSpline
 62
7
  6
CONTINUOUS
 70
0
 71
3
 72
14
 73
10
 74
0
 42
0.0000001
 43
0.0000001
 44
0.0000000001
 40
0.0
 40
0.0
 40
0.0
 40
0.0
 40
0.2499282429
 40
0.3749385866
 40
0.4999496041
 40
0.6249608641
 40
0.7499730594
 40
0.8749861486
 40
1.0
 40
1.0
 40
1.0
 40
1.0
 10
4.3696023706
 20
3.2843585501
 30
0.0
 10
4.3684974743
 20
3.283968026
 30
0.0
 10
4.3668043788
 20
3.2834781793
 30
0.0
 10
4.3645097586
 20
3.2829964434
 30
0.0
 10
4.3627735571
 20
3.2827134187
 30
0.0
 10
4.3610272155
 20
3.2825032712
 30
0.0
 10
4.359274095
 20
3.2823608022
 30
0.0
 10
4.3575171791
 20
3.2822791136
 30
0.0
 10
4.3563447433
 20
3.2822619886
 30
0.0
 10
4.3557585697
 20
3.2822621535
 30
0.0
  0
SPLINE
  5
2F5
100
AcDbEntity
  8
0
100
AcDbSpline
 62
7
  6
CONTINUOUS
 70
0
 71
3
 72
11
 73
7
 74
0
 42
0.0000001
 43
0.0000001
 44
0.0000000001
 40
0.0
 40
0.0
 40
0.0
 40
0.0
 40
0.2499962272
 40
0.4999940757
 40
0.7499966081
 40
1.0
 40
1.0
 40
1.0
 40
1.0
 10
4.3763895752
 20
3.2884340336
 30
0.0
 10
4.3759023907
 20
3.2879827617
 30
0.0
 10
4.3748807098
 20
3.2871297371
 30
0.0
 10
4.3732236307
 20
3.2860175016
 30
0.0
 10
4.3714605916
 20
3.2850824822
 30
0.0
 10
4.3702285047
 20
3.2845798564
 30
0.0
 10
4.3696023706
 20
3.2843585501
 30
0.0
  0
SPLINE
  5
2F6
100
AcDbEntity
  8
0
100
AcDbSpline
 62
7
  6
CONTINUOUS
 70
0
 71
3
 72
12
 73
8
 74
0
 42
0.0000001
 43
0.0000001
 44
0.0000000001
 40
0.0
 40
0.0
 40
0.0
 40
0.0
 40
0.2500037834
 40
0.5000030495
 40
0.7499923965
 40
0.8749964456
 40
1.0
 40
1.0
 40
1.0
 40
1.0
 10
4.3507293491
 20
3.2930074144
 30
0.0
 10
4.3513593321
 20
3.2929690473
 30
0.0
 10
4.3526196485
 20
3.2928976276
 30
0.0
 10
4.3545119882
 20
3.2928289865
 30
0.0
 10
4.3560904841
 20
3.2928289193
 30
0.0
 10
4.3573517995
 20
3.2928824035
 30
0.0
 10
4.3579813107
 20
3.2929304302
 30
0.0
 10
4.3582954084
 20
3.2929609744
 30
0.0
  0
SPLINE
  5
2F7
100
AcDbEntity
  8
0
100
AcDbSpline
 62
7
  6
CONTINUOUS
 70
0
 71
3
 72
16
 73
12
 74
0
 42
0.0000001
 43
0.0000001
 44
0.0000000001
 40
0.0
 40
0.0
 40
0.0
 40
0.0
 40
0.2500004769
 40
0.3750007809
 40
0.5000010373
 40
0.6250011775
 40
0.7500009655
 40
0.8125010623
 40
0.8750011725
 40
0.9375007303
 40
1.0
 40
1.0
 40
1.0
 40
1.0
 10
4.3338212024
 20
3.2955046977
 30
0.0
 10
4.3352255452
 20
3.2952646462
 30
0.0
 10
4.3373326947
 20
3.2949082361
 30
0.0
 10
4.3401443575
 20
3.2944458547
 30
0.0
 10
4.3422545385
 20
3.2941078687
 30
0.0
 10
4.3443666668
 20
3.2937822734
 30
0.0
 10
4.3461290916
 20
3.2935261865
 30
0.0
 10
4.347541157
 20
3.2933367023
 30
0.0
 10
4.3486016055
 20
3.2932052513
 30
0.0
 10
4.3496638726
 20
3.2930895606
 30
0.0
 10
4.3503738347
 20
3.2930290659
 30
0.0
 10
4.3507293491
 20
3.2930074144
 30
0.0
  0
SPLINE
  5
2F8
100
AcDbEntity
  8
0
100
AcDbSpline
 62
7
  6
CONTINUOUS
 70
0
 71
3
 72
14
 73
10
 74
0
 42
0.0000001
 43
0.0000001
 44
0.0000000001
 40
0.0
 40
0.0
 40
0.0
 40
0.0
 40
0.1249985325
 40
0.2499976945
 40
0.3749981034
 40
0.499998571
 40
0.6249992089
 40
0.7499999398
 40
1.0
 40
1.0
 40
1.0
 40
1.0
 10
4.3107587396
 20
3.2983774177
 30
0.0
 10
4.311727296
 20
3.2983483314
 30
0.0
 10
4.3136629459
 20
3.2982398561
 30
0.0
 10
4.3165588755
 20
3.2979836024
 30
0.0
 10
4.319448266
 20
3.2976621995
 30
0.0
 10
4.3223318069
 20
3.2972926927
 30
0.0
 10
4.3252103118
 20
3.2968859926
 30
0.0
 10
4.329042451
 20
3.2963040369
 30
0.0
 10
4.3319109007
 20
3.2958312354
 30
0.0
 10
4.3338212024
 20
3.2955046977
 30
0.0
  0
SPLINE
  5
2F9
100
AcDbEntity
  8
0
100
AcDbSpline
 62
7
  6
CONTINUOUS
 70
0
 71
3
 72
15
 73
11
 74
0
 42
0.0000001
 43
0.0000001
 44
0.0000000001
 40
0.0
 40
0.0
 40
0.0
 40
0.0
 40
0.1249970553
 40
0.2499941761
 40
0.3749931972
 40
0.499993028
 40
0.624993342
 40
0.7499946734
 40
0.8749970497
 40
1.0
 40
1.0
 40
1.0
 40
1.0
 10
4.2976010097
 20
3.2969482157
 30
0.0
 10
4.2981302942
 20
3.2971112966
 30
0.0
 10
4.2991998309
 20
3.2974026269
 30
0.0
 10
4.3008257792
 20
3.2977481454
 30
0.0
 10
4.3024670504
 20
3.2980108708
 30
0.0
 10
4.3041180551
 20
3.2982018382
 30
0.0
 10
4.3057752158
 20
3.2983278748
 30
0.0
 10
4.3074356933
 20
3.2983958684
 30
0.0
 10
4.3090974096
 20
3.2984131509
 30
0.0
 10
4.3102051243
 20
3.2983940431
 30
0.0
 10
4.3107587396
 20
3.2983774177
 30
0.0
  0
SPLINE
  5
2FA
100
AcDbEntity
  8
0
100
AcDbSpline
 62
7
  6
CONTINUOUS
 70
0
 71
3
 72
11
 73
7
 74
0
 42
0.0000001
 43
0.0000001
 44
0.0000000001
 40
0.0
 40
0.0
 40
0.0
 40
0.0
 40
0.249987283
 40
0.4999796677
 40
0.7499832027
 40
1.0
 40
1.0
 40
1.0
 40
1.0
 10
4.2880479154
 20
3.2918028916
 30
0.0
 10
4.2887410772
 20
3.2923926323
 30
0.0
 10
4.2901938915
 20
3.2934963459
 30
0.0
 10
4.2925377301
 20
3.2949063277
 30
0.0
 10
4.2950139157
 20
3.2960673963
 30
0.0
 10
4.2967311638
 20
3.2966802025
 30
0.0
 10
4.2976010097
 20
3.2969482157
 30
0.0
  0
SPLINE
  5
2FB
100
AcDbEntity
  8
0
100
AcDbSpline
 62
7
  6
CONTINUOUS
 70
0
 71
3
 72
15
 73
11
 74
0
 42
0.0000001
 43
0.0000001
 44
0.0000000001
 40
0.0
 40
0.0
 40
0.0
 40
0.0
 40
0.1250210411
 40
0.2500317158
 40
0.3750313435
 40
0.5000228248
 40
0.6250124499
 40
0.7500041902
 40
0.8749990468
 40
1.0
 40
1.0
 40
1.0
 40
1.0
 10
4.279263403
 20
3.2745744714
 30
0.0
 10
4.2793093774
 20
3.2754027681
 30
0.0
 10
4.2794786792
 20
3.2770562449
 30
0.0
 10
4.2799818327
 20
3.2794978731
 30
0.0
 10
4.280746248
 20
3.2818712001
 30
0.0
 10
4.2817683974
 20
3.2841453614
 30
0.0
 10
4.2830352161
 20
3.2862924949
 30
0.0
 10
4.2845203282
 20
3.2882942685
 30
0.0
 10
4.2861951115
 20
3.2901392367
 30
0.0
 10
4.2874161826
 20
3.2912654145
 30
0.0
 10
4.2880479154
 20
3.2918028916
 30
0.0
  0
SPLINE
  5
2FC
100
AcDbEntity
  8
0
100
AcDbSpline
 62
7
  6
CONTINUOUS
 70
0
 71
3
 72
15
 73
11
 74
0
 42
0.0000001
 43
0.0000001
 44
0.0000000001
 40
0.0
 40
0.0
 40
0.0
 40
0.0
 40
0.1250038394
 40
0.2500047621
 40
0.3750045912
 40
0.5000011888
 40
0.6249953031
 40
0.7499913555
 40
0.8749912806
 40
1.0
 40
1.0
 40
1.0
 40
1.0
 10
4.2869412632
 20
3.2542498736
 30
0.0
 10
4.2863398994
 20
3.2549566968
 30
0.0
 10
4.285182064
 20
3.2564093907
 30
0.0
 10
4.2836047192
 20
3.2587066331
 30
0.0
 10
4.2822188543
 20
3.2611250979
 30
0.0
 10
4.2810550199
 20
3.2636586412
 30
0.0
 10
4.2801478042
 20
3.2662958009
 30
0.0
 10
4.2795262441
 20
3.2690152537
 30
0.0
 10
4.2792117325
 20
3.2717871738
 30
0.0
 10
4.2792119702
 20
3.2736478326
 30
0.0
 10
4.279263403
 20
3.2745744714
 30
0.0
  0
SPLINE
  5
2FD
100
AcDbEntity
  8
0
100
AcDbSpline
 62
7
  6
CONTINUOUS
 70
0
 71
3
 72
16
 73
12
 74
0
 42
0.0000001
 43
0.0000001
 44
0.0000000001
 40
0.0
 40
0.0
 40
0.0
 40
0.0
 40
0.1249824006
 40
0.1874984122
 40
0.2500127821
 40
0.3749991815
 40
0.499989561
 40
0.624985794
 40
0.7499864971
 40
0.8749925233
 40
1.0
 40
1.0
 40
1.0
 40
1.0
 10
4.3052049953
 20
3.2428707289
 30
0.0
 10
4.3042987998
 20
3.2430061111
 30
0.0
 10
4.3029497211
 20
3.24329076
 30
0.0
 10
4.3011958138
 20
3.2438253425
 30
0.0
 10
4.299475256
 20
3.2444598078
 30
0.0
 10
4.2973948847
 20
3.2454304226
 30
0.0
 10
4.295031405
 20
3.2468423431
 30
0.0
 10
4.292806491
 20
3.248462621
 30
0.0
 10
4.2907175087
 20
3.250253779
 30
0.0
 10
4.2887605233
 20
3.2521873931
 30
0.0
 10
4.2875351151
 20
3.2535518796
 30
0.0
 10
4.2869412632
 20
3.2542498736
 30
0.0
  0
SPLINE
  5
2FE
100
AcDbEntity
  8
0
100
AcDbSpline
 62
7
  6
CONTINUOUS
 70
0
 71
3
 72
16
 73
12
 74
0
 42
0.0000001
 43
0.0000001
 44
0.0000000001
 40
0.0
 40
0.0
 40
0.0
 40
0.0
 40
0.1250018353
 40
0.2500015067
 40
0.3750000406
 40
0.4999946086
 40
0.56250974
 40
0.625027143
 40
0.7500158346
 40
0.8750036546
 40
1.0
 40
1.0
 40
1.0
 40
1.0
 10
4.3255548099
 20
3.248825177
 30
0.0
 10
4.3248188721
 20
3.2482962152
 30
0.0
 10
4.3233149615
 20
3.2472819248
 30
0.0
 10
4.3209622842
 20
3.2459144554
 30
0.0
 10
4.3185092616
 20
3.2447348922
 30
0.0
 10
4.3163853726
 20
3.2439351557
 30
0.0
 10
4.3146452282
 20
3.2434244267
 30
0.0
 10
4.3128807134
 20
3.243006
 30
0.0
 10
4.3106353302
 20
3.2426653777
 30
0.0
 10
4.3079119345
 20
3.2425761844
 30
0.0
 10
4.306101322
 20
3.2427368211
 30
0.0
 10
4.3052049953
 20
3.2428707289
 30
0.0
  0
SPLINE
  5
2FF
100
AcDbEntity
  8
0
100
AcDbSpline
 62
7
  6
CONTINUOUS
 70
0
 71
3
 72
15
 73
11
 74
0
 42
0.0000001
 43
0.0000001
 44
0.0000000001
 40
0.0
 40
0.0
 40
0.0
 40
0.0
 40
0.1249960058
 40
0.2499890863
 40
0.3749846625
 40
0.4999810872
 40
0.6249824958
 40
0.74998484
 40
0.8749932718
 40
1.0
 40
1.0
 40
1.0
 40
1.0
 10
4.3059826504
 20
3.2532376141
 30
0.0
 10
4.3065851576
 20
3.253189043
 30
0.0
 10
4.3077962077
 20
3.2531540361
 30
0.0
 10
4.3096073807
 20
3.2532974434
 30
0.0
 10
4.3113921351
 20
3.2536382025
 30
0.0
 10
4.31313013
 20
3.2541671632
 30
0.0
 10
4.3148053646
 20
3.2548689388
 30
0.0
 10
4.3164082963
 20
3.2557221936
 30
0.0
 10
4.3179332707
 20
3.2567070505
 30
0.0
 10
4.318898741
 20
3.2574366869
 30
0.0
 10
4.3193687017
 20
3.2578169154
 30
0.0
  0
SPLINE
  5
300
100
AcDbEntity
  8
0
100
AcDbSpline
 62
7
  6
CONTINUOUS
 70
0
 71
3
 72
15
 73
11
 74
0
 42
0.0000001
 43
0.0000001
 44
0.0000000001
 40
0.0
 40
0.0
 40
0.0
 40
0.0
 40
0.1250085699
 40
0.250019985
 40
0.3750228677
 40
0.5000251039
 40
0.6250203283
 40
0.7500144704
 40
0.8750051928
 40
1.0
 40
1.0
 40
1.0
 40
1.0
 10
4.2941063771
 20
3.2599415601
 30
0.0
 10
4.2944846456
 20
3.2594969558
 30
0.0
 10
4.2952692353
 20
3.258631068
 30
0.0
 10
4.2965345141
 20
3.257417957
 30
0.0
 10
4.2978962871
 20
3.2563133304
 30
0.0
 10
4.299354922
 20
3.255339302
 30
0.0
 10
4.3009075484
 20
3.2545221282
 30
0.0
 10
4.3025426817
 20
3.2538846479
 30
0.0
 10
4.3042413711
 20
3.2534438328
 30
0.0
 10
4.3054008555
 20
3.2532845154
 30
0.0
 10
4.3059826504
 20
3.2532376141
 30
0.0
  0
SPLINE
  5
301
100
AcDbEntity
  8
0
100
AcDbSpline
 62
7
  6
CONTINUOUS
 70
0
 71
3
 72
15
 73
11
 74
0
 42
0.0000001
 43
0.0000001
 44
0.0000000001
 40
0.0
 40
0.0
 40
0.0
 40
0.0
 40
0.1249970937
 40
0.2499917481
 40
0.3749881665
 40
0.4999853029
 40
0.6249865237
 40
0.7499886251
 40
0.8749949862
 40
1.0
 40
1.0
 40
1.0
 40
1.0
 10
4.2897336223
 20
3.2722204278
 30
0.0
 10
4.2896999693
 20
3.2716643018
 30
0.0
 10
4.2896860963
 20
3.2705479731
 30
0.0
 10
4.2898359758
 20
3.2688803448
 30
0.0
 10
4.2901618244
 20
3.2672377357
 30
0.0
 10
4.290659365
 20
3.265638847
 30
0.0
 10
4.2913185833
 20
3.2640998399
 30
0.0
 10
4.2921223376
 20
3.2626314999
 30
0.0
 10
4.2930532777
 20
3.2612409087
 30
0.0
 10
4.2937453247
 20
3.2603659292
 30
0.0
 10
4.2941063771
 20
3.2599415601
 30
0.0
  0
SPLINE
  5
302
100
AcDbEntity
  8
0
100
AcDbSpline
 62
7
  6
CONTINUOUS
 70
0
 71
3
 72
15
 73
11
 74
0
 42
0.0000001
 43
0.0000001
 44
0.0000000001
 40
0.0
 40
0.0
 40
0.0
 40
0.0
 40
0.1249968116
 40
0.2500033772
 40
0.3750036448
 40
0.5000056512
 40
0.6250064357
 40
0.7500042067
 40
0.8750056572
 40
1.0
 40
1.0
 40
1.0
 40
1.0
 10
4.295160221
 20
3.2829447415
 30
0.0
 10
4.2947677496
 20
3.2826108276
 30
0.0
 10
4.2940099086
 20
3.2819101011
 30
0.0
 10
4.2929740623
 20
3.2807594166
 30
0.0
 10
4.2920581542
 20
3.2795104974
 30
0.0
 10
4.2912800752
 20
3.2781711116
 30
0.0
 10
4.2906532334
 20
3.2767545541
 30
0.0
 10
4.2901844391
 20
3.2752782531
 30
0.0
 10
4.2898729028
 20
3.2737614465
 30
0.0
 10
4.2897647471
 20
3.2727347749
 30
0.0
 10
4.2897336223
 20
3.2722204278
 30
0.0
  0
SPLINE
  5
303
100
AcDbEntity
  8
0
100
AcDbSpline
 62
7
  6
CONTINUOUS
 70
0
 71
3
 72
15
 73
11
 74
0
 42
0.0000001
 43
0.0000001
 44
0.0000000001
 40
0.0
 40
0.0
 40
0.0
 40
0.0
 40
0.1250114504
 40
0.250021325
 40
0.3750270544
 40
0.5000294981
 40
0.6250276917
 40
0.7500238427
 40
0.8750122684
 40
1.0
 40
1.0
 40
1.0
 40
1.0
 10
4.3086802264
 20
3.2875575294
 30
0.0
 10
4.3080765755
 20
3.2875152432
 30
0.0
 10
4.3068709222
 20
3.2874044655
 30
0.0
 10
4.3050724248
 20
3.2871520241
 30
0.0
 10
4.3032906769
 20
3.2867986512
 30
0.0
 10
4.3015358175
 20
3.2863285311
 30
0.0
 10
4.2998207523
 20
3.2857279261
 30
0.0
 10
4.2981647541
 20
3.2849778903
 30
0.0
 10
4.2965930599
 20
3.2840633423
 30
0.0
 10
4.2956210245
 20
3.2833367923
 30
0.0
 10
4.295160221
 20
3.2829447415
 30
0.0
  0
SPLINE
  5
304
100
AcDbEntity
  8
0
100
AcDbSpline
 62
7
  6
CONTINUOUS
 70
0
 71
3
 72
18
 73
14
 74
0
 42
0.0000001
 43
0.0000001
 44
0.0000000001
 40
0.0
 40
0.0
 40
0.0
 40
0.0
 40
0.1250016152
 40
0.250003059
 40
0.3750042195
 40
0.4375052485
 40
0.5000062604
 40
0.625005566
 40
0.7500022402
 40
0.8125026012
 40
0.8750025934
 40
0.937501706
 40
1.0
 40
1.0
 40
1.0
 40
1.0
 10
4.3360040855
 20
3.2845943519
 30
0.0
 10
4.3348760796
 20
3.2848058216
 30
0.0
 10
4.3326180819
 20
3.2852182776
 30
0.0
 10
4.3292242863
 20
3.2857985732
 30
0.0
 10
4.326389528
 20
3.2862422389
 30
0.0
 10
4.3241174889
 20
3.2865684859
 30
0.0
 10
4.321842538
 20
3.2868736238
 30
0.0
 10
4.3189928564
 20
3.2872091262
 30
0.0
 10
4.3161340945
 20
3.2874597932
 30
0.0
 10
4.313842427
 20
3.2875911472
 30
0.0
 10
4.3121215796
 20
3.2876458201
 30
0.0
 10
4.3103998394
 20
3.287644635
 30
0.0
 10
4.3092526292
 20
3.2875976267
 30
0.0
 10
4.3086802264
 20
3.2875575294
 30
0.0
  0
SPLINE
  5
305
100
AcDbEntity
  8
0
100
AcDbSpline
 62
7
  6
CONTINUOUS
 70
0
 71
3
 72
20
 73
16
 74
0
 42
0.0000001
 43
0.0000001
 44
0.0000000001
 40
0.0
 40
0.0
 40
0.0
 40
0.0
 40
0.062497403
 40
0.1249969202
 40
0.18749849
 40
0.2500001899
 40
0.3125016965
 40
0.3750031741
 40
0.4375045553
 40
0.5000058753
 40
0.5625070378
 40
0.6250080558
 40
0.7500041134
 40
0.8750016726
 40
1.0
 40
1.0
 40
1.0
 40
1.0
 10
4.2621851696
 20
3.3080317753
 30
0.0
 10
4.2628344681
 20
3.3080930251
 30
0.0
 10
4.2641263794
 20
3.3082935787
 30
0.0
 10
4.2660251387
 20
3.3087742728
 30
0.0
 10
4.2678813979
 20
3.3093978891
 30
0.0
 10
4.2696958661
 20
3.3101327497
 30
0.0
 10
4.2714707159
 20
3.3109581125
 30
0.0
 10
4.2732086634
 20
3.3118581277
 30
0.0
 10
4.2749129673
 20
3.3128200517
 30
0.0
 10
4.2765868323
 20
3.3138338288
 30
0.0
 10
4.2782329675
 20
3.3148919289
 30
0.0
 10
4.2803935554
 20
3.3163544056
 30
0.0
 10
4.2830343415
 20
3.3182691209
 30
0.0
 10
4.2861241569
 20
3.3206711956
 30
0.0
 10
4.2881390855
 20
3.322328796
 30
0.0
 10
4.2891362629
 20
3.3231696845
 30
0.0
  0
SPLINE
  5
306
100
AcDbEntity
  8
0
100
AcDbSpline
 62
7
  6
CONTINUOUS
 70
0
 71
3
 72
20
 73
16
 74
0
 42
0.0000001
 43
0.0000001
 44
0.0000000001
 40
0.0
 40
0.0
 40
0.0
 40
0.0
 40
0.124972471
 40
0.1874821301
 40
0.2499915616
 40
0.3125024905
 40
0.3750124183
 40
0.4375199191
 40
0.5000281569
 40
0.562536622
 40
0.62504482
 40
0.7500057604
 40
0.8125151855
 40
0.8750246543
 40
1.0
 40
1.0
 40
1.0
 40
1.0
 10
4.2494357106
 20
3.3131779873
 30
0.0
 10
4.2498199863
 20
3.3127200253
 30
0.0
 10
4.2504313448
 20
3.3120608104
 30
0.0
 10
4.2513156836
 20
3.3112550227
 30
0.0
 10
4.2520145052
 20
3.3106915565
 30
0.0
 10
4.2527474708
 20
3.3101732834
 30
0.0
 10
4.2535126816
 20
3.3097038373
 30
0.0
 10
4.2543078077
 20
3.3092870118
 30
0.0
 10
4.2551295602
 20
3.3089255289
 30
0.0
 10
4.2559741029
 20
3.3086209519
 30
0.0
 10
4.2571245458
 20
3.3082920676
 30
0.0
 10
4.2583047985
 20
3.3080774343
 30
0.0
 10
4.2594963786
 20
3.3079709247
 30
0.0
 10
4.2606921825
 20
3.307932923
 30
0.0
 10
4.2615899713
 20
3.307975629
 30
0.0
 10
4.2621851696
 20
3.3080317753
 30
0.0
  0
SPLINE
  5
307
100
AcDbEntity
  8
0
100
AcDbSpline
 62
7
  6
CONTINUOUS
 70
0
 71
3
 72
16
 73
12
 74
0
 42
0.0000001
 43
0.0000001
 44
0.0000000001
 40
0.0
 40
0.0
 40
0.0
 40
0.0
 40
0.1250042234
 40
0.2500044649
 40
0.3750017497
 40
0.4375244784
 40
0.5000490726
 40
0.6250280584
 40
0.7500073089
 40
0.8749954921
 40
1.0
 40
1.0
 40
1.0
 40
1.0
 10
4.2467622438
 20
3.3277453959
 30
0.0
 10
4.2465990808
 20
3.3271234162
 30
0.0
 10
4.2463199196
 20
3.3258663624
 30
0.0
 10
4.2460677445
 20
3.3239511192
 30
0.0
 10
4.2460255717
 20
3.3223403406
 30
0.0
 10
4.2461055376
 20
3.3210558526
 30
0.0
 10
4.2462664218
 20
3.3197790759
 30
0.0
 10
4.2466255587
 20
3.3182067372
 30
0.0
 10
4.2473164652
 20
3.3163991072
 30
0.0
 10
4.2482536345
 20
3.3147064408
 30
0.0
 10
4.2490223813
 20
3.313670574
 30
0.0
 10
4.2494357106
 20
3.3131779873
 30
0.0
  0
SPLINE
  5
308
100
AcDbEntity
  8
0
100
AcDbSpline
 62
7
  6
CONTINUOUS
 70
0
 71
3
 72
22
 73
18
 74
0
 42
0.0000001
 43
0.0000001
 44
0.0000000001
 40
0.0
 40
0.0
 40
0.0
 40
0.0
 40
0.1249999763
 40
0.2499995563
 40
0.3749976571
 40
0.4999926161
 40
0.5624933355
 40
0.6249936771
 40
0.6874933663
 40
0.7499914353
 40
0.8124873083
 40
0.8437382768
 40
0.874989457
 40
0.9062416973
 40
0.937492795
 40
0.9687476412
 40
1.0
 40
1.0
 40
1.0
 40
1.0
 10
4.2660116892
 20
3.3507284783
 30
0.0
 10
4.2650451214
 20
3.3499134019
 30
0.0
 10
4.2631284639
 20
3.3482635679
 30
0.0
 10
4.2603116256
 20
3.345722764
 30
0.0
 10
4.257568171
 20
3.3431026354
 30
0.0
 10
4.2553653087
 20
3.3408343548
 30
0.0
 10
4.2536694147
 20
3.3389583378
 30
0.0
 10
4.2524373261
 20
3.3375161338
 30
0.0
 10
4.2512538974
 20
3.3360335927
 30
0.0
 10
4.2501317705
 20
3.3345039906
 30
0.0
 10
4.2492609395
 20
3.3331840506
 30
0.0
 10
4.2486147945
 20
3.3320970413
 30
0.0
 10
4.2481594303
 20
3.3312649492
 30
0.0
 10
4.2477381742
 20
3.3304149978
 30
0.0
 10
4.2473581375
 20
3.3295456504
 30
0.0
 10
4.2470263062
 20
3.3286567313
 30
0.0
 10
4.2468424554
 20
3.3280511636
 30
0.0
 10
4.2467622438
 20
3.3277453959
 30
0.0
  0
SPLINE
  5
309
100
AcDbEntity
  8
0
100
AcDbSpline
 62
7
  6
CONTINUOUS
 70
0
 71
3
 72
22
 73
18
 74
0
 42
0.0000001
 43
0.0000001
 44
0.0000000001
 40
0.0
 40
0.0
 40
0.0
 40
0.0
 40
0.0312519233
 40
0.0625051982
 40
0.0937562227
 40
0.1250079374
 40
0.1562590761
 40
0.1875100841
 40
0.2500062407
 40
0.3125046616
 40
0.3750044764
 40
0.4375049837
 40
0.5000059615
 40
0.6250009709
 40
0.7499994054
 40
0.8749994569
 40
1.0
 40
1.0
 40
1.0
 40
1.0
 10
4.2919396942
 20
3.3656726623
 30
0.0
 10
4.2916254117
 20
3.3656443485
 30
0.0
 10
4.2909987824
 20
3.365564589
 30
0.0
 10
4.2900681116
 20
3.3653888541
 30
0.0
 10
4.2891480925
 20
3.3651641142
 30
0.0
 10
4.2882396048
 20
3.3648970416
 30
0.0
 10
4.2873424688
 20
3.3645942228
 30
0.0
 10
4.2861611088
 20
3.3641494053
 30
0.0
 10
4.284711031
 20
3.3635256688
 30
0.0
 10
4.2830102986
 20
3.3626927401
 30
0.0
 10
4.2813449996
 20
3.3617912703
 30
0.0
 10
4.2797109947
 20
3.3608344617
 30
0.0
 10
4.2775699185
 20
3.3594969355
 30
0.0
 10
4.2749559335
 20
3.3577276821
 30
0.0
 10
4.2719054572
 20
3.3554834793
 30
0.0
 10
4.2689243824
 20
3.3531481841
 30
0.0
 10
4.2669765677
 20
3.3515421302
 30
0.0
 10
4.2660116892
 20
3.3507284783
 30
0.0
  0
SPLINE
  5
30A
100
AcDbEntity
  8
0
100
AcDbSpline
 62
7
  6
CONTINUOUS
 70
0
 71
3
 72
16
 73
12
 74
0
 42
0.0000001
 43
0.0000001
 44
0.0000000001
 40
0.0
 40
0.0
 40
0.0
 40
0.0
 40
0.1250038686
 40
0.2499913025
 40
0.3749709884
 40
0.4999509827
 40
0.5624760522
 40
0.6249990299
 40
0.7499966869
 40
0.8749964818
 40
1.0
 40
1.0
 40
1.0
 40
1.0
 10
4.3057911698
 20
3.3606261113
 30
0.0
 10
4.3053784739
 20
3.3611155115
 30
0.0
 10
4.3044917939
 20
3.3620448009
 30
0.0
 10
4.3029863508
 20
3.363246687
 30
0.0
 10
4.3013261156
 20
3.3642242545
 30
0.0
 10
4.2998419831
 20
3.3648371
 30
0.0
 10
4.2986153
 20
3.3652068092
 30
0.0
 10
4.2973676925
 20
3.3654986487
 30
0.0
 10
4.2957795494
 20
3.3657250232
 30
0.0
 10
4.2938576124
 20
3.3657959589
 30
0.0
 10
4.2925772902
 20
3.3657301034
 30
0.0
 10
4.2919396942
 20
3.3656726623
 30
0.0
  0
SPLINE
  5
30B
100
AcDbEntity
  8
0
100
AcDbSpline
 62
7
  6
CONTINUOUS
 70
0
 71
3
 72
16
 73
12
 74
0
 42
0.0000001
 43
0.0000001
 44
0.0000000001
 40
0.0
 40
0.0
 40
0.0
 40
0.0
 40
0.1250046462
 40
0.2500054238
 40
0.375003139
 40
0.4375263751
 40
0.5000512961
 40
0.6250299512
 40
0.750008516
 40
0.8749959106
 40
1.0
 40
1.0
 40
1.0
 40
1.0
 10
4.3084422586
 20
3.3461011804
 30
0.0
 10
4.308606829
 20
3.3467210694
 30
0.0
 10
4.3088889397
 20
3.3479740551
 30
0.0
 10
4.3091458417
 20
3.3498836444
 30
0.0
 10
4.3091918342
 20
3.3514901853
 30
0.0
 10
4.3091146614
 20
3.3527715214
 30
0.0
 10
4.3089563006
 20
3.3540452678
 30
0.0
 10
4.3085996288
 20
3.3556139618
 30
0.0
 10
4.3079103462
 20
3.3574169483
 30
0.0
 10
4.3069735795
 20
3.3591042034
 30
0.0
 10
4.3062046261
 20
3.3601358094
 30
0.0
 10
4.3057911698
 20
3.3606261113
 30
0.0
  0
SPLINE
  5
30C
100
AcDbEntity
  8
0
100
AcDbSpline
 62
7
  6
CONTINUOUS
 70
0
 71
3
 72
22
 73
18
 74
0
 42
0.0000001
 43
0.0000001
 44
0.0000000001
 40
0.0
 40
0.0
 40
0.0
 40
0.0
 40
0.1249999574
 40
0.2499995369
 40
0.3749976829
 40
0.4999927652
 40
0.5624934424
 40
0.6249937521
 40
0.6874934136
 40
0.7499914705
 40
0.8124873198
 40
0.8437382711
 40
0.8749894376
 40
0.9062416752
 40
0.9374927639
 40
0.968747635
 40
1.0
 40
1.0
 40
1.0
 40
1.0
 10
4.2891362629
 20
3.3231696845
 30
0.0
 10
4.2901025839
 20
3.3239845528
 30
0.0
 10
4.2920193324
 20
3.3256332682
 30
0.0
 10
4.2948381991
 20
3.3281703423
 30
0.0
 10
4.2975856813
 20
3.3307848023
 30
0.0
 10
4.2997937744
 20
3.3330468165
 30
0.0
 10
4.3014949786
 20
3.3349171397
 30
0.0
 10
4.3027316437
 20
3.3363547733
 30
0.0
 10
4.3039202211
 20
3.3378325601
 30
0.0
 10
4.3050480362
 20
3.3393573631
 30
0.0
 10
4.3059239903
 20
3.3406734209
 30
0.0
 10
4.3065743777
 20
3.3417575208
 30
0.0
 10
4.3070329614
 20
3.3425875669
 30
0.0
 10
4.3074574294
 20
3.3434356501
 30
0.0
 10
4.3078406133
 20
3.3443033542
 30
0.0
 10
4.3081754531
 20
3.3451908911
 30
0.0
 10
4.3083611662
 20
3.3457957285
 30
0.0
 10
4.3084422586
 20
3.3461011804
 30
0.0
  0
SPLINE
  5
30D
100
AcDbEntity
  8
0
100
AcDbSpline
 62
7
  6
CONTINUOUS
 70
0
 71
3
 72
20
 73
16
 74
0
 42
0.0000001
 43
0.0000001
 44
0.0000000001
 40
0.0
 40
0.0
 40
0.0
 40
0.0
 40
0.1249900861
 40
0.1875009569
 40
0.2500125697
 40
0.3125253435
 40
0.3750376148
 40
0.4375475089
 40
0.5000563174
 40
0.6250089396
 40
0.7499640677
 40
0.8124743801
 40
0.8749824475
 40
0.9374943869
 40
1.0
 40
1.0
 40
1.0
 40
1.0
 10
4.3127514097
 20
3.366466446
 30
0.0
 10
4.3133779781
 20
3.3657234225
 30
0.0
 10
4.3142738223
 20
3.3645700587
 30
0.0
 10
4.3153590812
 20
3.3629563481
 30
0.0
 10
4.3161119496
 20
3.3617066203
 30
0.0
 10
4.3167979238
 20
3.3604189243
 30
0.0
 10
4.3174117585
 20
3.3590952515
 30
0.0
 10
4.3179473252
 20
3.3577379074
 30
0.0
 10
4.3185498963
 20
3.3558887874
 30
0.0
 10
4.319083738
 20
3.3535115342
 30
0.0
 10
4.3193076702
 20
3.3510854524
 30
0.0
 10
4.3193049664
 20
3.3491406223
 30
0.0
 10
4.3192140205
 20
3.3476842724
 30
0.0
 10
4.3190388543
 20
3.346235873
 30
0.0
 10
4.3188692925
 20
3.3452780597
 30
0.0
 10
4.3187720141
 20
3.3448018404
 30
0.0
  0
SPLINE
  5
30E
100
AcDbEntity
  8
0
100
AcDbSpline
 62
7
  6
CONTINUOUS
 70
0
 71
3
 72
14
 73
10
 74
0
 42
0.0000001
 43
0.0000001
 44
0.0000000001
 40
0.0
 40
0.0
 40
0.0
 40
0.0
 40
0.1250221211
 40
0.2500424302
 40
0.3750649169
 40
0.5000874244
 40
0.749934612
 40
0.8749680236
 40
1.0
 40
1.0
 40
1.0
 40
1.0
 10
4.298210131
 20
3.3755823627
 30
0.0
 10
4.298928409
 20
3.3754529156
 30
0.0
 10
4.3003526548
 20
3.3751191981
 30
0.0
 10
4.3024242914
 20
3.3743989085
 30
0.0
 10
4.304411217
 20
3.3734698801
 30
0.0
 10
4.3069256738
 20
3.3719815919
 30
0.0
 10
4.3092281095
 20
3.3701632976
 30
0.0
 10
4.3113071821
 20
3.3681136944
 30
0.0
 10
4.3122808709
 20
3.3670244399
 30
0.0
 10
4.3127514097
 20
3.366466446
 30
0.0
  0
SPLINE
  5
30F
100
AcDbEntity
  8
0
100
AcDbSpline
 62
7
  6
CONTINUOUS
 70
0
 71
3
 72
14
 73
10
 74
0
 42
0.0000001
 43
0.0000001
 44
0.0000000001
 40
0.0
 40
0.0
 40
0.0
 40
0.0
 40
0.1250202458
 40
0.2500404817
 40
0.4999393506
 40
0.6249545222
 40
0.7499700614
 40
0.8749847716
 40
1.0
 40
1.0
 40
1.0
 40
1.0
 10
4.2804244074
 20
3.3733647374
 30
0.0
 10
4.2811277507
 20
3.37364355
 30
0.0
 10
4.2825488005
 20
3.3741661026
 30
0.0
 10
4.2854415691
 20
3.37505551
 30
0.0
 10
4.2884123017
 20
3.3756814287
 30
0.0
 10
4.2914244611
 20
3.3759880184
 30
0.0
 10
4.2936958206
 20
3.3760462481
 30
0.0
 10
4.2959645007
 20
3.3759228579
 30
0.0
 10
4.2974655661
 20
3.3757165473
 30
0.0
 10
4.298210131
 20
3.3755823627
 30
0.0
  0
SPLINE
  5
310
100
AcDbEntity
  8
0
100
AcDbSpline
 62
7
  6
CONTINUOUS
 70
0
 71
3
 72
15
 73
11
 74
0
 42
0.0000001
 43
0.0000001
 44
0.0000000001
 40
0.0
 40
0.0
 40
0.0
 40
0.0
 40
0.1250033656
 40
0.2500063465
 40
0.3750081665
 40
0.5000089607
 40
0.6250089885
 40
0.750008184
 40
0.8750043263
 40
1.0
 40
1.0
 40
1.0
 40
1.0
 10
4.2587112684
 20
3.359428781
 30
0.0
 10
4.2595364646
 20
3.3601246432
 30
0.0
 10
4.2612029638
 20
3.3614974147
 30
0.0
 10
4.2637534171
 20
3.3634933945
 30
0.0
 10
4.2663583681
 20
3.3654178752
 30
0.0
 10
4.2690241249
 20
3.3672574862
 30
0.0
 10
4.2717568759
 20
3.3689962593
 30
0.0
 10
4.274560396
 20
3.370619131
 30
0.0
 10
4.2774431769
 20
3.3720971489
 30
0.0
 10
4.2794210046
 20
3.3729669781
 30
0.0
 10
4.2804244074
 20
3.3733647374
 30
0.0
  0
SPLINE
  5
311
100
AcDbEntity
  8
0
100
AcDbSpline
 62
7
  6
CONTINUOUS
 70
0
 71
3
 72
15
 73
11
 74
0
 42
0.0000001
 43
0.0000001
 44
0.0000000001
 40
0.0
 40
0.0
 40
0.0
 40
0.0
 40
0.1249962573
 40
0.2499932894
 40
0.3749931671
 40
0.4999934617
 40
0.6249943558
 40
0.7499958223
 40
0.8749978396
 40
1.0
 40
1.0
 40
1.0
 40
1.0
 10
4.243741595
 20
3.344223074
 30
0.0
 10
4.2442592307
 20
3.3449484749
 30
0.0
 10
4.2453445791
 20
3.3463638358
 30
0.0
 10
4.2470784407
 20
3.3483999009
 30
0.0
 10
4.248894658
 20
3.3503626411
 30
0.0
 10
4.2507728269
 20
3.3522658735
 30
0.0
 10
4.2527020084
 20
3.3541172647
 30
0.0
 10
4.2546722421
 20
3.3559247839
 30
0.0
 10
4.2566756138
 20
3.3576954318
 30
0.0
 10
4.2580299743
 20
3.3588542669
 30
0.0
 10
4.2587112684
 20
3.359428781
 30
0.0
  0
SPLINE
  5
312
100
AcDbEntity
  8
0
100
AcDbSpline
 62
7
  6
CONTINUOUS
 70
0
 71
3
 72
14
 73
10
 74
0
 42
0.0000001
 43
0.0000001
 44
0.0000000001
 40
0.0
 40
0.0
 40
0.0
 40
0.0
 40
0.2499497218
 40
0.3749582338
 40
0.4999680357
 40
0.6249761659
 40
0.7499842996
 40
0.8749924638
 40
1.0
 40
1.0
 40
1.0
 40
1.0
 10
4.2371050557
 20
3.3313331951
 30
0.0
 10
4.2374631797
 20
3.3324920317
 30
0.0
 10
4.2380919449
 20
3.3342035824
 30
0.0
 10
4.2390835463
 20
3.3364183102
 30
0.0
 10
4.2398974742
 20
3.3380466638
 30
0.0
 10
4.2407750124
 20
3.3396414565
 30
0.0
 10
4.2417109802
 20
3.3412026233
 30
0.0
 10
4.2426989991
 20
3.3427312731
 30
0.0
 10
4.2433892364
 20
3.343729288
 30
0.0
 10
4.243741595
 20
3.344223074
 30
0.0
  0
SPLINE
  5
313
100
AcDbEntity
  8
0
100
AcDbSpline
 62
7
  6
CONTINUOUS
 70
0
 71
3
 72
14
 73
10
 74
0
 42
0.0000001
 43
0.0000001
 44
0.0000000001
 40
0.0
 40
0.0
 40
0.0
 40
0.0
 40
0.249899648
 40
0.3749159827
 40
0.4999322183
 40
0.6249485218
 40
0.749965008
 40
0.8749823919
 40
1.0
 40
1.0
 40
1.0
 40
1.0
 10
4.2364525512
 20
3.3190243209
 30
0.0
 10
4.2362391088
 20
3.3200399985
 30
0.0
 10
4.236015676
 20
3.3215868937
 30
0.0
 10
4.2359263456
 20
3.3236623467
 30
0.0
 10
4.2359632457
 20
3.3252207628
 30
0.0
 10
4.2361021474
 20
3.3267732496
 30
0.0
 10
4.2363401015
 20
3.328313656
 30
0.0
 10
4.2366723065
 20
3.3298363512
 30
0.0
 10
4.2369517531
 20
3.3308371303
 30
0.0
 10
4.2371050557
 20
3.3313331951
 30
0.0
  0
SPLINE
  5
314
100
AcDbEntity
  8
0
100
AcDbSpline
 62
7
  6
CONTINUOUS
 70
0
 71
3
 72
13
 73
9
 74
0
 42
0.0000001
 43
0.0000001
 44
0.0000000001
 40
0.0
 40
0.0
 40
0.0
 40
0.0
 40
0.2499662374
 40
0.4999082637
 40
0.6249336552
 40
0.7499560891
 40
0.8749881098
 40
1.0
 40
1.0
 40
1.0
 40
1.0
 10
4.2423495187
 20
3.3073922453
 30
0.0
 10
4.2416440923
 20
3.3082329397
 30
0.0
 10
4.2403119353
 20
3.3099825562
 30
0.0
 10
4.2388968497
 20
3.3123412082
 30
0.0
 10
4.2379483596
 20
3.3143223554
 30
0.0
 10
4.2373359135
 20
3.3158523632
 30
0.0
 10
4.2368293143
 20
3.3174204913
 30
0.0
 10
4.2365654254
 20
3.3184872023
 30
0.0
 10
4.2364525512
 20
3.3190243209
 30
0.0
  0
SPLINE
  5
315
100
AcDbEntity
  8
0
100
AcDbSpline
 62
7
  6
CONTINUOUS
 70
0
 71
3
 72
14
 73
10
 74
0
 42
0.0000001
 43
0.0000001
 44
0.0000000001
 40
0.0
 40
0.0
 40
0.0
 40
0.0
 40
0.1250226868
 40
0.2500436667
 40
0.3750667016
 40
0.5000898115
 40
0.7499343401
 40
0.8749676869
 40
1.0
 40
1.0
 40
1.0
 40
1.0
 10
4.2568951148
 20
3.2982996611
 30
0.0
 10
4.2561771392
 20
3.2984289479
 30
0.0
 10
4.2547534629
 20
3.2987620959
 30
0.0
 10
4.2526820419
 20
3.2994797951
 30
0.0
 10
4.2506941344
 20
3.3004042508
 30
0.0
 10
4.2481767608
 20
3.3018848709
 30
0.0
 10
4.2458702885
 20
3.3036962603
 30
0.0
 10
4.2437903271
 20
3.3057432269
 30
0.0
 10
4.2428184832
 20
3.3068333551
 30
0.0
 10
4.2423495187
 20
3.3073922453
 30
0.0
  0
SPLINE
  5
316
100
AcDbEntity
  8
0
100
AcDbSpline
 62
7
  6
CONTINUOUS
 70
0
 71
3
 72
14
 73
10
 74
0
 42
0.0000001
 43
0.0000001
 44
0.0000000001
 40
0.0
 40
0.0
 40
0.0
 40
0.0
 40
0.125019961
 40
0.2500399033
 40
0.4999398052
 40
0.6249548552
 40
0.7499702612
 40
0.8749848733
 40
1.0
 40
1.0
 40
1.0
 40
1.0
 10
4.274687234
 20
3.3004669039
 30
0.0
 10
4.2739828445
 20
3.3001911277
 30
0.0
 10
4.2725598921
 20
3.2996746141
 30
0.0
 10
4.269664102
 20
3.2987969891
 30
0.0
 10
4.2666917308
 20
3.2981821313
 30
0.0
 10
4.2636792464
 20
3.2978846378
 30
0.0
 10
4.2614082163
 20
3.2978317802
 30
0.0
 10
4.2591401971
 20
3.2979586233
 30
0.0
 10
4.2576395625
 20
3.2981656075
 30
0.0
 10
4.2568951148
 20
3.2982996611
 30
0.0
  0
SPLINE
  5
317
100
AcDbEntity
  8
0
100
AcDbSpline
 62
7
  6
CONTINUOUS
 70
0
 71
3
 72
17
 73
13
 74
0
 42
0.0000001
 43
0.0000001
 44
0.0000000001
 40
0.0
 40
0.0
 40
0.0
 40
0.0
 40
0.1249996014
 40
0.2499988895
 40
0.3749969984
 40
0.4999940149
 40
0.6249901276
 40
0.7499853642
 40
0.812487219
 40
0.8749899461
 40
0.9374977189
 40
1.0
 40
1.0
 40
1.0
 40
1.0
 10
4.2964366837
 20
3.3144693818
 30
0.0
 10
4.2956092806
 20
3.3137716586
 30
0.0
 10
4.2939392255
 20
3.3123941611
 30
0.0
 10
4.2913856078
 20
3.3103882234
 30
0.0
 10
4.2887790138
 20
3.3084514538
 30
0.0
 10
4.2861120434
 20
3.3065983758
 30
0.0
 10
4.28337725
 20
3.304846733
 30
0.0
 10
4.2810376893
 20
3.3034852448
 30
0.0
 10
4.2791250939
 20
3.3024709736
 30
0.0
 10
4.2776690353
 20
3.3017521149
 30
0.0
 10
4.27619138
 20
3.3010787288
 30
0.0
 10
4.2751911694
 20
3.3006642002
 30
0.0
 10
4.274687234
 20
3.3004669039
 30
0.0
  0
SPLINE
  5
318
100
AcDbEntity
  8
0
100
AcDbSpline
 62
7
  6
CONTINUOUS
 70
0
 71
3
 72
19
 73
15
 74
0
 42
0.0000001
 43
0.0000001
 44
0.0000000001
 40
0.0
 40
0.0
 40
0.0
 40
0.0
 40
0.1249163083
 40
0.1874291416
 40
0.2499438327
 40
0.3749287546
 40
0.4999255474
 40
0.5624356914
 40
0.624945291
 40
0.6874550449
 40
0.7499646755
 40
0.812474461
 40
0.8749843814
 40
1.0
 40
1.0
 40
1.0
 40
1.0
 10
4.3187720141
 20
3.3448018404
 30
0.0
 10
4.3184526966
 20
3.3432386458
 30
0.0
 10
4.3177546008
 20
3.3409335049
 30
0.0
 10
4.3164940271
 20
3.3379993104
 30
0.0
 10
4.3150435854
 20
3.3351520229
 30
0.0
 10
4.3129296687
 20
3.3317575906
 30
0.0
 10
4.3105237874
 20
3.3285679433
 30
0.0
 10
4.3084714311
 20
3.3261210001
 30
0.0
 10
4.3068759643
 20
3.3243340256
 30
0.0
 10
4.3052300576
 20
3.3225935385
 30
0.0
 10
4.3035399332
 20
3.3208960344
 30
0.0
 10
4.3018117982
 20
3.3192373002
 30
0.0
 10
4.2994634479
 20
3.3170728363
 30
0.0
 10
4.2976573507
 20
3.3154987322
 30
0.0
 10
4.2964366837
 20
3.3144693818
 30
0.0
  0
SPLINE
  5
319
100
AcDbEntity
  8
0
100
AcDbSpline
 62
7
  6
CONTINUOUS
 70
0
 71
3
 72
16
 73
12
 74
0
 42
0.0000001
 43
0.0000001
 44
0.0000000001
 40
0.0
 40
0.0
 40
0.0
 40
0.0
 40
0.1250029331
 40
0.2500052007
 40
0.3750061004
 40
0.5000055419
 40
0.5625090631
 40
0.6250131437
 40
0.7500106723
 40
0.8750053376
 40
1.0
 40
1.0
 40
1.0
 40
1.0
 10
4.1987261026
 20
3.7728340843
 30
0.0
 10
4.1984634348
 20
3.7734296886
 30
0.0
 10
4.197921257
 20
3.7746135619
 30
0.0
 10
4.1970540241
 20
3.7763636389
 30
0.0
 10
4.19612773
 20
3.7780832732
 30
0.0
 10
4.1952994111
 20
3.7794846998
 30
0.0
 10
4.1945987278
 20
3.7805821097
 30
0.0
 10
4.193872422
 20
3.7816626941
 30
0.0
 10
4.1929136496
 20
3.7829786864
 30
0.0
 10
4.1916719702
 20
3.7844873079
 30
0.0
 10
4.1907791713
 20
3.7854365642
 30
0.0
 10
4.1903154278
 20
3.7858933188
 30
0.0
  0
SPLINE
  5
31A
100
AcDbEntity
  8
0
100
AcDbSpline
 62
7
  6
CONTINUOUS
 70
0
 71
3
 72
11
 73
7
 74
0
 42
0.0000001
 43
0.0000001
 44
0.0000000001
 40
0.0
 40
0.0
 40
0.0
 40
0.0
 40
0.2500067949
 40
0.5000125638
 40
0.750008535
 40
1.0
 40
1.0
 40
1.0
 40
1.0
 10
4.2037580669
 20
3.7541559658
 30
0.0
 10
4.2035560941
 20
3.7557607071
 30
0.0
 10
4.2030539237
 20
3.7589588906
 30
0.0
 10
4.2019800439
 20
3.7636947003
 30
0.0
 10
4.2005630027
 20
3.7683398252
 30
0.0
 10
4.1993787053
 20
3.771354295
 30
0.0
 10
4.1987261026
 20
3.7728340843
 30
0.0
  0
SPLINE
  5
31B
100
AcDbEntity
  8
0
100
AcDbSpline
 62
7
  6
CONTINUOUS
 70
0
 71
3
 72
14
 73
10
 74
0
 42
0.0000001
 43
0.0000001
 44
0.0000000001
 40
0.0
 40
0.0
 40
0.0
 40
0.0
 40
0.2499957627
 40
0.374997276
 40
0.4999985095
 40
0.6249994154
 40
0.750000095
 40
0.8750001076
 40
1.0
 40
1.0
 40
1.0
 40
1.0
 10
4.212098702
 20
3.7636601416
 30
0.0
 10
4.2123352933
 20
3.762607038
 30
0.0
 10
4.2126671045
 20
3.7610219819
 30
0.0
 10
4.2130540712
 20
3.7588981152
 30
0.0
 10
4.2133128464
 20
3.7572997288
 30
0.0
 10
4.2135351126
 20
3.7556958289
 30
0.0
 10
4.2137153884
 20
3.7540866192
 30
0.0
 10
4.2138486871
 20
3.7524728248
 30
0.0
 10
4.213901799
 20
3.751394467
 30
0.0
 10
4.2139173744
 20
3.7508550067
 30
0.0
  0
SPLINE
  5
31C
100
AcDbEntity
  8
0
100
AcDbSpline
 62
7
  6
CONTINUOUS
 70
0
 71
3
 72
14
 73
10
 74
0
 42
0.0000001
 43
0.0000001
 44
0.0000000001
 40
0.0
 40
0.0
 40
0.0
 40
0.0
 40
0.1250000185
 40
0.2500001799
 40
0.3750010727
 40
0.5000021817
 40
0.6250036877
 40
0.7500055778
 40
1.0
 40
1.0
 40
1.0
 40
1.0
 10
4.2081952267
 20
3.7757425036
 30
0.0
 10
4.2084211213
 20
3.7752629829
 30
0.0
 10
4.2088512231
 20
3.7742936236
 30
0.0
 10
4.2094411912
 20
3.7728165962
 30
0.0
 10
4.2099815569
 20
3.7713207271
 30
0.0
 10
4.2104765944
 20
3.7698093167
 30
0.0
 10
4.210931633
 20
3.768285427
 30
0.0
 10
4.211491994
 20
3.7662404386
 30
0.0
 10
4.2118663298
 20
3.7646944656
 30
0.0
 10
4.212098702
 20
3.7636601416
 30
0.0
  0
SPLINE
  5
31D
100
AcDbEntity
  8
0
100
AcDbSpline
 62
7
  6
CONTINUOUS
 70
0
 71
3
 72
13
 73
9
 74
0
 42
0.0000001
 43
0.0000001
 44
0.0000000001
 40
0.0
 40
0.0
 40
0.0
 40
0.0
 40
0.2499608389
 40
0.4998973214
 40
0.6249250005
 40
0.7499498714
 40
0.8749858622
 40
1.0
 40
1.0
 40
1.0
 40
1.0
 10
4.2479594082
 20
3.8244771285
 30
0.0
 10
4.2481102406
 20
3.8237161593
 30
0.0
 10
4.2484896926
 20
3.8222082643
 30
0.0
 10
4.2491803905
 20
3.8203902504
 30
0.0
 10
4.2498700935
 20
3.8189990785
 30
0.0
 10
4.2504566863
 20
3.8179924581
 30
0.0
 10
4.2511114687
 20
3.8170289156
 30
0.0
 10
4.2515920984
 20
3.816418645
 30
0.0
 10
4.2518427396
 20
3.8161224757
 30
0.0
  0
SPLINE
  5
31E
100
AcDbEntity
  8
0
100
AcDbSpline
 62
7
  6
CONTINUOUS
 70
0
 71
3
 72
11
 73
7
 74
0
 42
0.0000001
 43
0.0000001
 44
0.0000000001
 40
0.0
 40
0.0
 40
0.0
 40
0.0
 40
0.2500205808
 40
0.5000230212
 40
0.7500126594
 40
1.0
 40
1.0
 40
1.0
 40
1.0
 10
4.2486170751
 20
3.8344056398
 30
0.0
 10
4.2483581635
 20
3.8336087918
 30
0.0
 10
4.2479305811
 20
3.8319838951
 30
0.0
 10
4.2475927306
 20
3.8294866838
 30
0.0
 10
4.2475805352
 20
3.8269663757
 30
0.0
 10
4.247796527
 20
3.8252988857
 30
0.0
 10
4.2479594082
 20
3.8244771285
 30
0.0
  0
SPLINE
  5
31F
100
AcDbEntity
  8
0
100
AcDbSpline
 62
7
  6
CONTINUOUS
 70
0
 71
3
 72
15
 73
11
 74
0
 42
0.0000001
 43
0.0000001
 44
0.0000000001
 40
0.0
 40
0.0
 40
0.0
 40
0.0
 40
0.1249961447
 40
0.2499886877
 40
0.3749836702
 40
0.4999798982
 40
0.6249822101
 40
0.749985469
 40
0.8749939123
 40
1.0
 40
1.0
 40
1.0
 40
1.0
 10
4.2581104008
 20
3.8458934181
 30
0.0
 10
4.2575378055
 20
3.8456108144
 30
0.0
 10
4.2564199681
 20
3.8449877981
 30
0.0
 10
4.2548528262
 20
3.8438797282
 30
0.0
 10
4.2534189329
 20
3.8426033798
 30
0.0
 10
4.252136053
 20
3.8411755079
 30
0.0
 10
4.2510150041
 20
3.8396177995
 30
0.0
 10
4.2500555984
 20
3.8379561537
 30
0.0
 10
4.2492534155
 20
3.8362138781
 30
0.0
 10
4.2488144097
 20
3.8350129735
 30
0.0
 10
4.2486170751
 20
3.8344056398
 30
0.0
  0
SPLINE
  5
320
100
AcDbEntity
  8
0
100
AcDbSpline
 62
7
  6
CONTINUOUS
 70
0
 71
3
 72
16
 73
12
 74
0
 42
0.0000001
 43
0.0000001
 44
0.0000000001
 40
0.0
 40
0.0
 40
0.0
 40
0.0
 40
0.1250070939
 40
0.2500117483
 40
0.3750117039
 40
0.5000064297
 40
0.6249952283
 40
0.7499808634
 40
0.8124967948
 40
0.875014196
 40
1.0
 40
1.0
 40
1.0
 40
1.0
 10
4.2739394317
 20
3.8463823315
 30
0.0
 10
4.2732954344
 20
3.8465915789
 30
0.0
 10
4.2719940059
 20
3.8469701528
 30
0.0
 10
4.2700070696
 20
3.8474014823
 30
0.0
 10
4.2679911305
 20
3.84767036
 30
0.0
 10
4.2659586419
 20
3.847756753
 30
0.0
 10
4.2639273062
 20
3.84763712
 30
0.0
 10
4.2622547932
 20
3.8473520231
 30
0.0
 10
4.2609437696
 20
3.8470095864
 30
0.0
 10
4.2596551522
 20
3.8465911009
 30
0.0
 10
4.2587175076
 20
3.8461930549
 30
0.0
 10
4.2581104008
 20
3.8458934181
 30
0.0
  0
SPLINE
  5
321
100
AcDbEntity
  8
0
100
AcDbSpline
 62
7
  6
CONTINUOUS
 70
0
 71
3
 72
15
 73
11
 74
0
 42
0.0000001
 43
0.0000001
 44
0.0000000001
 40
0.0
 40
0.0
 40
0.0
 40
0.0
 40
0.1249927919
 40
0.2499811054
 40
0.3749746216
 40
0.4999707815
 40
0.6249719272
 40
0.7499776828
 40
0.874987591
 40
1.0
 40
1.0
 40
1.0
 40
1.0
 10
4.2874306451
 20
3.8362052959
 30
0.0
 10
4.2870755659
 20
3.8368326582
 30
0.0
 10
4.2862953652
 20
3.8380492427
 30
0.0
 10
4.2849286382
 20
3.839730798
 30
0.0
 10
4.2833851134
 20
3.8412516232
 30
0.0
 10
4.2816918375
 20
3.8426028952
 30
0.0
 10
4.2798766846
 20
3.8437843526
 30
0.0
 10
4.2779667369
 20
3.8448044933
 30
0.0
 10
4.2759833798
 20
3.8456719743
 30
0.0
 10
4.2746251347
 20
3.8461595331
 30
0.0
 10
4.2739394317
 20
3.8463823315
 30
0.0
  0
SPLINE
  5
322
100
AcDbEntity
  8
0
100
AcDbSpline
 62
7
  6
CONTINUOUS
 70
0
 71
3
 72
15
 73
11
 74
0
 42
0.0000001
 43
0.0000001
 44
0.0000000001
 40
0.0
 40
0.0
 40
0.0
 40
0.0
 40
0.1250053823
 40
0.2500073056
 40
0.3750026404
 40
0.4999963854
 40
0.6249910541
 40
0.7499876835
 40
0.8749927536
 40
1.0
 40
1.0
 40
1.0
 40
1.0
 10
4.2889609003
 20
3.8214907967
 30
0.0
 10
4.2891572653
 20
3.8220951461
 30
0.0
 10
4.2894958572
 20
3.8233223656
 30
0.0
 10
4.2898199537
 20
3.8252042217
 30
0.0
 10
4.289940511
 20
3.827110523
 30
0.0
 10
4.2898477938
 20
3.8290185432
 30
0.0
 10
4.289539128
 20
3.8309036584
 30
0.0
 10
4.2890252587
 20
3.8327432078
 30
0.0
 10
4.2883224022
 20
3.8345185255
 30
0.0
 10
4.2877436504
 20
3.8356522705
 30
0.0
 10
4.2874306451
 20
3.8362052959
 30
0.0
  0
SPLINE
  5
323
100
AcDbEntity
  8
0
100
AcDbSpline
 62
7
  6
CONTINUOUS
 70
0
 71
3
 72
15
 73
11
 74
0
 42
0.0000001
 43
0.0000001
 44
0.0000000001
 40
0.0
 40
0.0
 40
0.0
 40
0.0
 40
0.1249988142
 40
0.2499966171
 40
0.3749951976
 40
0.4999938499
 40
0.6249941776
 40
0.7499948184
 40
0.8749976264
 40
1.0
 40
1.0
 40
1.0
 40
1.0
 10
4.2814225695
 20
3.8119982292
 30
0.0
 10
4.2818705266
 20
3.8122563446
 30
0.0
 10
4.2827443008
 20
3.81281228
 30
0.0
 10
4.2839719268
 20
3.8137639051
 30
0.0
 10
4.2851007991
 20
3.814831215
 30
0.0
 10
4.2861190189
 20
3.816004532
 30
0.0
 10
4.2870172842
 20
3.8172718931
 30
0.0
 10
4.2877926428
 20
3.8186177679
 30
0.0
 10
4.2884443739
 20
3.8200272472
 30
0.0
 10
4.2888011339
 20
3.8209990864
 30
0.0
 10
4.2889609003
 20
3.8214907967
 30
0.0
  0
SPLINE
  5
324
100
AcDbEntity
  8
0
100
AcDbSpline
 62
7
  6
CONTINUOUS
 70
0
 71
3
 72
15
 73
11
 74
0
 42
0.0000001
 43
0.0000001
 44
0.0000000001
 40
0.0
 40
0.0
 40
0.0
 40
0.0
 40
0.1250125068
 40
0.2500228919
 40
0.3750286301
 40
0.5000307211
 40
0.6250279668
 40
0.7500234737
 40
0.875011387
 40
1.0
 40
1.0
 40
1.0
 40
1.0
 10
4.2674379196
 20
3.810280687
 30
0.0
 10
4.2680286448
 20
3.810183449
 30
0.0
 10
4.2692150356
 20
3.8100175748
 30
0.0
 10
4.271005423
 20
3.8098642367
 30
0.0
 10
4.2728023105
 20
3.8098240703
 30
0.0
 10
4.2745976561
 20
3.8099156674
 30
0.0
 10
4.2763796999
 20
3.8101561766
 30
0.0
 10
4.2781310203
 20
3.8105675544
 30
0.0
 10
4.279827618
 20
3.8111671035
 30
0.0
 10
4.2809039441
 20
3.8116993944
 30
0.0
 10
4.2814225695
 20
3.8119982292
 30
0.0
  0
SPLINE
  5
325
100
AcDbEntity
  8
0
100
AcDbSpline
 62
7
  6
CONTINUOUS
 70
0
 71
3
 72
15
 73
11
 74
0
 42
0.0000001
 43
0.0000001
 44
0.0000000001
 40
0.0
 40
0.0
 40
0.0
 40
0.0
 40
0.1249967927
 40
0.2499904845
 40
0.374986126
 40
0.499982933
 40
0.6249846324
 40
0.7499873728
 40
0.8749945884
 40
1.0
 40
1.0
 40
1.0
 40
1.0
 10
4.2848708969
 20
3.8016955248
 30
0.0
 10
4.2841246166
 20
3.8012571588
 30
0.0
 10
4.2825891126
 20
3.8004510282
 30
0.0
 10
4.280176361
 20
3.7994797982
 30
0.0
 10
4.2776753373
 20
3.7987646773
 30
0.0
 10
4.275114022
 20
3.7983116464
 30
0.0
 10
4.2725206031
 20
3.79811744
 30
0.0
 10
4.2699208453
 20
3.7981664038
 30
0.0
 10
4.2673357991
 20
3.7984401341
 30
0.0
 10
4.2656317194
 20
3.7987550958
 30
0.0
 10
4.2647865818
 20
3.7989420313
 30
0.0
  0
SPLINE
  5
326
100
AcDbEntity
  8
0
100
AcDbSpline
 62
7
  6
CONTINUOUS
 70
0
 71
3
 72
15
 73
11
 74
0
 42
0.0000001
 43
0.0000001
 44
0.0000000001
 40
0.0
 40
0.0
 40
0.0
 40
0.0
 40
0.125007454
 40
0.250017027
 40
0.375019818
 40
0.5000215612
 40
0.625017677
 40
0.7500124853
 40
0.8750044402
 40
1.0
 40
1.0
 40
1.0
 40
1.0
 10
4.2976021502
 20
3.8186830844
 30
0.0
 10
4.2973225373
 20
3.8178225245
 30
0.0
 10
4.2967104547
 20
3.8161179336
 30
0.0
 10
4.2956203266
 20
3.8136293821
 30
0.0
 10
4.2943391476
 20
3.8112327859
 30
0.0
 10
4.2928561287
 20
3.8089549058
 30
0.0
 10
4.291162932
 20
3.8068277873
 30
0.0
 10
4.2892617019
 20
3.8048836222
 30
0.0
 10
4.2871647716
 20
3.8031524045
 30
0.0
 10
4.2856510248
 20
3.802153773
 30
0.0
 10
4.2848708969
 20
3.8016955248
 30
0.0
  0
SPLINE
  5
327
100
AcDbEntity
  8
0
100
AcDbSpline
 62
7
  6
CONTINUOUS
 70
0
 71
3
 72
19
 73
15
 74
0
 42
0.0000001
 43
0.0000001
 44
0.0000000001
 40
0.0
 40
0.0
 40
0.0
 40
0.0
 40
0.1249782389
 40
0.1874897323
 40
0.2500030731
 40
0.374966305
 40
0.4999259678
 40
0.5624373677
 40
0.6249499423
 40
0.6874644365
 40
0.7499795847
 40
0.8124941279
 40
0.8750070198
 40
1.0
 40
1.0
 40
1.0
 40
1.0
 10
4.2945390754
 20
3.8445559381
 30
0.0
 10
4.2951603684
 20
3.8436173757
 30
0.0
 10
4.2960210671
 20
3.842159595
 30
0.0
 10
4.2969970464
 20
3.8401294376
 30
0.0
 10
4.297850507
 20
3.8380447635
 30
0.0
 10
4.2986758696
 20
3.8353465698
 30
0.0
 10
4.2991530426
 20
3.8325653927
 30
0.0
 10
4.2993254995
 20
3.8303194667
 30
0.0
 10
4.2993525315
 20
3.8286296311
 30
0.0
 10
4.2992803874
 20
3.8269412307
 30
0.0
 10
4.2991141415
 20
3.8252595558
 30
0.0
 10
4.2988585798
 20
3.8235891566
 30
0.0
 10
4.2984057677
 20
3.8213827507
 30
0.0
 10
4.297950011
 20
3.8197536899
 30
0.0
 10
4.2976021502
 20
3.8186830844
 30
0.0
  0
SPLINE
  5
328
100
AcDbEntity
  8
0
100
AcDbSpline
 62
7
  6
CONTINUOUS
 70
0
 71
3
 72
14
 73
10
 74
0
 42
0.0000001
 43
0.0000001
 44
0.0000000001
 40
0.0
 40
0.0
 40
0.0
 40
0.0
 40
0.2498785891
 40
0.3749011989
 40
0.4999229843
 40
0.6249425826
 40
0.7499617248
 40
0.8749800861
 40
1.0
 40
1.0
 40
1.0
 40
1.0
 10
4.2766287076
 20
3.8578377485
 30
0.0
 10
4.278429316
 20
3.8572526954
 30
0.0
 10
4.2810777259
 20
3.8561879492
 30
0.0
 10
4.2844002314
 20
3.8543620799
 30
0.0
 10
4.2867691503
 20
3.8527855701
 30
0.0
 10
4.2889889732
 20
3.8510053159
 30
0.0
 10
4.2910394854
 20
3.8490321949
 30
0.0
 10
4.2929035667
 20
3.8468825068
 30
0.0
 10
4.2940162127
 20
3.8453458057
 30
0.0
 10
4.2945390754
 20
3.8445559381
 30
0.0
  0
SPLINE
  5
329
100
AcDbEntity
  8
0
100
AcDbSpline
 62
7
  6
CONTINUOUS
 70
0
 71
3
 72
16
 73
12
 74
0
 42
0.0000001
 43
0.0000001
 44
0.0000000001
 40
0.0
 40
0.0
 40
0.0
 40
0.0
 40
0.1250106562
 40
0.2500103989
 40
0.3750032058
 40
0.4999919345
 40
0.6249814241
 40
0.7499745283
 40
0.8124874689
 40
0.8749988989
 40
1.0
 40
1.0
 40
1.0
 40
1.0
 10
4.2541660322
 20
3.8565994874
 30
0.0
 10
4.2550252298
 20
3.8570342088
 30
0.0
 10
4.256787929
 20
3.8578194178
 30
0.0
 10
4.259540691
 20
3.8587121679
 30
0.0
 10
4.262374634
 20
3.8592997146
 30
0.0
 10
4.2652553507
 20
3.8595753309
 30
0.0
 10
4.2681484444
 20
3.8595465809
 30
0.0
 10
4.2705451656
 20
3.8592861097
 30
0.0
 10
4.2724418981
 20
3.8589498602
 30
0.0
 10
4.2743224639
 20
3.8585325561
 30
0.0
 10
4.2757129921
 20
3.8581352825
 30
0.0
 10
4.2766287076
 20
3.8578377485
 30
0.0
  0
SPLINE
  5
32A
100
AcDbEntity
  8
0
100
AcDbSpline
 62
7
  6
CONTINUOUS
 70
0
 71
3
 72
15
 73
11
 74
0
 42
0.0000001
 43
0.0000001
 44
0.0000000001
 40
0.0
 40
0.0
 40
0.0
 40
0.0
 40
0.1250066126
 40
0.2500109825
 40
0.3750085331
 40
0.5000038591
 40
0.6249983552
 40
0.7499942582
 40
0.8749954607
 40
1.0
 40
1.0
 40
1.0
 40
1.0
 10
4.240244178
 20
3.8402246003
 30
0.0
 10
4.2405285813
 20
3.8410999037
 30
0.0
 10
4.2411699264
 20
3.8428281059
 30
0.0
 10
4.2423633795
 20
3.8453222365
 30
0.0
 10
4.2437969148
 20
3.8476874058
 30
0.0
 10
4.2454688983
 20
3.8498908423
 30
0.0
 10
4.2473664385
 20
3.8519034123
 30
0.0
 10
4.2494661777
 20
3.8537037762
 30
0.0
 10
4.2517374982
 20
3.8552809969
 30
0.0
 10
4.2533448289
 20
3.8561839898
 30
0.0
 10
4.2541660322
 20
3.8565994874
 30
0.0
  0
SPLINE
  5
32B
100
AcDbEntity
  8
0
100
AcDbSpline
 62
7
  6
CONTINUOUS
 70
0
 71
3
 72
15
 73
11
 74
0
 42
0.0000001
 43
0.0000001
 44
0.0000000001
 40
0.0
 40
0.0
 40
0.0
 40
0.0
 40
0.1250029376
 40
0.250005614
 40
0.3750052984
 40
0.5000046473
 40
0.6250033207
 40
0.7500024191
 40
0.8750009928
 40
1.0
 40
1.0
 40
1.0
 40
1.0
 10
4.2403607945
 20
3.822306119
 30
0.0
 10
4.2401424864
 20
3.8230324412
 30
0.0
 10
4.2397482864
 20
3.8244982806
 30
0.0
 10
4.2392967231
 20
3.8267299095
 30
0.0
 10
4.2390020376
 20
3.8289879772
 30
0.0
 10
4.2388756676
 20
3.831261896
 30
0.0
 10
4.2389294512
 20
3.8335389273
 30
0.0
 10
4.2391699117
 20
3.8358040632
 30
0.0
 10
4.2395999028
 20
3.8380408594
 30
0.0
 10
4.2400098204
 20
3.8395033218
 30
0.0
 10
4.240244178
 20
3.8402246003
 30
0.0
  0
SPLINE
  5
32C
100
AcDbEntity
  8
0
100
AcDbSpline
 62
7
  6
CONTINUOUS
 70
0
 71
3
 72
14
 73
10
 74
0
 42
0.0000001
 43
0.0000001
 44
0.0000000001
 40
0.0
 40
0.0
 40
0.0
 40
0.0
 40
0.125023426
 40
0.2500462141
 40
0.375069824
 40
0.5000927515
 40
0.7499409329
 40
0.8749704686
 40
1.0
 40
1.0
 40
1.0
 40
1.0
 10
5.247377597
 20
3.7974821232
 30
0.0
 10
5.247971562
 20
3.7972437131
 30
0.0
 10
5.2491377781
 20
3.7967105006
 30
0.0
 10
5.2508021292
 20
3.7957475046
 30
0.0
 10
5.2523671479
 20
3.7946299756
 30
0.0
 10
5.2543066497
 20
3.7929560583
 30
0.0
 10
5.256019535
 20
3.7910368515
 30
0.0
 10
5.2575024974
 20
3.7889497811
 30
0.0
 10
5.2581748737
 20
3.787859167
 30
0.0
 10
5.2584942387
 20
3.7873044781
 30
0.0
  0
SPLINE
  5
32D
100
AcDbEntity
  8
0
100
AcDbSpline
 62
7
  6
CONTINUOUS
 70
0
 71
3
 72
14
 73
10
 74
0
 42
0.0000001
 43
0.0000001
 44
0.0000000001
 40
0.0
 40
0.0
 40
0.0
 40
0.0
 40
0.125027038
 40
0.2500540518
 40
0.4999178244
 40
0.6249382426
 40
0.7499592991
 40
0.8749793641
 40
1.0
 40
1.0
 40
1.0
 40
1.0
 10
5.2320609442
 20
3.7979541568
 30
0.0
 10
5.2326886115
 20
3.7981223397
 30
0.0
 10
5.2339539846
 20
3.7984231027
 30
0.0
 10
5.2365150494
 20
3.7988669958
 30
0.0
 10
5.239119495
 20
3.799042076
 30
0.0
 10
5.2417161858
 20
3.7988946818
 30
0.0
 10
5.2436477916
 20
3.7986120943
 30
0.0
 10
5.2455445801
 20
3.7981508109
 30
0.0
 10
5.2467745844
 20
3.7977241648
 30
0.0
 10
5.247377597
 20
3.7974821232
 30
0.0
  0
SPLINE
  5
32E
100
AcDbEntity
  8
0
100
AcDbSpline
 62
7
  6
CONTINUOUS
 70
0
 71
3
 72
17
 73
13
 74
0
 42
0.0000001
 43
0.0000001
 44
0.0000000001
 40
0.0
 40
0.0
 40
0.0
 40
0.0
 40
0.1250121496
 40
0.2500144643
 40
0.3750051608
 40
0.4999878445
 40
0.6249677228
 40
0.6874787337
 40
0.7499899509
 40
0.8125003869
 40
0.8750091339
 40
1.0
 40
1.0
 40
1.0
 40
1.0
 10
5.2151203639
 20
3.7849772907
 30
0.0
 10
5.2155663424
 20
3.7857759562
 30
0.0
 10
5.2165306615
 20
3.7873343032
 30
0.0
 10
5.2181997627
 20
3.7895181087
 30
0.0
 10
5.220089702
 20
3.7915146576
 30
0.0
 10
5.2221856746
 20
3.793293438
 30
0.0
 10
5.2240837498
 20
3.7945768227
 30
0.0
 10
5.2256757686
 20
3.7954792156
 30
0.0
 10
5.2269028779
 20
3.7960947118
 30
0.0
 10
5.2281585937
 20
3.7966493905
 30
0.0
 10
5.2298655369
 20
3.7973087698
 30
0.0
 10
5.2311775162
 20
3.797717443
 30
0.0
 10
5.2320609442
 20
3.7979541568
 30
0.0
  0
SPLINE
  5
32F
100
AcDbEntity
  8
0
100
AcDbSpline
 62
7
  6
CONTINUOUS
 70
0
 71
3
 72
15
 73
11
 74
0
 42
0.0000001
 43
0.0000001
 44
0.0000000001
 40
0.0
 40
0.0
 40
0.0
 40
0.0
 40
0.1250045414
 40
0.2500060155
 40
0.375006254
 40
0.5000025907
 40
0.6249957677
 40
0.7499910849
 40
0.8749909843
 40
1.0
 40
1.0
 40
1.0
 40
1.0
 10
5.2131099232
 20
3.762178118
 30
0.0
 10
5.2128566493
 20
3.763123349
 30
0.0
 10
5.2124106535
 20
3.7650307501
 30
0.0
 10
5.2119486192
 20
3.7679326958
 30
0.0
 10
5.2117288646
 20
3.7708638452
 30
0.0
 10
5.2117791149
 20
3.773803561
 30
0.0
 10
5.2121288399
 20
3.776723696
 30
0.0
 10
5.2127949251
 20
3.7795890305
 30
0.0
 10
5.2137811485
 20
3.7823605374
 30
0.0
 10
5.2146432496
 20
3.784122867
 30
0.0
 10
5.2151203639
 20
3.7849772907
 30
0.0
  0
SPLINE
  5
330
100
AcDbEntity
  8
0
100
AcDbSpline
 62
7
  6
CONTINUOUS
 70
0
 71
3
 72
16
 73
12
 74
0
 42
0.0000001
 43
0.0000001
 44
0.0000000001
 40
0.0
 40
0.0
 40
0.0
 40
0.0
 40
0.1250076684
 40
0.2500063706
 40
0.3749991833
 40
0.499989292
 40
0.624981861
 40
0.7499780543
 40
0.8124888396
 40
0.8749994195
 40
1.0
 40
1.0
 40
1.0
 40
1.0
 10
5.226261151
 20
3.7434564201
 30
0.0
 10
5.2254226562
 20
3.743959995
 30
0.0
 10
5.2237979766
 20
3.7450575876
 30
0.0
 10
5.2215596523
 20
3.7469637814
 30
0.0
 10
5.2195486504
 20
3.7491084631
 30
0.0
 10
5.2177820224
 20
3.7514576971
 30
0.0
 10
5.2162640585
 20
3.7539737515
 30
0.0
 10
5.2151979018
 20
3.7561778479
 30
0.0
 10
5.2144576693
 20
3.7579890596
 30
0.0
 10
5.213789184
 20
3.7598279335
 30
0.0
 10
5.2133630573
 20
3.7612334086
 30
0.0
 10
5.2131099232
 20
3.762178118
 30
0.0
  0
SPLINE
  5
331
100
AcDbEntity
  8
0
100
AcDbSpline
 62
7
  6
CONTINUOUS
 70
0
 71
3
 72
16
 73
12
 74
0
 42
0.0000001
 43
0.0000001
 44
0.0000000001
 40
0.0
 40
0.0
 40
0.0
 40
0.0
 40
0.1249935993
 40
0.1875046999
 40
0.2500174834
 40
0.3750022211
 40
0.4999859727
 40
0.6249740609
 40
0.74997115
 40
0.8749811517
 40
1.0
 40
1.0
 40
1.0
 40
1.0
 10
5.2471135098
 20
3.7405912253
 30
0.0
 10
5.2462419789
 20
3.7403576993
 30
0.0
 10
5.2449188437
 20
3.7400618367
 30
0.0
 10
5.2431340523
 20
3.7397904112
 30
0.0
 10
5.2413381449
 20
3.7396062373
 30
0.0
 10
5.2390789255
 20
3.7395456031
 30
0.0
 10
5.2363756937
 20
3.7397624885
 30
0.0
 10
5.2337121413
 20
3.74027373
 30
0.0
 10
5.2311195347
 20
3.7410698275
 30
0.0
 10
5.2286235749
 20
3.7421292808
 30
0.0
 10
5.2270348072
 20
3.7429917854
 30
0.0
 10
5.226261151
 20
3.7434564201
 30
0.0
  0
SPLINE
  5
332
100
AcDbEntity
  8
0
100
AcDbSpline
 62
7
  6
CONTINUOUS
 70
0
 71
3
 72
14
 73
10
 74
0
 42
0.0000001
 43
0.0000001
 44
0.0000000001
 40
0.0
 40
0.0
 40
0.0
 40
0.0
 40
0.1250222414
 40
0.2500441405
 40
0.3750664325
 40
0.5000883282
 40
0.74994874
 40
0.8749741871
 40
1.0
 40
1.0
 40
1.0
 40
1.0
 10
5.2598476337
 20
3.7485309168
 30
0.0
 10
5.2594446805
 20
3.7480392768
 30
0.0
 10
5.2585978648
 20
3.7470886771
 30
0.0
 10
5.257212619
 20
3.7457748676
 30
0.0
 10
5.2557202459
 20
3.744583739
 30
0.0
 10
5.2536060879
 20
3.7431685139
 30
0.0
 10
5.2513268651
 20
3.7420163126
 30
0.0
 10
5.2489459243
 20
3.7411229397
 30
0.0
 10
5.247727541
 20
3.7407557544
 30
0.0
 10
5.2471135098
 20
3.7405912253
 30
0.0
  0
SPLINE
  5
333
100
AcDbEntity
  8
0
100
AcDbSpline
 62
7
  6
CONTINUOUS
 70
0
 71
3
 72
14
 73
10
 74
0
 42
0.0000001
 43
0.0000001
 44
0.0000000001
 40
0.0
 40
0.0
 40
0.0
 40
0.0
 40
0.125025757
 40
0.2500516558
 40
0.4999212361
 40
0.6249407728
 40
0.7499609384
 40
0.8749801622
 40
1.0
 40
1.0
 40
1.0
 40
1.0
 10
5.2650247419
 20
3.7629323087
 30
0.0
 10
5.264985892
 20
3.7622850567
 30
0.0
 10
5.2648726134
 20
3.7609922359
 30
0.0
 10
5.2644924941
 20
3.7584265845
 30
0.0
 10
5.2638503049
 20
3.7559027264
 30
0.0
 10
5.2629104711
 20
3.7534836321
 30
0.0
 10
5.2620504179
 20
3.7517359182
 30
0.0
 10
5.2610350562
 20
3.7500737563
 30
0.0
 10
5.2602586453
 20
3.7490323888
 30
0.0
 10
5.2598476337
 20
3.7485309168
 30
0.0
  0
SPLINE
  5
334
100
AcDbEntity
  8
0
100
AcDbSpline
 62
7
  6
CONTINUOUS
 70
0
 71
3
 72
15
 73
11
 74
0
 42
0.0000001
 43
0.0000001
 44
0.0000000001
 40
0.0
 40
0.0
 40
0.0
 40
0.0
 40
0.1249979079
 40
0.2499951113
 40
0.3749935841
 40
0.4999916986
 40
0.6249905901
 40
0.7499910505
 40
0.8749955249
 40
1.0
 40
1.0
 40
1.0
 40
1.0
 10
5.2744775718
 20
3.755168923
 30
0.0
 10
5.2739940453
 20
3.7553521524
 30
0.0
 10
5.2730436899
 20
3.755764335
 30
0.0
 10
5.2716802607
 20
3.7565082487
 30
0.0
 10
5.2703867435
 20
3.7573678499
 30
0.0
 10
5.2691665683
 20
3.758328179
 30
0.0
 10
5.268020648
 20
3.7593757028
 30
0.0
 10
5.2669489802
 20
3.7604988261
 30
0.0
 10
5.265948306
 20
3.7616853144
 30
0.0
 10
5.2653254389
 20
3.7625116184
 30
0.0
 10
5.2650247419
 20
3.7629323087
 30
0.0
  0
SPLINE
  5
335
100
AcDbEntity
  8
0
100
AcDbSpline
 62
7
  6
CONTINUOUS
 70
0
 71
3
 72
14
 73
10
 74
0
 42
0.0000001
 43
0.0000001
 44
0.0000000001
 40
0.0
 40
0.0
 40
0.0
 40
0.0
 40
0.2499031545
 40
0.3749188937
 40
0.4999391504
 40
0.6249599089
 40
0.7499734146
 40
0.8749933365
 40
1.0
 40
1.0
 40
1.0
 40
1.0
 10
5.2858909362
 20
3.7547950387
 30
0.0
 10
5.2849569601
 20
3.7545447805
 30
0.0
 10
5.2835297854
 20
3.7542548677
 30
0.0
 10
5.2816024481
 20
3.7540748432
 30
0.0
 10
5.2801499095
 20
3.7540504571
 30
0.0
 10
5.2787000953
 20
3.754143148
 30
0.0
 10
5.2772629734
 20
3.7543569252
 30
0.0
 10
5.2758495752
 20
3.7546930589
 30
0.0
 10
5.2749298614
 20
3.7549975306
 30
0.0
 10
5.2744775718
 20
3.755168923
 30
0.0
  0
SPLINE
  5
336
100
AcDbEntity
  8
0
100
AcDbSpline
 62
7
  6
CONTINUOUS
 70
0
 71
3
 72
15
 73
11
 74
0
 42
0.0000001
 43
0.0000001
 44
0.0000000001
 40
0.0
 40
0.0
 40
0.0
 40
0.0
 40
0.1250062811
 40
0.2500101978
 40
0.3750069238
 40
0.5000019278
 40
0.6249963939
 40
0.7499923776
 40
0.8749947157
 40
1.0
 40
1.0
 40
1.0
 40
1.0
 10
5.300102098
 20
3.7660390954
 30
0.0
 10
5.2997312988
 20
3.7653559568
 30
0.0
 10
5.2989303228
 20
3.764020778
 30
0.0
 10
5.2975455331
 20
3.7621401782
 30
0.0
 10
5.2959745526
 20
3.7604112127
 30
0.0
 10
5.2942267513
 20
3.7588608599
 30
0.0
 10
5.2923185209
 20
3.7575128197
 30
0.0
 10
5.2902757205
 20
3.7563793905
 30
0.0
 10
5.2881265465
 20
3.7554651348
 30
0.0
 10
5.2866417289
 20
3.754996213
 30
0.0
 10
5.2858909362
 20
3.7547950387
 30
0.0
  0
SPLINE
  5
337
100
AcDbEntity
  8
0
100
AcDbSpline
 62
7
  6
CONTINUOUS
 70
0
 71
3
 72
15
 73
11
 74
0
 42
0.0000001
 43
0.0000001
 44
0.0000000001
 40
0.0
 40
0.0
 40
0.0
 40
0.0
 40
0.1250080254
 40
0.2500187653
 40
0.3750224984
 40
0.5000249141
 40
0.6250205516
 40
0.7500142497
 40
0.8750048769
 40
1.0
 40
1.0
 40
1.0
 40
1.0
 10
5.3018338735
 20
3.7861422997
 30
0.0
 10
5.3020569695
 20
3.7853096939
 30
0.0
 10
5.3024487468
 20
3.783629203
 30
0.0
 10
5.3028511401
 20
3.781072224
 30
0.0
 10
5.3030400219
 20
3.7784899342
 30
0.0
 10
5.302992437
 20
3.7759006315
 30
0.0
 10
5.3026859589
 20
3.7733284907
 30
0.0
 10
5.3021079587
 20
3.7708029982
 30
0.0
 10
5.3012561514
 20
3.7683563862
 30
0.0
 10
5.300513257
 20
3.7667965907
 30
0.0
 10
5.300102098
 20
3.7660390954
 30
0.0
  0
SPLINE
  5
338
100
AcDbEntity
  8
0
100
AcDbSpline
 62
7
  6
CONTINUOUS
 70
0
 71
3
 72
16
 73
12
 74
0
 42
0.0000001
 43
0.0000001
 44
0.0000000001
 40
0.0
 40
0.0
 40
0.0
 40
0.0
 40
0.1249862709
 40
0.1875019837
 40
0.2500166516
 40
0.3750026478
 40
0.4999923456
 40
0.6249879518
 40
0.74998844
 40
0.8749931816
 40
1.0
 40
1.0
 40
1.0
 40
1.0
 10
5.2905074699
 20
3.8025550741
 30
0.0
 10
5.291233346
 20
3.8021095979
 30
0.0
 10
5.2922866693
 20
3.8013803213
 30
0.0
 10
5.2936011216
 20
3.8002954876
 30
0.0
 10
5.2948523125
 20
3.7991380196
 30
0.0
 10
5.2962920004
 20
3.7975628176
 30
0.0
 10
5.2978071801
 20
3.7954999052
 30
0.0
 10
5.2991099089
 20
3.7932973072
 30
0.0
 10
5.3002105667
 20
3.7909877559
 30
0.0
 10
5.3011202793
 20
3.7885972721
 30
0.0
 10
5.3016134083
 20
3.7869650868
 30
0.0
 10
5.3018338735
 20
3.7861422997
 30
0.0
  0
SPLINE
  5
339
100
AcDbEntity
  8
0
100
AcDbSpline
 62
7
  6
CONTINUOUS
 70
0
 71
3
 72
15
 73
11
 74
0
 42
0.0000001
 43
0.0000001
 44
0.0000000001
 40
0.0
 40
0.0
 40
0.0
 40
0.0
 40
0.1249973261
 40
0.249988141
 40
0.3749763986
 40
0.4999641715
 40
0.6249566453
 40
0.7499588489
 40
0.8749752328
 40
1.0
 40
1.0
 40
1.0
 40
1.0
 10
5.2727291977
 20
3.8051013076
 30
0.0
 10
5.2734733487
 20
3.8053007023
 30
0.0
 10
5.2749795731
 20
3.8056362604
 30
0.0
 10
5.277276127
 20
3.8059257505
 30
0.0
 10
5.2795909477
 20
3.8059778312
 30
0.0
 10
5.2818982334
 20
3.8057801996
 30
0.0
 10
5.2841694754
 20
3.8053277432
 30
0.0
 10
5.2863779285
 20
3.8046308263
 30
0.0
 10
5.2885009716
 20
3.8037070854
 30
0.0
 10
5.2898507158
 20
3.8029581295
 30
0.0
 10
5.2905074699
 20
3.8025550741
 30
0.0
  0
SPLINE
  5
33A
100
AcDbEntity
  8
0
100
AcDbSpline
 62
7
  6
CONTINUOUS
 70
0
 71
3
 72
15
 73
11
 74
0
 42
0.0000001
 43
0.0000001
 44
0.0000000001
 40
0.0
 40
0.0
 40
0.0
 40
0.0
 40
0.1249986814
 40
0.2499968012
 40
0.3749956256
 40
0.499994084
 40
0.624993016
 40
0.7499930108
 40
0.874996356
 40
1.0
 40
1.0
 40
1.0
 40
1.0
 10
5.2627809585
 20
3.7990186414
 30
0.0
 10
5.2630951589
 20
3.7993995799
 30
0.0
 10
5.2637576972
 20
3.8001340044
 30
0.0
 10
5.2648442486
 20
3.8011436428
 30
0.0
 10
5.2660153667
 20
3.802053894
 30
0.0
 10
5.2672585871
 20
3.8028624695
 30
0.0
 10
5.2685619258
 20
3.8035697344
 30
0.0
 10
5.2699144493
 20
3.8041772957
 30
0.0
 10
5.2713053961
 20
3.8046900639
 30
0.0
 10
5.2722522069
 20
3.8049734983
 30
0.0
 10
5.2727291977
 20
3.8051013076
 30
0.0
  0
SPLINE
  5
33B
100
AcDbEntity
  8
0
100
AcDbSpline
 62
7
  6
CONTINUOUS
 70
0
 71
3
 72
15
 73
11
 74
0
 42
0.0000001
 43
0.0000001
 44
0.0000000001
 40
0.0
 40
0.0
 40
0.0
 40
0.0
 40
0.125004714
 40
0.2500095548
 40
0.3750103485
 40
0.5000091033
 40
0.625007287
 40
0.7500056396
 40
0.8750023499
 40
1.0
 40
1.0
 40
1.0
 40
1.0
 10
5.2584942387
 20
3.7873044781
 30
0.0
 10
5.2585383964
 20
3.7878304592
 30
0.0
 10
5.2586529623
 20
3.7888804382
 30
0.0
 10
5.2589096258
 20
3.7904438192
 30
0.0
 10
5.2592619731
 20
3.7919887594
 30
0.0
 10
5.2597216096
 20
3.7935054801
 30
0.0
 10
5.2602951976
 20
3.7949831255
 30
0.0
 10
5.2609903922
 20
3.7964080802
 30
0.0
 10
5.2618132438
 20
3.797763451
 30
0.0
 10
5.2624451214
 20
3.7986114706
 30
0.0
 10
5.2627809585
 20
3.7990186414
 30
0.0
  0
SPLINE
  5
33C
100
AcDbEntity
  8
0
100
AcDbSpline
 62
7
  6
CONTINUOUS
 70
0
 71
3
 72
15
 73
11
 74
0
 42
0.0000001
 43
0.0000001
 44
0.0000000001
 40
0.0
 40
0.0
 40
0.0
 40
0.0
 40
0.1249986578
 40
0.2500076008
 40
0.3750058867
 40
0.5000078753
 40
0.6250069098
 40
0.7500035954
 40
0.8750045633
 40
1.0
 40
1.0
 40
1.0
 40
1.0
 10
5.2930892969
 20
3.7836720854
 30
0.0
 10
5.2929646797
 20
3.7841371632
 30
0.0
 10
5.2926812981
 20
3.7850586752
 30
0.0
 10
5.2921464153
 20
3.786402303
 30
0.0
 10
5.2914923495
 20
3.7876926739
 30
0.0
 10
5.2907152032
 20
3.7889131585
 30
0.0
 10
5.2898164921
 20
3.7900473865
 30
0.0
 10
5.2888023098
 20
3.7910798177
 30
0.0
 10
5.2876851257
 20
3.7919993297
 30
0.0
 10
5.2868822489
 20
3.7925342722
 30
0.0
 10
5.2864693749
 20
3.7927819615
 30
0.0
  0
SPLINE
  5
33D
100
AcDbEntity
  8
0
100
AcDbSpline
 62
7
  6
CONTINUOUS
 70
0
 71
3
 72
15
 73
11
 74
0
 42
0.0000001
 43
0.0000001
 44
0.0000000001
 40
0.0
 40
0.0
 40
0.0
 40
0.0
 40
0.1249949831
 40
0.2499980204
 40
0.374996209
 40
0.4999975873
 40
0.6250001819
 40
0.7499988008
 40
0.8750042414
 40
1.0
 40
1.0
 40
1.0
 40
1.0
 10
5.2917580995
 20
3.7725106669
 30
0.0
 10
5.2919939559
 20
3.7729297507
 30
0.0
 10
5.2924296685
 20
3.7737889256
 30
0.0
 10
5.2929592426
 20
3.7751333492
 30
0.0
 10
5.2933493251
 20
3.776525126
 30
0.0
 10
5.2935904078
 20
3.7779503308
 30
0.0
 10
5.2936802957
 20
3.7793928969
 30
0.0
 10
5.2936223658
 20
3.7808369197
 30
0.0
 10
5.2934262878
 20
3.7822682232
 30
0.0
 10
5.2932137623
 20
3.7832075742
 30
0.0
 10
5.2930892969
 20
3.7836720854
 30
0.0
  0
SPLINE
  5
33E
100
AcDbEntity
  8
0
100
AcDbSpline
 62
7
  6
CONTINUOUS
 70
0
 71
3
 72
14
 73
10
 74
0
 42
0.0000001
 43
0.0000001
 44
0.0000000001
 40
0.0
 40
0.0
 40
0.0
 40
0.0
 40
0.1250317827
 40
0.2500744779
 40
0.3751092105
 40
0.5001473114
 40
0.6251838268
 40
0.7502163135
 40
1.0
 40
1.0
 40
1.0
 40
1.0
 10
5.2830107147
 20
3.7657813657
 30
0.0
 10
5.2834675118
 20
3.7659037641
 30
0.0
 10
5.2843716367
 20
3.7661862124
 30
0.0
 10
5.2856841829
 20
3.766730298
 30
0.0
 10
5.2869363876
 20
3.7674028467
 30
0.0
 10
5.288110404
 20
3.7682043084
 30
0.0
 10
5.2891907506
 20
3.769128535
 30
0.0
 10
5.2904883339
 20
3.7705074361
 30
0.0
 10
5.2912947368
 20
3.7716873362
 30
0.0
 10
5.2917580995
 20
3.7725106669
 30
0.0
  0
SPLINE
  5
33F
100
AcDbEntity
  8
0
100
AcDbSpline
 62
7
  6
CONTINUOUS
 70
0
 71
3
 72
15
 73
11
 74
0
 42
0.0000001
 43
0.0000001
 44
0.0000000001
 40
0.0
 40
0.0
 40
0.0
 40
0.0
 40
0.1249959553
 40
0.2500021111
 40
0.3750013537
 40
0.5000039726
 40
0.6250056156
 40
0.7500033007
 40
0.8750057713
 40
1.0
 40
1.0
 40
1.0
 40
1.0
 10
5.2723988851
 20
3.7671962649
 30
0.0
 10
5.2727958563
 20
3.7669670736
 30
0.0
 10
5.2736092203
 20
3.7665411696
 30
0.0
 10
5.2748819844
 20
3.7660150968
 30
0.0
 10
5.276201252
 20
3.7656181728
 30
0.0
 10
5.277555046
 20
3.7653620314
 30
0.0
 10
5.2789284711
 20
3.7652520181
 30
0.0
 10
5.2803057214
 20
3.7652879472
 30
0.0
 10
5.2816718293
 20
3.7654627619
 30
0.0
 10
5.2825679571
 20
3.7656627292
 30
0.0
 10
5.2830107147
 20
3.7657813657
 30
0.0
  0
SPLINE
  5
340
100
AcDbEntity
  8
0
100
AcDbSpline
 62
7
  6
CONTINUOUS
 70
0
 71
3
 72
15
 73
11
 74
0
 42
0.0000001
 43
0.0000001
 44
0.0000000001
 40
0.0
 40
0.0
 40
0.0
 40
0.0
 40
0.1249993324
 40
0.2500101561
 40
0.3750077013
 40
0.5000098715
 40
0.6250077898
 40
0.7500040112
 40
0.8750043721
 40
1.0
 40
1.0
 40
1.0
 40
1.0
 10
5.2658432243
 20
3.7762444074
 30
0.0
 10
5.2659670107
 20
3.7757824305
 30
0.0
 10
5.2662468195
 20
3.7748666487
 30
0.0
 10
5.2667710991
 20
3.7735293213
 30
0.0
 10
5.2674113337
 20
3.772242866
 30
0.0
 10
5.26817396
 20
3.7710246091
 30
0.0
 10
5.2690599552
 20
3.7698924699
 30
0.0
 10
5.270065911
 20
3.7688650967
 30
0.0
 10
5.2711802477
 20
3.7679567878
 30
0.0
 10
5.2719847001
 20
3.7674353945
 30
0.0
 10
5.2723988851
 20
3.7671962649
 30
0.0
  0
SPLINE
  5
341
100
AcDbEntity
  8
0
100
AcDbSpline
 62
7
  6
CONTINUOUS
 70
0
 71
3
 72
15
 73
11
 74
0
 42
0.0000001
 43
0.0000001
 44
0.0000000001
 40
0.0
 40
0.0
 40
0.0
 40
0.0
 40
0.1249954694
 40
0.2499956512
 40
0.3749920532
 40
0.49999012
 40
0.6249924229
 40
0.7499900546
 40
0.8750006799
 40
1.0
 40
1.0
 40
1.0
 40
1.0
 10
5.2669734836
 20
3.7876218773
 30
0.0
 10
5.2667312976
 20
3.7871968713
 30
0.0
 10
5.2662907458
 20
3.7863208739
 30
0.0
 10
5.2657774105
 20
3.7849429657
 30
0.0
 10
5.2654210667
 20
3.7835161621
 30
0.0
 10
5.2652236787
 20
3.7820591228
 30
0.0
 10
5.2651779451
 20
3.7805898462
 30
0.0
 10
5.265273459
 20
3.7791232799
 30
0.0
 10
5.26549561
 20
3.7776710407
 30
0.0
 10
5.2657166148
 20
3.7767169209
 30
0.0
 10
5.2658432243
 20
3.7762444074
 30
0.0
  0
SPLINE
  5
342
100
AcDbEntity
  8
0
100
AcDbSpline
 62
7
  6
CONTINUOUS
 70
0
 71
3
 72
15
 73
11
 74
0
 42
0.0000001
 43
0.0000001
 44
0.0000000001
 40
0.0
 40
0.0
 40
0.0
 40
0.0
 40
0.1249987116
 40
0.2500101243
 40
0.375008424
 40
0.5000116474
 40
0.6250100801
 40
0.7500059788
 40
0.8750055242
 40
1.0
 40
1.0
 40
1.0
 40
1.0
 10
5.2760086257
 20
3.7942855023
 30
0.0
 10
5.2755441047
 20
3.7941610342
 30
0.0
 10
5.2746234702
 20
3.7938788629
 30
0.0
 10
5.273280376
 20
3.7933473085
 30
0.0
 10
5.271990898
 20
3.7926950539
 30
0.0
 10
5.2707735044
 20
3.7919159342
 30
0.0
 10
5.269646446
 20
3.7910105942
 30
0.0
 10
5.2686275307
 20
3.789984863
 30
0.0
 10
5.2677287129
 20
3.7888528957
 30
0.0
 10
5.2672115723
 20
3.7880396932
 30
0.0
 10
5.2669734836
 20
3.7876218773
 30
0.0
  0
SPLINE
  5
343
100
AcDbEntity
  8
0
100
AcDbSpline
 62
7
  6
CONTINUOUS
 70
0
 71
3
 72
15
 73
11
 74
0
 42
0.0000001
 43
0.0000001
 44
0.0000000001
 40
0.0
 40
0.0
 40
0.0
 40
0.0
 40
0.1249963309
 40
0.2500033924
 40
0.3750027409
 40
0.500005363
 40
0.6250066162
 40
0.7500038723
 40
0.8750059583
 40
1.0
 40
1.0
 40
1.0
 40
1.0
 10
5.2864693749
 20
3.7927819615
 30
0.0
 10
5.2860809161
 20
3.7930150037
 30
0.0
 10
5.2852839736
 20
3.7934488569
 30
0.0
 10
5.2840340067
 20
3.793987483
 30
0.0
 10
5.2827356749
 20
3.7943976066
 30
0.0
 10
5.2814008955
 20
3.7946670878
 30
0.0
 10
5.2800446873
 20
3.7947897521
 30
0.0
 10
5.2786832535
 20
3.7947649384
 30
0.0
 10
5.2773322177
 20
3.7945989001
 30
0.0
 10
5.276446182
 20
3.7944027451
 30
0.0
 10
5.2760086257
 20
3.7942855023
 30
0.0
  0
SPLINE
  5
344
100
AcDbEntity
  8
0
100
AcDbSpline
 62
7
  6
CONTINUOUS
 70
0
 71
3
 72
14
 73
10
 74
0
 42
0.0000001
 43
0.0000001
 44
0.0000000001
 40
0.0
 40
0.0
 40
0.0
 40
0.0
 40
0.1250273323
 40
0.2500533189
 40
0.3750801504
 40
0.5001073374
 40
0.6251367457
 40
0.7501667875
 40
1.0
 40
1.0
 40
1.0
 40
1.0
 10
5.2554191803
 20
3.7600566414
 30
0.0
 10
5.2557167758
 20
3.7605880488
 30
0.0
 10
5.2562643351
 20
3.7616784905
 30
0.0
 10
5.2569234837
 20
3.7633857864
 30
0.0
 10
5.2574042021
 20
3.765152061
 30
0.0
 10
5.2576980225
 20
3.7669588285
 30
0.0
 10
5.2578021222
 20
3.7687864347
 30
0.0
 10
5.2576978737
 20
3.7712224394
 30
0.0
 10
5.2573617192
 20
3.7730296021
 30
0.0
 10
5.2570467245
 20
3.7742051781
 30
0.0
  0
SPLINE
  5
345
100
AcDbEntity
  8
0
100
AcDbSpline
 62
7
  6
CONTINUOUS
 70
0
 71
3
 72
15
 73
11
 74
0
 42
0.0000001
 43
0.0000001
 44
0.0000000001
 40
0.0
 40
0.0
 40
0.0
 40
0.0
 40
0.125004358
 40
0.250010076
 40
0.3750121424
 40
0.5000131564
 40
0.6250102695
 40
0.7500068097
 40
0.8750021543
 40
1.0
 40
1.0
 40
1.0
 40
1.0
 10
5.244071279
 20
3.751470586
 30
0.0
 10
5.2446602516
 20
3.7516284007
 30
0.0
 10
5.2458264757
 20
3.7519903407
 30
0.0
 10
5.247522478
 20
3.7526822302
 30
0.0
 10
5.2491447532
 20
3.7535339789
 30
0.0
 10
5.2506714979
 20
3.7545476291
 30
0.0
 10
5.2520798991
 20
3.7557204757
 30
0.0
 10
5.2533520329
 20
3.7570398745
 30
0.0
 10
5.2544746486
 20
3.7584881003
 30
0.0
 10
5.2551212646
 20
3.7595246624
 30
0.0
 10
5.2554191803
 20
3.7600566414
 30
0.0
  0
SPLINE
  5
346
100
AcDbEntity
  8
0
100
AcDbSpline
 62
7
  6
CONTINUOUS
 70
0
 71
3
 72
15
 73
11
 74
0
 42
0.0000001
 43
0.0000001
 44
0.0000000001
 40
0.0
 40
0.0
 40
0.0
 40
0.0
 40
0.1249972156
 40
0.2499917444
 40
0.3749880275
 40
0.4999850248
 40
0.6249866419
 40
0.7499890299
 40
0.8749953536
 40
1.0
 40
1.0
 40
1.0
 40
1.0
 10
5.230213403
 20
3.7530802597
 30
0.0
 10
5.2307294798
 20
3.7527792091
 30
0.0
 10
5.2317911258
 20
3.7522258582
 30
0.0
 10
5.2334601194
 20
3.751563473
 30
0.0
 10
5.2351915
 20
3.7510859696
 30
0.0
 10
5.236964666
 20
3.7508006168
 30
0.0
 10
5.2387579615
 20
3.7507074627
 30
0.0
 10
5.240551164
 20
3.7507950371
 30
0.0
 10
5.2423277996
 20
3.7510493388
 30
0.0
 10
5.2434941361
 20
3.751315941
 30
0.0
 10
5.244071279
 20
3.751470586
 30
0.0
  0
SPLINE
  5
347
100
AcDbEntity
  8
0
100
AcDbSpline
 62
7
  6
CONTINUOUS
 70
0
 71
3
 72
15
 73
11
 74
0
 42
0.0000001
 43
0.0000001
 44
0.0000000001
 40
0.0
 40
0.0
 40
0.0
 40
0.0
 40
0.1250058877
 40
0.2500138776
 40
0.3750165755
 40
0.5000182371
 40
0.6250143638
 40
0.7500096501
 40
0.8750030872
 40
1.0
 40
1.0
 40
1.0
 40
1.0
 10
5.2219180536
 20
3.7644111346
 30
0.0
 10
5.2220736112
 20
3.7638305855
 30
0.0
 10
5.2224266713
 20
3.7626801428
 30
0.0
 10
5.2230928306
 20
3.7610023414
 30
0.0
 10
5.2239089115
 20
3.7593914721
 30
0.0
 10
5.2248797858
 20
3.7578684317
 30
0.0
 10
5.2260065297
 20
3.7564564193
 30
0.0
 10
5.227279918
 20
3.7551749566
 30
0.0
 10
5.2286845324
 20
3.7540393927
 30
0.0
 10
5.229694287
 20
3.7533830833
 30
0.0
 10
5.230213403
 20
3.7530802597
 30
0.0
  0
SPLINE
  5
348
100
AcDbEntity
  8
0
100
AcDbSpline
 62
7
  6
CONTINUOUS
 70
0
 71
3
 72
15
 73
11
 74
0
 42
0.0000001
 43
0.0000001
 44
0.0000000001
 40
0.0
 40
0.0
 40
0.0
 40
0.0
 40
0.1249983828
 40
0.2500005301
 40
0.3749994188
 40
0.5000002048
 40
0.625000906
 40
0.7499996768
 40
0.8750016812
 40
1.0
 40
1.0
 40
1.0
 40
1.0
 10
5.2217678994
 20
3.7742222673
 30
0.0
 10
5.2216718516
 20
3.7738204364
 30
0.0
 10
5.2215032873
 20
3.7730109149
 30
0.0
 10
5.2213244379
 20
3.7717836456
 30
0.0
 10
5.2212242714
 20
3.7705473479
 30
0.0
 10
5.2212043992
 20
3.7693071754
 30
0.0
 10
5.2212644846
 20
3.7680683097
 30
0.0
 10
5.2214037997
 20
3.7668358408
 30
0.0
 10
5.2216197149
 20
3.7656145907
 30
0.0
 10
5.2218111224
 20
3.764810207
 30
0.0
 10
5.2219180536
 20
3.7644111346
 30
0.0
  0
SPLINE
  5
349
100
AcDbEntity
  8
0
100
AcDbSpline
 62
7
  6
CONTINUOUS
 70
0
 71
3
 72
13
 73
9
 74
0
 42
0.0000001
 43
0.0000001
 44
0.0000000001
 40
0.0
 40
0.0
 40
0.0
 40
0.0
 40
0.2499065771
 40
0.37494635
 40
0.4999921563
 40
0.6250376788
 40
0.7500777251
 40
1.0
 40
1.0
 40
1.0
 40
1.0
 10
5.2266775288
 20
3.782465534
 30
0.0
 10
5.2260702676
 20
3.7819270444
 30
0.0
 10
5.2252172757
 20
3.7810492609
 30
0.0
 10
5.2242288727
 20
3.7797593839
 30
0.0
 10
5.2235655854
 20
3.7787358543
 30
0.0
 10
5.2229846981
 20
3.777663445
 30
0.0
 10
5.2223239732
 20
3.7761787718
 30
0.0
 10
5.2219565955
 20
3.7750117062
 30
0.0
 10
5.2217678994
 20
3.7742222673
 30
0.0
  0
SPLINE
  5
34A
100
AcDbEntity
  8
0
100
AcDbSpline
 62
7
  6
CONTINUOUS
 70
0
 71
3
 72
14
 73
10
 74
0
 42
0.0000001
 43
0.0000001
 44
0.0000000001
 40
0.0
 40
0.0
 40
0.0
 40
0.0
 40
0.2499192402
 40
0.3749316823
 40
0.4999459895
 40
0.6249594851
 40
0.7499720593
 40
0.8749875158
 40
1.0
 40
1.0
 40
1.0
 40
1.0
 10
5.2349411661
 20
3.7869678282
 30
0.0
 10
5.234177067
 20
3.7867630884
 30
0.0
 10
5.2330468216
 20
3.7863893922
 30
0.0
 10
5.2315951984
 20
3.7857576178
 30
0.0
 10
5.2305369096
 20
3.7852181015
 30
0.0
 10
5.2295130935
 20
3.7846159156
 30
0.0
 10
5.2285266443
 20
3.7839543097
 30
0.0
 10
5.2275791725
 20
3.7832381951
 30
0.0
 10
5.2269735883
 20
3.7827280652
 30
0.0
 10
5.2266775288
 20
3.782465534
 30
0.0
  0
SPLINE
  5
34B
100
AcDbEntity
  8
0
100
AcDbSpline
 62
7
  6
CONTINUOUS
 70
0
 71
3
 72
15
 73
11
 74
0
 42
0.0000001
 43
0.0000001
 44
0.0000000001
 40
0.0
 40
0.0
 40
0.0
 40
0.0
 40
0.1249974496
 40
0.2499924437
 40
0.3749890324
 40
0.499986252
 40
0.6249876906
 40
0.7499898744
 40
0.8749956875
 40
1.0
 40
1.0
 40
1.0
 40
1.0
 10
5.2487129097
 20
3.7853827086
 30
0.0
 10
5.248198933
 20
3.7856794533
 30
0.0
 10
5.2471422428
 20
3.7862249376
 30
0.0
 10
5.2454826151
 20
3.7868783064
 30
0.0
 10
5.2437620611
 20
3.7873498246
 30
0.0
 10
5.2420005635
 20
3.7876320869
 30
0.0
 10
5.2402192387
 20
3.7877245831
 30
0.0
 10
5.2384379661
 20
3.7876381142
 30
0.0
 10
5.2366730768
 20
3.7873861058
 30
0.0
 10
5.2355144641
 20
3.7871214429
 30
0.0
 10
5.2349411661
 20
3.7869678282
 30
0.0
  0
SPLINE
  5
34C
100
AcDbEntity
  8
0
100
AcDbSpline
 62
7
  6
CONTINUOUS
 70
0
 71
3
 72
15
 73
11
 74
0
 42
0.0000001
 43
0.0000001
 44
0.0000000001
 40
0.0
 40
0.0
 40
0.0
 40
0.0
 40
0.1250043957
 40
0.2500102898
 40
0.3750123481
 40
0.5000134802
 40
0.6250104484
 40
0.7500069372
 40
0.8750021674
 40
1.0
 40
1.0
 40
1.0
 40
1.0
 10
5.2570467245
 20
3.7742051781
 30
0.0
 10
5.2568922245
 20
3.7747817801
 30
0.0
 10
5.25653932
 20
3.7759238567
 30
0.0
 10
5.2558678799
 20
3.7775865269
 30
0.0
 10
5.2550424845
 20
3.7791790341
 30
0.0
 10
5.2540603905
 20
3.7806803772
 30
0.0
 10
5.2529232553
 20
3.7820682516
 30
0.0
 10
5.2516430767
 20
3.7833253787
 30
0.0
 10
5.2502368384
 20
3.7844390424
 30
0.0
 10
5.2492298498
 20
3.7850842531
 30
0.0
 10
5.2487129097
 20
3.7853827086
 30
0.0
  0
SPLINE
  5
34D
100
AcDbEntity
  8
0
100
AcDbSpline
 62
7
  6
CONTINUOUS
 70
0
 71
3
 72
15
 73
11
 74
0
 42
0.0000001
 43
0.0000001
 44
0.0000000001
 40
0.0
 40
0.0
 40
0.0
 40
0.0
 40
0.1249979996
 40
0.2499961252
 40
0.3749955315
 40
0.4999955113
 40
0.6249958754
 40
0.7499967381
 40
0.8749982397
 40
1.0
 40
1.0
 40
1.0
 40
1.0
 10
5.1805175966
 20
3.3586526716
 30
0.0
 10
5.1813961277
 20
3.3580144669
 30
0.0
 10
5.1831195257
 20
3.3566913305
 30
0.0
 10
5.1856168419
 20
3.3545983055
 30
0.0
 10
5.1880324901
 20
3.3524116462
 30
0.0
 10
5.1903764836
 20
3.3501486518
 30
0.0
 10
5.1926568401
 20
3.3478216553
 30
0.0
 10
5.1948785554
 20
3.3454386899
 30
0.0
 10
5.1970473125
 20
3.3430075141
 30
0.0
 10
5.1984611253
 20
3.3413587165
 30
0.0
 10
5.1991606023
 20
3.3405280993
 30
0.0
  0
SPLINE
  5
34E
100
AcDbEntity
  8
0
100
AcDbSpline
 62
7
  6
CONTINUOUS
 70
0
 71
3
 72
11
 73
7
 74
0
 42
0.0000001
 43
0.0000001
 44
0.0000000001
 40
0.0
 40
0.0
 40
0.0
 40
0.0
 40
0.2499907393
 40
0.499992797
 40
0.7500013997
 40
1.0
 40
1.0
 40
1.0
 40
1.0
 10
5.1918576442
 20
3.3317027446
 30
0.0
 10
5.1905430831
 20
3.3333347534
 30
0.0
 10
5.1878101912
 20
3.3365165715
 30
0.0
 10
5.1834411054
 20
3.3410416725
 30
0.0
 10
5.1788375483
 20
3.3453275
 30
0.0
 10
5.1756337549
 20
3.3480326878
 30
0.0
 10
5.1740032398
 20
3.3493492059
 30
0.0
  0
SPLINE
  5
34F
100
AcDbEntity
  8
0
100
AcDbSpline
 62
7
  6
CONTINUOUS
 70
0
 71
3
 72
11
 73
7
 74
0
 42
0.0000001
 43
0.0000001
 44
0.0000000001
 40
0.0
 40
0.0
 40
0.0
 40
0.0
 40
0.2500004851
 40
0.5000007941
 40
0.7500004698
 40
1.0
 40
1.0
 40
1.0
 40
1.0
 10
5.2099082484
 20
3.303132679
 30
0.0
 10
5.2086807811
 20
3.3056737405
 30
0.0
 10
5.2060849999
 20
3.3106892889
 30
0.0
 10
5.2017709837
 20
3.3179788823
 30
0.0
 10
5.1970442247
 20
3.3250079258
 30
0.0
 10
5.1936278677
 20
3.3295050374
 30
0.0
 10
5.1918576442
 20
3.3317027446
 30
0.0
  0
SPLINE
  5
350
100
AcDbEntity
  8
0
100
AcDbSpline
 62
7
  6
CONTINUOUS
 70
0
 71
3
 72
15
 73
11
 74
0
 42
0.0000001
 43
0.0000001
 44
0.0000000001
 40
0.0
 40
0.0
 40
0.0
 40
0.0
 40
0.1249981537
 40
0.2499963776
 40
0.3749958092
 40
0.4999957331
 40
0.6249959962
 40
0.7499968237
 40
0.8749982711
 40
1.0
 40
1.0
 40
1.0
 40
1.0
 10
5.2200470468
 20
3.2752145959
 30
0.0
 10
5.2197939709
 20
3.2764290234
 30
0.0
 10
5.2192263642
 20
3.2788453583
 30
0.0
 10
5.2182213463
 20
3.2824296034
 30
0.0
 10
5.2170808216
 20
3.2859729404
 30
0.0
 10
5.2158261545
 20
3.2894772698
 30
0.0
 10
5.2144706384
 20
3.2929437467
 30
0.0
 10
5.2130266204
 20
3.2963741968
 30
0.0
 10
5.2115064737
 20
3.2997715117
 30
0.0
 10
5.210447844
 20
3.3020156265
 30
0.0
 10
5.2099082484
 20
3.303132679
 30
0.0
  0
SPLINE
  5
351
100
AcDbEntity
  8
0
100
AcDbSpline
 62
7
  6
CONTINUOUS
 70
0
 71
3
 72
15
 73
11
 74
0
 42
0.0000001
 43
0.0000001
 44
0.0000000001
 40
0.0
 40
0.0
 40
0.0
 40
0.0
 40
0.1250008974
 40
0.2500018074
 40
0.3750020484
 40
0.5000019373
 40
0.6250016402
 40
0.7500012874
 40
0.875000545
 40
1.0
 40
1.0
 40
1.0
 40
1.0
 10
5.2163307761
 20
3.3145399253
 30
0.0
 10
5.2168688971
 20
3.3134813877
 30
0.0
 10
5.2179232705
 20
3.3113531005
 30
0.0
 10
5.2194339801
 20
3.3081265679
 30
0.0
 10
5.2208671881
 20
3.3048647901
 30
0.0
 10
5.2222134202
 20
3.3015660978
 30
0.0
 10
5.223464841
 20
3.2982302171
 30
0.0
 10
5.2246118376
 20
3.2948568742
 30
0.0
 10
5.2256422741
 20
3.2914460644
 30
0.0
 10
5.2262443789
 20
3.2891480065
 30
0.0
 10
5.2265216556
 20
3.2879933805
 30
0.0
  0
SPLINE
  5
352
100
AcDbEntity
  8
0
100
AcDbSpline
 62
7
  6
CONTINUOUS
 70
0
 71
3
 72
11
 73
7
 74
0
 42
0.0000001
 43
0.0000001
 44
0.0000000001
 40
0.0
 40
0.0
 40
0.0
 40
0.0
 40
0.2499989291
 40
0.4999982515
 40
0.7499989634
 40
1.0
 40
1.0
 40
1.0
 40
1.0
 10
5.1991606023
 20
3.3405280993
 30
0.0
 10
5.2008360444
 20
3.3385385397
 30
0.0
 10
5.2040715894
 20
3.3344606075
 30
0.0
 10
5.2085581747
 20
3.3280710383
 30
0.0
 10
5.2126672732
 20
3.3214325215
 30
0.0
 10
5.2151520558
 20
3.3168585857
 30
0.0
 10
5.2163307761
 20
3.3145399253
 30
0.0
  0
SPLINE
  5
353
100
AcDbEntity
  8
0
100
AcDbSpline
 62
7
  6
CONTINUOUS
 70
0
 71
3
 72
13
 73
9
 74
0
 42
0.0000001
 43
0.0000001
 44
0.0000000001
 40
0.0
 40
0.0
 40
0.0
 40
0.0
 40
0.2499608383
 40
0.4998973202
 40
0.6249249995
 40
0.7499498707
 40
0.8749858619
 40
1.0
 40
1.0
 40
1.0
 40
1.0
 10
5.1759885976
 20
3.269425402
 30
0.0
 10
5.1760668424
 20
3.2701972191
 30
0.0
 10
5.1761448371
 20
3.2717501666
 30
0.0
 10
5.1760158549
 20
3.2736906817
 30
0.0
 10
5.1757630273
 20
3.2752227148
 30
0.0
 10
5.1754963727
 20
3.2763568531
 30
0.0
 10
5.1751519134
 20
3.2774697327
 30
0.0
 10
5.1748707107
 20
3.2781938594
 30
0.0
 10
5.174717613
 20
3.2785503678
 30
0.0
  0
SPLINE
  5
354
100
AcDbEntity
  8
0
100
AcDbSpline
 62
7
  6
CONTINUOUS
 70
0
 71
3
 72
11
 73
7
 74
0
 42
0.0000001
 43
0.0000001
 44
0.0000000001
 40
0.0
 40
0.0
 40
0.0
 40
0.0
 40
0.25002058
 40
0.5000230199
 40
0.7500126582
 40
1.0
 40
1.0
 40
1.0
 40
1.0
 10
5.1724568484
 20
3.2601229936
 30
0.0
 10
5.1729374231
 20
3.2608093253
 30
0.0
 10
5.1738213967
 20
3.2622382102
 30
0.0
 10
5.1748745992
 20
3.2645275297
 30
0.0
 10
5.1756231288
 20
3.2669341491
 30
0.0
 10
5.1759041024
 20
3.2685919291
 30
0.0
 10
5.1759885976
 20
3.269425402
 30
0.0
  0
SPLINE
  5
355
100
AcDbEntity
  8
0
100
AcDbSpline
 62
7
  6
CONTINUOUS
 70
0
 71
3
 72
15
 73
11
 74
0
 42
0.0000001
 43
0.0000001
 44
0.0000000001
 40
0.0
 40
0.0
 40
0.0
 40
0.0
 40
0.1249961448
 40
0.2499886878
 40
0.3749836705
 40
0.4999798984
 40
0.6249822104
 40
0.7499854692
 40
0.8749939124
 40
1.0
 40
1.0
 40
1.0
 40
1.0
 10
5.1600196407
 20
3.2519127652
 30
0.0
 10
5.1606498412
 20
3.2520156097
 30
0.0
 10
5.161900986
 20
3.2522845786
 30
0.0
 10
5.1637236187
 20
3.2528860419
 30
0.0
 10
5.1654680252
 20
3.2536873887
 30
0.0
 10
5.167112318
 20
3.2546777901
 30
0.0
 10
5.1686398116
 20
3.25583967
 30
0.0
 10
5.1700431134
 20
3.2571482057
 30
0.0
 10
5.171319636
 20
3.2585798156
 30
0.0
 10
5.1720905694
 20
3.2595998929
 30
0.0
 10
5.1724568484
 20
3.2601229936
 30
0.0
  0
SPLINE
  5
356
100
AcDbEntity
  8
0
100
AcDbSpline
 62
7
  6
CONTINUOUS
 70
0
 71
3
 72
16
 73
12
 74
0
 42
0.0000001
 43
0.0000001
 44
0.0000000001
 40
0.0
 40
0.0
 40
0.0
 40
0.0
 40
0.1250070929
 40
0.2500117454
 40
0.3750116996
 40
0.5000064239
 40
0.6249952214
 40
0.7499808559
 40
0.8124967874
 40
0.875014191
 40
1.0
 40
1.0
 40
1.0
 40
1.0
 10
5.1447393126
 20
3.2560731669
 30
0.0
 10
5.1452939923
 20
3.2556847759
 30
0.0
 10
5.1464278707
 20
3.2549422431
 30
0.0
 10
5.1482018797
 20
3.2539488374
 30
0.0
 10
5.1500511207
 20
3.2531023062
 30
0.0
 10
5.1519695415
 20
3.2524254477
 30
0.0
 10
5.1539470956
 20
3.2519459502
 30
0.0
 10
5.1556298825
 20
3.2517295956
 30
0.0
 10
5.1569837398
 20
3.2516737641
 30
0.0
 10
5.1583384044
 20
3.2516972091
 30
0.0
 10
5.1593514561
 20
3.2518037219
 30
0.0
 10
5.1600196407
 20
3.2519127652
 30
0.0
  0
SPLINE
  5
357
100
AcDbEntity
  8
0
100
AcDbSpline
 62
7
  6
CONTINUOUS
 70
0
 71
3
 72
15
 73
11
 74
0
 42
0.0000001
 43
0.0000001
 44
0.0000000001
 40
0.0
 40
0.0
 40
0.0
 40
0.0
 40
0.124992792
 40
0.2499811057
 40
0.3749746219
 40
0.4999707819
 40
0.6249719275
 40
0.749977683
 40
0.8749875911
 40
1.0
 40
1.0
 40
1.0
 40
1.0
 10
5.1348130837
 20
3.2697499573
 30
0.0
 10
5.134969225
 20
3.2690461931
 30
0.0
 10
5.1353596405
 20
3.2676546601
 30
0.0
 10
5.1361750094
 20
3.26564699
 30
0.0
 10
5.1372064428
 20
3.2637413358
 30
0.0
 10
5.1384306559
 20
3.2619540428
 30
0.0
 10
5.139821069
 20
3.2602935104
 30
0.0
 10
5.1413492992
 20
3.2587595305
 30
0.0
 10
5.1429923647
 20
3.2573500769
 30
0.0
 10
5.1441487118
 20
3.25648671
 30
0.0
 10
5.1447393126
 20
3.2560731669
 30
0.0
  0
SPLINE
  5
358
100
AcDbEntity
  8
0
100
AcDbSpline
 62
7
  6
CONTINUOUS
 70
0
 71
3
 72
15
 73
11
 74
0
 42
0.0000001
 43
0.0000001
 44
0.0000000001
 40
0.0
 40
0.0
 40
0.0
 40
0.0
 40
0.1250053825
 40
0.2500073059
 40
0.3750026406
 40
0.4999963856
 40
0.6249910542
 40
0.7499876836
 40
0.8749927536
 40
1.0
 40
1.0
 40
1.0
 40
1.0
 10
5.1376517973
 20
3.2842689212
 30
0.0
 10
5.1372873175
 20
3.28374839
 30
0.0
 10
5.1366047152
 20
3.2826737877
 30
0.0
 10
5.1357445774
 20
3.2809689149
 30
0.0
 10
5.1350719381
 20
3.2791811556
 30
0.0
 10
5.1346027522
 20
3.2773293969
 30
0.0
 10
5.1343467765
 20
3.2754364051
 30
0.0
 10
5.1343003606
 20
3.2735269923
 30
0.0
 10
5.1344534544
 20
3.2716237502
 30
0.0
 10
5.1346754436
 20
3.2703703326
 30
0.0
 10
5.1348130837
 20
3.2697499573
 30
0.0
  0
SPLINE
  5
359
100
AcDbEntity
  8
0
100
AcDbSpline
 62
7
  6
CONTINUOUS
 70
0
 71
3
 72
15
 73
11
 74
0
 42
0.0000001
 43
0.0000001
 44
0.0000000001
 40
0.0
 40
0.0
 40
0.0
 40
0.0
 40
0.1249988143
 40
0.2499966172
 40
0.3749951976
 40
0.49999385
 40
0.6249941777
 40
0.7499948185
 40
0.8749976265
 40
1.0
 40
1.0
 40
1.0
 40
1.0
 10
5.1476360913
 20
3.2911427035
 30
0.0
 10
5.1471322426
 20
3.2910268368
 30
0.0
 10
5.1461341091
 20
3.2907506606
 30
0.0
 10
5.1446818973
 20
3.2901995412
 30
0.0
 10
5.1432903009
 20
3.2895089194
 30
0.0
 10
5.1419735284
 20
3.2886845709
 30
0.0
 10
5.140743973
 20
3.2877352163
 30
0.0
 10
5.1396089987
 20
3.2866748443
 30
0.0
 10
5.1385736537
 20
3.2855175017
 30
0.0
 10
5.1379483446
 20
3.2846924345
 30
0.0
 10
5.1376517973
 20
3.2842689212
 30
0.0
  0
SPLINE
  5
35A
100
AcDbEntity
  8
0
100
AcDbSpline
 62
7
  6
CONTINUOUS
 70
0
 71
3
 72
15
 73
11
 74
0
 42
0.0000001
 43
0.0000001
 44
0.0000000001
 40
0.0
 40
0.0
 40
0.0
 40
0.0
 40
0.1250125068
 40
0.2500228917
 40
0.3750286299
 40
0.5000307208
 40
0.6250279665
 40
0.7500234735
 40
0.8750113869
 40
1.0
 40
1.0
 40
1.0
 40
1.0
 10
5.1615118419
 20
3.2886964874
 30
0.0
 10
5.1609753579
 20
3.2889621874
 30
0.0
 10
5.1598893032
 20
3.2894676799
 30
0.0
 10
5.1582219783
 20
3.2901377749
 30
0.0
 10
5.1565153493
 20
3.2907015438
 30
0.0
 10
5.154771671
 20
3.2911388561
 30
0.0
 10
5.1529971758
 20
3.2914298743
 30
0.0
 10
5.1512021045
 20
3.2915485079
 30
0.0
 10
5.1494043488
 20
3.2914711936
 30
0.0
 10
5.1482194261
 20
3.291276849
 30
0.0
 10
5.1476360913
 20
3.2911427035
 30
0.0
  0
SPLINE
  5
35B
100
AcDbEntity
  8
0
100
AcDbSpline
 62
7
  6
CONTINUOUS
 70
0
 71
3
 72
15
 73
11
 74
0
 42
0.0000001
 43
0.0000001
 44
0.0000000001
 40
0.0
 40
0.0
 40
0.0
 40
0.0
 40
0.1249967927
 40
0.2499904845
 40
0.3749861261
 40
0.4999829331
 40
0.6249846325
 40
0.7499873729
 40
0.8749945884
 40
1.0
 40
1.0
 40
1.0
 40
1.0
 10
5.1473506613
 20
3.3020034282
 30
0.0
 10
5.1481924985
 20
3.3022044484
 30
0.0
 10
5.1498965979
 20
3.302526417
 30
0.0
 10
5.1524878838
 20
3.3027497885
 30
0.0
 10
5.1550887055
 20
3.3027024333
 30
0.0
 10
5.1576705568
 20
3.3023868126
 30
0.0
 10
5.1602074357
 20
3.3018142902
 30
0.0
 10
5.1626792804
 20
3.3010073694
 30
0.0
 10
5.1650713407
 20
3.2999898044
 30
0.0
 10
5.1666088738
 20
3.2991903794
 30
0.0
 10
5.1673624279
 20
3.2987645173
 30
0.0
  0
SPLINE
  5
35C
100
AcDbEntity
  8
0
100
AcDbSpline
 62
7
  6
CONTINUOUS
 70
0
 71
3
 72
15
 73
11
 74
0
 42
0.0000001
 43
0.0000001
 44
0.0000000001
 40
0.0
 40
0.0
 40
0.0
 40
0.0
 40
0.125007454
 40
0.2500170269
 40
0.3750198179
 40
0.5000215612
 40
0.625017677
 40
0.7500124852
 40
0.8750044402
 40
1.0
 40
1.0
 40
1.0
 40
1.0
 10
5.1302090246
 20
3.2894804068
 30
0.0
 10
5.1307280229
 20
3.2902216132
 30
0.0
 10
5.1318117344
 20
3.2916727655
 30
0.0
 10
5.1335818111
 20
3.2937338557
 30
0.0
 10
5.1355077054
 20
3.2956511507
 30
0.0
 10
5.1375919109
 20
3.2973959047
 30
0.0
 10
5.1398330318
 20
3.2989350348
 30
0.0
 10
5.1422196055
 20
3.3002383829
 30
0.0
 10
5.1447310683
 20
3.3012808713
 30
0.0
 10
5.1464706427
 20
3.3017932906
 30
0.0
 10
5.1473506613
 20
3.3020034282
 30
0.0
  0
SPLINE
  5
35D
100
AcDbEntity
  8
0
100
AcDbSpline
 62
7
  6
CONTINUOUS
 70
0
 71
3
 72
19
 73
15
 74
0
 42
0.0000001
 43
0.0000001
 44
0.0000000001
 40
0.0
 40
0.0
 40
0.0
 40
0.0
 40
0.124978239
 40
0.1874897323
 40
0.2500030732
 40
0.374966305
 40
0.4999259677
 40
0.5624373676
 40
0.6249499422
 40
0.6874644365
 40
0.7499795846
 40
0.8124941278
 40
0.8750070197
 40
1.0
 40
1.0
 40
1.0
 40
1.0
 10
5.1255737566
 20
3.2638425073
 30
0.0
 10
5.1252540206
 20
3.2649217081
 30
0.0
 10
5.1248571446
 20
3.2665674355
 30
0.0
 10
5.124517372
 20
3.2687942345
 30
0.0
 10
5.1243107037
 20
3.271037347
 30
0.0
 10
5.1243102817
 20
3.2738589565
 30
0.0
 10
5.1246670975
 20
3.2766581224
 30
0.0
 10
5.1251588225
 20
3.2788563344
 30
0.0
 10
5.1256270328
 20
3.2804802361
 30
0.0
 10
5.126189666
 20
3.282073769
 30
0.0
 10
5.126840323
 20
3.2836333576
 30
0.0
 10
5.1275730962
 20
3.2851560497
 30
0.0
 10
5.1286512144
 20
3.2871336572
 30
0.0
 10
5.1295633486
 20
3.2885582859
 30
0.0
 10
5.1302090246
 20
3.2894804068
 30
0.0
  0
SPLINE
  5
35E
100
AcDbEntity
  8
0
100
AcDbSpline
 62
7
  6
CONTINUOUS
 70
0
 71
3
 72
14
 73
10
 74
0
 42
0.0000001
 43
0.0000001
 44
0.0000000001
 40
0.0
 40
0.0
 40
0.0
 40
0.0
 40
0.249878589
 40
0.3749011988
 40
0.4999229842
 40
0.6249425826
 40
0.7499617248
 40
0.874980086
 40
1.0
 40
1.0
 40
1.0
 40
1.0
 10
5.1388182993
 20
3.2459045565
 30
0.0
 10
5.1372674215
 20
3.2469904928
 30
0.0
 10
5.1350460356
 20
3.2487830353
 30
0.0
 10
5.1324025399
 20
3.2515005305
 30
0.0
 10
5.1305980584
 20
3.2537007601
 30
0.0
 10
5.1289957274
 20
3.2560522402
 30
0.0
 10
5.1276116982
 20
3.2585386581
 30
0.0
 10
5.1264575774
 20
3.2611394209
 30
0.0
 10
5.1258428373
 20
3.2629342825
 30
0.0
 10
5.1255737566
 20
3.2638425073
 30
0.0
  0
SPLINE
  5
35F
100
AcDbEntity
  8
0
100
AcDbSpline
 62
7
  6
CONTINUOUS
 70
0
 71
3
 72
16
 73
12
 74
0
 42
0.0000001
 43
0.0000001
 44
0.0000000001
 40
0.0
 40
0.0
 40
0.0
 40
0.0
 40
0.1250106562
 40
0.2500103991
 40
0.375003206
 40
0.4999919348
 40
0.6249814243
 40
0.7499745284
 40
0.812487469
 40
0.874998899
 40
1.0
 40
1.0
 40
1.0
 40
1.0
 10
5.1606614931
 20
3.240521272
 30
0.0
 10
5.1597127384
 20
3.2403567505
 30
0.0
 10
5.1577974883
 20
3.2401212139
 30
0.0
 10
5.1549039946
 20
3.2400723011
 30
0.0
 10
5.1520220998
 20
3.2403389905
 30
0.0
 10
5.1491866744
 20
3.2409176555
 30
0.0
 10
5.1464284009
 20
3.2417910062
 30
0.0
 10
5.1442125593
 20
3.2427408283
 30
0.0
 10
5.1424970148
 20
3.2436169353
 30
0.0
 10
5.1408206287
 20
3.2445658288
 30
0.0
 10
5.1396070117
 20
3.2453522941
 30
0.0
 10
5.1388182993
 20
3.2459045565
 30
0.0
  0
SPLINE
  5
360
100
AcDbEntity
  8
0
100
AcDbSpline
 62
7
  6
CONTINUOUS
 70
0
 71
3
 72
15
 73
11
 74
0
 42
0.0000001
 43
0.0000001
 44
0.0000000001
 40
0.0
 40
0.0
 40
0.0
 40
0.0
 40
0.1250066125
 40
0.2500109822
 40
0.3750085327
 40
0.5000038585
 40
0.6249983546
 40
0.7499942577
 40
0.8749954605
 40
1.0
 40
1.0
 40
1.0
 40
1.0
 10
5.1787625903
 20
3.2521102958
 30
0.0
 10
5.1782346999
 20
3.2513563903
 30
0.0
 10
5.1771161009
 20
3.2498912131
 30
0.0
 10
5.175245582
 20
3.2478549958
 30
0.0
 10
5.1731831756
 20
3.2460122985
 30
0.0
 10
5.1709400259
 20
3.2443939831
 30
0.0
 10
5.1685369791
 20
3.2430241412
 30
0.0
 10
5.1660026118
 20
3.2419163502
 30
0.0
 10
5.1633694015
 20
3.241072117
 30
0.0
 10
5.1615682936
 20
3.2406785183
 30
0.0
 10
5.1606614931
 20
3.240521272
 30
0.0
  0
SPLINE
  5
361
100
AcDbEntity
  8
0
100
AcDbSpline
 62
7
  6
CONTINUOUS
 70
0
 71
3
 72
14
 73
10
 74
0
 42
0.0000001
 43
0.0000001
 44
0.0000000001
 40
0.0
 40
0.0
 40
0.0
 40
0.0
 40
0.1250269842
 40
0.2500537485
 40
0.4999119606
 40
0.6249337307
 40
0.7499560909
 40
0.8749777987
 40
1.0
 40
1.0
 40
1.0
 40
1.0
 10
5.1838777933
 20
3.2704698237
 30
0.0
 10
5.1838978928
 20
3.269662096
 30
0.0
 10
5.1838900726
 20
3.2680448113
 30
0.0
 10
5.1836669016
 20
3.2648204578
 30
0.0
 10
5.1830944047
 20
3.2616250619
 30
0.0
 10
5.1821330168
 20
3.2585374399
 30
0.0
 10
5.181212896
 20
3.2562914215
 30
0.0
 10
5.180095644
 20
3.254136981
 30
0.0
 10
5.1792260095
 20
3.252772127
 30
0.0
 10
5.1787625903
 20
3.2521102958
 30
0.0
  0
SPLINE
  5
362
100
AcDbEntity
  8
0
100
AcDbSpline
 62
2
  6
CONTINUOUS
 70
0
 71
3
 72
10
 73
6
 74
0
 42
0.0000001
 43
0.0000001
 44
0.0000000001
 40
0.0
 40
0.0
 40
0.0
 40
0.0
 40
0.4998924623
 40
0.7499453704
 40
1.0
 40
1.0
 40
1.0
 40
1.0
 10
5.1362393126
 20
3.2840731669
 30
0.0
 10
5.1351285932
 20
3.284850901
 30
0.0
 10
5.1335250304
 20
3.2861147148
 30
0.0
 10
5.1315857718
 20
3.288014015
 30
0.0
 10
5.1306944835
 20
3.289039304
 30
0.0
 10
5.1302725867
 20
3.2895703819
 30
0.0
  0
SPLINE
  5
363
100
AcDbEntity
  8
0
100
AcDbSpline
 62
2
  6
CONTINUOUS
 70
0
 71
3
 72
9
 73
5
 74
0
 42
0.0000001
 43
0.0000001
 44
0.0000000001
 40
0.0
 40
0.0
 40
0.0
 40
0.0
 40
0.4999907287
 40
1.0
 40
1.0
 40
1.0
 40
1.0
 10
5.1250488605
 20
3.2783370252
 30
0.0
 10
5.12585453
 20
3.2775180917
 30
0.0
 10
5.1275485214
 20
3.2759597955
 30
0.0
 10
5.1293772176
 20
3.274563509
 30
0.0
 10
5.1303182993
 20
3.2739045565
 30
0.0
  0
LINE
  5
364
100
AcDbEntity
  8
0
100
AcDbLine
 62
2
  6
CONTINUOUS
 10
5.1303182993
 20
3.2739045565
 11
5.1345219685
 21
3.2713522706
  0
SPLINE
  5
365
100
AcDbEntity
  8
0
100
AcDbSpline
 62
2
  6
CONTINUOUS
 70
0
 71
3
 72
14
 73
10
 74
0
 42
0.0000001
 43
0.0000001
 44
0.0000000001
 40
0.0
 40
0.0
 40
0.0
 40
0.0
 40
0.2499870856
 40
0.374993057
 40
0.4999963655
 40
0.6249952648
 40
0.7499966791
 40
0.8750050366
 40
1.0
 40
1.0
 40
1.0
 40
1.0
 10
5.2014082484
 20
3.331132679
 30
0.0
 10
5.2024873554
 20
3.328898748
 30
0.0
 10
5.2040461869
 20
3.3255179647
 30
0.0
 10
5.2059702145
 20
3.3209437152
 30
0.0
 10
5.2073258741
 20
3.317477261
 30
0.0
 10
5.208580922
 20
3.3139730677
 30
0.0
 10
5.2097208987
 20
3.3104294979
 30
0.0
 10
5.2107269837
 20
3.3068455036
 30
0.0
 10
5.2112939805
 20
3.3044289773
 30
0.0
 10
5.2115470468
 20
3.3032145959
 30
0.0
  0
SPLINE
  5
366
100
AcDbEntity
  8
0
100
AcDbSpline
 62
2
  6
CONTINUOUS
 70
0
 71
3
 72
13
 73
9
 74
0
 42
0.0000001
 43
0.0000001
 44
0.0000000001
 40
0.0
 40
0.0
 40
0.0
 40
0.0
 40
0.1250061546
 40
0.2500263575
 40
0.3750417633
 40
0.5000606671
 40
0.7500215684
 40
1.0
 40
1.0
 40
1.0
 40
1.0
 10
5.2341509832
 20
3.7402184518
 30
0.0
 10
5.2344519704
 20
3.7405923988
 30
0.0
 10
5.2350879416
 20
3.7413135773
 30
0.0
 10
5.236126924
 20
3.7423128629
 30
0.0
 10
5.237236945
 20
3.7432324478
 30
0.0
 10
5.2387942463
 20
3.744357461
 30
0.0
 10
5.2408601341
 20
3.7455883186
 30
0.0
 10
5.2425958045
 20
3.7464142011
 30
0.0
 10
5.243477361
 20
3.7467941051
 30
0.0
  0
SPLINE
  5
367
100
AcDbEntity
  8
0
100
AcDbSpline
 62
2
  6
CONTINUOUS
 70
0
 71
3
 72
11
 73
7
 74
0
 42
0.0000001
 43
0.0000001
 44
0.0000000001
 40
0.0
 40
0.0
 40
0.0
 40
0.0
 40
0.2499952838
 40
0.4999873008
 40
0.749983129
 40
1.0
 40
1.0
 40
1.0
 40
1.0
 10
5.2301496068
 20
3.7523643001
 30
0.0
 10
5.2295398657
 20
3.7518395327
 30
0.0
 10
5.2283686014
 20
3.750732312
 30
0.0
 10
5.2267801139
 20
3.7489105498
 30
0.0
 10
5.2253747555
 20
3.7469440562
 30
0.0
 10
5.2245653482
 20
3.7455503859
 30
0.0
 10
5.2241927912
 20
3.7448373096
 30
0.0
  0
LINE
  5
368
100
AcDbEntity
  8
0
100
AcDbLine
 62
2
  6
CONTINUOUS
 10
5.2243046086
 20
3.7798334735
 11
5.221713403
 21
3.7810802597
  0
SPLINE
  5
369
100
AcDbEntity
  8
0
100
AcDbSpline
 62
2
  6
CONTINUOUS
 70
0
 71
3
 72
11
 73
7
 74
0
 42
0.0000001
 43
0.0000001
 44
0.0000000001
 40
0.0
 40
0.0
 40
0.0
 40
0.0
 40
0.2500093548
 40
0.5000075928
 40
0.7500010809
 40
1.0
 40
1.0
 40
1.0
 40
1.0
 10
5.221713403
 20
3.7810802597
 30
0.0
 10
5.2211442442
 20
3.7814122755
 30
0.0
 10
5.2200399884
 20
3.7821371728
 30
0.0
 10
5.2185189288
 20
3.7834065378
 30
0.0
 10
5.2171597326
 20
3.7848480625
 30
0.0
 10
5.2163738643
 20
3.7859102236
 30
0.0
 10
5.21601265
 20
3.7864612809
 30
0.0
  0
SPLINE
  5
36A
100
AcDbEntity
  8
0
100
AcDbSpline
 62
2
  6
CONTINUOUS
 70
0
 71
3
 72
11
 73
7
 74
0
 42
0.0000001
 43
0.0000001
 44
0.0000000001
 40
0.0
 40
0.0
 40
0.0
 40
0.0
 40
0.2499949946
 40
0.4999864031
 40
0.749982913
 40
1.0
 40
1.0
 40
1.0
 40
1.0
 10
5.2492695603
 20
3.7966058217
 30
0.0
 10
5.2492569548
 20
3.7958598237
 30
0.0
 10
5.2491394156
 20
3.7943675818
 30
0.0
 10
5.2486781547
 20
3.7921711911
 30
0.0
 10
5.2479416876
 20
3.7900514251
 30
0.0
 10
5.2472837686
 20
3.7887076757
 30
0.0
 10
5.2469191803
 20
3.7880566414
 30
0.0
  0
SPLINE
  5
36B
100
AcDbEntity
  8
0
100
AcDbSpline
 62
2
  6
CONTINUOUS
 70
0
 71
3
 72
11
 73
7
 74
0
 42
0.0000001
 43
0.0000001
 44
0.0000000001
 40
0.0
 40
0.0
 40
0.0
 40
0.0
 40
0.2499912107
 40
0.4999826788
 40
0.7500224786
 40
1.0
 40
1.0
 40
1.0
 40
1.0
 10
5.2849343307
 20
3.8050721494
 30
0.0
 10
5.2848614387
 20
3.8046719984
 30
0.0
 10
5.2846797823
 20
3.8038777643
 30
0.0
 10
5.284303541
 20
3.8027153911
 30
0.0
 10
5.2838309075
 20
3.8015889349
 30
0.0
 10
5.2834575737
 20
3.8008651046
 30
0.0
 10
5.2832580995
 20
3.8005106669
 30
0.0
  0
SPLINE
  5
36C
100
AcDbEntity
  8
0
100
AcDbSpline
 62
2
  6
CONTINUOUS
 70
0
 71
3
 72
14
 73
10
 74
0
 42
0.0000001
 43
0.0000001
 44
0.0000000001
 40
0.0
 40
0.0
 40
0.0
 40
0.0
 40
0.2498704832
 40
0.3748922311
 40
0.4999090542
 40
0.6249314298
 40
0.7499544976
 40
0.8749685065
 40
1.0
 40
1.0
 40
1.0
 40
1.0
 10
5.2832580995
 20
3.8005106669
 30
0.0
 10
5.2828789935
 20
3.7998370486
 30
0.0
 10
5.2822365885
 20
3.7988642272
 30
0.0
 10
5.2812308136
 20
3.797687626
 30
0.0
 10
5.2804023976
 20
3.7968730316
 30
0.0
 10
5.2795051209
 20
3.796135065
 30
0.0
 10
5.2785457066
 20
3.7954799005
 30
0.0
 10
5.2775332152
 20
3.794910512
 30
0.0
 10
5.2768290168
 20
3.7945881179
 30
0.0
 10
5.2764713507
 20
3.7944408902
 30
0.0
  0
SPLINE
  5
36D
100
AcDbEntity
  8
0
100
AcDbSpline
 62
2
  6
CONTINUOUS
 70
0
 71
3
 72
15
 73
11
 74
0
 42
0.0000001
 43
0.0000001
 44
0.0000000001
 40
0.0
 40
0.0
 40
0.0
 40
0.0
 40
0.1250106742
 40
0.2500205005
 40
0.3750087132
 40
0.5000038302
 40
0.6249994232
 40
0.7499888741
 40
0.8750057545
 40
1.0
 40
1.0
 40
1.0
 40
1.0
 10
5.2742249503
 20
3.7937075745
 30
0.0
 10
5.2737919664
 20
3.7935999872
 30
0.0
 10
5.2729164709
 20
3.7934208401
 30
0.0
 10
5.2715841891
 20
3.7932740555
 30
0.0
 10
5.2702436282
 20
3.7932596357
 30
0.0
 10
5.2689086798
 20
3.7933836931
 30
0.0
 10
5.2675940035
 20
3.7936464136
 30
0.0
 10
5.2663129815
 20
3.7940415186
 30
0.0
 10
5.2650761769
 20
3.794557652
 30
0.0
 10
5.2642852119
 20
3.7949732191
 30
0.0
 10
5.2638988851
 20
3.7951962649
 30
0.0
  0
LINE
  5
36E
100
AcDbEntity
  8
0
100
AcDbLine
 62
2
  6
CONTINUOUS
 10
5.2638988851
 20
3.7951962649
 11
5.2613952498
 21
3.7970608739
  0
SPLINE
  5
36F
100
AcDbEntity
  8
0
100
AcDbSpline
 62
2
  6
CONTINUOUS
 70
0
 71
3
 72
11
 73
7
 74
0
 42
0.0000001
 43
0.0000001
 44
0.0000000001
 40
0.0
 40
0.0
 40
0.0
 40
0.0
 40
0.2499929018
 40
0.4999901489
 40
0.7500248705
 40
1.0
 40
1.0
 40
1.0
 40
1.0
 10
5.2120721317
 20
3.7760366892
 30
0.0
 10
5.2124900886
 20
3.775591761
 30
0.0
 10
5.213357031
 20
3.7747304464
 30
0.0
 10
5.2147443647
 20
3.7735325921
 30
0.0
 10
5.2162117385
 20
3.7724343662
 30
0.0
 10
5.2172378633
 20
3.771770691
 30
0.0
 10
5.217761151
 20
3.7714564201
 30
0.0
  0
LINE
  5
370
100
AcDbEntity
  8
0
100
AcDbLine
 62
2
  6
CONTINUOUS
 10
5.217761151
 20
3.7714564201
 11
5.2212162307
 21
3.7696781353
  0
SPLINE
  5
371
100
AcDbEntity
  8
0
100
AcDbSpline
 62
2
  6
CONTINUOUS
 70
0
 71
3
 72
11
 73
7
 74
0
 42
0.0000001
 43
0.0000001
 44
0.0000000001
 40
0.0
 40
0.0
 40
0.0
 40
0.0
 40
0.2499739114
 40
0.4999612731
 40
0.7499693561
 40
1.0
 40
1.0
 40
1.0
 40
1.0
 10
5.254012036
 20
3.7806907378
 30
0.0
 10
5.2543786047
 20
3.7814420791
 30
0.0
 10
5.2550260892
 20
3.7829880744
 30
0.0
 10
5.2557456832
 20
3.7853949559
 30
0.0
 10
5.2562339253
 20
3.7878586419
 30
0.0
 10
5.2564217048
 20
3.7895222977
 30
0.0
 10
5.2564854483
 20
3.7903560486
 30
0.0
  0
SPLINE
  5
372
100
AcDbEntity
  8
0
100
AcDbSpline
 62
2
  6
CONTINUOUS
 70
0
 71
3
 72
11
 73
7
 74
0
 42
0.0000001
 43
0.0000001
 44
0.0000000001
 40
0.0
 40
0.0
 40
0.0
 40
0.0
 40
0.2500030024
 40
0.5000067426
 40
0.7499894757
 40
1.0
 40
1.0
 40
1.0
 40
1.0
 10
5.2590611708
 20
3.7878641344
 30
0.0
 10
5.2595143307
 20
3.78739436
 30
0.0
 10
5.2604597241
 20
3.7864913794
 30
0.0
 10
5.2619966593
 20
3.7852732113
 30
0.0
 10
5.2636505776
 20
3.7842182978
 30
0.0
 10
5.264825495
 20
3.7836416437
 30
0.0
 10
5.26542726
 20
3.7833887674
 30
0.0
  0
LINE
  5
373
100
AcDbEntity
  8
0
100
AcDbLine
 62
2
  6
CONTINUOUS
 10
5.2893178726
 20
3.7905442837
 11
5.291602098
 21
3.7940390954
  0
SPLINE
  5
374
100
AcDbEntity
  8
0
100
AcDbSpline
 62
2
  6
CONTINUOUS
 70
0
 71
3
 72
11
 73
7
 74
0
 42
0.0000001
 43
0.0000001
 44
0.0000000001
 40
0.0
 40
0.0
 40
0.0
 40
0.0
 40
0.2499941579
 40
0.4999791537
 40
0.7500069691
 40
1.0
 40
1.0
 40
1.0
 40
1.0
 10
4.2813908062
 20
3.855940408
 30
0.0
 10
4.2814134869
 20
3.8553951454
 30
0.0
 10
4.2814058401
 20
3.8543017324
 30
0.0
 10
4.2812394143
 20
3.8526707024
 30
0.0
 10
4.280927016
 20
3.8510614631
 30
0.0
 10
4.2806295406
 20
3.8500098183
 30
0.0
 10
4.2804609003
 20
3.8494907967
 30
0.0
  0
SPLINE
  5
375
100
AcDbEntity
  8
0
100
AcDbSpline
 62
2
  6
CONTINUOUS
 70
0
 71
3
 72
10
 73
6
 74
0
 42
0.0000001
 43
0.0000001
 44
0.0000000001
 40
0.0
 40
0.0
 40
0.0
 40
0.0
 40
0.4998611857
 40
0.7499334295
 40
1.0
 40
1.0
 40
1.0
 40
1.0
 10
4.2804609003
 20
3.8494907967
 30
0.0
 10
4.2801852968
 20
3.8486425766
 30
0.0
 10
4.2796883139
 20
3.8473939488
 30
0.0
 10
4.2788457298
 20
3.8458197389
 30
0.0
 10
4.2783627222
 20
3.8450679166
 30
0.0
 10
4.2781062014
 20
3.844702852
 30
0.0
  0
SPLINE
  5
376
100
AcDbEntity
  8
0
100
AcDbSpline
 62
2
  6
CONTINUOUS
 70
0
 71
3
 72
9
 73
5
 74
0
 42
0.0000001
 43
0.0000001
 44
0.0000000001
 40
0.0
 40
0.0
 40
0.0
 40
0.0
 40
0.4999537187
 40
1.0
 40
1.0
 40
1.0
 40
1.0
 10
4.2855915856
 20
3.8388962561
 30
0.0
 10
4.2863335828
 20
3.840113868
 30
0.0
 10
4.2876499085
 20
3.8426542087
 30
0.0
 10
4.2886614469
 20
3.8453267392
 30
0.0
 10
4.2891021502
 20
3.8466830844
 30
0.0
  0
LINE
  5
377
100
AcDbEntity
  8
0
100
AcDbLine
 62
2
  6
CONTINUOUS
 10
4.2891021502
 20
3.8466830844
 11
4.2900197296
 21
3.8499966799
  0
SPLINE
  5
378
100
AcDbEntity
  8
0
100
AcDbSpline
 62
2
  6
CONTINUOUS
 70
0
 71
3
 72
9
 73
5
 74
0
 42
0.0000001
 43
0.0000001
 44
0.0000000001
 40
0.0
 40
0.0
 40
0.0
 40
0.0
 40
0.4999935549
 40
1.0
 40
1.0
 40
1.0
 40
1.0
 10
4.1932837688
 20
3.7921949992
 30
0.0
 10
4.1937349571
 20
3.7905494522
 30
0.0
 10
4.19450956
 20
3.787222162
 30
0.0
 10
4.1950449898
 20
3.7838489348
 30
0.0
 10
4.1952580669
 20
3.7821559658
 30
0.0
  0
SPLINE
  5
379
100
AcDbEntity
  8
0
100
AcDbSpline
 62
2
  6
CONTINUOUS
 70
0
 71
3
 72
12
 73
8
 74
0
 42
0.0000001
 43
0.0000001
 44
0.0000000001
 40
0.0
 40
0.0
 40
0.0
 40
0.0
 40
0.2499824369
 40
0.3750017794
 40
0.5000052853
 40
0.7500012822
 40
1.0
 40
1.0
 40
1.0
 40
1.0
 10
4.2054173744
 20
3.7788550067
 30
0.0
 10
4.2053930609
 20
3.7796971131
 30
0.0
 10
4.2053177109
 20
3.7809594908
 30
0.0
 10
4.2051556817
 20
3.7826367953
 30
0.0
 10
4.2049573858
 20
3.7843103171
 30
0.0
 10
4.2046473257
 20
3.7863941407
 30
0.0
 10
4.204346238
 20
3.7880523029
 30
0.0
 10
4.2041844508
 20
3.7888791352
 30
0.0
  0
SPLINE
  5
37A
100
AcDbEntity
  8
0
100
AcDbSpline
 62
2
  6
CONTINUOUS
 70
0
 71
3
 72
11
 73
7
 74
0
 42
0.0000001
 43
0.0000001
 44
0.0000000001
 40
0.0
 40
0.0
 40
0.0
 40
0.0
 40
0.2500087181
 40
0.5000155438
 40
0.7500081933
 40
1.0
 40
1.0
 40
1.0
 40
1.0
 10
4.2379255448
 20
3.33130916
 30
0.0
 10
4.2385151327
 20
3.330821391
 30
0.0
 10
4.2397354776
 20
3.3298941637
 30
0.0
 10
4.2416854054
 20
3.3286763495
 30
0.0
 10
4.2437469233
 20
3.3276579019
 30
0.0
 10
4.2451860079
 20
3.3271272723
 30
0.0
 10
4.2459172449
 20
3.3269020044
 30
0.0
  0
SPLINE
  5
37B
100
AcDbEntity
  8
0
100
AcDbSpline
 62
2
  6
CONTINUOUS
 70
0
 71
3
 72
10
 73
6
 74
0
 42
0.0000001
 43
0.0000001
 44
0.0000000001
 40
0.0
 40
0.0
 40
0.0
 40
0.0
 40
0.2500809811
 40
0.500175301
 40
1.0
 40
1.0
 40
1.0
 40
1.0
 10
4.3052913336
 20
3.3611862812
 30
0.0
 10
4.3057245975
 20
3.3618636226
 30
0.0
 10
4.3065581127
 20
3.3632401356
 30
0.0
 10
4.3080683926
 20
3.3660792515
 30
0.0
 10
4.3089974949
 20
3.3683162113
 30
0.0
 10
4.3094913085
 20
3.3698454915
 30
0.0
  0
SPLINE
  5
37C
100
AcDbEntity
  8
0
100
AcDbSpline
 62
2
  6
CONTINUOUS
 70
0
 71
3
 72
15
 73
11
 74
0
 42
0.0000001
 43
0.0000001
 44
0.0000000001
 40
0.0
 40
0.0
 40
0.0
 40
0.0
 40
0.124999182
 40
0.2499983248
 40
0.3749938325
 40
0.499985799
 40
0.6249801741
 40
0.749976425
 40
0.8749787476
 40
1.0
 40
1.0
 40
1.0
 40
1.0
 10
4.251222246
 20
3.3359675857
 30
0.0
 10
4.2507562752
 20
3.3359892518
 30
0.0
 10
4.249825595
 20
3.3360733646
 30
0.0
 10
4.2484481173
 20
3.3363324308
 30
0.0
 10
4.2471039793
 20
3.3367309404
 30
0.0
 10
4.2458096486
 20
3.3372698528
 30
0.0
 10
4.2445802139
 20
3.3379436749
 30
0.0
 10
4.2434273562
 20
3.3387411767
 30
0.0
 10
4.2423581924
 20
3.339647316
 30
0.0
 10
4.2417025874
 20
3.3403130728
 30
0.0
 10
4.2413889893
 20
3.3406585163
 30
0.0
  0
SPLINE
  5
37D
100
AcDbEntity
  8
0
100
AcDbSpline
 62
2
  6
CONTINUOUS
 70
0
 71
3
 72
13
 73
9
 74
0
 42
0.0000001
 43
0.0000001
 44
0.0000000001
 40
0.0
 40
0.0
 40
0.0
 40
0.0
 40
0.1249889966
 40
0.250025161
 40
0.3750369582
 40
0.5000434454
 40
0.7500246565
 40
1.0
 40
1.0
 40
1.0
 40
1.0
 10
4.2999422586
 20
3.3741011804
 30
0.0
 10
4.2998393455
 20
3.3737135362
 30
0.0
 10
4.2995963324
 20
3.3729476558
 30
0.0
 10
4.2991439129
 20
3.3718315213
 30
0.0
 10
4.2986206542
 20
3.3707469384
 30
0.0
 10
4.2978473842
 20
3.3693404733
 30
0.0
 10
4.2967640337
 20
3.3676502299
 30
0.0
 10
4.2958120847
 20
3.366357809
 30
0.0
 10
4.2953201087
 20
3.3657242613
 30
0.0
  0
SPLINE
  5
37E
100
AcDbEntity
  8
0
100
AcDbSpline
 62
2
  6
CONTINUOUS
 70
0
 71
3
 72
9
 73
5
 74
0
 42
0.0000001
 43
0.0000001
 44
0.0000000001
 40
0.0
 40
0.0
 40
0.0
 40
0.0
 40
0.5000583207
 40
1.0
 40
1.0
 40
1.0
 40
1.0
 10
4.3472585697
 20
3.3102621535
 30
0.0
 10
4.3489186509
 20
3.3102616867
 30
0.0
 10
4.3522405036
 20
3.3103980521
 30
0.0
 10
4.355533881
 20
3.3108869255
 30
0.0
 10
4.3571551797
 20
3.3112418547
 30
0.0
  0
SPLINE
  5
37F
100
AcDbEntity
  8
0
100
AcDbSpline
 62
2
  6
CONTINUOUS
 70
0
 71
3
 72
11
 73
7
 74
0
 42
0.0000001
 43
0.0000001
 44
0.0000000001
 40
0.0
 40
0.0
 40
0.0
 40
0.0
 40
0.2500307205
 40
0.5000248196
 40
0.7500133423
 40
1.0
 40
1.0
 40
1.0
 40
1.0
 10
4.3490129204
 20
3.3208976426
 30
0.0
 10
4.3484483393
 20
3.3208607181
 30
0.0
 10
4.3473168196
 20
3.3208226011
 30
0.0
 10
4.3456194321
 20
3.3208406413
 30
0.0
 10
4.3439235404
 20
3.3209082944
 30
0.0
 10
4.3427939905
 20
3.3209730268
 30
0.0
 10
4.3422293491
 20
3.3210074144
 30
0.0
  0
LINE
  5
380
100
AcDbEntity
  8
0
100
AcDbLine
 62
2
  6
CONTINUOUS
 10
4.3422293491
 20
3.3210074144
 11
4.3337078236
 21
3.3221169978
  0
LINE
  5
381
100
AcDbEntity
  8
0
100
AcDbLine
 62
2
  6
CONTINUOUS
 10
4.308303544
 20
3.3259480117
 11
4.3022587396
 21
3.3263774177
  0
SPLINE
  5
382
100
AcDbEntity
  8
0
100
AcDbSpline
 62
2
  6
CONTINUOUS
 70
0
 71
3
 72
11
 73
7
 74
0
 42
0.0000001
 43
0.0000001
 44
0.0000000001
 40
0.0
 40
0.0
 40
0.0
 40
0.0
 40
0.2499991862
 40
0.5000188507
 40
0.7500135327
 40
1.0
 40
1.0
 40
1.0
 40
1.0
 10
4.3022587396
 20
3.3263774177
 30
0.0
 10
4.301404403
 20
3.326403074
 30
0.0
 10
4.2996944209
 20
3.3264214777
 30
0.0
 10
4.2971307074
 20
3.3263323735
 30
0.0
 10
4.2945752492
 20
3.3261054233
 30
0.0
 10
4.2928841577
 20
3.3258441093
 30
0.0
 10
4.2920453242
 20
3.3256803005
 30
0.0
  0
SPLINE
  5
383
100
AcDbEntity
  8
0
100
AcDbSpline
 62
2
  6
CONTINUOUS
 70
0
 71
3
 72
11
 73
7
 74
0
 42
0.0000001
 43
0.0000001
 44
0.0000000001
 40
0.0
 40
0.0
 40
0.0
 40
0.0
 40
0.249992243
 40
0.4999809194
 40
0.7499958856
 40
1.0
 40
1.0
 40
1.0
 40
1.0
 10
4.2731730046
 20
3.311856603
 30
0.0
 10
4.272812682
 20
3.3111373553
 30
0.0
 10
4.2721687346
 20
3.3096589318
 30
0.0
 10
4.2714469974
 20
3.3073513404
 30
0.0
 10
4.2709697194
 20
3.30498139
 30
0.0
 10
4.2708079876
 20
3.3033777293
 30
0.0
 10
4.270763403
 20
3.3025744714
 30
0.0
  0
SPLINE
  5
384
100
AcDbEntity
  8
0
100
AcDbSpline
 62
2
  6
CONTINUOUS
 70
0
 71
3
 72
11
 73
7
 74
0
 42
0.0000001
 43
0.0000001
 44
0.0000000001
 40
0.0
 40
0.0
 40
0.0
 40
0.0
 40
0.2500377802
 40
0.5000383889
 40
0.7500293903
 40
1.0
 40
1.0
 40
1.0
 40
1.0
 10
4.2802377801
 20
3.2802504548
 30
0.0
 10
4.2809298242
 20
3.2795228027
 30
0.0
 10
4.2823625517
 20
3.2781127825
 30
0.0
 10
4.2846684858
 20
3.2761693493
 30
0.0
 10
4.2871393227
 20
3.2744393082
 30
0.0
 10
4.2888978902
 20
3.2734602576
 30
0.0
 10
4.2898017901
 20
3.2730234214
 30
0.0
  0
SPLINE
  5
385
100
AcDbEntity
  8
0
100
AcDbSpline
 62
2
  6
CONTINUOUS
 70
0
 71
3
 72
13
 73
9
 74
0
 42
0.0000001
 43
0.0000001
 44
0.0000000001
 40
0.0
 40
0.0
 40
0.0
 40
0.0
 40
0.1250197889
 40
0.2500411502
 40
0.3750662907
 40
0.5000929744
 40
0.7500236963
 40
1.0
 40
1.0
 40
1.0
 40
1.0
 10
4.2940537001
 20
3.2819173188
 30
0.0
 10
4.2936370932
 20
3.2820520547
 30
0.0
 10
4.2928153277
 20
3.2823584567
 30
0.0
 10
4.2916270286
 20
3.2829217168
 30
0.0
 10
4.290488562
 20
3.2835798757
 30
0.0
 10
4.2890424502
 20
3.2845698204
 30
0.0
 10
4.2873707013
 20
3.2859925057
 30
0.0
 10
4.2861736919
 20
3.287274757
 30
0.0
 10
4.2856063771
 20
3.2879415601
 30
0.0
  0
SPLINE
  5
386
100
AcDbEntity
  8
0
100
AcDbSpline
 62
2
  6
CONTINUOUS
 70
0
 71
3
 72
14
 73
10
 74
0
 42
0.0000001
 43
0.0000001
 44
0.0000000001
 40
0.0
 40
0.0
 40
0.0
 40
0.0
 40
0.1250144884
 40
0.250027204
 40
0.3750406778
 40
0.5000550348
 40
0.6250646069
 40
0.7500819715
 40
1.0
 40
1.0
 40
1.0
 40
1.0
 10
4.2819246526
 20
3.3040119773
 30
0.0
 10
4.2820320671
 20
3.3043497725
 30
0.0
 10
4.2822718467
 20
3.3050177343
 30
0.0
 10
4.282705802
 20
3.3059895926
 30
0.0
 10
4.283211685
 20
3.3069260852
 30
0.0
 10
4.2837858305
 20
3.3078222529
 30
0.0
 10
4.2844230904
 20
3.3086747036
 30
0.0
 10
4.2853487112
 20
3.3097493845
 30
0.0
 10
4.2861205158
 20
3.3104855614
 30
0.0
 10
4.286660221
 20
3.3109447415
 30
0.0
  0
SPLINE
  5
387
100
AcDbEntity
  8
0
100
AcDbSpline
 62
2
  6
CONTINUOUS
 70
0
 71
3
 72
12
 73
8
 74
0
 42
0.0000001
 43
0.0000001
 44
0.0000000001
 40
0.0
 40
0.0
 40
0.0
 40
0.0
 40
0.1250251903
 40
0.2500764188
 40
0.5000005272
 40
0.7499874145
 40
1.0
 40
1.0
 40
1.0
 40
1.0
 10
4.286660221
 20
3.3109447415
 30
0.0
 10
4.2869791107
 20
3.3112160522
 30
0.0
 10
4.2876409781
 20
3.3117311523
 30
0.0
 10
4.2890433716
 20
3.3126487031
 30
0.0
 10
4.2909207217
 20
3.3135910443
 30
0.0
 10
4.2932938524
 20
3.3144277035
 30
0.0
 10
4.294924319
 20
3.3148208547
 30
0.0
 10
4.295745706
 20
3.3149830642
 30
0.0
  0
LINE
  5
388
100
AcDbEntity
  8
0
100
AcDbLine
 62
2
  6
CONTINUOUS
 10
4.3436021347
 20
3.3103844521
 11
4.3472585697
 21
3.3102621535
  0
LINE
  5
389
100
AcDbEntity
  8
0
100
AcDbLine
 62
2
  6
CONTINUOUS
 10
4.3480058738
 20
3.229365848
 11
4.3543865472
 21
3.2267083847
  0
SPLINE
  5
38A
100
AcDbEntity
  8
0
100
AcDbSpline
 62
2
  6
CONTINUOUS
 70
0
 71
3
 72
9
 73
5
 74
0
 42
0.0000001
 43
0.0000001
 44
0.0000000001
 40
0.0
 40
0.0
 40
0.0
 40
0.0
 40
0.4999879939
 40
1.0
 40
1.0
 40
1.0
 40
1.0
 10
4.3627301398
 20
3.2337442754
 30
0.0
 10
4.3617575656
 20
3.2343026306
 30
0.0
 10
4.3597638435
 20
3.2353354392
 30
0.0
 10
4.3577134391
 20
3.236246834
 30
0.0
 10
4.3566789612
 20
3.2366800052
 30
0.0
  0
ENDSEC
  0
SECTION
  2
OBJECTS
  0
DICTIONARY
  5
C
100
AcDbDictionary
280
0
281
1
  3
ACAD_GROUP
350
D
  3
ACAD_MLINESTYLE
350
17
  3
ACAD_LAYOUT
350
1A
  3
ACAD_PLOTSETTINGS
350
19
  3
ACAD_PLOTSTYLENAME
350
E
  0
DICTIONARY
  5
D
102
{ACAD_REACTORS
330
C
102
}
100
AcDbDictionary
280
0
281
1
  0
ACDBDICTIONARYWDFLT
  5
E
102
{ACAD_REACTORS
330
C
102
}
100
AcDbDictionary
281
1
  3
Normal
350
F
100
AcDbDictionaryWithDefault
340
F
  0
DICTIONARY
  5
17
102
{ACAD_REACTORS
330
C
102
}
100
AcDbDictionary
280
0
281
1
  3
Standard
350
18
  0
DICTIONARY
  5
19
102
{ACAD_REACTORS
330
C
102
}
100
AcDbDictionary
281
1
  0
DICTIONARY
  5
1A
102
{ACAD_REACTORS
330
C
102
}
100
AcDbDictionary
281
1
  3
Model
350
38B
  3
Layout1
350
38C
  0
ACDBPLACEHOLDER
  5
F
102
{ACAD_REACTORS
330
E
102
}
  0
MLINESTYLE
  5
18
102
{ACAD_REACTORS
330
17
102
}
100
AcDbMlineStyle
  2
STANDARD
 70
0
  3

 62
256
 51
90.0
 52
90.0
 71
2
 49
0.5
 62
256
  6
BYLAYER
 49
-0.5
 62
256
  6
BYLAYER
  0
LAYOUT
  5
38B
102
{ACAD_REACTORS
330
1A
102
}
100
AcDbPlotSettings
  1

  2
none_device
  4
ANSI_A_(11.00_x_8.50_Inches)
  6

 40
0.0
 41
0.0
 42
0.0
 43
0.0
 44
279.4
 45
215.9
 46
0.0
 47
0.0
 48
0.0
 49
0.0
140
0.0
141
0.0
142
1.0
143
1.0
 70
1024
 72
0
 73
0
 74
0
  7

 75
0
147
1.0
148
0.0
149
0.0
100
AcDbLayout
  1
Model
 70
0
 71
0
 10
0.0
 20
0.0
 11
11.0
 21
8.5
 12
0.0
 22
0.0
 32
0.0
 14
0.0
 24
0.0
 34
0.0
 15
0.0
 25
0.0
 35
0.0
146
0.0
 13
0.0
 23
0.0
 33
0.0
 16
1.0
 26
0.0
 36
0.0
 17
0.0
 27
1.0
 37
0.0
 76
0
330
21D
345
0
346
0
  0
LAYOUT
  5
38C
102
{ACAD_REACTORS
330
1A
102
}
100
AcDbPlotSettings
  1

  2
none_device
  4
ANSI_A_(11.00_x_8.50_Inches)
  6

 40
0.0
 41
0.0
 42
0.0
 43
0.0
 44
279.4
 45
215.9
 46
0.0
 47
0.0
 48
0.0
 49
0.0
140
0.0
141
0.0
142
1.0
143
1.0
 70
0
 72
0
 73
0
 74
0
  7

 75
0
147
1.0
148
0.0
149
0.0
100
AcDbLayout
  1
Layout1
 70
0
 71
1
 10
0.0
 20
0.0
 11
11.0
 21
8.5
 12
0.0
 22
0.0
 32
0.0
 14
0.0
 24
0.0
 34
0.0
 15
0.0
 25
0.0
 35
0.0
146
0.0
 13
0.0
 23
0.0
 33
0.0
 16
1.0
 26
0.0
 36
0.0
 17
0.0
 27
1.0
 37
0.0
 76
0
330
21E
345
0
346
0
  0
ENDSEC
  0
EOF
