999
DXF file: 3-2903tr_TOP.dxf
999
Pro/ENGINEER 2013150 by Parametric Technology Corporation
  0
SECTION
  2
HEADER
  9
$ACADVER
  1
AC1021
  9
$DWGCODEPAGE
  3
ANSI_1252
  9
$EXTMAX
 10
11.0
 20
8.5
 30
0.0
  9
$EXTMIN
 10
0.0
 20
0.0
 30
0.0
  9
$LIMMIN
 10
0.0
 20
0.0
  9
$LIMMAX
 10
11.0
 20
8.5
  9
$VIEWCTR
 10
5.5
 20
4.25
  9
$VIEWSIZE
 40
8.5
  9
$CLAYER
  8
0
  9
$LTSCALE
 40
0.605
  9
$CELTYPE
  6
BYLAYER
  9
$DIMSCALE
 40
1.0
  9
$DIMASZ
 40
0.1
  9
$DIMEXO
 40
0.0625
  9
$DIMDLI
 40
0.418
  9
$DIMEXE
 40
0.125
  9
$DIMCEN
 40
0.099
  9
$DIMLFAC
 40
1.0
  9
$DIMBLK
  1
_FILLED
  9
$DIMTXT
 40
0.08
  9
$DIMTOL
 70
1
  9
$DIMLIM
 70
0
  9
$DIMTFAC
 40
1.0
  9
$DIMTP
 40
0.001
  9
$DIMTM
 40
0.001
  9
$DIMGAP
 40
0.09
  9
$DIMDSEP
 70
46
  9
$PDMODE
 70
3
  9
$PDSIZE
 40
0.06
  9
$HANDSEED
  5
2C8
  9
$TILEMODE
 70
1
  9
$MEASUREMENT
 70
0
  9
$INSUNITS
 70
1
  0
ENDSEC
  0
SECTION
  2
CLASSES
  0
CLASS
  1
ACDBDICTIONARYWDFLT
  2
AcDbDictionaryWithDefault
  3
AutoCAD 2000
 90
0
 91
1
280
0
281
0
  0
CLASS
  1
ACDBPLACEHOLDER
  2
AcDbPlaceHolder
  3
AutoCAD 2000
 90
0
 91
1
280
0
281
0
  0
CLASS
  1
LAYOUT
  2
AcDbLayout
  3
AutoCAD 2000
 90
0
 91
0
280
0
281
0
  0
ENDSEC
  0
SECTION
  2
TABLES
  0
TABLE
  2
VPORT
  5
8
100
AcDbSymbolTable
 70
2
  0
VPORT
  5
1F4
100
AcDbSymbolTableRecord
100
AcDbViewportTableRecord
  2
*ACTIVE
 70
0
 10
0.0
 20
0.0
 11
1.0
 21
1.0
 12
5.5
 22
4.25
 13
0.0
 23
0.0
 14
1.0
 24
1.0
 15
0.0
 25
0.0
 16
0.0
 26
0.0
 36
1.0
 17
0.0
 27
0.0
 37
0.0
 40
8.5
 41
1.2941176471
 42
50.0
 43
0.0
 44
0.0
 50
0.0
 51
0.0
 71
0
 72
100
 73
1
 74
1
 75
0
 76
0
 77
0
 78
0
  0
ENDTAB
  0
TABLE
  2
LTYPE
  5
5
100
AcDbSymbolTable
 70
6
  0
LTYPE
  5
14
100
AcDbSymbolTableRecord
100
AcDbLinetypeTableRecord
  2
BYBLOCK
 70
0
  3

 72
65
 73
0
 40
0.0
  0
LTYPE
  5
15
100
AcDbSymbolTableRecord
100
AcDbLinetypeTableRecord
  2
BYLAYER
 70
0
  3

 72
65
 73
0
 40
0.0
  0
LTYPE
  5
16
100
AcDbSymbolTableRecord
100
AcDbLinetypeTableRecord
  2
CONTINUOUS
 70
64
  3
Solid line
 72
65
 73
0
 40
0.0
  0
LTYPE
  5
1F5
100
AcDbSymbolTableRecord
100
AcDbLinetypeTableRecord
  2
CENTER
 70
64
  3
____ _ ____ _ ____ _ ____ _ ____ _ ____ _ ____
 72
65
 73
4
 40
0.6
 49
0.375
 74
0
 49
-0.075
 74
0
 49
0.075
 74
0
 49
-0.075
 74
0
  0
LTYPE
  5
1F6
100
AcDbSymbolTableRecord
100
AcDbLinetypeTableRecord
  2
HIDDEN
 70
64
  3
- - - - - - - - - - - - - - - - - - - -
 72
65
 73
2
 40
0.2
 49
0.1
 74
0
 49
-0.1
 74
0
  0
LTYPE
  5
1F7
100
AcDbSymbolTableRecord
100
AcDbLinetypeTableRecord
  2
PHANTOM
 70
64
  3
_____ _ _ _____ _ _ _____ _ _ _____
 72
65
 73
6
 40
0.8
 49
0.45
 74
0
 49
-0.05
 74
0
 49
0.1
 74
0
 49
-0.05
 74
0
 49
0.1
 74
0
 49
-0.05
 74
0
  0
LTYPE
  5
1F8
100
AcDbSymbolTableRecord
100
AcDbLinetypeTableRecord
  2
DOT
 70
64
  3
. . . . . . . . . . . . . . . . . . . .
 72
65
 73
2
 40
0.2
 49
0.1
 74
0
 49
-0.1
 74
0
  0
LTYPE
  5
1F9
100
AcDbSymbolTableRecord
100
AcDbLinetypeTableRecord
  2
DASHED
 70
64
  3
- - - - - - - - - - - - - - - - - - - -
 72
65
 73
2
 40
0.2
 49
0.1
 74
0
 49
-0.1
 74
0
  0
ENDTAB
  0
TABLE
  2
LAYER
  5
2
100
AcDbSymbolTable
 70
36
  0
LAYER
  5
10
100
AcDbSymbolTableRecord
100
AcDbLayerTableRecord
  2
0
 70
0
 62
7
  6
CONTINUOUS
370
-3
390
F
  0
LAYER
  5
1FA
100
AcDbSymbolTableRecord
100
AcDbLayerTableRecord
  2
DEFAULT_1
 70
0
 62
7
  6
CENTER
370
-3
390
F
  0
LAYER
  5
1FB
100
AcDbSymbolTableRecord
100
AcDbLayerTableRecord
  2
DEFAULT_2
 70
0
 62
8
  6
HIDDEN
370
-3
390
F
  0
LAYER
  5
1FC
100
AcDbSymbolTableRecord
100
AcDbLayerTableRecord
  2
DEFAULT_3
 70
0
 62
7
  6
PHANTOM
370
-3
390
F
  0
LAYER
  5
1FD
100
AcDbSymbolTableRecord
100
AcDbLayerTableRecord
  2
ALL_FEATURES
 70
0
 62
7
  6
CONTINUOUS
370
-3
390
F
  0
LAYER
  5
1FE
100
AcDbSymbolTableRecord
100
AcDbLayerTableRecord
  2
AXES_FEATURES
 70
0
 62
7
  6
CONTINUOUS
370
-3
390
F
  0
LAYER
  5
1FF
100
AcDbSymbolTableRecord
100
AcDbLayerTableRecord
  2
CHAMFER_FEATURES
 70
0
 62
7
  6
CONTINUOUS
370
-3
390
F
  0
LAYER
  5
200
100
AcDbSymbolTableRecord
100
AcDbLayerTableRecord
  2
COORDINATE_SYSTEMS
 70
0
 62
7
  6
CONTINUOUS
370
-3
390
F
  0
LAYER
  5
201
100
AcDbSymbolTableRecord
100
AcDbLayerTableRecord
  2
CUT_FEATURES
 70
0
 62
7
  6
CONTINUOUS
370
-3
390
F
  0
LAYER
  5
202
100
AcDbSymbolTableRecord
100
AcDbLayerTableRecord
  2
DATUM_CURVES
 70
0
 62
7
  6
CONTINUOUS
370
-3
390
F
  0
LAYER
  5
203
100
AcDbSymbolTableRecord
100
AcDbLayerTableRecord
  2
DATUM_PLANES
 70
0
 62
7
  6
CONTINUOUS
370
-3
390
F
  0
LAYER
  5
204
100
AcDbSymbolTableRecord
100
AcDbLayerTableRecord
  2
DATUM_POINTS
 70
0
 62
7
  6
CONTINUOUS
370
-3
390
F
  0
LAYER
  5
205
100
AcDbSymbolTableRecord
100
AcDbLayerTableRecord
  2
DEFAULT_COORDINATE_SYSTEM
 70
0
 62
7
  6
CONTINUOUS
370
-3
390
F
  0
LAYER
  5
206
100
AcDbSymbolTableRecord
100
AcDbLayerTableRecord
  2
DEFAULT_DATUM_AXES
 70
0
 62
7
  6
CONTINUOUS
370
-3
390
F
  0
LAYER
  5
207
100
AcDbSymbolTableRecord
100
AcDbLayerTableRecord
  2
DEFAULT_DATUM_CURVES
 70
0
 62
7
  6
CONTINUOUS
370
-3
390
F
  0
LAYER
  5
208
100
AcDbSymbolTableRecord
100
AcDbLayerTableRecord
  2
DEFAULT_DATUM_PLANES
 70
0
 62
7
  6
CONTINUOUS
370
-3
390
F
  0
LAYER
  5
209
100
AcDbSymbolTableRecord
100
AcDbLayerTableRecord
  2
DEFAULT_SURFACES
 70
0
 62
7
  6
CONTINUOUS
370
-3
390
F
  0
LAYER
  5
20A
100
AcDbSymbolTableRecord
100
AcDbLayerTableRecord
  2
DIMENSIONS
 70
0
 62
7
  6
CONTINUOUS
370
-3
390
F
  0
LAYER
  5
20B
100
AcDbSymbolTableRecord
100
AcDbLayerTableRecord
  2
HOLE_FEATURES
 70
0
 62
7
  6
CONTINUOUS
370
-3
390
F
  0
LAYER
  5
20C
100
AcDbSymbolTableRecord
100
AcDbLayerTableRecord
  2
IMPORT_FEATURE
 70
0
 62
7
  6
CONTINUOUS
370
-3
390
F
  0
LAYER
  5
20D
100
AcDbSymbolTableRecord
100
AcDbLayerTableRecord
  2
INTFCLR_1
 70
0
 62
7
  6
CONTINUOUS
370
-3
390
F
  0
LAYER
  5
20E
100
AcDbSymbolTableRecord
100
AcDbLayerTableRecord
  2
NOTES
 70
0
 62
7
  6
CONTINUOUS
370
-3
390
F
  0
LAYER
  5
20F
100
AcDbSymbolTableRecord
100
AcDbLayerTableRecord
  2
PART_REFERENCE_DIMENSIONS
 70
0
 62
7
  6
CONTINUOUS
370
-3
390
F
  0
LAYER
  5
210
100
AcDbSymbolTableRecord
100
AcDbLayerTableRecord
  2
PLATED_SURFACES
 70
0
 62
7
  6
CONTINUOUS
370
-3
390
F
  0
LAYER
  5
211
100
AcDbSymbolTableRecord
100
AcDbLayerTableRecord
  2
PLATED_SURFACE_AREA
 70
0
 62
7
  6
CONTINUOUS
370
-3
390
F
  0
LAYER
  5
212
100
AcDbSymbolTableRecord
100
AcDbLayerTableRecord
  2
POINTS
 70
0
 62
7
  6
CONTINUOUS
370
-3
390
F
  0
LAYER
  5
213
100
AcDbSymbolTableRecord
100
AcDbLayerTableRecord
  2
PROTRUSION
 70
0
 62
7
  6
CONTINUOUS
370
-3
390
F
  0
LAYER
  5
214
100
AcDbSymbolTableRecord
100
AcDbLayerTableRecord
  2
PROTRUSION_FEATURES
 70
0
 62
7
  6
CONTINUOUS
370
-3
390
F
  0
LAYER
  5
215
100
AcDbSymbolTableRecord
100
AcDbLayerTableRecord
  2
QUILTS
 70
0
 62
7
  6
CONTINUOUS
370
-3
390
F
  0
LAYER
  5
216
100
AcDbSymbolTableRecord
100
AcDbLayerTableRecord
  2
REFERENCE_DIMENSIONS
 70
0
 62
7
  6
CONTINUOUS
370
-3
390
F
  0
LAYER
  5
217
100
AcDbSymbolTableRecord
100
AcDbLayerTableRecord
  2
ROUND_FEATURES
 70
0
 62
7
  6
CONTINUOUS
370
-3
390
F
  0
LAYER
  5
218
100
AcDbSymbolTableRecord
100
AcDbLayerTableRecord
  2
SHELL_FEATURES
 70
0
 62
7
  6
CONTINUOUS
370
-3
390
F
  0
LAYER
  5
219
100
AcDbSymbolTableRecord
100
AcDbLayerTableRecord
  2
SIZE_REF
 70
0
 62
7
  6
CONTINUOUS
370
-3
390
F
  0
LAYER
  5
21A
100
AcDbSymbolTableRecord
100
AcDbLayerTableRecord
  2
SURFACE_FEATURES
 70
0
 62
7
  6
CONTINUOUS
370
-3
390
F
  0
ENDTAB
  0
TABLE
  2
STYLE
  5
3
100
AcDbSymbolTable
 70
1
  0
STYLE
  5
11
100
AcDbSymbolTableRecord
100
AcDbTextStyleTableRecord
  2
STANDARD
 70
0
 40
0.0
 41
0.8
 50
0.0
 71
0
 42
0.2
  3
txt
  4

  0
STYLE
  5
21B
100
AcDbSymbolTableRecord
100
AcDbTextStyleTableRecord
  2
TEXTSTYLE_1
 70
0
 40
0.0
 41
0.8
 50
0.0
 71
0
 42
0.2
  3
gdt
  4

  0
ENDTAB
  0
TABLE
  2
VIEW
  5
6
100
AcDbSymbolTable
 70
0
  0
ENDTAB
  0
TABLE
  2
UCS
  5
7
100
AcDbSymbolTable
 70
0
  0
ENDTAB
  0
TABLE
  2
APPID
  5
9
100
AcDbSymbolTable
 70
1
  0
APPID
  5
21C
100
AcDbSymbolTableRecord
100
AcDbRegAppTableRecord
  2
ACAD
 70
0
  0
ENDTAB
  0
TABLE
  2
BLOCK_RECORD
  5
1
100
AcDbSymbolTable
 70
0
  0
BLOCK_RECORD
  5
21D
100
AcDbSymbolTableRecord
100
AcDbBlockTableRecord
  2
*Model_Space
  0
BLOCK_RECORD
  5
21E
100
AcDbSymbolTableRecord
100
AcDbBlockTableRecord
  2
*Paper_Space
  0
ENDTAB
  0
TABLE
  2
DIMSTYLE
  5
A
100
AcDbSymbolTable
 70
1
100
AcDbDimStyleTable
 71
0
  0
DIMSTYLE
105
21F
100
AcDbSymbolTableRecord
100
AcDbDimStyleTableRecord
  2
STANDARD
 70
0
  3

  4

 40
1.0
 41
0.1
 42
0.0625
 43
0.38
 44
0.125
 45
0.0
 46
0.0
 47
0.001
 48
0.001
140
0.08
141
0.09
142
0.0
143
25.4
144
1.0
145
0.0
146
1.0
147
0.09
 71
1.0
 72
0.0
 73
1
 74
1
 75
0
 76
0
 77
0
 78
4
170
0
171
2
172
0
173
0
174
0
175
0
176
0
177
0
178
0
270
2
271
3
272
3
273
2
274
2
275
0
280
0
281
0
282
0
283
1
284
4
285
0
286
0
287
3
288
0
340
11
278
46
  0
ENDTAB
  0
ENDSEC
  0
SECTION
  2
BLOCKS
  0
BLOCK
  5
20
100
AcDbEntity
  8
0
100
AcDbBlockBegin
  2
*Model_Space
 70
0
 10
0.0
 20
0.0
 30
0.0
  3
*Model_Space
  1

  0
ENDBLK
  5
21
100
AcDbEntity
  8
0
100
AcDbBlockEnd
  0
BLOCK
  5
1C
100
AcDbEntity
  8
0
100
AcDbBlockBegin
  2
*Paper_Space
 70
0
 10
0.0
 20
0.0
 30
0.0
  3
*Paper_Space
  1

  0
ENDBLK
  5
1D
100
AcDbEntity
  8
0
100
AcDbBlockEnd
  0
ENDSEC
  0
SECTION
  2
ENTITIES
  0
LINE
  5
220
100
AcDbEntity
  8
0
100
AcDbLine
 62
7
  6
CONTINUOUS
 10
0.0
 20
0.0
 11
0.0
 21
8.5
  0
LINE
  5
221
100
AcDbEntity
  8
0
100
AcDbLine
 62
7
  6
CONTINUOUS
 10
0.0
 20
0.0
 11
11.0
 21
0.0
  0
LINE
  5
222
100
AcDbEntity
  8
0
100
AcDbLine
 62
7
  6
CONTINUOUS
 10
0.0
 20
8.5
 11
11.0
 21
8.5
  0
LINE
  5
223
100
AcDbEntity
  8
0
100
AcDbLine
 62
7
  6
CONTINUOUS
 10
11.0
 20
0.0
 11
11.0
 21
8.5
  0
LINE
  5
224
100
AcDbEntity
  8
ALL_FEATURES
100
AcDbLine
 62
7
  6
CONTINUOUS
 10
2.9741044975
 20
5.1240563979
 11
2.9741044975
 21
5.0365563979
  0
LWPOLYLINE
  5
225
100
AcDbEntity
  8
0
100
AcDbPolyline
 62
7
  6
CONTINUOUS
 90
27
 70
0
 10
4.9805040164
 20
3.3746110125
 10
4.9813543649
 20
3.3746939229
 10
4.9828240187
 20
3.3749396346
 10
4.9842679647
 20
3.3753107096
 10
4.9856747909
 20
3.3758032778
 10
4.9870336728
 20
3.3764136471
 10
4.9883342665
 20
3.3771385362
 10
4.9895656929
 20
3.3779746554
 10
4.9907163081
 20
3.3789182347
 10
4.9917762997
 20
3.3799633607
 10
4.9927398828
 20
3.3811000911
 10
4.993601709
 20
3.3823179148
 10
4.9943562212
 20
3.3836059145
 10
4.9949980097
 20
3.3849531191
 10
4.9955220833
 20
3.3863493477
 10
4.9959234118
 20
3.3877848899
 10
4.9961966114
 20
3.3892496665
 10
4.9963361259
 20
3.3907327611
 10
4.9963395195
 20
3.3922230173
 10
4.996209875
 20
3.3937092675
 10
4.9959508556
 20
3.3951802607
 10
4.9955662593
 20
3.396624334
 10
4.9950600188
 20
3.3980298883
 10
4.9944358138
 20
3.3993861329
 10
4.9936969813
 20
3.4006825636
 10
4.9928469451
 20
3.4019080942
 10
4.9918152588
 20
3.4031313781
  0
LINE
  5
226
100
AcDbEntity
  8
0
100
AcDbLine
 62
9
  6
CONTINUOUS
 10
4.5836385656
 20
3.3651724646
 11
4.9078704294
 21
3.3651724646
  0
LINE
  5
227
100
AcDbEntity
  8
0
100
AcDbLine
 62
9
  6
CONTINUOUS
 10
4.5110049786
 20
3.3746110125
 11
4.9805040164
 21
3.3746110125
  0
LINE
  5
228
100
AcDbEntity
  8
0
100
AcDbLine
 62
9
  6
CONTINUOUS
 10
4.9918152588
 20
3.4031313781
 11
4.790047457
 21
3.4031313782
  0
LINE
  5
229
100
AcDbEntity
  8
0
100
AcDbLine
 62
9
  6
CONTINUOUS
 10
4.7014615388
 20
3.403131378
 11
4.4996937362
 21
3.4031313781
  0
LINE
  5
22A
100
AcDbEntity
  8
0
100
AcDbLine
 62
9
  6
CONTINUOUS
 10
4.9785430294
 20
3.4334058883
 11
4.8509137284
 21
3.4334058883
  0
LINE
  5
22B
100
AcDbEntity
  8
0
100
AcDbLine
 62
9
  6
CONTINUOUS
 10
4.6405952666
 20
3.4334058884
 11
4.5129659657
 21
3.4334058883
  0
LINE
  5
22C
100
AcDbEntity
  8
0
100
AcDbLine
 62
7
  6
CONTINUOUS
 10
4.1693981677
 20
3.4260130908
 11
4.5212530818
 21
3.4720379859
  0
LWPOLYLINE
  5
22D
100
AcDbEntity
  8
0
100
AcDbPolyline
 62
7
  6
CONTINUOUS
 90
27
 70
0
 10
4.9805040164
 20
3.5581110125
 10
4.9813543649
 20
3.5581939229
 10
4.9828240187
 20
3.5584396346
 10
4.9842679647
 20
3.5588107096
 10
4.9856747909
 20
3.5593032778
 10
4.9870336728
 20
3.5599136471
 10
4.9883342665
 20
3.5606385362
 10
4.9895656929
 20
3.5614746554
 10
4.9907163081
 20
3.5624182347
 10
4.9917762997
 20
3.5634633607
 10
4.9927398828
 20
3.5646000911
 10
4.993601709
 20
3.5658179148
 10
4.9943562212
 20
3.5671059145
 10
4.9949980097
 20
3.5684531191
 10
4.9955220833
 20
3.5698493477
 10
4.9959234118
 20
3.5712848899
 10
4.9961966114
 20
3.5727496665
 10
4.9963361259
 20
3.5742327611
 10
4.9963395195
 20
3.5757230173
 10
4.996209875
 20
3.5772092675
 10
4.9959508556
 20
3.5786802607
 10
4.9955662593
 20
3.580124334
 10
4.9950600188
 20
3.5815298883
 10
4.9944358138
 20
3.5828861329
 10
4.9936969813
 20
3.5841825636
 10
4.9928469451
 20
3.5854080942
 10
4.9918152588
 20
3.5866313781
  0
LINE
  5
22E
100
AcDbEntity
  8
0
100
AcDbLine
 62
9
  6
CONTINUOUS
 10
4.9626067989
 20
3.4850046033
 11
4.8952139392
 21
3.4850046033
  0
LINE
  5
22F
100
AcDbEntity
  8
0
100
AcDbLine
 62
9
  6
CONTINUOUS
 10
4.5289021962
 20
3.4850046033
 11
4.5962950558
 21
3.4850046033
  0
LINE
  5
230
100
AcDbEntity
  8
0
100
AcDbLine
 62
9
  6
CONTINUOUS
 10
4.5836385656
 20
3.5486724646
 11
4.9078704294
 21
3.5486724646
  0
LINE
  5
231
100
AcDbEntity
  8
0
100
AcDbLine
 62
9
  6
CONTINUOUS
 10
4.5110049786
 20
3.5581110125
 11
4.9805040164
 21
3.5581110125
  0
LINE
  5
232
100
AcDbEntity
  8
0
100
AcDbLine
 62
7
  6
CONTINUOUS
 10
5.3221108274
 20
3.4260130908
 11
4.9702559192
 21
3.4720379852
  0
LINE
  5
233
100
AcDbEntity
  8
0
100
AcDbLine
 62
7
  6
CONTINUOUS
 10
4.1693981677
 20
3.6095130908
 11
4.5212530818
 21
3.6555379859
  0
LINE
  5
234
100
AcDbEntity
  8
0
100
AcDbLine
 62
9
  6
CONTINUOUS
 10
4.9918152588
 20
3.5866313781
 11
4.790047457
 21
3.5866313782
  0
LINE
  5
235
100
AcDbEntity
  8
0
100
AcDbLine
 62
9
  6
CONTINUOUS
 10
4.7014615388
 20
3.586631378
 11
4.4996937362
 21
3.5866313781
  0
LINE
  5
236
100
AcDbEntity
  8
0
100
AcDbLine
 62
9
  6
CONTINUOUS
 10
4.9785430294
 20
3.6169058883
 11
4.8509137284
 21
3.6169058883
  0
LINE
  5
237
100
AcDbEntity
  8
0
100
AcDbLine
 62
9
  6
CONTINUOUS
 10
4.6405952666
 20
3.6169058884
 11
4.5129659657
 21
3.6169058883
  0
LINE
  5
238
100
AcDbEntity
  8
0
100
AcDbLine
 62
9
  6
CONTINUOUS
 10
4.5962950558
 20
3.6685046033
 11
4.5289021962
 21
3.6685046033
  0
LINE
  5
239
100
AcDbEntity
  8
0
100
AcDbLine
 62
9
  6
CONTINUOUS
 10
4.8952139392
 20
3.6685046033
 11
4.9626067989
 21
3.6685046033
  0
LINE
  5
23A
100
AcDbEntity
  8
0
100
AcDbLine
 62
7
  6
CONTINUOUS
 10
5.3221108274
 20
3.6095130908
 11
4.9702559192
 21
3.6555379852
  0
LINE
  5
23B
100
AcDbEntity
  8
ALL_FEATURES
100
AcDbLine
 62
7
  6
CONTINUOUS
 10
4.0710095021
 20
4.9403181674
 11
4.0716778594
 21
4.9147946284
  0
LINE
  5
23C
100
AcDbEntity
  8
0
100
AcDbLine
 62
7
  6
CONTINUOUS
 10
4.0716778594
 20
4.9147946284
 11
4.0710095021
 21
4.9403181674
  0
LINE
  5
23D
100
AcDbEntity
  8
0
100
AcDbLine
 62
9
  6
CONTINUOUS
 10
4.1394444767
 20
3.411085327
 11
4.1394444767
 21
3.9094408546
  0
LINE
  5
23E
100
AcDbEntity
  8
0
100
AcDbLine
 62
7
  6
CONTINUOUS
 10
4.1693981677
 20
3.4122630908
 11
4.1693981677
 21
3.9082630908
  0
LINE
  5
23F
100
AcDbEntity
  8
0
100
AcDbLine
 62
7
  6
CONTINUOUS
 10
5.3221108274
 20
3.8945130908
 11
4.9338089743
 21
3.8437207007
  0
LINE
  5
240
100
AcDbEntity
  8
0
100
AcDbLine
 62
7
  6
CONTINUOUS
 10
4.1693981677
 20
3.8945130908
 11
4.5577000207
 21
3.8437207007
  0
LINE
  5
241
100
AcDbEntity
  8
ALL_FEATURES
100
AcDbLine
 62
7
  6
CONTINUOUS
 10
4.3322544975
 20
4.0934601946
 11
4.3322544975
 21
4.3690563979
  0
LINE
  5
242
100
AcDbEntity
  8
0
100
AcDbLine
 62
7
  6
CONTINUOUS
 10
4.3323694975
 20
4.9500563979
 11
4.3323694975
 21
4.3690563979
  0
LWPOLYLINE
  5
243
100
AcDbEntity
  8
0
100
AcDbPolyline
 62
7
  6
CONTINUOUS
 90
25
 70
0
 10
4.5847099928
 20
3.9705130908
 10
4.5833027795
 20
3.9704501805
 10
4.58190047
 20
3.970263287
 10
4.580513123
 20
3.9699552278
 10
4.5791511135
 20
3.9695289409
 10
4.5778248087
 20
3.9689873885
 10
4.5765446064
 20
3.9683334697
 10
4.5753208913
 20
3.96756987
 10
4.5741654953
 20
3.966700051
 10
4.5730910869
 20
3.9657284978
 10
4.5721082671
 20
3.9646600412
 10
4.5712231592
 20
3.9635033553
 10
4.5704414072
 20
3.9622693769
 10
4.5697681474
 20
3.9609686453
 10
4.5692084971
 20
3.9596116972
 10
4.5687678255
 20
3.9582098474
 10
4.568451209
 20
3.956773821
 10
4.5682638434
 20
3.9553147338
 10
4.5682108998
 20
3.9538447245
 10
4.5682951697
 20
3.9523748985
 10
4.5685133859
 20
3.9509165017
 10
4.568860851
 20
3.9494819451
 10
4.5693327382
 20
3.9480828018
 10
4.56992445
 20
3.9467298567
 10
4.570015231
 20
3.9465474478
  0
LINE
  5
244
100
AcDbEntity
  8
0
100
AcDbLine
 62
9
  6
CONTINUOUS
 10
4.5743626856
 20
3.9139315069
 11
4.6901481695
 21
3.9139315119
  0
LINE
  5
245
100
AcDbEntity
  8
0
100
AcDbLine
 62
9
  6
CONTINUOUS
 10
4.8013608255
 20
3.913931512
 11
4.9171463094
 21
3.9139315069
  0
LINE
  5
246
100
AcDbEntity
  8
0
100
AcDbLine
 62
9
  6
CONTINUOUS
 10
4.570015231
 20
3.9465474478
 11
4.921493764
 21
3.9465474478
  0
LINE
  5
247
100
AcDbEntity
  8
0
100
AcDbLine
 62
7
  6
CONTINUOUS
 10
4.9067990023
 20
3.9705130908
 11
4.5847099928
 21
3.9705130908
  0
LINE
  5
248
100
AcDbEntity
  8
0
100
AcDbLine
 62
7
  6
CONTINUOUS
 10
4.9073265997
 20
3.9955130908
 11
4.5841823954
 21
3.9955130908
  0
LINE
  5
249
100
AcDbEntity
  8
0
100
AcDbLine
 62
7
  6
CONTINUOUS
 10
4.3564205092
 20
4.0501092832
 11
4.3510780873
 21
4.0543701519
  0
LINE
  5
24A
100
AcDbEntity
  8
0
100
AcDbLine
 62
7
  6
CONTINUOUS
 10
4.3670487355
 20
4.0329411302
 11
4.3685412506
 21
4.0259760597
  0
LINE
  5
24B
100
AcDbEntity
  8
0
100
AcDbLine
 62
7
  6
CONTINUOUS
 10
4.4220044975
 20
4.2940563979
 11
4.4220044975
 21
4.2029088342
  0
LINE
  5
24C
100
AcDbEntity
  8
ALL_FEATURES
100
AcDbLine
 62
7
  6
CONTINUOUS
 10
4.4220044975
 20
4.2029088342
 11
4.4220044975
 21
4.2940563979
  0
LINE
  5
24D
100
AcDbEntity
  8
0
100
AcDbLine
 62
9
  6
CONTINUOUS
 10
4.3874946132
 20
3.9998083384
 11
4.571815888
 21
3.9998083379
  0
LINE
  5
24E
100
AcDbEntity
  8
0
100
AcDbLine
 62
9
  6
CONTINUOUS
 10
4.9196931049
 20
3.9998083363
 11
5.1040143819
 21
3.9998083384
  0
LINE
  5
24F
100
AcDbEntity
  8
0
100
AcDbLine
 62
9
  6
CONTINUOUS
 10
4.9257050557
 20
4.0076243424
 11
4.5658039393
 21
4.0076243424
  0
LINE
  5
250
100
AcDbEntity
  8
0
100
AcDbLine
 62
9
  6
CONTINUOUS
 10
4.3685412506
 20
4.0259760597
 11
4.5572654324
 21
4.0259760592
  0
LINE
  5
251
100
AcDbEntity
  8
0
100
AcDbLine
 62
9
  6
CONTINUOUS
 10
4.9342435619
 20
4.0259760578
 11
5.1229677444
 21
4.0259760597
  0
LINE
  5
252
100
AcDbEntity
  8
0
100
AcDbLine
 62
9
  6
CONTINUOUS
 10
5.1244602595
 20
4.0329411302
 11
4.9378005624
 21
4.0329411281
  0
LINE
  5
253
100
AcDbEntity
  8
0
100
AcDbLine
 62
9
  6
CONTINUOUS
 10
4.5537084321
 20
4.0329411293
 11
4.3670487355
 21
4.0329411302
  0
LINE
  5
254
100
AcDbEntity
  8
0
100
AcDbLine
 62
9
  6
CONTINUOUS
 10
5.1350884858
 20
4.0501092832
 11
4.947281255
 21
4.050109278
  0
LINE
  5
255
100
AcDbEntity
  8
0
100
AcDbLine
 62
9
  6
CONTINUOUS
 10
4.5442277386
 20
4.0501092809
 11
4.3564205092
 21
4.0501092832
  0
LINE
  5
256
100
AcDbEntity
  8
0
100
AcDbLine
 62
9
  6
CONTINUOUS
 10
5.1404309077
 20
4.0543701519
 11
4.9498324561
 21
4.0543701519
  0
LINE
  5
257
100
AcDbEntity
  8
0
100
AcDbLine
 62
9
  6
CONTINUOUS
 10
4.5416765388
 20
4.0543701519
 11
4.3510780873
 21
4.0543701519
  0
LINE
  5
258
100
AcDbEntity
  8
0
100
AcDbLine
 62
9
  6
CONTINUOUS
 10
4.3322544975
 20
4.0934601946
 11
4.5144608388
 21
4.0934601946
  0
LINE
  5
259
100
AcDbEntity
  8
0
100
AcDbLine
 62
9
  6
CONTINUOUS
 10
4.9770481555
 20
4.0934601944
 11
5.1592544975
 21
4.0934601946
  0
LINE
  5
25A
100
AcDbEntity
  8
0
100
AcDbLine
 62
9
  6
CONTINUOUS
 10
4.5577000207
 20
3.8437207007
 11
4.5577000207
 21
3.7285200563
  0
LINE
  5
25B
100
AcDbEntity
  8
0
100
AcDbLine
 62
9
  6
CONTINUOUS
 10
4.5577000207
 20
3.5530049864
 11
4.5577000207
 21
3.5450200563
  0
LINE
  5
25C
100
AcDbEntity
  8
0
100
AcDbLine
 62
9
  6
CONTINUOUS
 10
4.4424796948
 20
4.162556808
 11
5.0490293003
 21
4.162556808
  0
LINE
  5
25D
100
AcDbEntity
  8
0
100
AcDbLine
 62
9
  6
CONTINUOUS
 10
4.4220044975
 20
4.2029088342
 11
5.0695044975
 21
4.2029088342
  0
LINE
  5
25E
100
AcDbEntity
  8
0
100
AcDbLine
 62
7
  6
CONTINUOUS
 10
4.6532544975
 20
3.9955130908
 11
4.6532544975
 21
3.9705130908
  0
LINE
  5
25F
100
AcDbEntity
  8
0
100
AcDbLine
 62
9
  6
CONTINUOUS
 10
4.7457544975
 20
3.365172468
 11
4.7457544975
 21
3.3972630908
  0
LINE
  5
260
100
AcDbEntity
  8
0
100
AcDbLine
 62
9
  6
CONTINUOUS
 10
4.7457544975
 20
3.548672468
 11
4.7457544975
 21
3.5807630908
  0
LINE
  5
261
100
AcDbEntity
  8
0
100
AcDbLine
 62
9
  6
CONTINUOUS
 10
4.7457544975
 20
3.9232630908
 11
4.7457544975
 21
3.9705130908
  0
LINE
  5
262
100
AcDbEntity
  8
0
100
AcDbLine
 62
7
  6
CONTINUOUS
 10
4.5743626856
 20
3.9139315069
 11
4.5611577388
 21
3.8506914246
  0
LINE
  5
263
100
AcDbEntity
  8
0
100
AcDbLine
 62
7
  6
CONTINUOUS
 10
5.0841394975
 20
4.2940563979
 11
4.4073694975
 21
4.2940563979
  0
LINE
  5
264
100
AcDbEntity
  8
0
100
AcDbLine
 62
9
  6
CONTINUOUS
 10
5.1591394975
 20
4.3690563979
 11
4.3323694975
 21
4.3690563979
  0
LINE
  5
265
100
AcDbEntity
  8
0
100
AcDbLine
 62
7
  6
CONTINUOUS
 10
4.8382544975
 20
3.9955130908
 11
4.8382544975
 21
3.9705130908
  0
LINE
  5
266
100
AcDbEntity
  8
0
100
AcDbLine
 62
7
  6
CONTINUOUS
 10
4.9171463094
 20
3.9139315069
 11
4.9303512562
 21
3.8506914246
  0
LINE
  5
267
100
AcDbEntity
  8
0
100
AcDbLine
 62
9
  6
CONTINUOUS
 10
4.9338089743
 20
3.5450383692
 11
4.9338089743
 21
3.5530049864
  0
LINE
  5
268
100
AcDbEntity
  8
0
100
AcDbLine
 62
9
  6
CONTINUOUS
 10
4.9338089743
 20
3.7285383692
 11
4.9338089743
 21
3.8437207007
  0
LINE
  5
269
100
AcDbEntity
  8
ALL_FEATURES
100
AcDbLine
 62
7
  6
CONTINUOUS
 10
5.0695044975
 20
4.2029088342
 11
5.0695044975
 21
4.2940563979
  0
LINE
  5
26A
100
AcDbEntity
  8
0
100
AcDbLine
 62
7
  6
CONTINUOUS
 10
5.1591394975
 20
4.9500563979
 11
5.1591394975
 21
4.3690563979
  0
LINE
  5
26B
100
AcDbEntity
  8
ALL_FEATURES
100
AcDbLine
 62
7
  6
CONTINUOUS
 10
5.1592544975
 20
4.0934601946
 11
5.1592544975
 21
4.3690563979
  0
LWPOLYLINE
  5
26C
100
AcDbEntity
  8
0
100
AcDbPolyline
 62
7
  6
CONTINUOUS
 90
25
 70
0
 10
4.921493764
 20
3.9465474478
 10
4.9215845451
 20
3.9467298567
 10
4.9221762569
 20
3.9480828018
 10
4.922648144
 20
3.9494819451
 10
4.9229956092
 20
3.9509165017
 10
4.9232138254
 20
3.9523748985
 10
4.9232980952
 20
3.9538447245
 10
4.9232451516
 20
3.9553147338
 10
4.923057786
 20
3.956773821
 10
4.9227411695
 20
3.9582098474
 10
4.9223004979
 20
3.9596116972
 10
4.9217408476
 20
3.9609686453
 10
4.9210675879
 20
3.9622693769
 10
4.9202858358
 20
3.9635033553
 10
4.919400728
 20
3.9646600412
 10
4.9184179082
 20
3.9657284978
 10
4.9173434997
 20
3.966700051
 10
4.9161881038
 20
3.96756987
 10
4.9149643886
 20
3.9683334697
 10
4.9136841863
 20
3.9689873885
 10
4.9123578816
 20
3.9695289409
 10
4.910995872
 20
3.9699552278
 10
4.909608525
 20
3.970263287
 10
4.9082062155
 20
3.9704501805
 10
4.9067990023
 20
3.9705130908
  0
LWPOLYLINE
  5
26D
100
AcDbEntity
  8
0
100
AcDbPolyline
 62
7
  6
CONTINUOUS
 90
27
 70
0
 10
4.4996937362
 20
3.5866313781
 10
4.4986620499
 20
3.5854080942
 10
4.4978120138
 20
3.5841825636
 10
4.4970731813
 20
3.5828861329
 10
4.4964489762
 20
3.5815298883
 10
4.4959427357
 20
3.580124334
 10
4.4955581394
 20
3.5786802607
 10
4.4952991201
 20
3.5772092675
 10
4.4951694756
 20
3.5757230173
 10
4.4951728692
 20
3.5742327611
 10
4.4953123837
 20
3.5727496665
 10
4.4955855832
 20
3.5712848899
 10
4.4959869117
 20
3.5698493477
 10
4.4965109853
 20
3.5684531191
 10
4.4971527739
 20
3.5671059145
 10
4.497907286
 20
3.5658179148
 10
4.4987691122
 20
3.5646000911
 10
4.4997326953
 20
3.5634633607
 10
4.500792687
 20
3.5624182347
 10
4.5019433022
 20
3.5614746554
 10
4.5031747285
 20
3.5606385362
 10
4.5044753222
 20
3.5599136471
 10
4.5058342041
 20
3.5593032778
 10
4.5072410304
 20
3.5588107096
 10
4.5086849764
 20
3.5584396346
 10
4.5101546302
 20
3.5581939229
 10
4.5110049786
 20
3.5581110125
  0
LINE
  5
26E
100
AcDbEntity
  8
0
100
AcDbLine
 62
7
  6
CONTINUOUS
 10
5.1244602595
 20
4.0329411302
 11
5.1229677444
 21
4.0259760597
  0
LWPOLYLINE
  5
26F
100
AcDbEntity
  8
0
100
AcDbPolyline
 62
7
  6
CONTINUOUS
 90
27
 70
0
 10
4.4996937362
 20
3.4031313781
 10
4.4986620499
 20
3.4019080942
 10
4.4978120138
 20
3.4006825636
 10
4.4970731813
 20
3.3993861329
 10
4.4964489762
 20
3.3980298883
 10
4.4959427357
 20
3.396624334
 10
4.4955581394
 20
3.3951802607
 10
4.4952991201
 20
3.3937092675
 10
4.4951694756
 20
3.3922230173
 10
4.4951728692
 20
3.3907327611
 10
4.4953123837
 20
3.3892496665
 10
4.4955855832
 20
3.3877848899
 10
4.4959869117
 20
3.3863493477
 10
4.4965109853
 20
3.3849531191
 10
4.4971527739
 20
3.3836059145
 10
4.497907286
 20
3.3823179148
 10
4.4987691122
 20
3.3811000911
 10
4.4997326953
 20
3.3799633607
 10
4.500792687
 20
3.3789182347
 10
4.5019433022
 20
3.3779746554
 10
4.5031747285
 20
3.3771385362
 10
4.5044753222
 20
3.3764136471
 10
4.5058342041
 20
3.3758032778
 10
4.5072410304
 20
3.3753107096
 10
4.5086849764
 20
3.3749396346
 10
4.5101546302
 20
3.3746939229
 10
4.5110049786
 20
3.3746110125
  0
LINE
  5
270
100
AcDbEntity
  8
0
100
AcDbLine
 62
7
  6
CONTINUOUS
 10
5.1404309077
 20
4.0543701519
 11
5.1350884858
 21
4.0501092832
  0
LINE
  5
271
100
AcDbEntity
  8
ALL_FEATURES
100
AcDbLine
 62
7
  6
CONTINUOUS
 10
5.4098345623
 20
4.9050563979
 11
5.1591394975
 21
4.9050563979
  0
LINE
  5
272
100
AcDbEntity
  8
ALL_FEATURES
100
AcDbLine
 62
7
  6
CONTINUOUS
 10
4.3323694975
 20
4.9050563979
 11
4.0816744327
 21
4.9050563979
  0
LINE
  5
273
100
AcDbEntity
  8
ALL_FEATURES
100
AcDbLine
 62
9
  6
CONTINUOUS
 10
5.4198311356
 20
4.9147946284
 11
5.1591394975
 21
4.9147946284
  0
LINE
  5
274
100
AcDbEntity
  8
ALL_FEATURES
100
AcDbLine
 62
9
  6
CONTINUOUS
 10
4.3323694975
 20
4.9147946284
 11
4.0716778594
 21
4.9147946284
  0
LINE
  5
275
100
AcDbEntity
  8
ALL_FEATURES
100
AcDbLine
 62
9
  6
CONTINUOUS
 10
5.420499493
 20
4.9403181674
 11
5.1591394975
 21
4.9403181674
  0
LINE
  5
276
100
AcDbEntity
  8
ALL_FEATURES
100
AcDbLine
 62
9
  6
CONTINUOUS
 10
4.3323694975
 20
4.9403181674
 11
4.0710095021
 21
4.9403181674
  0
LINE
  5
277
100
AcDbEntity
  8
ALL_FEATURES
100
AcDbLine
 62
7
  6
CONTINUOUS
 10
3.1292544975
 20
4.9500563979
 11
6.3622544975
 21
4.9500563979
  0
LINE
  5
278
100
AcDbEntity
  8
0
100
AcDbLine
 62
7
  6
CONTINUOUS
 10
5.3221108274
 20
3.4122630908
 11
5.3221108274
 21
3.9082630908
  0
LINE
  5
279
100
AcDbEntity
  8
0
100
AcDbLine
 62
9
  6
CONTINUOUS
 10
5.3520645183
 20
3.411085327
 11
5.3520645183
 21
3.9094408546
  0
LINE
  5
27A
100
AcDbEntity
  8
0
100
AcDbLine
 62
7
  6
CONTINUOUS
 10
5.4198311356
 20
4.9147946284
 11
5.420499493
 21
4.9403181674
  0
LINE
  5
27B
100
AcDbEntity
  8
ALL_FEATURES
100
AcDbLine
 62
9
  6
CONTINUOUS
 10
3.1056962137
 20
4.9577298258
 11
6.3858127814
 21
4.9577298258
  0
LINE
  5
27C
100
AcDbEntity
  8
ALL_FEATURES
100
AcDbLine
 62
9
  6
CONTINUOUS
 10
3.0086089588
 20
4.9969357082
 11
6.4829000363
 21
4.9969357082
  0
LINE
  5
27D
100
AcDbEntity
  8
ALL_FEATURES
100
AcDbLine
 62
9
  6
CONTINUOUS
 10
2.9741044975
 20
5.0365563979
 11
6.5174044975
 21
5.0365563979
  0
LINE
  5
27E
100
AcDbEntity
  8
ALL_FEATURES
100
AcDbLine
 62
7
  6
CONTINUOUS
 10
2.9741044975
 20
5.1240563979
 11
6.5174044975
 21
5.1240563979
  0
LINE
  5
27F
100
AcDbEntity
  8
ALL_FEATURES
100
AcDbLine
 62
7
  6
CONTINUOUS
 10
6.5174044975
 20
5.1240563979
 11
6.5174044975
 21
5.0365563979
  0
ARC
  5
280
100
AcDbEntity
  8
0
100
AcDbCircle
 62
7
  6
CONTINUOUS
 10
3.3532544975
 20
3.5685130908
 40
2.005
100
AcDbArc
 50
355.4966382723
 51
2.6228240273
  0
ARC
  5
281
100
AcDbEntity
  8
0
100
AcDbCircle
 62
7
  6
CONTINUOUS
 10
3.3532544975
 20
3.7520130908
 40
2.005
100
AcDbArc
 50
355.4966382723
 51
4.5033617277
  0
ARC
  5
282
100
AcDbEntity
  8
0
100
AcDbCircle
 62
7
  6
CONTINUOUS
 10
4.4649839711
 20
2.7362677923
 40
0.6399999999
100
AcDbArc
 50
79.3156738551
 51
85.8764262879
  0
ARC
  5
283
100
AcDbEntity
  8
0
100
AcDbCircle
 62
7
  6
CONTINUOUS
 10
4.4649839711
 20
2.9197677923
 40
0.6399999999
100
AcDbArc
 50
79.3156738551
 51
85.8764262879
  0
ARC
  5
284
100
AcDbEntity
  8
0
100
AcDbCircle
 62
7
  6
CONTINUOUS
 10
4.2207484261
 20
3.8595130908
 40
0.3755
100
AcDbArc
 50
23.2308920706
 51
53.8077823306
  0
ARC
  5
285
100
AcDbEntity
  8
0
100
AcDbCircle
 62
7
  6
CONTINUOUS
 10
4.1982544975
 20
3.6754806821
 40
0.3755
100
AcDbArc
 50
27.194510493
 51
59.7371069019
  0
ARC
  5
286
100
AcDbEntity
  8
0
100
AcDbCircle
 62
7
  6
CONTINUOUS
 10
4.6321328631
 20
3.4069353329
 40
0.3474200536
100
AcDbArc
 50
4.3697027383
 51
9.5174820768
  0
ARC
  5
287
100
AcDbEntity
  8
0
100
AcDbCircle
 62
7
  6
CONTINUOUS
 10
4.6321328631
 20
3.5904353329
 40
0.3474200536
100
AcDbArc
 50
4.3697027383
 51
9.5174820768
  0
ARC
  5
288
100
AcDbEntity
  8
0
100
AcDbCircle
 62
7
  6
CONTINUOUS
 10
4.4631113069
 20
3.4372154777
 40
0.0499999999
100
AcDbArc
 50
317.0247797356
 51
355.6302972589
  0
ARC
  5
289
100
AcDbEntity
  8
0
100
AcDbCircle
 62
7
  6
CONTINUOUS
 10
4.4631113069
 20
3.6207154777
 40
0.0499999999
100
AcDbArc
 50
317.0247797356
 51
355.6302972589
  0
ARC
  5
28A
100
AcDbEntity
  8
0
100
AcDbCircle
 62
7
  6
CONTINUOUS
 10
4.1543981677
 20
3.4122630908
 40
0.015
100
AcDbArc
 50
184.5033617277
 51
360.0
  0
ARC
  5
28B
100
AcDbEntity
  8
0
100
AcDbCircle
 62
7
  6
CONTINUOUS
 10
4.1543981677
 20
3.5957630908
 40
0.015
100
AcDbArc
 50
184.5033617277
 51
360.0
  0
ARC
  5
28C
100
AcDbEntity
  8
0
100
AcDbCircle
 62
7
  6
CONTINUOUS
 10
4.5557544975
 20
3.8288474045
 40
0.015
100
AcDbArc
 50
57.8865849821
 51
82.5476538264
  0
ARC
  5
28D
100
AcDbEntity
  8
ALL_FEATURES
100
AcDbCircle
 62
7
  6
CONTINUOUS
 10
2.979070438
 20
4.7839745009
 40
0.215
100
AcDbArc
 50
53.916964529
 51
82.1032437574
  0
ARC
  5
28E
100
AcDbEntity
  8
0
100
AcDbCircle
 62
7
  6
CONTINUOUS
 10
4.5253871596
 20
3.9240011568
 40
0.05
100
AcDbArc
 50
348.3815704147
 51
26.8030990978
  0
ARC
  5
28F
100
AcDbEntity
  8
0
100
AcDbCircle
 62
7
  6
CONTINUOUS
 10
4.4720044975
 20
4.2029088342
 40
0.05
100
AcDbArc
 50
180.0
 51
233.8077823306
  0
ARC
  5
290
100
AcDbEntity
  8
0
100
AcDbCircle
 62
7
  6
CONTINUOUS
 10
4.3822544975
 20
4.0934601946
 40
0.05
100
AcDbArc
 50
180.0
 51
231.4257570771
  0
ARC
  5
291
100
AcDbEntity
  8
0
100
AcDbCircle
 62
7
  6
CONTINUOUS
 10
4.4076533472
 20
4.0343572232
 40
0.04
100
AcDbArc
 50
192.094757077
 51
239.7371069019
  0
ARC
  5
292
100
AcDbEntity
  8
ALL_FEATURES
100
AcDbCircle
 62
7
  6
CONTINUOUS
 10
3.1292544975
 20
4.9900563979
 40
0.04
100
AcDbArc
 50
233.916964529
 51
270.0
  0
ARC
  5
293
100
AcDbEntity
  8
ALL_FEATURES
100
AcDbCircle
 62
7
  6
CONTINUOUS
 10
3.0141044975
 20
5.0365563979
 40
0.04
100
AcDbArc
 50
180.0
 51
262.1032437574
  0
ARC
  5
294
100
AcDbEntity
  8
0
100
AcDbCircle
 62
7
  6
CONTINUOUS
 10
4.3377146631
 20
4.0266552575
 40
0.03
100
AcDbArc
 50
12.094757077
 51
51.425757077
  0
ARC
  5
295
100
AcDbEntity
  8
0
100
AcDbCircle
 62
7
  6
CONTINUOUS
 10
4.5841823954
 20
4.0155130908
 40
0.02
100
AcDbArc
 50
203.2308920706
 51
270.0
  0
ARC
  5
296
100
AcDbEntity
  8
0
100
AcDbCircle
 62
7
  6
CONTINUOUS
 10
4.1543981677
 20
3.9082630908
 40
0.015
100
AcDbArc
 50
0.0
 51
175.4966382723
  0
ARC
  5
297
100
AcDbEntity
  8
ALL_FEATURES
100
AcDbCircle
 62
7
  6
CONTINUOUS
 10
4.0816744327
 20
4.9150563979
 40
0.01
100
AcDbArc
 50
181.5
 51
270.0
  0
ARC
  5
298
100
AcDbEntity
  8
ALL_FEATURES
100
AcDbCircle
 62
7
  6
CONTINUOUS
 10
4.0610129288
 20
4.9400563979
 40
0.01
100
AcDbArc
 50
1.5
 51
90.0
  0
ARC
  5
299
100
AcDbEntity
  8
0
100
AcDbCircle
 62
7
  6
CONTINUOUS
 10
6.1382544975
 20
3.5685130908
 40
2.005
100
AcDbArc
 50
177.3771759727
 51
184.5033617277
  0
ARC
  5
29A
100
AcDbEntity
  8
0
100
AcDbCircle
 62
7
  6
CONTINUOUS
 10
6.1382544975
 20
3.7520130908
 40
2.005
100
AcDbArc
 50
175.4966382723
 51
184.5033617277
  0
ARC
  5
29B
100
AcDbEntity
  8
0
100
AcDbCircle
 62
7
  6
CONTINUOUS
 10
5.0265250239
 20
2.7362677923
 40
0.6399999999
100
AcDbArc
 50
94.1235737121
 51
100.6843261449
  0
ARC
  5
29C
100
AcDbEntity
  8
0
100
AcDbCircle
 62
7
  6
CONTINUOUS
 10
5.0265250239
 20
2.9197677923
 40
0.6399999999
100
AcDbArc
 50
94.1235737121
 51
100.6843261449
  0
ARC
  5
29D
100
AcDbEntity
  8
0
100
AcDbCircle
 62
7
  6
CONTINUOUS
 10
5.2707605689
 20
3.8595130908
 40
0.3755
100
AcDbArc
 50
126.1922176694
 51
156.7691079294
  0
ARC
  5
29E
100
AcDbEntity
  8
0
100
AcDbCircle
 62
7
  6
CONTINUOUS
 10
5.2932544975
 20
3.6754806821
 40
0.3755
100
AcDbArc
 50
120.2628930981
 51
152.805489487
  0
ARC
  5
29F
100
AcDbEntity
  8
0
100
AcDbCircle
 62
7
  6
CONTINUOUS
 10
4.859376132
 20
3.4069353329
 40
0.3474200536
100
AcDbArc
 50
170.4825179232
 51
175.6302972617
  0
ARC
  5
2A0
100
AcDbEntity
  8
0
100
AcDbCircle
 62
7
  6
CONTINUOUS
 10
4.859376132
 20
3.5904353329
 40
0.3474200536
100
AcDbArc
 50
170.4825179232
 51
175.6302972617
  0
ARC
  5
2A1
100
AcDbEntity
  8
0
100
AcDbCircle
 62
7
  6
CONTINUOUS
 10
4.7457544975
 20
3.5685130908
 40
0.17125
100
AcDbArc
 50
186.1608216576
 51
353.8391783424
  0
CIRCLE
  5
2A2
100
AcDbEntity
  8
0
100
AcDbCircle
 62
7
  6
CONTINUOUS
 10
4.7457544975
 20
3.7520130908
 40
0.17125
  0
ARC
  5
2A3
100
AcDbEntity
  8
0
100
AcDbCircle
 62
9
  6
CONTINUOUS
 10
4.7457544975
 20
3.5685130908
 40
0.1574277638
100
AcDbArc
 50
187.6408953645
 51
352.3591046355
  0
CIRCLE
  5
2A4
100
AcDbEntity
  8
0
100
AcDbCircle
 62
9
  6
CONTINUOUS
 10
4.7457544975
 20
3.7520130908
 40
0.1574277638
  0
ARC
  5
2A5
100
AcDbEntity
  8
0
100
AcDbCircle
 62
7
  6
CONTINUOUS
 10
5.0283976881
 20
3.4372154777
 40
0.0499999999
100
AcDbArc
 50
184.3697027411
 51
222.9752202644
  0
ARC
  5
2A6
100
AcDbEntity
  8
0
100
AcDbCircle
 62
7
  6
CONTINUOUS
 10
5.0283976881
 20
3.6207154777
 40
0.0499999999
100
AcDbArc
 50
184.3697027411
 51
222.9752202644
  0
ARC
  5
2A7
100
AcDbEntity
  8
0
100
AcDbCircle
 62
7
  6
CONTINUOUS
 10
5.3371108274
 20
3.4122630908
 40
0.015
100
AcDbArc
 50
180.0
 51
355.4966382723
  0
ARC
  5
2A8
100
AcDbEntity
  8
0
100
AcDbCircle
 62
7
  6
CONTINUOUS
 10
5.3371108274
 20
3.5957630908
 40
0.015
100
AcDbArc
 50
180.0
 51
355.4966382723
  0
ARC
  5
2A9
100
AcDbEntity
  8
0
100
AcDbCircle
 62
7
  6
CONTINUOUS
 10
4.9357544975
 20
3.8288474045
 40
0.015
100
AcDbArc
 50
97.4523461736
 51
122.1107607421
  0
ARC
  5
2AA
100
AcDbEntity
  8
0
100
AcDbCircle
 62
7
  6
CONTINUOUS
 10
4.7457544975
 20
4.2244351583
 40
0.8744220675
100
AcDbArc
 50
259.3156738294
 51
280.6843261706
  0
ARC
  5
2AB
100
AcDbEntity
  8
0
100
AcDbCircle
 62
7
  6
CONTINUOUS
 10
4.7457544975
 20
4.4079351583
 40
0.8744220675
100
AcDbArc
 50
259.3156738294
 51
280.6843261706
  0
ARC
  5
2AC
100
AcDbEntity
  8
0
100
AcDbCircle
 62
7
  6
CONTINUOUS
 10
4.9661218355
 20
3.9240011568
 40
0.05
100
AcDbArc
 50
153.1969009022
 51
191.6184295853
  0
ARC
  5
2AD
100
AcDbEntity
  8
0
100
AcDbCircle
 62
7
  6
CONTINUOUS
 10
5.0195044975
 20
4.2029088342
 40
0.05
100
AcDbArc
 50
306.1922176694
 51
360.0
  0
ARC
  5
2AE
100
AcDbEntity
  8
0
100
AcDbCircle
 62
7
  6
CONTINUOUS
 10
5.1092544975
 20
4.0934601946
 40
0.05
100
AcDbArc
 50
308.5742429229
 51
360.0
  0
ARC
  5
2AF
100
AcDbEntity
  8
0
100
AcDbCircle
 62
7
  6
CONTINUOUS
 10
5.0841424048
 20
4.3403013835
 40
0.0462449858
100
AcDbArc
 50
269.9963980156
 51
274.168907223
  0
ARC
  5
2B0
100
AcDbEntity
  8
0
100
AcDbCircle
 62
7
  6
CONTINUOUS
 10
5.1128945119
 20
4.3690534906
 40
0.0462449857
100
AcDbArc
 50
355.8310920191
 51
0.003601985
  0
ARC
  5
2B1
100
AcDbEntity
  8
0
100
AcDbCircle
 62
7
  6
CONTINUOUS
 10
5.1129374137
 20
4.3690519305
 40
0.046202084
100
AcDbArc
 50
355.8291539349
 51
0.0055400692
  0
ARC
  5
2B2
100
AcDbEntity
  8
0
100
AcDbCircle
 62
7
  6
CONTINUOUS
 10
5.0841439649
 20
4.3402584817
 40
0.046202084
100
AcDbArc
 50
269.9944599293
 51
274.1708453092
  0
ARC
  5
2B3
100
AcDbEntity
  8
0
100
AcDbCircle
 62
7
  6
CONTINUOUS
 10
5.0838556478
 20
4.0343572232
 40
0.04
100
AcDbArc
 50
300.2628930981
 51
347.905242923
  0
ARC
  5
2B4
100
AcDbEntity
  8
0
100
AcDbCircle
 62
7
  6
CONTINUOUS
 10
5.1537943319
 20
4.0266552575
 40
0.03
100
AcDbArc
 50
128.574242923
 51
167.905242923
  0
ARC
  5
2B5
100
AcDbEntity
  8
0
100
AcDbCircle
 62
7
  6
CONTINUOUS
 10
4.9073265997
 20
4.0155130908
 40
0.02
100
AcDbArc
 50
270.0
 51
336.7691079294
  0
ARC
  5
2B6
100
AcDbEntity
  8
0
100
AcDbCircle
 62
7
  6
CONTINUOUS
 10
5.3371108274
 20
3.9082630908
 40
0.015
100
AcDbArc
 50
4.5033617277
 51
180.0
  0
ARC
  5
2B7
100
AcDbEntity
  8
ALL_FEATURES
100
AcDbCircle
 62
7
  6
CONTINUOUS
 10
5.4098345623
 20
4.9150563979
 40
0.01
100
AcDbArc
 50
270.0
 51
358.5
  0
ARC
  5
2B8
100
AcDbEntity
  8
ALL_FEATURES
100
AcDbCircle
 62
7
  6
CONTINUOUS
 10
5.4304960662
 20
4.9400563979
 40
0.01
100
AcDbArc
 50
90.0
 51
178.5
  0
ARC
  5
2B9
100
AcDbEntity
  8
ALL_FEATURES
100
AcDbCircle
 62
7
  6
CONTINUOUS
 10
6.5124385571
 20
4.7839745009
 40
0.215
100
AcDbArc
 50
97.8967562426
 51
126.083035471
  0
ARC
  5
2BA
100
AcDbEntity
  8
ALL_FEATURES
100
AcDbCircle
 62
7
  6
CONTINUOUS
 10
6.3622544975
 20
4.9900563979
 40
0.04
100
AcDbArc
 50
270.0
 51
306.083035471
  0
ARC
  5
2BB
100
AcDbEntity
  8
ALL_FEATURES
100
AcDbCircle
 62
7
  6
CONTINUOUS
 10
6.4774044975
 20
5.0365563979
 40
0.04
100
AcDbArc
 50
277.8967562426
 51
360.0
  0
LINE
  5
2BC
100
AcDbEntity
  8
0
100
AcDbLine
 62
7
  6
CONTINUOUS
 10
4.5289021962
 20
3.4850046033
 11
4.5167382472
 21
3.4643807292
  0
SPLINE
  5
2BD
100
AcDbEntity
  8
0
100
AcDbSpline
 62
7
  6
CONTINUOUS
 70
0
 71
3
 72
11
 73
7
 74
0
 42
0.0000001
 43
0.0000001
 44
0.0000000001
 40
0.0
 40
0.0
 40
0.0
 40
0.0
 40
0.21194127
 40
0.4550789708
 40
0.720389065
 40
1.0
 40
1.0
 40
1.0
 40
1.0
 10
4.9626067989
 20
3.4850046033
 30
0.0
 10
4.9599254272
 20
3.4895493933
 30
0.0
 10
4.9543225843
 20
3.4994002877
 30
0.0
 10
4.9460854999
 20
3.5153404192
 30
0.0
 10
4.9380296901
 20
3.5332435351
 30
0.0
 10
4.9333482716
 20
3.5459966495
 30
0.0
 10
4.9312413632
 20
3.5526318053
 30
0.0
  0
LINE
  5
2BE
100
AcDbEntity
  8
0
100
AcDbLine
 62
7
  6
CONTINUOUS
 10
4.9747707478
 20
3.4643807292
 11
4.9626067989
 21
3.4850046033
  0
SPLINE
  5
2BF
100
AcDbEntity
  8
0
100
AcDbSpline
 62
7
  6
CONTINUOUS
 70
0
 71
3
 72
11
 73
7
 74
0
 42
0.0000001
 43
0.0000001
 44
0.0000000001
 40
0.0
 40
0.0
 40
0.0
 40
0.0
 40
0.2796406515
 40
0.5449706578
 40
0.7881089355
 40
1.0
 40
1.0
 40
1.0
 40
1.0
 10
4.5602667249
 20
3.5526289996
 30
0.0
 10
4.5581593776
 20
3.5459934957
 30
0.0
 10
4.5534778118
 20
3.5332397037
 30
0.0
 10
4.545421457
 20
3.5153362989
 30
0.0
 10
4.5371848878
 20
3.4993975386
 30
0.0
 10
4.5315828267
 20
3.4895481372
 30
0.0
 10
4.5289021962
 20
3.4850046033
 30
0.0
  0
SPLINE
  5
2C0
100
AcDbEntity
  8
0
100
AcDbSpline
 62
7
  6
CONTINUOUS
 70
0
 71
3
 72
29
 73
25
 74
0
 42
0.0000001
 43
0.0000001
 44
0.0000000001
 40
0.0
 40
0.0
 40
0.0
 40
0.0
 40
0.0609099108
 40
0.1292624472
 40
0.2034190323
 40
0.282010169
 40
0.3637543892
 40
0.4473085385
 40
0.4892947962
 40
0.5311313785
 40
0.5519193943
 40
0.5725798416
 40
0.6133923809
 40
0.6334833776
 40
0.6533211719
 40
0.6921173939
 40
0.7110191402
 40
0.7295498549
 40
0.7653930127
 40
0.7994387425
 40
0.8314861895
 40
0.8887956341
 40
0.9708529548
 40
1.0
 40
1.0
 40
1.0
 40
1.0
 10
4.9626067989
 20
3.6685046033
 30
0.0
 10
4.9606349276
 20
3.6718468258
 30
0.0
 10
4.9565330796
 20
3.6789889825
 30
0.0
 10
4.9503946893
 20
3.690405214
 30
0.0
 10
4.9441646901
 20
3.7030429229
 30
0.0
 10
4.9381500677
 20
3.7167246021
 30
0.0
 10
4.9326639746
 20
3.7312711587
 30
0.0
 10
4.9288016489
 20
3.7439122263
 30
0.0
 10
4.9262566651
 20
3.75426994
 30
0.0
 10
4.9249229585
 20
3.7608019308
 30
0.0
 10
4.9240212358
 20
3.7660311625
 30
0.0
 10
4.9232396339
 20
3.7712136958
 30
0.0
 10
4.9226274253
 20
3.7763757943
 30
0.0
 10
4.9221851232
 20
3.7815010813
 30
0.0
 10
4.9218615985
 20
3.7865065054
 30
0.0
 10
4.9216989018
 20
3.7914453272
 30
0.0
 10
4.9216902578
 20
3.7963021032
 30
0.0
 10
4.9217776158
 20
3.8009699443
 30
0.0
 10
4.9220485126
 20
3.8065981401
 30
0.0
 10
4.9226033384
 20
3.8130701534
 30
0.0
 10
4.9235469107
 20
3.8208766317
 30
0.0
 10
4.9253537192
 20
3.831652968
 30
0.0
 10
4.9278425042
 20
3.8421081611
 30
0.0
 10
4.9298132882
 20
3.8489143899
 30
0.0
 10
4.9303512562
 20
3.8506914246
 30
0.0
  0
LINE
  5
2C1
100
AcDbEntity
  8
0
100
AcDbLine
 62
7
  6
CONTINUOUS
 10
4.9747707478
 20
3.6478807292
 11
4.9626067989
 21
3.6685046033
  0
LINE
  5
2C2
100
AcDbEntity
  8
0
100
AcDbLine
 62
7
  6
CONTINUOUS
 10
4.5289021962
 20
3.6685046033
 11
4.5167382472
 21
3.6478807292
  0
SPLINE
  5
2C3
100
AcDbEntity
  8
0
100
AcDbSpline
 62
7
  6
CONTINUOUS
 70
0
 71
3
 72
27
 73
23
 74
0
 42
0.0000001
 43
0.0000001
 44
0.0000000001
 40
0.0
 40
0.0
 40
0.0
 40
0.0
 40
0.0291524821
 40
0.1112234304
 40
0.1685413708
 40
0.2005929997
 40
0.2346431814
 40
0.2704901696
 40
0.3079254796
 40
0.3467260436
 40
0.3866583851
 40
0.4274760297
 40
0.4689269141
 40
0.5107663628
 40
0.5527529868
 40
0.5946713377
 40
0.6363152379
 40
0.7180528446
 40
0.7966353154
 40
0.8707839548
 40
0.9391104883
 40
1.0
 40
1.0
 40
1.0
 40
1.0
 10
4.5611577388
 20
3.8506914246
 30
0.0
 10
4.5616958092
 20
3.8489140474
 30
0.0
 10
4.5636669286
 20
3.8421066055
 30
0.0
 10
4.5661560351
 20
3.8316496099
 30
0.0
 10
4.5679628272
 20
3.820871499
 30
0.0
 10
4.5689063638
 20
3.8130638754
 30
0.0
 10
4.5694608577
 20
3.8065909658
 30
0.0
 10
4.5697898555
 20
3.7997590079
 30
0.0
 10
4.5698488939
 20
3.7926164678
 30
0.0
 10
4.5696051361
 20
3.7852171923
 30
0.0
 10
4.5690293597
 20
3.7776200781
 30
0.0
 10
4.5681121174
 20
3.7698864835
 30
0.0
 10
4.5668471113
 20
3.7620790494
 30
0.0
 10
4.5652496006
 20
3.7542569358
 30
0.0
 10
4.5633367057
 20
3.7464754454
 30
0.0
 10
4.5611404524
 20
3.7387822931
 30
0.0
 10
4.5578981066
 20
3.7287607245
 30
0.0
 10
4.5533544578
 20
3.7167135774
 30
0.0
 10
4.5473399869
 20
3.7030337665
 30
0.0
 10
4.5411107332
 20
3.6903985216
 30
0.0
 10
4.5349738887
 20
3.6789853287
 30
0.0
 10
4.5308734191
 20
3.6718457269
 30
0.0
 10
4.5289021962
 20
3.6685046033
 30
0.0
  0
SPLINE
  5
2C4
100
AcDbEntity
  8
0
100
AcDbSpline
 62
7
  6
CONTINUOUS
 70
0
 71
3
 72
35
 73
31
 74
0
 42
0.0000001
 43
0.0000001
 44
0.0000000001
 40
0.0
 40
0.0
 40
0.0
 40
0.0
 40
0.0189212874
 40
0.0372315006
 40
0.0550556606
 40
0.0724841153
 40
0.1063499422
 40
0.139181543
 40
0.1712093746
 40
0.2025866854
 40
0.2334464726
 40
0.2639024615
 40
0.3238968515
 40
0.3830280417
 40
0.4416377213
 40
0.5000000007
 40
0.55836228
 40
0.6169719596
 40
0.6761031498
 40
0.7360975397
 40
0.7665535285
 40
0.7974133157
 40
0.8287906264
 40
0.8608184579
 40
0.8936500586
 40
0.9275158853
 40
0.9449443399
 40
0.9627684998
 40
0.9810787128
 40
1.0
 40
1.0
 40
1.0
 40
1.0
 10
5.0875042752
 20
4.2941787586
 30
0.0
 10
5.0881859047
 20
4.294228445
 30
0.0
 10
5.0895251687
 20
4.2943558848
 30
0.0
 10
5.0914957204
 20
4.2946268293
 30
0.0
 10
5.0934017969
 20
4.2949606385
 30
0.0
 10
5.095845988
 20
4.2954711185
 30
0.0
 10
5.0987895997
 20
4.2962330854
 30
0.0
 10
5.1021882354
 20
4.297317763
 30
0.0
 10
5.105443289
 20
4.2985415894
 30
0.0
 10
5.1085695495
 20
4.2998936224
 30
0.0
 10
5.1115805923
 20
4.301360021
 30
0.0
 10
5.1154397841
 20
4.3034370712
 30
0.0
 10
5.1200509596
 20
4.3062630524
 30
0.0
 10
5.1252741177
 20
4.310004153
 30
0.0
 10
5.1301907639
 20
4.3140471689
 30
0.0
 10
5.1348117733
 20
4.3183841218
 30
0.0
 10
5.1391487262
 20
4.3230051311
 30
0.0
 10
5.1431917421
 20
4.3279217773
 30
0.0
 10
5.1469328428
 20
4.3331449354
 30
0.0
 10
5.149758824
 20
4.3377561109
 30
0.0
 10
5.1518358741
 20
4.3416153026
 30
0.0
 10
5.1533022728
 20
4.3446263455
 30
0.0
 10
5.1546543058
 20
4.3477526059
 30
0.0
 10
5.1558781323
 20
4.3510076595
 30
0.0
 10
5.1569628098
 20
4.3544062952
 30
0.0
 10
5.1577247767
 20
4.3573499068
 30
0.0
 10
5.1582352568
 20
4.3597940979
 30
0.0
 10
5.158569066
 20
4.3617001744
 30
0.0
 10
5.1588400105
 20
4.3636707261
 30
0.0
 10
5.1589674503
 20
4.3650099901
 30
0.0
 10
5.1590171368
 20
4.3656916196
 30
0.0
  0
SPLINE
  5
2C5
100
AcDbEntity
  8
0
100
AcDbSpline
 62
7
  6
CONTINUOUS
 70
0
 71
3
 72
27
 73
23
 74
0
 42
0.0000001
 43
0.0000001
 44
0.0000000001
 40
0.0
 40
0.0
 40
0.0
 40
0.0
 40
0.038899054
 40
0.0749980816
 40
0.1092970298
 40
0.142306196
 40
0.20563548
 40
0.2665463817
 40
0.3259778156
 40
0.3844558968
 40
0.4423626537
 40
0.5
 40
0.5576373463
 40
0.6155441032
 40
0.6740221844
 40
0.7334536183
 40
0.79436452
 40
0.857693804
 40
0.8907029702
 40
0.9250019184
 40
0.961100946
 40
1.0
 40
1.0
 40
1.0
 40
1.0
 10
4.4073694975
 20
4.2940563979
 30
0.0
 10
4.4058773376
 20
4.2940563979
 30
0.0
 10
4.4029982233
 20
4.2941960498
 30
0.0
 10
4.3988430915
 20
4.2947862568
 30
0.0
 10
4.394962322
 20
4.2956218015
 30
0.0
 10
4.3901385007
 20
4.2969886585
 30
0.0
 10
4.3844775443
 20
4.2991070379
 30
0.0
 10
4.3781471557
 20
4.302220255
 30
0.0
 10
4.3722483902
 20
4.3057345283
 30
0.0
 10
4.3667276634
 20
4.3096188253
 30
0.0
 10
4.3615472282
 20
4.3138373259
 30
0.0
 10
4.3566924545
 20
4.3183793548
 30
0.0
 10
4.3521504255
 20
4.3232341286
 30
0.0
 10
4.3479319249
 20
4.3284145638
 30
0.0
 10
4.3440476279
 20
4.3339352905
 30
0.0
 10
4.3405333546
 20
4.339834056
 30
0.0
 10
4.3374201376
 20
4.3461644446
 30
0.0
 10
4.3353017581
 20
4.3518254011
 30
0.0
 10
4.3339349011
 20
4.3566492223
 30
0.0
 10
4.3330993565
 20
4.3605299919
 30
0.0
 10
4.3325091494
 20
4.3646851236
 30
0.0
 10
4.3323694975
 20
4.3675642379
 30
0.0
 10
4.3323694975
 20
4.3690563979
 30
0.0
  0
ENDSEC
  0
SECTION
  2
OBJECTS
  0
DICTIONARY
  5
C
100
AcDbDictionary
280
0
281
1
  3
ACAD_GROUP
350
D
  3
ACAD_MLINESTYLE
350
17
  3
ACAD_LAYOUT
350
1A
  3
ACAD_PLOTSETTINGS
350
19
  3
ACAD_PLOTSTYLENAME
350
E
  0
DICTIONARY
  5
D
102
{ACAD_REACTORS
330
C
102
}
100
AcDbDictionary
280
0
281
1
  0
ACDBDICTIONARYWDFLT
  5
E
102
{ACAD_REACTORS
330
C
102
}
100
AcDbDictionary
281
1
  3
Normal
350
F
100
AcDbDictionaryWithDefault
340
F
  0
DICTIONARY
  5
17
102
{ACAD_REACTORS
330
C
102
}
100
AcDbDictionary
280
0
281
1
  3
Standard
350
18
  0
DICTIONARY
  5
19
102
{ACAD_REACTORS
330
C
102
}
100
AcDbDictionary
281
1
  0
DICTIONARY
  5
1A
102
{ACAD_REACTORS
330
C
102
}
100
AcDbDictionary
281
1
  3
Model
350
2C6
  3
Layout1
350
2C7
  0
ACDBPLACEHOLDER
  5
F
102
{ACAD_REACTORS
330
E
102
}
  0
MLINESTYLE
  5
18
102
{ACAD_REACTORS
330
17
102
}
100
AcDbMlineStyle
  2
STANDARD
 70
0
  3

 62
256
 51
90.0
 52
90.0
 71
2
 49
0.5
 62
256
  6
BYLAYER
 49
-0.5
 62
256
  6
BYLAYER
  0
LAYOUT
  5
2C6
102
{ACAD_REACTORS
330
1A
102
}
100
AcDbPlotSettings
  1

  2
none_device
  4
ANSI_A_(11.00_x_8.50_Inches)
  6

 40
0.0
 41
0.0
 42
0.0
 43
0.0
 44
279.4
 45
215.9
 46
0.0
 47
0.0
 48
0.0
 49
0.0
140
0.0
141
0.0
142
1.0
143
1.0
 70
1024
 72
0
 73
0
 74
0
  7

 75
0
147
1.0
148
0.0
149
0.0
100
AcDbLayout
  1
Model
 70
0
 71
0
 10
0.0
 20
0.0
 11
11.0
 21
8.5
 12
0.0
 22
0.0
 32
0.0
 14
0.0
 24
0.0
 34
0.0
 15
0.0
 25
0.0
 35
0.0
146
0.0
 13
0.0
 23
0.0
 33
0.0
 16
1.0
 26
0.0
 36
0.0
 17
0.0
 27
1.0
 37
0.0
 76
0
330
21D
345
0
346
0
  0
LAYOUT
  5
2C7
102
{ACAD_REACTORS
330
1A
102
}
100
AcDbPlotSettings
  1

  2
none_device
  4
ANSI_A_(11.00_x_8.50_Inches)
  6

 40
0.0
 41
0.0
 42
0.0
 43
0.0
 44
279.4
 45
215.9
 46
0.0
 47
0.0
 48
0.0
 49
0.0
140
0.0
141
0.0
142
1.0
143
1.0
 70
0
 72
0
 73
0
 74
0
  7

 75
0
147
1.0
148
0.0
149
0.0
100
AcDbLayout
  1
Layout1
 70
0
 71
1
 10
0.0
 20
0.0
 11
11.0
 21
8.5
 12
0.0
 22
0.0
 32
0.0
 14
0.0
 24
0.0
 34
0.0
 15
0.0
 25
0.0
 35
0.0
146
0.0
 13
0.0
 23
0.0
 33
0.0
 16
1.0
 26
0.0
 36
0.0
 17
0.0
 27
1.0
 37
0.0
 76
0
330
21E
345
0
346
0
  0
ENDSEC
  0
EOF
