999
DXF file: 3-2904tr_FRONT.dxf
999
Pro/ENGINEER 2018400 by Parametric Technology Corporation
  0
SECTION
  2
HEADER
  9
$ACADVER
  1
AC1027
  9
$DWGCODEPAGE
  3
ANSI_1252
  9
$EXTMAX
 10
11.0
 20
8.5
 30
0.0
  9
$EXTMIN
 10
0.0
 20
0.0
 30
0.0
  9
$LIMMIN
 10
0.0
 20
0.0
  9
$LIMMAX
 10
11.0
 20
8.5
  9
$VIEWCTR
 10
5.5
 20
4.25
  9
$VIEWSIZE
 40
8.5
  9
$CLAYER
  8
0
  9
$LTSCALE
 40
0.605
  9
$CELTYPE
  6
BYLAYER
  9
$DIMSCALE
 40
1.0
  9
$DIMASZ
 40
0.1
  9
$DIMEXO
 40
0.0625
  9
$DIMDLI
 40
0.418
  9
$DIMEXE
 40
0.125
  9
$DIMCEN
 40
0.099
  9
$DIMLFAC
 40
1.0
  9
$DIMBLK
  1
_FILLED
  9
$DIMALT
 70
1
  9
$DIMALTD
 70
2
  9
$DIMALTTD
 70
2
  9
$DIMALTF
 40
25.4
  9
$DIMTXT
 40
0.08
  9
$DIMTOL
 70
1
  9
$DIMLIM
 70
0
  9
$DIMTFAC
 40
1.0
  9
$DIMTP
 40
0.001
  9
$DIMTM
 40
0.001
  9
$DIMGAP
 40
0.09
  9
$DIMDSEP
 70
46
  9
$AUNITS
 70
0
  9
$PDMODE
 70
3
  9
$PDSIZE
 40
0.3125
  9
$HANDSEED
  5
497
  9
$TILEMODE
 70
1
  9
$MEASUREMENT
 70
0
  9
$INSUNITS
 70
1
  0
ENDSEC
  0
SECTION
  2
CLASSES
  0
CLASS
  1
ACDBDICTIONARYWDFLT
  2
AcDbDictionaryWithDefault
  3
AutoCAD 2000
 90
0
 91
1
280
0
281
0
  0
CLASS
  1
ACDBPLACEHOLDER
  2
AcDbPlaceHolder
  3
AutoCAD 2000
 90
0
 91
1
280
0
281
0
  0
CLASS
  1
LAYOUT
  2
AcDbLayout
  3
AutoCAD 2000
 90
0
 91
0
280
0
281
0
  0
ENDSEC
  0
SECTION
  2
TABLES
  0
TABLE
  2
VPORT
  5
8
100
AcDbSymbolTable
 70
2
  0
VPORT
  5
1F4
100
AcDbSymbolTableRecord
100
AcDbViewportTableRecord
  2
*ACTIVE
 70
0
 10
0.0
 20
0.0
 11
1.0
 21
1.0
 12
5.5
 22
4.25
 13
0.0
 23
0.0
 14
1.0
 24
1.0
 15
0.0
 25
0.0
 16
0.0
 26
0.0
 36
1.0
 17
0.0
 27
0.0
 37
0.0
 40
8.5
 41
1.2941176471
 42
50.0
 43
0.0
 44
0.0
 50
0.0
 51
0.0
 71
0
 72
100
 73
1
 74
1
 75
0
 76
0
 77
0
 78
0
  0
ENDTAB
  0
TABLE
  2
LTYPE
  5
5
100
AcDbSymbolTable
 70
6
  0
LTYPE
  5
14
100
AcDbSymbolTableRecord
100
AcDbLinetypeTableRecord
  2
BYBLOCK
 70
0
  3

 72
65
 73
0
 40
0.0
  0
LTYPE
  5
15
100
AcDbSymbolTableRecord
100
AcDbLinetypeTableRecord
  2
BYLAYER
 70
0
  3

 72
65
 73
0
 40
0.0
  0
LTYPE
  5
16
100
AcDbSymbolTableRecord
100
AcDbLinetypeTableRecord
  2
CONTINUOUS
 70
64
  3
Solid line
 72
65
 73
0
 40
0.0
  0
LTYPE
  5
1F5
100
AcDbSymbolTableRecord
100
AcDbLinetypeTableRecord
  2
CENTER
 70
64
  3
____ _ ____ _ ____ _ ____ _ ____ _ ____ _ ____
 72
65
 73
4
 40
0.6
 49
0.375
 74
0
 49
-0.075
 74
0
 49
0.075
 74
0
 49
-0.075
 74
0
  0
LTYPE
  5
1F6
100
AcDbSymbolTableRecord
100
AcDbLinetypeTableRecord
  2
HIDDEN
 70
64
  3
- - - - - - - - - - - - - - - - - - - -
 72
65
 73
2
 40
0.2
 49
0.1
 74
0
 49
-0.1
 74
0
  0
LTYPE
  5
1F7
100
AcDbSymbolTableRecord
100
AcDbLinetypeTableRecord
  2
PHANTOM
 70
64
  3
_____ _ _ _____ _ _ _____ _ _ _____
 72
65
 73
6
 40
0.8
 49
0.45
 74
0
 49
-0.05
 74
0
 49
0.1
 74
0
 49
-0.05
 74
0
 49
0.1
 74
0
 49
-0.05
 74
0
  0
LTYPE
  5
1F8
100
AcDbSymbolTableRecord
100
AcDbLinetypeTableRecord
  2
DOT
 70
64
  3
. . . . . . . . . . . . . . . . . . . .
 72
65
 73
2
 40
0.2
 49
0.1
 74
0
 49
-0.1
 74
0
  0
LTYPE
  5
1F9
100
AcDbSymbolTableRecord
100
AcDbLinetypeTableRecord
  2
DASHED
 70
64
  3
- - - - - - - - - - - - - - - - - - - -
 72
65
 73
2
 40
0.2
 49
0.1
 74
0
 49
-0.1
 74
0
  0
ENDTAB
  0
TABLE
  2
LAYER
  5
2
100
AcDbSymbolTable
 70
36
  0
LAYER
  5
10
100
AcDbSymbolTableRecord
100
AcDbLayerTableRecord
  2
0
 70
0
 62
7
  6
CONTINUOUS
370
-3
390
F
  0
LAYER
  5
1FA
100
AcDbSymbolTableRecord
100
AcDbLayerTableRecord
  2
DEFAULT_1
 70
0
 62
7
  6
CENTER
370
-3
390
F
  0
LAYER
  5
1FB
100
AcDbSymbolTableRecord
100
AcDbLayerTableRecord
  2
DEFAULT_2
 70
0
 62
8
  6
HIDDEN
370
-3
390
F
  0
LAYER
  5
1FC
100
AcDbSymbolTableRecord
100
AcDbLayerTableRecord
  2
DEFAULT_3
 70
0
 62
7
  6
PHANTOM
370
-3
390
F
  0
LAYER
  5
1FD
100
AcDbSymbolTableRecord
100
AcDbLayerTableRecord
  2
ALL_ASSEMBLY_MEMBERS
 70
0
 62
7
  6
CONTINUOUS
370
-3
390
F
  0
LAYER
  5
1FE
100
AcDbSymbolTableRecord
100
AcDbLayerTableRecord
  2
ALL_FEATURES
 70
0
 62
7
  6
CONTINUOUS
370
-3
390
F
  0
LAYER
  5
1FF
100
AcDbSymbolTableRecord
100
AcDbLayerTableRecord
  2
AXES_FEATURES
 70
0
 62
7
  6
CONTINUOUS
370
-3
390
F
  0
LAYER
  5
200
100
AcDbSymbolTableRecord
100
AcDbLayerTableRecord
  2
CHAMFER_FEATURES
 70
0
 62
7
  6
CONTINUOUS
370
-3
390
F
  0
LAYER
  5
201
100
AcDbSymbolTableRecord
100
AcDbLayerTableRecord
  2
COORDINATE_SYSTEMS
 70
0
 62
7
  6
CONTINUOUS
370
-3
390
F
  0
LAYER
  5
202
100
AcDbSymbolTableRecord
100
AcDbLayerTableRecord
  2
CUT_FEATURES
 70
0
 62
7
  6
CONTINUOUS
370
-3
390
F
  0
LAYER
  5
203
100
AcDbSymbolTableRecord
100
AcDbLayerTableRecord
  2
DATUM_CURVES
 70
0
 62
7
  6
CONTINUOUS
370
-3
390
F
  0
LAYER
  5
204
100
AcDbSymbolTableRecord
100
AcDbLayerTableRecord
  2
DATUM_PLANES
 70
0
 62
7
  6
CONTINUOUS
370
-3
390
F
  0
LAYER
  5
205
100
AcDbSymbolTableRecord
100
AcDbLayerTableRecord
  2
DATUM_POINTS
 70
0
 62
7
  6
CONTINUOUS
370
-3
390
F
  0
LAYER
  5
206
100
AcDbSymbolTableRecord
100
AcDbLayerTableRecord
  2
DEFAULT_COORDINATE_SYSTEM
 70
0
 62
7
  6
CONTINUOUS
370
-3
390
F
  0
LAYER
  5
207
100
AcDbSymbolTableRecord
100
AcDbLayerTableRecord
  2
DEFAULT_DATUM_AXES
 70
0
 62
7
  6
CONTINUOUS
370
-3
390
F
  0
LAYER
  5
208
100
AcDbSymbolTableRecord
100
AcDbLayerTableRecord
  2
DEFAULT_DATUM_CURVES
 70
0
 62
7
  6
CONTINUOUS
370
-3
390
F
  0
LAYER
  5
209
100
AcDbSymbolTableRecord
100
AcDbLayerTableRecord
  2
DEFAULT_DATUM_PLANES
 70
0
 62
7
  6
CONTINUOUS
370
-3
390
F
  0
LAYER
  5
20A
100
AcDbSymbolTableRecord
100
AcDbLayerTableRecord
  2
DEFAULT_SURFACES
 70
0
 62
7
  6
CONTINUOUS
370
-3
390
F
  0
LAYER
  5
20B
100
AcDbSymbolTableRecord
100
AcDbLayerTableRecord
  2
DIMENSIONS
 70
0
 62
7
  6
CONTINUOUS
370
-3
390
F
  0
LAYER
  5
20C
100
AcDbSymbolTableRecord
100
AcDbLayerTableRecord
  2
HOLE_FEATURES
 70
0
 62
7
  6
CONTINUOUS
370
-3
390
F
  0
LAYER
  5
20D
100
AcDbSymbolTableRecord
100
AcDbLayerTableRecord
  2
IMPORT_FEATURE
 70
0
 62
7
  6
CONTINUOUS
370
-3
390
F
  0
LAYER
  5
20E
100
AcDbSymbolTableRecord
100
AcDbLayerTableRecord
  2
NOTES
 70
0
 62
7
  6
CONTINUOUS
370
-3
390
F
  0
LAYER
  5
20F
100
AcDbSymbolTableRecord
100
AcDbLayerTableRecord
  2
PART_REFERENCE_DIMENSIONS
 70
0
 62
7
  6
CONTINUOUS
370
-3
390
F
  0
LAYER
  5
210
100
AcDbSymbolTableRecord
100
AcDbLayerTableRecord
  2
PLATED_SURFACES
 70
0
 62
7
  6
CONTINUOUS
370
-3
390
F
  0
LAYER
  5
211
100
AcDbSymbolTableRecord
100
AcDbLayerTableRecord
  2
PLATED_SURFACE_AREA
 70
0
 62
7
  6
CONTINUOUS
370
-3
390
F
  0
LAYER
  5
212
100
AcDbSymbolTableRecord
100
AcDbLayerTableRecord
  2
POINTS
 70
0
 62
7
  6
CONTINUOUS
370
-3
390
F
  0
LAYER
  5
213
100
AcDbSymbolTableRecord
100
AcDbLayerTableRecord
  2
PROTRUSION
 70
0
 62
7
  6
CONTINUOUS
370
-3
390
F
  0
LAYER
  5
214
100
AcDbSymbolTableRecord
100
AcDbLayerTableRecord
  2
PROTRUSION_FEATURES
 70
0
 62
7
  6
CONTINUOUS
370
-3
390
F
  0
LAYER
  5
215
100
AcDbSymbolTableRecord
100
AcDbLayerTableRecord
  2
QUILT
 70
0
 62
7
  6
CONTINUOUS
370
-3
390
F
  0
LAYER
  5
216
100
AcDbSymbolTableRecord
100
AcDbLayerTableRecord
  2
QUILTS
 70
0
 62
7
  6
CONTINUOUS
370
-3
390
F
  0
LAYER
  5
217
100
AcDbSymbolTableRecord
100
AcDbLayerTableRecord
  2
REFERENCE_DIMENSIONS
 70
0
 62
7
  6
CONTINUOUS
370
-3
390
F
  0
LAYER
  5
218
100
AcDbSymbolTableRecord
100
AcDbLayerTableRecord
  2
ROUND_FEATURES
 70
0
 62
7
  6
CONTINUOUS
370
-3
390
F
  0
LAYER
  5
219
100
AcDbSymbolTableRecord
100
AcDbLayerTableRecord
  2
SHELL_FEATURES
 70
0
 62
7
  6
CONTINUOUS
370
-3
390
F
  0
LAYER
  5
21A
100
AcDbSymbolTableRecord
100
AcDbLayerTableRecord
  2
SURFACE_FEATURES
 70
0
 62
7
  6
CONTINUOUS
370
-3
390
F
  0
LAYER
  5
21B
100
AcDbSymbolTableRecord
100
AcDbLayerTableRecord
  2
XSEC_DATUMS
 70
0
 62
7
  6
CONTINUOUS
370
-3
390
F
  0
ENDTAB
  0
TABLE
  2
STYLE
  5
3
100
AcDbSymbolTable
 70
1
  0
STYLE
  5
11
100
AcDbSymbolTableRecord
100
AcDbTextStyleTableRecord
  2
STANDARD
 70
0
 40
0.0
 41
0.8
 50
0.0
 71
0
 42
0.2
  3
txt
  4

  0
STYLE
  5
21C
100
AcDbSymbolTableRecord
100
AcDbTextStyleTableRecord
  2
TEXTSTYLE_1
 70
0
 40
0.0
 41
0.8
 50
0.0
 71
0
 42
0.2
  3
gdt
  4

  0
ENDTAB
  0
TABLE
  2
VIEW
  5
6
100
AcDbSymbolTable
 70
0
  0
ENDTAB
  0
TABLE
  2
UCS
  5
7
100
AcDbSymbolTable
 70
0
  0
ENDTAB
  0
TABLE
  2
APPID
  5
9
100
AcDbSymbolTable
 70
1
  0
APPID
  5
21D
100
AcDbSymbolTableRecord
100
AcDbRegAppTableRecord
  2
ACAD
 70
0
  0
ENDTAB
  0
TABLE
  2
BLOCK_RECORD
  5
1
100
AcDbSymbolTable
 70
0
  0
BLOCK_RECORD
  5
21E
100
AcDbSymbolTableRecord
100
AcDbBlockTableRecord
  2
*Model_Space
  0
BLOCK_RECORD
  5
21F
100
AcDbSymbolTableRecord
100
AcDbBlockTableRecord
  2
*Paper_Space
  0
BLOCK_RECORD
  5
220
100
AcDbSymbolTableRecord
100
AcDbBlockTableRecord
  2
_FILLED
  0
ENDTAB
  0
TABLE
  2
DIMSTYLE
  5
A
100
AcDbSymbolTable
 70
1
100
AcDbDimStyleTable
 71
0
  0
DIMSTYLE
105
221
100
AcDbSymbolTableRecord
100
AcDbDimStyleTableRecord
  2
STANDARD
 70
0
  3

  4

 40
1.0
 41
0.1
 42
0.0625
 43
0.38
 44
0.125
 45
0.0
 46
0.0
 47
0.001
 48
0.001
140
0.08
141
0.09
142
0.0
143
25.4
144
1.0
145
0.0
146
1.0
147
0.09
 71
1.0
 72
0.0
 73
1
 74
1
 75
0
 76
0
 77
0
 78
4
 79
1
170
1
171
2
172
0
173
0
174
0
175
0
176
0
177
0
178
0
270
2
179
3
271
3
272
3
273
2
274
2
275
0
280
0
281
0
282
0
283
1
284
4
285
0
286
0
287
3
288
0
340
11
278
46
341
220
342
220
343
220
344
220
  0
ENDTAB
  0
ENDSEC
  0
SECTION
  2
BLOCKS
  0
BLOCK
  5
20
100
AcDbEntity
  8
0
100
AcDbBlockBegin
  2
*Model_Space
 70
0
 10
0.0
 20
0.0
 30
0.0
  3
*Model_Space
  1

  0
ENDBLK
  5
21
100
AcDbEntity
  8
0
100
AcDbBlockEnd
  0
BLOCK
  5
1C
100
AcDbEntity
  8
0
100
AcDbBlockBegin
  2
*Paper_Space
 70
0
 10
0.0
 20
0.0
 30
0.0
  3
*Paper_Space
  1

  0
ENDBLK
  5
1D
100
AcDbEntity
  8
0
100
AcDbBlockEnd
  0
BLOCK
  5
222
100
AcDbEntity
  8
0
100
AcDbBlockBegin
  2
_FILLED
 70
64
 10
0.0
 20
0.0
  3
_FILLED
  1

  0
SOLID
  5
223
100
AcDbEntity
  8
0
  6
BYBLOCK
 62
0
100
AcDbTrace
 10
0.0
 20
0.0
 11
-1.0
 21
0.2
 12
-1.0
 22
-0.2
 13
-1.0
 23
-0.2
  0
ENDBLK
  5
224
100
AcDbEntity
  8
0
  6
BYBLOCK
 62
0
100
AcDbBlockEnd
  0
ENDSEC
  0
SECTION
  2
ENTITIES
  0
MTEXT
  5
225
100
AcDbEntity
  8
0
100
AcDbMText
 62
2
  6
CONTINUOUS
  7
STANDARD
 71
3
 72
1
 10
4.8543478261
 20
2.3780007764
 30
0.0
 11
1.0
 21
0.0
 31
0.0
 73
2
 44
0.9
  1
SCALE  .500
 40
0.08
 41
0.704
  0
LINE
  5
226
100
AcDbEntity
  8
0
100
AcDbLine
 62
7
  6
CONTINUOUS
 10
0.0
 20
0.0
 11
0.0
 21
8.5
  0
LINE
  5
227
100
AcDbEntity
  8
0
100
AcDbLine
 62
7
  6
CONTINUOUS
 10
0.0
 20
0.0
 11
11.0
 21
0.0
  0
LINE
  5
228
100
AcDbEntity
  8
0
100
AcDbLine
 62
7
  6
CONTINUOUS
 10
0.0
 20
8.5
 11
11.0
 21
8.5
  0
LINE
  5
229
100
AcDbEntity
  8
0
100
AcDbLine
 62
7
  6
CONTINUOUS
 10
11.0
 20
0.0
 11
11.0
 21
8.5
  0
LINE
  5
22A
100
AcDbEntity
  8
0
100
AcDbLine
 62
7
  6
CONTINUOUS
 10
4.1644301623
 20
4.2954204058
 11
4.1657810763
 21
4.279979388
  0
LINE
  5
22B
100
AcDbEntity
  8
0
100
AcDbLine
 62
7
  6
CONTINUOUS
 10
4.1626654319
 20
4.4465059772
 11
4.1629108756
 21
4.4490894537
  0
LINE
  5
22C
100
AcDbEntity
  8
0
100
AcDbLine
 62
7
  6
CONTINUOUS
 10
4.1629108756
 20
4.4490894537
 11
4.1631362994
 21
4.4511509376
  0
LINE
  5
22D
100
AcDbEntity
  8
0
100
AcDbLine
 62
7
  6
CONTINUOUS
 10
4.1824186637
 20
4.5394139668
 11
4.1830122553
 21
4.5419402735
  0
LINE
  5
22E
100
AcDbEntity
  8
0
100
AcDbLine
 62
7
  6
CONTINUOUS
 10
4.1830122553
 20
4.5419402735
 11
4.1835152106
 21
4.5439521286
  0
LINE
  5
22F
100
AcDbEntity
  8
0
100
AcDbLine
 62
7
  6
CONTINUOUS
 10
4.4441564821
 20
4.9052207863
 11
4.4317776317
 21
4.8958926535
  0
LINE
  5
230
100
AcDbEntity
  8
0
100
AcDbLine
 62
7
  6
CONTINUOUS
 10
4.318318336
 20
3.899893429
 11
4.3165626726
 21
3.9018045125
  0
LINE
  5
231
100
AcDbEntity
  8
0
100
AcDbLine
 62
7
  6
CONTINUOUS
 10
4.3165626726
 20
3.9018045125
 11
4.3151815295
 21
3.9033514369
  0
LINE
  5
232
100
AcDbEntity
  8
0
100
AcDbLine
 62
7
  6
CONTINUOUS
 10
4.2404956787
 20
4.2865160687
 11
4.2391447647
 21
4.3019570865
  0
LINE
  5
233
100
AcDbEntity
  8
0
100
AcDbLine
 62
7
  6
CONTINUOUS
 10
4.2480378053
 20
4.1905730126
 11
4.2480378053
 21
4.5054285402
  0
LINE
  5
234
100
AcDbEntity
  8
0
100
AcDbLine
 62
7
  6
CONTINUOUS
 10
4.2779914962
 20
4.5042507764
 11
4.2779914962
 21
4.1917507764
  0
LINE
  5
235
100
AcDbEntity
  8
0
100
AcDbLine
 62
7
  6
CONTINUOUS
 10
4.2910370344
 20
4.5632527785
 11
4.2879350332
 21
4.5537743287
  0
LINE
  5
236
100
AcDbEntity
  8
0
100
AcDbLine
 62
7
  6
CONTINUOUS
 10
4.2838909446
 20
4.5414172444
 11
4.277755875
 21
4.5226709751
  0
LINE
  5
237
100
AcDbEntity
  8
0
100
AcDbLine
 62
7
  6
CONTINUOUS
 10
4.2751823607
 20
4.5148073658
 11
4.2747642774
 21
4.5135298738
  0
LINE
  5
238
100
AcDbEntity
  8
0
100
AcDbLine
 62
7
  6
CONTINUOUS
 10
4.2767223037
 20
4.510249789
 11
4.2937752536
 21
4.5623566447
  0
LINE
  5
239
100
AcDbEntity
  8
0
100
AcDbLine
 62
7
  6
CONTINUOUS
 10
4.2241944276
 20
4.6378178315
 11
4.2239351702
 21
4.6374508016
  0
LINE
  5
23A
100
AcDbEntity
  8
0
100
AcDbLine
 62
7
  6
CONTINUOUS
 10
4.2605030441
 20
4.6069967038
 11
4.2624301782
 21
4.6086093086
  0
LINE
  5
23B
100
AcDbEntity
  8
0
100
AcDbLine
 62
7
  6
CONTINUOUS
 10
4.4769137584
 20
4.8359949902
 11
4.4892926088
 21
4.8453231231
  0
LINE
  5
23C
100
AcDbEntity
  8
0
100
AcDbLine
 62
7
  6
CONTINUOUS
 10
4.2272227994
 20
4.67450226
 11
4.2249539097
 21
4.673710974
  0
LINE
  5
23D
100
AcDbEntity
  8
0
100
AcDbLine
 62
7
  6
CONTINUOUS
 10
5.3849615983
 20
3.8913099065
 11
5.3873512418
 21
3.8915622696
  0
LINE
  5
23E
100
AcDbEntity
  8
0
100
AcDbLine
 62
7
  6
CONTINUOUS
 10
4.6969200622
 20
3.7416907556
 11
5.0117755899
 21
3.7416907556
  0
LINE
  5
23F
100
AcDbEntity
  8
0
100
AcDbLine
 62
7
  6
CONTINUOUS
 10
4.6980996569
 20
3.7716444465
 11
5.010597826
 21
3.7716444465
  0
LINE
  5
240
100
AcDbEntity
  8
0
100
AcDbLine
 62
7
  6
CONTINUOUS
 10
4.2748820013
 20
4.0081667837
 11
4.2758713143
 21
4.0072045269
  0
LINE
  5
241
100
AcDbEntity
  8
0
100
AcDbLine
 62
7
  6
CONTINUOUS
 10
4.3596623898
 20
4.0031257385
 11
4.3657576331
 21
3.9952319712
  0
LINE
  5
242
100
AcDbEntity
  8
0
100
AcDbLine
 62
7
  6
CONTINUOUS
 10
4.3737040194
 20
3.9849408439
 11
4.3857590493
 21
3.969328735
  0
LINE
  5
243
100
AcDbEntity
  8
0
100
AcDbLine
 62
7
  6
CONTINUOUS
 10
4.3908158406
 20
3.9627798358
 11
4.3955565826
 21
3.9566402424
  0
LINE
  5
244
100
AcDbEntity
  8
0
100
AcDbLine
 62
7
  6
CONTINUOUS
 10
4.3978370031
 20
3.9584010895
 11
4.3619428102
 21
4.0048865856
  0
LINE
  5
245
100
AcDbEntity
  8
0
100
AcDbLine
 62
7
  6
CONTINUOUS
 10
4.2758713143
 20
4.0072045269
 11
4.2765309399
 21
4.0062209144
  0
LINE
  5
246
100
AcDbEntity
  8
0
100
AcDbLine
 62
7
  6
CONTINUOUS
 10
4.2797590564
 20
4.0049401472
 11
4.2792377126
 21
4.0058333853
  0
LINE
  5
247
100
AcDbEntity
  8
0
100
AcDbLine
 62
7
  6
CONTINUOUS
 10
4.3128871245
 20
4.0526739917
 11
4.3315810451
 21
4.0206449949
  0
LINE
  5
248
100
AcDbEntity
  8
0
100
AcDbLine
 62
7
  6
CONTINUOUS
 10
4.3392440732
 20
4.0193865604
 11
4.3150760422
 21
4.0607945566
  0
LINE
  5
249
100
AcDbEntity
  8
0
100
AcDbLine
 62
7
  6
CONTINUOUS
 10
4.3234615096
 20
4.0626949772
 11
4.3490818598
 21
4.0187986677
  0
LINE
  5
24A
100
AcDbEntity
  8
0
100
AcDbLine
 62
7
  6
CONTINUOUS
 10
4.3544747999
 20
4.0152743689
 11
4.3233430984
 21
4.0686134836
  0
LINE
  5
24B
100
AcDbEntity
  8
0
100
AcDbLine
 62
7
  6
CONTINUOUS
 10
4.2958309544
 20
4.0629914276
 11
4.2964965356
 21
4.0593596339
  0
LINE
  5
24C
100
AcDbEntity
  8
0
100
AcDbLine
 62
7
  6
CONTINUOUS
 10
4.2756419237
 20
4.0102355341
 11
4.2748820013
 21
4.0081667837
  0
LINE
  5
24D
100
AcDbEntity
  8
0
100
AcDbLine
 62
7
  6
CONTINUOUS
 10
4.3490818598
 20
4.0187986677
 11
4.3392440732
 21
4.0193865604
  0
LINE
  5
24E
100
AcDbEntity
  8
0
100
AcDbLine
 62
7
  6
CONTINUOUS
 10
4.3030818412
 20
4.028731584
 11
4.3011779373
 21
4.0295021859
  0
LINE
  5
24F
100
AcDbEntity
  8
0
100
AcDbLine
 62
7
  6
CONTINUOUS
 10
4.3150760422
 20
4.0607945566
 11
4.3234615096
 21
4.0626949772
  0
LINE
  5
250
100
AcDbEntity
  8
0
100
AcDbLine
 62
7
  6
CONTINUOUS
 10
4.7341884861
 20
5.0392376005
 11
4.7342902246
 21
5.0362696057
  0
LINE
  5
251
100
AcDbEntity
  8
0
100
AcDbLine
 62
7
  6
CONTINUOUS
 10
4.711847826
 20
3.7716444465
 11
4.7570418897
 21
4.1171477514
  0
LINE
  5
252
100
AcDbEntity
  8
0
100
AcDbLine
 62
7
  6
CONTINUOUS
 10
5.2931396591
 20
4.8829893795
 11
5.2449305883
 21
4.8255360462
  0
LINE
  5
253
100
AcDbEntity
  8
0
100
AcDbLine
 62
7
  6
CONTINUOUS
 10
5.2568042772
 20
4.8155728383
 11
5.3050133479
 21
4.8730261715
  0
LINE
  5
254
100
AcDbEntity
  8
0
100
AcDbLine
 62
7
  6
CONTINUOUS
 10
4.3619428102
 20
4.0048865856
 11
4.3596623898
 21
4.0031257385
  0
LINE
  5
255
100
AcDbEntity
  8
0
100
AcDbLine
 62
7
  6
CONTINUOUS
 10
4.362079123
 20
3.9772712723
 11
4.2888717764
 21
3.9207435628
  0
LINE
  5
256
100
AcDbEntity
  8
0
100
AcDbLine
 62
7
  6
CONTINUOUS
 10
4.2978203006
 20
3.9190664027
 11
4.3694488945
 21
3.974375064
  0
LINE
  5
257
100
AcDbEntity
  8
0
100
AcDbLine
 62
7
  6
CONTINUOUS
 10
4.3736952131
 20
3.9676670257
 11
4.3156906714
 21
3.9228782984
  0
LINE
  5
258
100
AcDbEntity
  8
0
100
AcDbLine
 62
7
  6
CONTINUOUS
 10
4.3166861982
 20
3.9203802688
 11
4.3726442073
 21
3.9635887475
  0
LINE
  5
259
100
AcDbEntity
  8
0
100
AcDbLine
 62
7
  6
CONTINUOUS
 10
5.4401239817
 20
4.5218756632
 11
5.4419890808
 21
4.5223578739
  0
LINE
  5
25A
100
AcDbEntity
  8
0
100
AcDbLine
 62
7
  6
CONTINUOUS
 10
4.2779914962
 20
4.2055007764
 11
4.6235008229
 21
4.2506956277
  0
LINE
  5
25B
100
AcDbEntity
  8
0
100
AcDbLine
 62
7
  6
CONTINUOUS
 10
4.1657810763
 20
4.279979388
 11
4.2404956787
 21
4.2865160687
  0
LINE
  5
25C
100
AcDbEntity
  8
0
100
AcDbLine
 62
7
  6
CONTINUOUS
 10
4.2391447647
 20
4.3019570865
 11
4.1644301623
 21
4.2954204058
  0
LINE
  5
25D
100
AcDbEntity
  8
0
100
AcDbLine
 62
7
  6
CONTINUOUS
 10
4.603759847
 20
4.3480007764
 11
4.6922650583
 21
4.3480007764
  0
LINE
  5
25E
100
AcDbEntity
  8
0
100
AcDbLine
 62
7
  6
CONTINUOUS
 10
5.0164305938
 20
4.3480007764
 11
5.1049358051
 21
4.3480007764
  0
LINE
  5
25F
100
AcDbEntity
  8
0
100
AcDbLine
 62
7
  6
CONTINUOUS
 10
5.4307041559
 20
4.2055007764
 11
5.0851946688
 21
4.2506956487
  0
LINE
  5
260
100
AcDbEntity
  8
0
100
AcDbLine
 62
7
  6
CONTINUOUS
 10
5.4634900745
 20
4.2327230067
 11
5.5343659168
 21
4.2202256834
  0
LINE
  5
261
100
AcDbEntity
  8
0
100
AcDbLine
 62
7
  6
CONTINUOUS
 10
5.5370574635
 20
4.2354902036
 11
5.4643401796
 21
4.2483122227
  0
LINE
  5
262
100
AcDbEntity
  8
0
100
AcDbLine
 62
7
  6
CONTINUOUS
 10
4.1767980075
 20
4.4614272634
 11
4.2444204843
 21
4.4491062881
  0
LINE
  5
263
100
AcDbEntity
  8
0
100
AcDbLine
 62
7
  6
CONTINUOUS
 10
4.2445400697
 20
4.4517126963
 11
4.1779882679
 21
4.4638385921
  0
LINE
  5
264
100
AcDbEntity
  8
0
100
AcDbLine
 62
7
  6
CONTINUOUS
 10
4.1631978652
 20
4.4745682096
 11
4.24499232
 21
4.4596650663
  0
LINE
  5
265
100
AcDbEntity
  8
0
100
AcDbLine
 62
7
  6
CONTINUOUS
 10
4.2453956973
 20
4.4664999719
 11
4.1584565066
 21
4.4823404982
  0
LINE
  5
266
100
AcDbEntity
  8
0
100
AcDbLine
 62
7
  6
CONTINUOUS
 10
4.1598112621
 20
4.4473263789
 11
4.1626654319
 21
4.4465059772
  0
LINE
  5
267
100
AcDbEntity
  8
0
100
AcDbLine
 62
7
  6
CONTINUOUS
 10
4.1984445222
 20
4.5522804391
 11
4.2656362073
 21
4.5302906946
  0
LINE
  5
268
100
AcDbEntity
  8
0
100
AcDbLine
 62
7
  6
CONTINUOUS
 10
4.2695999163
 20
4.5317140808
 11
4.1999508533
 21
4.5545080484
  0
LINE
  5
269
100
AcDbEntity
  8
0
100
AcDbLine
 62
7
  6
CONTINUOUS
 10
4.1867524788
 20
4.5671446465
 11
4.2727606482
 21
4.5389968532
  0
LINE
  5
26A
100
AcDbEntity
  8
0
100
AcDbLine
 62
7
  6
CONTINUOUS
 10
4.2710130129
 20
4.5467200184
 11
4.1831091531
 21
4.5754882121
  0
LINE
  5
26B
100
AcDbEntity
  8
0
100
AcDbLine
 62
7
  6
CONTINUOUS
 10
4.1797021468
 20
4.5406139155
 11
4.1824186637
 21
4.5394139668
  0
LINE
  5
26C
100
AcDbEntity
  8
0
100
AcDbLine
 62
7
  6
CONTINUOUS
 10
4.2239351702
 20
4.6374508016
 11
4.2187324342
 21
4.6409473372
  0
LINE
  5
26D
100
AcDbEntity
  8
0
100
AcDbLine
 62
7
  6
CONTINUOUS
 10
4.2097099932
 20
4.6434989614
 11
4.2521026414
 21
4.6147443794
  0
LINE
  5
26E
100
AcDbEntity
  8
0
100
AcDbLine
 62
7
  6
CONTINUOUS
 10
4.2556195631
 20
4.6160815926
 11
4.2264012023
 21
4.6359319522
  0
LINE
  5
26F
100
AcDbEntity
  8
0
100
AcDbLine
 62
7
  6
CONTINUOUS
 10
4.4317776317
 20
4.8958926535
 11
4.4769137584
 21
4.8359949902
  0
LINE
  5
270
100
AcDbEntity
  8
0
100
AcDbLine
 62
7
  6
CONTINUOUS
 10
4.4892926088
 20
4.8453231231
 11
4.4441564821
 21
4.9052207863
  0
LINE
  5
271
100
AcDbEntity
  8
0
100
AcDbLine
 62
7
  6
CONTINUOUS
 10
4.7528484172
 20
5.0274396585
 11
4.7621593139
 21
4.9583372414
  0
LINE
  5
272
100
AcDbEntity
  8
0
100
AcDbLine
 62
7
  6
CONTINUOUS
 10
4.7647522785
 20
4.9584562099
 11
4.7555095377
 21
5.0270527952
  0
LINE
  5
273
100
AcDbEntity
  8
0
100
AcDbLine
 62
7
  6
CONTINUOUS
 10
4.7611435246
 20
5.0444349382
 11
4.7726793389
 21
4.9588199135
  0
LINE
  5
274
100
AcDbEntity
  8
0
100
AcDbLine
 62
7
  6
CONTINUOUS
 10
4.779421009
 20
4.9596827308
 11
4.76707025
 21
5.0513460075
  0
LINE
  5
275
100
AcDbEntity
  8
0
100
AcDbLine
 62
7
  6
CONTINUOUS
 10
4.711847826
 20
4.9243571063
 11
4.7570417618
 21
4.5788547791
  0
LINE
  5
276
100
AcDbEntity
  8
0
100
AcDbLine
 62
7
  6
CONTINUOUS
 10
4.996847826
 20
4.9243571063
 11
4.9516537624
 21
4.5788538014
  0
LINE
  5
277
100
AcDbEntity
  8
0
100
AcDbLine
 62
7
  6
CONTINUOUS
 10
4.3955565826
 20
3.9566402424
 11
4.3978370031
 21
3.9584010895
  0
LINE
  5
278
100
AcDbEntity
  8
0
100
AcDbLine
 62
7
  6
CONTINUOUS
 10
4.3157988463
 20
3.8983213234
 11
4.318318336
 21
3.899893429
  0
LINE
  5
279
100
AcDbEntity
  8
0
100
AcDbLine
 62
7
  6
CONTINUOUS
 10
5.4380712484
 20
4.5214853961
 11
5.4401239817
 21
4.5218756632
  0
LINE
  5
27A
100
AcDbEntity
  8
0
100
AcDbLine
 62
7
  6
CONTINUOUS
 10
5.4307041559
 20
4.4905007764
 11
5.0851948292
 21
4.4453059251
  0
LINE
  5
27B
100
AcDbEntity
  8
0
100
AcDbLine
 62
7
  6
CONTINUOUS
 10
5.5257022172
 20
4.4925563781
 11
5.5319627072
 21
4.4928733405
  0
LINE
  5
27C
100
AcDbEntity
  8
0
100
AcDbLine
 62
7
  6
CONTINUOUS
 10
5.5407156498
 20
4.4962350665
 11
5.4895459203
 21
4.4938641396
  0
LINE
  5
27D
100
AcDbEntity
  8
0
100
AcDbLine
 62
7
  6
CONTINUOUS
 10
5.4875309199
 20
4.4906866224
 11
5.5228177686
 21
4.492295277
  0
LINE
  5
27E
100
AcDbEntity
  8
0
100
AcDbLine
 62
7
  6
CONTINUOUS
 10
4.2779914962
 20
4.4905007764
 11
4.6235009833
 21
4.4453059041
  0
LINE
  5
27F
100
AcDbEntity
  8
0
100
AcDbLine
 62
7
  6
CONTINUOUS
 10
4.2937752536
 20
4.5623566447
 11
4.2910370344
 21
4.5632527785
  0
LINE
  5
280
100
AcDbEntity
  8
0
100
AcDbLine
 62
7
  6
CONTINUOUS
 10
5.3966221258
 20
3.9266320254
 11
5.4008890985
 21
3.9220399513
  0
LINE
  5
281
100
AcDbEntity
  8
0
100
AcDbLine
 62
7
  6
CONTINUOUS
 10
5.4090906131
 20
3.9174956841
 11
5.3743831096
 21
3.9551699686
  0
LINE
  5
282
100
AcDbEntity
  8
0
100
AcDbLine
 62
7
  6
CONTINUOUS
 10
5.3706537729
 20
3.9546710798
 11
5.3945680229
 21
3.9286738087
  0
LINE
  5
283
100
AcDbEntity
  8
0
100
AcDbLine
 62
7
  6
CONTINUOUS
 10
4.996847826
 20
3.7716444465
 11
4.9516538903
 21
4.1171467737
  0
LINE
  5
284
100
AcDbEntity
  8
0
100
AcDbLine
 62
7
  6
CONTINUOUS
 10
5.4641886812
 20
4.0045415338
 11
5.4443131493
 21
4.0253513923
  0
LINE
  5
285
100
AcDbEntity
  8
0
100
AcDbLine
 62
7
  6
CONTINUOUS
 10
5.452123338
 20
4.0127010622
 11
5.4578918764
 21
4.0064392114
  0
LINE
  5
286
100
AcDbEntity
  8
0
100
AcDbLine
 62
7
  6
CONTINUOUS
 10
5.428702225
 20
3.9592585452
 11
5.4255329259
 21
3.9656497091
  0
LINE
  5
287
100
AcDbEntity
  8
0
100
AcDbLine
 62
7
  6
CONTINUOUS
 10
5.4625283999
 20
4.5684292589
 11
5.4622141001
 21
4.5668381118
  0
LINE
  5
288
100
AcDbEntity
  8
0
100
AcDbLine
 62
7
  6
CONTINUOUS
 10
5.4610539473
 20
4.5512930009
 11
5.4615741793
 21
4.553423128
  0
LINE
  5
289
100
AcDbEntity
  8
0
100
AcDbLine
 62
7
  6
CONTINUOUS
 10
5.5452652875
 20
4.4609192754
 11
5.5466079994
 21
4.4629120644
  0
LINE
  5
28A
100
AcDbEntity
  8
0
100
AcDbLine
 62
7
  6
CONTINUOUS
 10
5.5257144937
 20
4.4921071847
 11
5.5257022172
 21
4.4925563781
  0
LINE
  5
28B
100
AcDbEntity
  8
0
100
AcDbLine
 62
7
  6
CONTINUOUS
 10
5.4307041559
 20
4.1917526072
 11
5.4307041559
 21
4.5042507764
  0
LINE
  5
28C
100
AcDbEntity
  8
0
100
AcDbLine
 62
7
  6
CONTINUOUS
 10
5.4606578468
 20
4.1905730126
 11
5.4606578468
 21
4.5054285402
  0
LINE
  5
28D
100
AcDbEntity
  8
0
100
AcDbLine
 62
7
  6
CONTINUOUS
 10
5.4521062202
 20
4.0095843184
 11
5.452123338
 21
4.0127010622
  0
LINE
  5
28E
100
AcDbEntity
  8
0
100
AcDbLine
 62
7
  6
CONTINUOUS
 10
5.5343659168
 20
4.2202256834
 11
5.5370574635
 21
4.2354902036
  0
LINE
  5
28F
100
AcDbEntity
  8
0
100
AcDbLine
 62
7
  6
CONTINUOUS
 10
5.4781783801
 20
4.4950355981
 11
5.4776013207
 21
4.4925899136
  0
LINE
  5
290
100
AcDbEntity
  8
0
100
AcDbLine
 62
7
  6
CONTINUOUS
 10
5.3750167894
 20
4.063445669
 11
5.3640172261
 21
4.045666535
  0
LINE
  5
291
100
AcDbEntity
  8
0
100
AcDbLine
 62
7
  6
CONTINUOUS
 10
5.3699654482
 20
4.0498048357
 11
5.3753291934
 21
4.0584745203
  0
LINE
  5
292
100
AcDbEntity
  8
0
100
AcDbLine
 62
7
  6
CONTINUOUS
 10
5.4463736043
 20
4.0045307948
 11
5.4239858019
 21
3.9683442909
  0
LINE
  5
293
100
AcDbEntity
  8
0
100
AcDbLine
 62
7
  6
CONTINUOUS
 10
5.4255329259
 20
3.9656497091
 11
5.4506803363
 21
4.0062967029
  0
LINE
  5
294
100
AcDbEntity
  8
0
100
AcDbLine
 62
7
  6
CONTINUOUS
 10
5.4578918764
 20
4.0064392114
 11
5.428702225
 21
3.9592585452
  0
LINE
  5
295
100
AcDbEntity
  8
0
100
AcDbLine
 62
7
  6
CONTINUOUS
 10
5.4301016954
 20
3.9494450656
 11
5.4641886812
 21
4.0045415338
  0
LINE
  5
296
100
AcDbEntity
  8
0
100
AcDbLine
 62
7
  6
CONTINUOUS
 10
5.4443131493
 20
4.0253513923
 11
5.4426056565
 21
4.0237147973
  0
LINE
  5
297
100
AcDbEntity
  8
0
100
AcDbLine
 62
7
  6
CONTINUOUS
 10
5.3962859148
 20
3.9263338851
 11
5.3966221258
 21
3.9266320254
  0
LINE
  5
298
100
AcDbEntity
  8
0
100
AcDbLine
 62
7
  6
CONTINUOUS
 10
5.3679735849
 20
3.9646310086
 11
5.3657291552
 21
3.963501006
  0
LINE
  5
299
100
AcDbEntity
  8
0
100
AcDbLine
 62
7
  6
CONTINUOUS
 10
4.7342902246
 20
5.0362696057
 11
4.7368231031
 21
5.036834513
  0
LINE
  5
29A
100
AcDbEntity
  8
0
100
AcDbLine
 62
7
  6
CONTINUOUS
 10
4.7368231031
 20
5.036834513
 11
4.7388533506
 21
5.0372571558
  0
LINE
  5
29B
100
AcDbEntity
  8
0
100
AcDbLine
 62
7
  6
CONTINUOUS
 10
5.010597826
 20
4.9243571063
 11
4.698097826
 21
4.9243571063
  0
LINE
  5
29C
100
AcDbEntity
  8
0
100
AcDbLine
 62
7
  6
CONTINUOUS
 10
4.6969200622
 20
4.9543107972
 11
5.0117755899
 21
4.9543107972
  0
LINE
  5
29D
100
AcDbEntity
  8
ALL_FEATURES
100
AcDbLine
 62
7
  6
CONTINUOUS
 10
4.8098023715
 20
4.9722249358
 11
4.8988932806
 21
4.9722249358
  0
LINE
  5
29E
100
AcDbEntity
  8
0
100
AcDbLine
 62
7
  6
CONTINUOUS
 10
5.2449305883
 20
4.8255360462
 11
5.2568042772
 21
4.8155728383
  0
LINE
  5
29F
100
AcDbEntity
  8
0
100
AcDbLine
 62
7
  6
CONTINUOUS
 10
5.3050133479
 20
4.8730261715
 11
5.2931396591
 21
4.8829893795
  0
ARC
  5
2A0
100
AcDbEntity
  8
0
100
AcDbCircle
 62
7
  6
CONTINUOUS
 10
4.2687066695
 20
4.0553106847
 40
0.0844582841
100
AcDbArc
 50
112.2482040417
 51
126.2695891811
  0
ARC
  5
2A1
100
AcDbEntity
  8
0
100
AcDbCircle
 62
7
  6
CONTINUOUS
 10
4.2629914962
 20
4.1917507764
 40
0.015
100
AcDbArc
 50
184.5033617277
 51
360.0
  0
ARC
  5
2A2
100
AcDbEntity
  8
0
100
AcDbCircle
 62
7
  6
CONTINUOUS
 10
4.698097826
 20
3.7566444465
 40
0.015
100
AcDbArc
 50
90.0
 51
265.4966382723
  0
ARC
  5
2A3
100
AcDbEntity
  8
0
100
AcDbCircle
 62
7
  6
CONTINUOUS
 10
3.461847826
 20
4.3480007764
 40
2.005
100
AcDbArc
 50
355.4966382723
 51
4.5033617277
  0
ARC
  5
2A4
100
AcDbEntity
  8
0
100
AcDbCircle
 62
7
  6
CONTINUOUS
 10
4.8046854935
 20
5.0008232996
 40
0.0844582841
100
AcDbArc
 50
0.0431807038
 51
14.0645658887
  0
ARC
  5
2A5
100
AcDbEntity
  8
0
100
AcDbCircle
 62
7
  6
CONTINUOUS
 10
4.8170151397
 20
4.9973936449
 40
0.071719848
100
AcDbArc
 50
342.6297250309
 51
346.1877439889
  0
ARC
  5
2A6
100
AcDbEntity
  8
ALL_FEATURES
100
AcDbCircle
 62
7
  6
CONTINUOUS
 10
4.819347826
 20
4.9437840445
 40
0.03
100
AcDbArc
 50
108.553004535
 51
148.2796854381
  0
ARC
  5
2A7
100
AcDbEntity
  8
0
100
AcDbCircle
 62
7
  6
CONTINUOUS
 10
4.8033781246
 20
4.9627643916
 40
0.0241545031
100
AcDbArc
 50
187.3298421878
 51
188.7716258415
  0
ARC
  5
2A8
100
AcDbEntity
  8
0
100
AcDbCircle
 62
7
  6
CONTINUOUS
 10
4.2063103258
 20
4.6485689873
 40
0.0237347405
100
AcDbArc
 50
327.8303649348
 51
334.2636995778
  0
ARC
  5
2A9
100
AcDbEntity
  8
0
100
AcDbCircle
 62
7
  6
CONTINUOUS
 10
4.2629914962
 20
4.5042507764
 40
0.015
100
AcDbArc
 50
0.0
 51
175.4966382723
  0
ARC
  5
2AA
100
AcDbEntity
  8
0
100
AcDbCircle
 62
7
  6
CONTINUOUS
 10
4.698097826
 20
4.9393571063
 40
0.015
100
AcDbArc
 50
94.5033617277
 51
270.0
  0
ARC
  5
2AB
100
AcDbEntity
  8
0
100
AcDbCircle
 62
7
  6
CONTINUOUS
 10
4.854347826
 20
2.9555007764
 40
2.005
100
AcDbArc
 50
85.4966382723
 51
94.5033617277
  0
ARC
  5
2AC
100
AcDbEntity
  8
0
100
AcDbCircle
 62
7
  6
CONTINUOUS
 10
5.4112429858
 20
3.9117832433
 40
0.0237349009
100
AcDbArc
 50
134.6319753409
 51
141.065266467
  0
ARC
  5
2AD
100
AcDbEntity
  8
0
100
AcDbCircle
 62
7
  6
CONTINUOUS
 10
5.4457041559
 20
4.1917507764
 40
0.015
100
AcDbArc
 50
180.0
 51
355.4966382723
  0
ARC
  5
2AE
100
AcDbEntity
  8
0
100
AcDbCircle
 62
7
  6
CONTINUOUS
 10
5.010597826
 20
3.7566444465
 40
0.015
100
AcDbArc
 50
274.5033617277
 51
90.0
  0
CIRCLE
  5
2AF
100
AcDbEntity
  8
ALL_FEATURES
100
AcDbCircle
 62
7
  6
CONTINUOUS
 10
4.854347826
 20
4.3480007764
 40
1.875
  0
CIRCLE
  5
2B0
100
AcDbEntity
  8
ALL_FEATURES
100
AcDbCircle
 62
7
  6
CONTINUOUS
 10
4.854347826
 20
4.3480007764
 40
1.8389850315
  0
CIRCLE
  5
2B1
100
AcDbEntity
  8
ALL_FEATURES
100
AcDbCircle
 62
7
  6
CONTINUOUS
 10
4.854347826
 20
4.3480007764
 40
1.6550988929
  0
CIRCLE
  5
2B2
100
AcDbEntity
  8
ALL_FEATURES
100
AcDbCircle
 62
7
  6
CONTINUOUS
 10
4.854347826
 20
4.3480007764
 40
1.6165
  0
CIRCLE
  5
2B3
100
AcDbEntity
  8
ALL_FEATURES
100
AcDbCircle
 62
7
  6
CONTINUOUS
 10
4.854347826
 20
4.3480007764
 40
0.8784915687
  0
CIRCLE
  5
2B4
100
AcDbEntity
  8
ALL_FEATURES
100
AcDbCircle
 62
7
  6
CONTINUOUS
 10
4.854347826
 20
4.3480007764
 40
0.8684949955
  0
CIRCLE
  5
2B5
100
AcDbEntity
  8
ALL_FEATURES
100
AcDbCircle
 62
7
  6
CONTINUOUS
 10
4.854347826
 20
4.3480007764
 40
0.8673683844
  0
CIRCLE
  5
2B6
100
AcDbEntity
  8
ALL_FEATURES
100
AcDbCircle
 62
7
  6
CONTINUOUS
 10
4.854347826
 20
4.3480007764
 40
0.8573718112
  0
ARC
  5
2B7
100
AcDbEntity
  8
0
100
AcDbCircle
 62
7
  6
CONTINUOUS
 10
4.854347826
 20
4.3480007764
 40
0.5
100
AcDbArc
 50
105.1005630353
 51
164.8996872851
  0
ARC
  5
2B8
100
AcDbEntity
  8
0
100
AcDbCircle
 62
7
  6
CONTINUOUS
 10
4.854347826
 20
4.3480007764
 40
0.5
100
AcDbArc
 50
195.1003127149
 51
254.8994369647
  0
ARC
  5
2B9
100
AcDbEntity
  8
0
100
AcDbCircle
 62
7
  6
CONTINUOUS
 10
4.854347826
 20
4.3480007764
 40
0.5
100
AcDbArc
 50
285.1005630353
 51
344.8996872851
  0
ARC
  5
2BA
100
AcDbEntity
  8
0
100
AcDbCircle
 62
7
  6
CONTINUOUS
 10
4.854347826
 20
4.3480007764
 40
0.5
100
AcDbArc
 50
15.1003127149
 51
74.8994369647
  0
ARC
  5
2BB
100
AcDbEntity
  8
ALL_ASSEMBLY_MEMBERS
100
AcDbCircle
 62
7
  6
CONTINUOUS
 10
4.854347826
 20
4.3480007764
 40
0.49725
100
AcDbArc
 50
15.1436214225
 51
74.8563785775
  0
ARC
  5
2BC
100
AcDbEntity
  8
ALL_ASSEMBLY_MEMBERS
100
AcDbCircle
 62
7
  6
CONTINUOUS
 10
4.854347826
 20
4.3480007764
 40
0.49725
100
AcDbArc
 50
105.1436214225
 51
164.8563785775
  0
ARC
  5
2BD
100
AcDbEntity
  8
ALL_ASSEMBLY_MEMBERS
100
AcDbCircle
 62
7
  6
CONTINUOUS
 10
4.854347826
 20
4.3480007764
 40
0.49725
100
AcDbArc
 50
285.1436214225
 51
344.8563785775
  0
ARC
  5
2BE
100
AcDbEntity
  8
ALL_ASSEMBLY_MEMBERS
100
AcDbCircle
 62
7
  6
CONTINUOUS
 10
4.854347826
 20
4.3480007764
 40
0.49725
100
AcDbArc
 50
195.1436214225
 51
254.8563785775
  0
ARC
  5
2BF
100
AcDbEntity
  8
ALL_FEATURES
100
AcDbCircle
 62
7
  6
CONTINUOUS
 10
4.854347826
 20
4.3480007764
 40
0.4925
100
AcDbArc
 50
105.2210438393
 51
164.7789561607
  0
ARC
  5
2C0
100
AcDbEntity
  8
ALL_FEATURES
100
AcDbCircle
 62
7
  6
CONTINUOUS
 10
4.854347826
 20
4.3480007764
 40
0.4925
100
AcDbArc
 50
15.2210438393
 51
74.7789561607
  0
ARC
  5
2C1
100
AcDbEntity
  8
ALL_FEATURES
100
AcDbCircle
 62
7
  6
CONTINUOUS
 10
4.854347826
 20
4.3480007764
 40
0.4925
100
AcDbArc
 50
285.2210438393
 51
344.7789561607
  0
ARC
  5
2C2
100
AcDbEntity
  8
ALL_FEATURES
100
AcDbCircle
 62
7
  6
CONTINUOUS
 10
4.854347826
 20
4.3480007764
 40
0.4925
100
AcDbArc
 50
195.2210438393
 51
254.7789561607
  0
ARC
  5
2C3
100
AcDbEntity
  8
0
100
AcDbCircle
 62
7
  6
CONTINUOUS
 10
4.854347826
 20
4.3480007764
 40
0.485
100
AcDbArc
 50
285.3329074321
 51
344.6614631745
  0
ARC
  5
2C4
100
AcDbEntity
  8
0
100
AcDbCircle
 62
7
  6
CONTINUOUS
 10
4.854347826
 20
4.3480007764
 40
0.485
100
AcDbArc
 50
15.3405452594
 51
74.6637574756
  0
ARC
  5
2C5
100
AcDbEntity
  8
0
100
AcDbCircle
 62
7
  6
CONTINUOUS
 10
4.854347826
 20
4.3480007764
 40
0.485
100
AcDbArc
 50
105.3329074287
 51
164.6614631876
  0
ARC
  5
2C6
100
AcDbEntity
  8
0
100
AcDbCircle
 62
7
  6
CONTINUOUS
 10
4.854347826
 20
4.3480007764
 40
0.485
100
AcDbArc
 50
195.3405452591
 51
254.6637574381
  0
ARC
  5
2C7
100
AcDbEntity
  8
0
100
AcDbCircle
 62
7
  6
CONTINUOUS
 10
4.854347826
 20
4.3480007764
 40
0.4662348783
100
AcDbArc
 50
105.6540217302
 51
164.3416999786
  0
ARC
  5
2C8
100
AcDbEntity
  8
0
100
AcDbCircle
 62
7
  6
CONTINUOUS
 10
4.854347826
 20
4.3480007764
 40
0.4662348783
100
AcDbArc
 50
195.6601387467
 51
254.3441858612
  0
ARC
  5
2C9
100
AcDbEntity
  8
0
100
AcDbCircle
 62
7
  6
CONTINUOUS
 10
4.854347826
 20
4.3480007764
 40
0.4662348783
100
AcDbArc
 50
285.6540217385
 51
344.3416999941
  0
ARC
  5
2CA
100
AcDbEntity
  8
0
100
AcDbCircle
 62
7
  6
CONTINUOUS
 10
4.854347826
 20
4.3480007764
 40
0.4662348783
100
AcDbArc
 50
15.6601387407
 51
74.3441858167
  0
ARC
  5
2CB
100
AcDbEntity
  8
0
100
AcDbCircle
 62
7
  6
CONTINUOUS
 10
4.854347826
 20
4.3480007764
 40
0.4608519916
100
AcDbArc
 50
195.7558158205
 51
254.2446667933
  0
ARC
  5
2CC
100
AcDbEntity
  8
0
100
AcDbCircle
 62
7
  6
CONTINUOUS
 10
4.854347826
 20
4.3480007764
 40
0.4608519916
100
AcDbArc
 50
105.7553370845
 51
164.2441910739
  0
ARC
  5
2CD
100
AcDbEntity
  8
0
100
AcDbCircle
 62
7
  6
CONTINUOUS
 10
4.854347826
 20
4.3480007764
 40
0.4608519916
100
AcDbArc
 50
15.7558158205
 51
74.2446667932
  0
ARC
  5
2CE
100
AcDbEntity
  8
0
100
AcDbCircle
 62
7
  6
CONTINUOUS
 10
4.854347826
 20
4.3480007764
 40
0.4608519916
100
AcDbArc
 50
285.7553370845
 51
344.2441910739
  0
ARC
  5
2CF
100
AcDbEntity
  8
0
100
AcDbCircle
 62
7
  6
CONTINUOUS
 10
4.854347826
 20
4.3480007764
 40
0.4502588753
100
AcDbArc
 50
195.952171031
 51
254.0482278947
  0
ARC
  5
2D0
100
AcDbEntity
  8
0
100
AcDbCircle
 62
7
  6
CONTINUOUS
 10
4.854347826
 20
4.3480007764
 40
0.4502588753
100
AcDbArc
 50
105.9517748779
 51
164.0478317491
  0
ARC
  5
2D1
100
AcDbEntity
  8
0
100
AcDbCircle
 62
7
  6
CONTINUOUS
 10
4.854347826
 20
4.3480007764
 40
0.4502588753
100
AcDbArc
 50
15.952171031
 51
74.0482278947
  0
ARC
  5
2D2
100
AcDbEntity
  8
0
100
AcDbCircle
 62
7
  6
CONTINUOUS
 10
4.854347826
 20
4.3480007764
 40
0.4502588753
100
AcDbArc
 50
285.9517748779
 51
344.0478317491
  0
ARC
  5
2D3
100
AcDbEntity
  8
0
100
AcDbCircle
 62
7
  6
CONTINUOUS
 10
4.854347826
 20
4.3480007764
 40
0.4498731338
100
AcDbArc
 50
105.954618038
 51
164.0409716132
  0
ARC
  5
2D4
100
AcDbEntity
  8
0
100
AcDbCircle
 62
7
  6
CONTINUOUS
 10
4.854347826
 20
4.3480007764
 40
0.4498731338
100
AcDbArc
 50
195.9604175846
 51
254.0454188965
  0
ARC
  5
2D5
100
AcDbEntity
  8
0
100
AcDbCircle
 62
7
  6
CONTINUOUS
 10
4.854347826
 20
4.3480007764
 40
0.4498731338
100
AcDbArc
 50
285.9546180376
 51
344.0409716139
  0
ARC
  5
2D6
100
AcDbEntity
  8
0
100
AcDbCircle
 62
7
  6
CONTINUOUS
 10
4.854347826
 20
4.3480007764
 40
0.4498731338
100
AcDbArc
 50
15.9604175845
 51
74.0454188961
  0
ARC
  5
2D7
100
AcDbEntity
  8
0
100
AcDbCircle
 62
7
  6
CONTINUOUS
 10
4.854347826
 20
4.3480007764
 40
0.4239154355
100
AcDbArc
 50
106.4765434802
 51
163.5141811582
  0
ARC
  5
2D8
100
AcDbEntity
  8
0
100
AcDbCircle
 62
7
  6
CONTINUOUS
 10
4.854347826
 20
4.3480007764
 40
0.4239154355
100
AcDbArc
 50
196.4852206647
 51
253.5210517338
  0
ARC
  5
2D9
100
AcDbEntity
  8
0
100
AcDbCircle
 62
7
  6
CONTINUOUS
 10
4.854347826
 20
4.3480007764
 40
0.4239154355
100
AcDbArc
 50
286.4765434803
 51
343.5141811586
  0
ARC
  5
2DA
100
AcDbEntity
  8
0
100
AcDbCircle
 62
7
  6
CONTINUOUS
 10
4.854347826
 20
4.3480007764
 40
0.4239154355
100
AcDbArc
 50
16.4852206644
 51
73.5210517341
  0
CIRCLE
  5
2DB
100
AcDbEntity
  8
0
100
AcDbCircle
 62
7
  6
CONTINUOUS
 10
4.854347826
 20
4.3480007764
 40
0.2505879791
  0
CIRCLE
  5
2DC
100
AcDbEntity
  8
0
100
AcDbCircle
 62
7
  6
CONTINUOUS
 10
4.854347826
 20
4.3480007764
 40
0.23472895
  0
CIRCLE
  5
2DD
100
AcDbEntity
  8
0
100
AcDbCircle
 62
7
  6
CONTINUOUS
 10
4.854347826
 20
4.3480007764
 40
0.162082768
  0
ARC
  5
2DE
100
AcDbEntity
  8
ALL_FEATURES
100
AcDbCircle
 62
7
  6
CONTINUOUS
 10
4.854347826
 20
4.8395007764
 40
0.14
100
AcDbArc
 50
71.446995465
 51
108.553004535
  0
ARC
  5
2DF
100
AcDbEntity
  8
0
100
AcDbCircle
 62
7
  6
CONTINUOUS
 10
4.8936913496
 20
5.0015259363
 40
0.0844582841
100
AcDbArc
 50
352.2482073852
 51
6.2695925694
  0
ARC
  5
2E0
100
AcDbEntity
  8
0
100
AcDbCircle
 62
7
  6
CONTINUOUS
 10
4.8888438552
 20
4.9974238019
 40
0.0702844611
100
AcDbArc
 50
194.1167890136
 51
198.012783737
  0
ARC
  5
2E1
100
AcDbEntity
  8
0
100
AcDbCircle
 62
7
  6
CONTINUOUS
 10
4.8993249037
 20
4.9744449801
 40
0.0591660295
100
AcDbArc
 50
343.7572394104
 51
345.216033581
  0
ARC
  5
2E2
100
AcDbEntity
  8
ALL_FEATURES
100
AcDbCircle
 62
7
  6
CONTINUOUS
 10
4.889347826
 20
4.9437840445
 40
0.03
100
AcDbArc
 50
31.7203145619
 51
71.446995465
  0
ARC
  5
2E3
100
AcDbEntity
  8
0
100
AcDbCircle
 62
7
  6
CONTINUOUS
 10
5.010597826
 20
4.9393571063
 40
0.015
100
AcDbArc
 50
270.0
 51
85.4966382723
  0
ARC
  5
2E4
100
AcDbEntity
  8
0
100
AcDbCircle
 62
7
  6
CONTINUOUS
 10
5.4520141043
 20
4.5463159437
 40
0.0939022145
100
AcDbArc
 50
277.3858308408
 51
281.2916748401
  0
ARC
  5
2E5
100
AcDbEntity
  8
0
100
AcDbCircle
 62
7
  6
CONTINUOUS
 10
5.4520110265
 20
4.5415648426
 40
0.0922678544
100
AcDbArc
 50
277.6095782304
 51
281.2203518391
  0
ARC
  5
2E6
100
AcDbEntity
  8
0
100
AcDbCircle
 62
7
  6
CONTINUOUS
 10
5.4867593117
 20
4.5793660616
 40
0.0368525718
100
AcDbArc
 50
275.5479809504
 51
288.9791355692
  0
ARC
  5
2E7
100
AcDbEntity
  8
0
100
AcDbCircle
 62
7
  6
CONTINUOUS
 10
5.4402378327
 20
4.5528836847
 40
0.0287657009
100
AcDbArc
 50
75.6092714762
 51
109.2452499263
  0
ARC
  5
2E8
100
AcDbEntity
  8
0
100
AcDbCircle
 62
7
  6
CONTINUOUS
 10
5.4440662145
 20
4.5422824482
 40
0.0256449778
100
AcDbArc
 50
287.8795591252
 51
290.0599455539
  0
ARC
  5
2E9
100
AcDbEntity
  8
0
100
AcDbCircle
 62
7
  6
CONTINUOUS
 10
5.5464751519
 20
4.4942119935
 40
0.0237349009
100
AcDbArc
 50
184.6319753409
 51
191.0652664669
  0
ARC
  5
2EA
100
AcDbEntity
  8
0
100
AcDbCircle
 62
7
  6
CONTINUOUS
 10
5.4457041559
 20
4.5042507764
 40
0.015
100
AcDbArc
 50
4.5033617277
 51
180.0
  0
ARC
  5
2EB
100
AcDbEntity
  8
0
100
AcDbCircle
 62
7
  6
CONTINUOUS
 10
4.854347826
 20
5.7405007764
 40
2.005
100
AcDbArc
 50
265.4966382723
 51
274.5033617277
  0
ARC
  5
2EC
100
AcDbEntity
  8
0
100
AcDbCircle
 62
7
  6
CONTINUOUS
 10
6.246847826
 20
4.3480007764
 40
2.005
100
AcDbArc
 50
175.4966382723
 51
184.5033617277
  0
SPLINE
  5
2ED
100
AcDbEntity
  8
0
100
AcDbSpline
 62
7
  6
CONTINUOUS
 70
0
 71
3
 72
10
 73
6
 74
0
 42
0.0000001
 43
0.0000001
 44
0.0000000001
 40
0.0
 40
0.0
 40
0.0
 40
0.0
 40
0.3401276515
 40
0.6755502047
 40
1.0
 40
1.0
 40
1.0
 40
1.0
 10
4.3736952131
 20
3.9676670257
 30
0.0
 10
4.3742430352
 20
3.9680895858
 30
0.0
 10
4.3754036446
 20
3.9688407212
 30
0.0
 10
4.3772896228
 20
3.9696282932
 30
0.0
 10
4.3786078807
 20
3.9699234851
 30
0.0
 10
4.3792626747
 20
3.970005951
 30
0.0
  0
SPLINE
  5
2EE
100
AcDbEntity
  8
0
100
AcDbSpline
 62
7
  6
CONTINUOUS
 70
0
 71
3
 72
10
 73
6
 74
0
 42
0.0000001
 43
0.0000001
 44
0.0000000001
 40
0.0
 40
0.0
 40
0.0
 40
0.0
 40
0.3080228528
 40
0.6421817536
 40
1.0
 40
1.0
 40
1.0
 40
1.0
 10
4.3097396375
 20
3.9163610481
 30
0.0
 10
4.3101439418
 20
3.917179889
 30
0.0
 10
4.3111790946
 20
3.9188008593
 30
0.0
 10
4.3132817115
 20
3.9209063677
 30
0.0
 10
4.3148468783
 20
3.922235329
 30
0.0
 10
4.3156906714
 20
3.9228782984
 30
0.0
  0
SPLINE
  5
2EF
100
AcDbEntity
  8
0
100
AcDbSpline
 62
7
  6
CONTINUOUS
 70
0
 71
3
 72
10
 73
6
 74
0
 42
0.0000001
 43
0.0000001
 44
0.0000000001
 40
0.0
 40
0.0
 40
0.0
 40
0.0
 40
0.3618850386
 40
0.6947573528
 40
1.0
 40
1.0
 40
1.0
 40
1.0
 10
4.3092742972
 20
3.9094303299
 30
0.0
 10
4.3090878389
 20
3.9102609643
 30
0.0
 10
4.3088549146
 20
3.9118896918
 30
0.0
 10
4.3089966116
 20
3.9142547567
 30
0.0
 10
4.3094380167
 20
3.9157094095
 30
0.0
 10
4.3097396375
 20
3.9163610481
 30
0.0
  0
SPLINE
  5
2F0
100
AcDbEntity
  8
0
100
AcDbSpline
 62
7
  6
CONTINUOUS
 70
0
 71
3
 72
10
 73
6
 74
0
 42
0.0000001
 43
0.0000001
 44
0.0000000001
 40
0.0
 40
0.0
 40
0.0
 40
0.0
 40
0.3229550722
 40
0.6562787215
 40
1.0
 40
1.0
 40
1.0
 40
1.0
 10
4.3039135363
 20
3.91472536
 30
0.0
 10
4.3045384727
 20
3.914206975
 30
0.0
 10
4.3057762927
 20
3.9131142009
 30
0.0
 10
4.3075617271
 20
3.9113425527
 30
0.0
 10
4.3087081598
 20
3.91008322
 30
0.0
 10
4.3092742972
 20
3.9094303299
 30
0.0
  0
SPLINE
  5
2F1
100
AcDbEntity
  8
0
100
AcDbSpline
 62
7
  6
CONTINUOUS
 70
0
 71
3
 72
10
 73
6
 74
0
 42
0.0000001
 43
0.0000001
 44
0.0000000001
 40
0.0
 40
0.0
 40
0.0
 40
0.0
 40
0.3425397131
 40
0.6758822973
 40
1.0
 40
1.0
 40
1.0
 40
1.0
 10
4.2978203006
 20
3.9190664027
 30
0.0
 10
4.2985476146
 20
3.9186172093
 30
0.0
 10
4.29996453
 20
3.9177010204
 30
0.0
 10
4.3020009377
 20
3.9162570271
 30
0.0
 10
4.3032910561
 20
3.9152418779
 30
0.0
 10
4.3039135363
 20
3.91472536
 30
0.0
  0
SPLINE
  5
2F2
100
AcDbEntity
  8
0
100
AcDbSpline
 62
7
  6
CONTINUOUS
 70
0
 71
3
 72
10
 73
6
 74
0
 42
0.0000001
 43
0.0000001
 44
0.0000000001
 40
0.0
 40
0.0
 40
0.0
 40
0.0
 40
0.3110988532
 40
0.6442786863
 40
1.0
 40
1.0
 40
1.0
 40
1.0
 10
4.3727192931
 20
3.9783736643
 30
0.0
 10
4.3725088844
 20
3.9778752731
 30
0.0
 10
4.3719614219
 20
3.9768875339
 30
0.0
 10
4.3708430935
 20
3.9755458169
 30
0.0
 10
4.369939563
 20
3.9747517445
 30
0.0
 10
4.3694488945
 20
3.974375064
 30
0.0
  0
SPLINE
  5
2F3
100
AcDbEntity
  8
0
100
AcDbSpline
 62
7
  6
CONTINUOUS
 70
0
 71
3
 72
10
 73
6
 74
0
 42
0.0000001
 43
0.0000001
 44
0.0000000001
 40
0.0
 40
0.0
 40
0.0
 40
0.0
 40
0.352776051
 40
0.6869725442
 40
1.0
 40
1.0
 40
1.0
 40
1.0
 10
4.3737040194
 20
3.9849408439
 30
0.0
 10
4.373696897
 20
3.9841562352
 30
0.0
 10
4.3736184626
 20
3.9826298034
 30
0.0
 10
4.3733789933
 20
3.9804132991
 30
0.0
 10
4.3729710184
 20
3.9790227976
 30
0.0
 10
4.3727192931
 20
3.9783736643
 30
0.0
  0
SPLINE
  5
2F4
100
AcDbEntity
  8
0
100
AcDbSpline
 62
7
  6
CONTINUOUS
 70
0
 71
3
 72
10
 73
6
 74
0
 42
0.0000001
 43
0.0000001
 44
0.0000000001
 40
0.0
 40
0.0
 40
0.0
 40
0.0
 40
0.3202913034
 40
0.6547969908
 40
1.0
 40
1.0
 40
1.0
 40
1.0
 10
4.3792626747
 20
3.970005951
 30
0.0
 10
4.3799591238
 20
3.9701000637
 30
0.0
 10
4.3814011481
 20
3.9701712716
 30
0.0
 10
4.383591857
 20
3.9699493441
 30
0.0
 10
4.3850410302
 20
3.9695699072
 30
0.0
 10
4.3857590493
 20
3.969328735
 30
0.0
  0
SPLINE
  5
2F5
100
AcDbEntity
  8
0
100
AcDbSpline
 62
7
  6
CONTINUOUS
 70
0
 71
3
 72
10
 73
6
 74
0
 42
0.0000001
 43
0.0000001
 44
0.0000000001
 40
0.0
 40
0.0
 40
0.0
 40
0.0
 40
0.3004656021
 40
0.6331711682
 40
1.0
 40
1.0
 40
1.0
 40
1.0
 10
4.3826556624
 20
3.967328802
 30
0.0
 10
4.3815665902
 20
3.9673782698
 30
0.0
 10
4.3792476895
 20
3.9671208096
 30
0.0
 10
4.3758338905
 20
3.9658058798
 30
0.0
 10
4.3736955113
 20
3.9644050065
 30
0.0
 10
4.3726442073
 20
3.9635887475
 30
0.0
  0
SPLINE
  5
2F6
100
AcDbEntity
  8
0
100
AcDbSpline
 62
7
  6
CONTINUOUS
 70
0
 71
3
 72
10
 73
6
 74
0
 42
0.0000001
 43
0.0000001
 44
0.0000000001
 40
0.0
 40
0.0
 40
0.0
 40
0.0
 40
0.3665527997
 40
0.7007153663
 40
1.0
 40
1.0
 40
1.0
 40
1.0
 10
4.3908158406
 20
3.9627798358
 30
0.0
 10
4.3900977893
 20
3.9637129835
 30
0.0
 10
4.3885208739
 20
3.9653683229
 30
0.0
 10
4.385655395
 20
3.9669202247
 30
0.0
 10
4.3836170155
 20
3.9673250642
 30
0.0
 10
4.3826556624
 20
3.967328802
 30
0.0
  0
SPLINE
  5
2F7
100
AcDbEntity
  8
0
100
AcDbSpline
 62
7
  6
CONTINUOUS
 70
0
 71
3
 72
10
 73
6
 74
0
 42
0.0000001
 43
0.0000001
 44
0.0000000001
 40
0.0
 40
0.0
 40
0.0
 40
0.0
 40
0.2966175635
 40
0.6285586925
 40
1.0
 40
1.0
 40
1.0
 40
1.0
 10
4.3682578867
 20
3.9860059091
 30
0.0
 10
4.3684892049
 20
3.9869521431
 30
0.0
 10
4.3685888647
 20
3.9890587077
 30
0.0
 10
4.3677485279
 20
3.9922814074
 30
0.0
 10
4.3665030952
 20
3.9942664409
 30
0.0
 10
4.3657576331
 20
3.9952319712
 30
0.0
  0
SPLINE
  5
2F8
100
AcDbEntity
  8
0
100
AcDbSpline
 62
7
  6
CONTINUOUS
 70
0
 71
3
 72
10
 73
6
 74
0
 42
0.0000001
 43
0.0000001
 44
0.0000000001
 40
0.0
 40
0.0
 40
0.0
 40
0.0
 40
0.3673859455
 40
0.7001862308
 40
1.0
 40
1.0
 40
1.0
 40
1.0
 10
4.362079123
 20
3.9772712723
 30
0.0
 10
4.3631407699
 20
3.9780810684
 30
0.0
 10
4.3650461857
 20
3.9797937072
 30
0.0
 10
4.3672096067
 20
3.9827524735
 30
0.0
 10
4.368039299
 20
3.9849384061
 30
0.0
 10
4.3682578867
 20
3.9860059091
 30
0.0
  0
SPLINE
  5
2F9
100
AcDbEntity
  8
0
100
AcDbSpline
 62
7
  6
CONTINUOUS
 70
0
 71
3
 72
10
 73
6
 74
0
 42
0.0000001
 43
0.0000001
 44
0.0000000001
 40
0.0
 40
0.0
 40
0.0
 40
0.0
 40
0.3499683755
 40
0.6830493507
 40
1.0
 40
1.0
 40
1.0
 40
1.0
 10
4.3028385927
 20
3.9116578618
 30
0.0
 10
4.3013378908
 20
3.9128998537
 30
0.0
 10
4.2983237499
 20
3.9152245638
 30
0.0
 10
4.2936508766
 20
3.9182589073
 30
0.0
 10
4.2904620224
 20
3.9199796701
 30
0.0
 10
4.2888717764
 20
3.9207435628
 30
0.0
  0
SPLINE
  5
2FA
100
AcDbEntity
  8
0
100
AcDbSpline
 62
7
  6
CONTINUOUS
 70
0
 71
3
 72
10
 73
6
 74
0
 42
0.0000001
 43
0.0000001
 44
0.0000000001
 40
0.0
 40
0.0
 40
0.0
 40
0.0
 40
0.3483224518
 40
0.6815807865
 40
1.0
 40
1.0
 40
1.0
 40
1.0
 10
4.3157988463
 20
3.8983213234
 30
0.0
 10
4.3144408168
 20
3.9000040367
 30
0.0
 10
4.3116904582
 20
3.9032232064
 30
0.0
 10
4.3073732211
 20
3.907689704
 30
0.0
 10
4.3043597174
 20
3.9103954886
 30
0.0
 10
4.3028385927
 20
3.9116578618
 30
0.0
  0
SPLINE
  5
2FB
100
AcDbEntity
  8
0
100
AcDbSpline
 62
7
  6
CONTINUOUS
 70
0
 71
3
 72
10
 73
6
 74
0
 42
0.0000001
 43
0.0000001
 44
0.0000000001
 40
0.0
 40
0.0
 40
0.0
 40
0.0
 40
0.2993642418
 40
0.6322147716
 40
1.0
 40
1.0
 40
1.0
 40
1.0
 10
4.3118586943
 20
3.9125225608
 30
0.0
 10
4.311773458
 20
3.9115325677
 30
0.0
 10
4.3119494222
 20
3.9094020316
 30
0.0
 10
4.3131483454
 20
3.9062737351
 30
0.0
 10
4.3144304695
 20
3.9043138109
 30
0.0
 10
4.3151815295
 20
3.9033514369
 30
0.0
  0
SPLINE
  5
2FC
100
AcDbEntity
  8
0
100
AcDbSpline
 62
7
  6
CONTINUOUS
 70
0
 71
3
 72
10
 73
6
 74
0
 42
0.0000001
 43
0.0000001
 44
0.0000000001
 40
0.0
 40
0.0
 40
0.0
 40
0.0
 40
0.3703321593
 40
0.70229944
 40
1.0
 40
1.0
 40
1.0
 40
1.0
 10
4.3166861982
 20
3.9203802688
 30
0.0
 10
4.3157582442
 20
3.9196683507
 30
0.0
 10
4.3141127836
 20
3.9181446702
 30
0.0
 10
4.3124248609
 20
3.9154287791
 30
0.0
 10
4.3119199892
 20
3.9134607591
 30
0.0
 10
4.3118586943
 20
3.9125225608
 30
0.0
  0
SPLINE
  5
2FD
100
AcDbEntity
  8
0
100
AcDbSpline
 62
7
  6
CONTINUOUS
 70
0
 71
3
 72
10
 73
6
 74
0
 42
0.0000001
 43
0.0000001
 44
0.0000000001
 40
0.0
 40
0.0
 40
0.0
 40
0.0
 40
0.3478775441
 40
0.681013139
 40
1.0
 40
1.0
 40
1.0
 40
1.0
 10
4.2855670836
 20
4.0001184412
 30
0.0
 10
4.2853036039
 20
4.0005684232
 30
0.0
 10
4.2847471876
 20
4.0014267397
 30
0.0
 10
4.2838013969
 20
4.0025928218
 30
0.0
 10
4.2831084848
 20
4.0032855669
 30
0.0
 10
4.2827509059
 20
4.0036029868
 30
0.0
  0
SPLINE
  5
2FE
100
AcDbEntity
  8
0
100
AcDbSpline
 62
7
  6
CONTINUOUS
 70
0
 71
3
 72
10
 73
6
 74
0
 42
0.0000001
 43
0.0000001
 44
0.0000000001
 40
0.0
 40
0.0
 40
0.0
 40
0.0
 40
0.3247447169
 40
0.6629233672
 40
1.0
 40
1.0
 40
1.0
 40
1.0
 10
4.2872078212
 20
3.988074371
 30
0.0
 10
4.2875890671
 20
3.9893689905
 30
0.0
 10
4.2879826559
 20
3.9921386278
 30
0.0
 10
4.2874228761
 20
3.9963064017
 30
0.0
 10
4.2862876992
 20
3.9989171673
 30
0.0
 10
4.2855670836
 20
4.0001184412
 30
0.0
  0
SPLINE
  5
2FF
100
AcDbEntity
  8
0
100
AcDbSpline
 62
7
  6
CONTINUOUS
 70
0
 71
3
 72
10
 73
6
 74
0
 42
0.0000001
 43
0.0000001
 44
0.0000000001
 40
0.0
 40
0.0
 40
0.0
 40
0.0
 40
0.3480409213
 40
0.6853221056
 40
1.0
 40
1.0
 40
1.0
 40
1.0
 10
4.2795261599
 20
3.9783731327
 30
0.0
 10
4.2808012482
 20
3.9791051256
 30
0.0
 10
4.2831619265
 20
3.9808459834
 30
0.0
 10
4.2857933226
 20
3.9842102973
 30
0.0
 10
4.2868829594
 20
3.9867853558
 30
0.0
 10
4.2872078212
 20
3.988074371
 30
0.0
  0
SPLINE
  5
300
100
AcDbEntity
  8
0
100
AcDbSpline
 62
7
  6
CONTINUOUS
 70
0
 71
3
 72
10
 73
6
 74
0
 42
0.0000001
 43
0.0000001
 44
0.0000000001
 40
0.0
 40
0.0
 40
0.0
 40
0.0
 40
0.3376552264
 40
0.6749469518
 40
1.0
 40
1.0
 40
1.0
 40
1.0
 10
4.2659029122
 20
3.9760673124
 30
0.0
 10
4.2674601283
 20
3.975763123
 30
0.0
 10
4.2706589377
 20
3.9755165375
 30
0.0
 10
4.2753333794
 20
3.9763185457
 30
0.0
 10
4.2782183836
 20
3.977583978
 30
0.0
 10
4.2795261599
 20
3.9783731327
 30
0.0
  0
SPLINE
  5
301
100
AcDbEntity
  8
0
100
AcDbSpline
 62
7
  6
CONTINUOUS
 70
0
 71
3
 72
10
 73
6
 74
0
 42
0.0000001
 43
0.0000001
 44
0.0000000001
 40
0.0
 40
0.0
 40
0.0
 40
0.0
 40
0.365155711
 40
0.6974063922
 40
1.0
 40
1.0
 40
1.0
 40
1.0
 10
4.2523092109
 20
3.9835300129
 30
0.0
 10
4.2536827527
 20
3.9821987703
 30
0.0
 10
4.2564989828
 20
3.9798335281
 30
0.0
 10
4.261131406
 20
3.977321644
 30
0.0
 10
4.264340809
 20
3.9763362475
 30
0.0
 10
4.2659029122
 20
3.9760673124
 30
0.0
  0
SPLINE
  5
302
100
AcDbEntity
  8
0
100
AcDbSpline
 62
7
  6
CONTINUOUS
 70
0
 71
3
 72
10
 73
6
 74
0
 42
0.0000001
 43
0.0000001
 44
0.0000000001
 40
0.0
 40
0.0
 40
0.0
 40
0.0
 40
0.3094681252
 40
0.6423351094
 40
1.0
 40
1.0
 40
1.0
 40
1.0
 10
4.2634503752
 20
3.9807277536
 30
0.0
 10
4.2622561717
 20
3.9807250339
 30
0.0
 10
4.2597740427
 20
3.9809522099
 30
0.0
 10
4.2560186541
 20
3.9818958585
 30
0.0
 10
4.2535497794
 20
3.9829250972
 30
0.0
 10
4.2523092109
 20
3.9835300129
 30
0.0
  0
SPLINE
  5
303
100
AcDbEntity
  8
0
100
AcDbSpline
 62
7
  6
CONTINUOUS
 70
0
 71
3
 72
10
 73
6
 74
0
 42
0.0000001
 43
0.0000001
 44
0.0000000001
 40
0.0
 40
0.0
 40
0.0
 40
0.0
 40
0.3395183885
 40
0.6750187568
 40
1.0
 40
1.0
 40
1.0
 40
1.0
 10
4.2736967826
 20
3.9835245293
 30
0.0
 10
4.2726493687
 20
3.982908322
 30
0.0
 10
4.2704568437
 20
3.9818574078
 30
0.0
 10
4.2669847555
 20
3.9809172487
 30
0.0
 10
4.2646135
 20
3.9807146221
 30
0.0
 10
4.2634503752
 20
3.9807277536
 30
0.0
  0
SPLINE
  5
304
100
AcDbEntity
  8
0
100
AcDbSpline
 62
7
  6
CONTINUOUS
 70
0
 71
3
 72
10
 73
6
 74
0
 42
0.0000001
 43
0.0000001
 44
0.0000000001
 40
0.0
 40
0.0
 40
0.0
 40
0.0
 40
0.2967698024
 40
0.6290221002
 40
1.0
 40
1.0
 40
1.0
 40
1.0
 10
4.2817560464
 20
3.9930184699
 30
0.0
 10
4.2814439172
 20
3.9917966038
 30
0.0
 10
4.2803173608
 20
3.9893173537
 30
0.0
 10
4.2775305206
 20
3.9860497747
 30
0.0
 10
4.2750605491
 20
3.9843153021
 30
0.0
 10
4.2736967826
 20
3.9835245293
 30
0.0
  0
SPLINE
  5
305
100
AcDbEntity
  8
0
100
AcDbSpline
 62
7
  6
CONTINUOUS
 70
0
 71
3
 72
10
 73
6
 74
0
 42
0.0000001
 43
0.0000001
 44
0.0000000001
 40
0.0
 40
0.0
 40
0.0
 40
0.0
 40
0.3712503189
 40
0.7026461128
 40
1.0
 40
1.0
 40
1.0
 40
1.0
 10
4.2797590564
 20
4.0049401472
 30
0.0
 10
4.280529828
 20
4.0036136086
 30
0.0
 10
4.2817732224
 20
4.000950334
 30
0.0
 10
4.2824281422
 20
3.9968209611
 30
0.0
 10
4.2821141883
 20
3.9941939493
 30
0.0
 10
4.2817560464
 20
3.9930184699
 30
0.0
  0
SPLINE
  5
306
100
AcDbEntity
  8
0
100
AcDbSpline
 62
7
  6
CONTINUOUS
 70
0
 71
3
 72
10
 73
6
 74
0
 42
0.0000001
 43
0.0000001
 44
0.0000000001
 40
0.0
 40
0.0
 40
0.0
 40
0.0
 40
0.3497392785
 40
0.6830325689
 40
1.0
 40
1.0
 40
1.0
 40
1.0
 10
4.2827509059
 20
4.0036029868
 30
0.0
 10
4.2823885223
 20
4.0039291331
 30
0.0
 10
4.2816481373
 20
4.0045311032
 30
0.0
 10
4.2804736567
 20
4.0052877252
 30
0.0
 10
4.2796501408
 20
4.0056748362
 30
0.0
 10
4.2792377126
 20
4.0058333853
 30
0.0
  0
SPLINE
  5
307
100
AcDbEntity
  8
0
100
AcDbSpline
 62
7
  6
CONTINUOUS
 70
0
 71
3
 72
10
 73
6
 74
0
 42
0.0000001
 43
0.0000001
 44
0.0000000001
 40
0.0
 40
0.0
 40
0.0
 40
0.0
 40
0.3081562651
 40
0.6409758324
 40
1.0
 40
1.0
 40
1.0
 40
1.0
 10
4.2561133352
 20
4.0193665378
 30
0.0
 10
4.2580588795
 20
4.0205249803
 30
0.0
 10
4.2623317357
 20
4.0225620483
 30
0.0
 10
4.2693772189
 20
4.0247344166
 30
0.0
 10
4.2744295044
 20
4.0254642654
 30
0.0
 10
4.2770580111
 20
4.0256889449
 30
0.0
  0
SPLINE
  5
308
100
AcDbEntity
  8
0
100
AcDbSpline
 62
7
  6
CONTINUOUS
 70
0
 71
3
 72
10
 73
6
 74
0
 42
0.0000001
 43
0.0000001
 44
0.0000000001
 40
0.0
 40
0.0
 40
0.0
 40
0.0
 40
0.3113071336
 40
0.6441300327
 40
1.0
 40
1.0
 40
1.0
 40
1.0
 10
4.2461501671
 20
4.0106432065
 30
0.0
 10
4.2469719946
 20
4.0117547857
 30
0.0
 10
4.2488584245
 20
4.0139198243
 30
0.0
 10
4.2521948977
 20
4.0168682086
 30
0.0
 10
4.2547516792
 20
4.0185645573
 30
0.0
 10
4.2561133352
 20
4.0193665378
 30
0.0
  0
SPLINE
  5
309
100
AcDbEntity
  8
0
100
AcDbSpline
 62
7
  6
CONTINUOUS
 70
0
 71
3
 72
10
 73
6
 74
0
 42
0.0000001
 43
0.0000001
 44
0.0000000001
 40
0.0
 40
0.0
 40
0.0
 40
0.0
 40
0.3069680431
 40
0.6395810717
 40
1.0
 40
1.0
 40
1.0
 40
1.0
 10
4.2417656422
 20
4.0001291649
 30
0.0
 10
4.2418886457
 20
4.0013007489
 30
0.0
 10
4.2424144514
 20
4.0037163899
 30
0.0
 10
4.2438783915
 20
4.0072836127
 30
0.0
 10
4.2453253981
 20
4.009532868
 30
0.0
 10
4.2461501671
 20
4.0106432065
 30
0.0
  0
SPLINE
  5
30A
100
AcDbEntity
  8
0
100
AcDbSpline
 62
7
  6
CONTINUOUS
 70
0
 71
3
 72
10
 73
6
 74
0
 42
0.0000001
 43
0.0000001
 44
0.0000000001
 40
0.0
 40
0.0
 40
0.0
 40
0.0
 40
0.3096871951
 40
0.6440618978
 40
1.0
 40
1.0
 40
1.0
 40
1.0
 10
4.2436953817
 20
4.0156056851
 30
0.0
 10
4.242988802
 20
4.0141347738
 30
0.0
 10
4.2418898158
 20
4.0108919888
 30
0.0
 10
4.2411986234
 20
4.0056358285
 30
0.0
 10
4.2414752113
 20
4.0019820686
 30
0.0
 10
4.2417656422
 20
4.0001291649
 30
0.0
  0
SPLINE
  5
30B
100
AcDbEntity
  8
0
100
AcDbSpline
 62
7
  6
CONTINUOUS
 70
0
 71
3
 72
10
 73
6
 74
0
 42
0.0000001
 43
0.0000001
 44
0.0000000001
 40
0.0
 40
0.0
 40
0.0
 40
0.0
 40
0.3310431026
 40
0.6673664357
 40
1.0
 40
1.0
 40
1.0
 40
1.0
 10
4.2538462288
 20
4.0267681593
 30
0.0
 10
4.2523819226
 20
4.0259267417
 30
0.0
 10
4.249599323
 20
4.0239150239
 30
0.0
 10
4.2461439753
 20
4.0201164347
 30
0.0
 10
4.2444002927
 20
4.0171493005
 30
0.0
 10
4.2436953817
 20
4.0156056851
 30
0.0
  0
SPLINE
  5
30C
100
AcDbEntity
  8
0
100
AcDbSpline
 62
7
  6
CONTINUOUS
 70
0
 71
3
 72
10
 73
6
 74
0
 42
0.0000001
 43
0.0000001
 44
0.0000000001
 40
0.0
 40
0.0
 40
0.0
 40
0.0
 40
0.3682808157
 40
0.7001883982
 40
1.0
 40
1.0
 40
1.0
 40
1.0
 10
4.2760868227
 20
4.0314224443
 30
0.0
 10
4.2732648301
 20
4.031591425
 30
0.0
 10
4.2678543151
 20
4.031540754
 30
0.0
 10
4.2603049233
 20
4.0299161289
 30
0.0
 10
4.2558170484
 20
4.0279566726
 30
0.0
 10
4.2538462288
 20
4.0267681593
 30
0.0
  0
SPLINE
  5
30D
100
AcDbEntity
  8
0
100
AcDbSpline
 62
7
  6
CONTINUOUS
 70
0
 71
3
 72
10
 73
6
 74
0
 42
0.0000001
 43
0.0000001
 44
0.0000000001
 40
0.0
 40
0.0
 40
0.0
 40
0.0
 40
0.3590528098
 40
0.6924007378
 40
1.0
 40
1.0
 40
1.0
 40
1.0
 10
4.3054122479
 20
4.0234198188
 30
0.0
 10
4.3020654884
 20
4.0248859961
 30
0.0
 10
4.2954894222
 20
4.0274435851
 30
0.0
 10
4.2856900819
 20
4.0302575881
 30
0.0
 10
4.2792096468
 20
4.0312073447
 30
0.0
 10
4.2760868227
 20
4.0314224443
 30
0.0
  0
SPLINE
  5
30E
100
AcDbEntity
  8
0
100
AcDbSpline
 62
7
  6
CONTINUOUS
 70
0
 71
3
 72
10
 73
6
 74
0
 42
0.0000001
 43
0.0000001
 44
0.0000000001
 40
0.0
 40
0.0
 40
0.0
 40
0.0
 40
0.3117444877
 40
0.6451644382
 40
1.0
 40
1.0
 40
1.0
 40
1.0
 10
4.2770580111
 20
4.0256889449
 30
0.0
 10
4.2800135107
 20
4.0259130353
 30
0.0
 10
4.2861626029
 20
4.026014574
 30
0.0
 10
4.2956428222
 20
4.0251537508
 30
0.0
 10
4.3021049607
 20
4.0240858341
 30
0.0
 10
4.3054122479
 20
4.0234198188
 30
0.0
  0
SPLINE
  5
30F
100
AcDbEntity
  8
0
100
AcDbSpline
 62
7
  6
CONTINUOUS
 70
0
 71
3
 72
10
 73
6
 74
0
 42
0.0000001
 43
0.0000001
 44
0.0000000001
 40
0.0
 40
0.0
 40
0.0
 40
0.0
 40
0.3396674149
 40
0.673120793
 40
1.0
 40
1.0
 40
1.0
 40
1.0
 10
4.3096828533
 20
4.0653451587
 30
0.0
 10
4.3112400862
 20
4.0656690022
 30
0.0
 10
4.3143199637
 20
4.0663402557
 30
0.0
 10
4.3188777425
 20
4.0674159832
 30
0.0
 10
4.3218680033
 20
4.0682047834
 30
0.0
 10
4.3233430984
 20
4.0686134836
 30
0.0
  0
SPLINE
  5
310
100
AcDbEntity
  8
0
100
AcDbSpline
 62
7
  6
CONTINUOUS
 70
0
 71
3
 72
10
 73
6
 74
0
 42
0.0000001
 43
0.0000001
 44
0.0000000001
 40
0.0
 40
0.0
 40
0.0
 40
0.0
 40
0.3398795135
 40
0.6732656806
 40
1.0
 40
1.0
 40
1.0
 40
1.0
 10
4.2958309544
 20
4.0629914276
 30
0.0
 10
4.2974085336
 20
4.0632060515
 30
0.0
 10
4.3005291256
 20
4.0636643393
 30
0.0
 10
4.3051490837
 20
4.0644406538
 30
0.0
 10
4.3081845538
 20
4.0650326905
 30
0.0
 10
4.3096828533
 20
4.0653451587
 30
0.0
  0
SPLINE
  5
311
100
AcDbEntity
  8
0
100
AcDbSpline
 62
7
  6
CONTINUOUS
 70
0
 71
3
 72
10
 73
6
 74
0
 42
0.0000001
 43
0.0000001
 44
0.0000000001
 40
0.0
 40
0.0
 40
0.0
 40
0.0
 40
0.3027709757
 40
0.6367186211
 40
1.0
 40
1.0
 40
1.0
 40
1.0
 10
4.3062759803
 20
4.0593572679
 30
0.0
 10
4.3053417223
 20
4.0597141493
 30
0.0
 10
4.303257211
 20
4.0601830081
 30
0.0
 10
4.2999373961
 20
4.060033811
 30
0.0
 10
4.2976627459
 20
4.0596422959
 30
0.0
 10
4.2964965356
 20
4.0593596339
 30
0.0
  0
SPLINE
  5
312
100
AcDbEntity
  8
0
100
AcDbSpline
 62
7
  6
CONTINUOUS
 70
0
 71
3
 72
10
 73
6
 74
0
 42
0.0000001
 43
0.0000001
 44
0.0000000001
 40
0.0
 40
0.0
 40
0.0
 40
0.0
 40
0.3646338816
 40
0.6982644565
 40
1.0
 40
1.0
 40
1.0
 40
1.0
 10
4.3128871245
 20
4.0526739917
 30
0.0
 10
4.3123126436
 20
4.0536822263
 30
0.0
 10
4.3110709049
 20
4.0555338645
 30
0.0
 10
4.3089089917
 20
4.0578996544
 30
0.0
 10
4.3071598769
 20
4.058982032
 30
0.0
 10
4.3062759803
 20
4.0593572679
 30
0.0
  0
SPLINE
  5
313
100
AcDbEntity
  8
0
100
AcDbSpline
 62
7
  6
CONTINUOUS
 70
0
 71
3
 72
10
 73
6
 74
0
 42
0.0000001
 43
0.0000001
 44
0.0000000001
 40
0.0
 40
0.0
 40
0.0
 40
0.0
 40
0.3548209859
 40
0.688548406
 40
1.0
 40
1.0
 40
1.0
 40
1.0
 10
4.3030818412
 20
4.028731584
 30
0.0
 10
4.3063349585
 20
4.0274061823
 30
0.0
 10
4.3127323797
 20
4.0250404955
 30
0.0
 10
4.3222201098
 20
4.0221737405
 30
0.0
 10
4.3285204713
 20
4.0210194566
 30
0.0
 10
4.3315810451
 20
4.0206449949
 30
0.0
  0
SPLINE
  5
314
100
AcDbEntity
  8
0
100
AcDbSpline
 62
7
  6
CONTINUOUS
 70
0
 71
3
 72
10
 73
6
 74
0
 42
0.0000001
 43
0.0000001
 44
0.0000000001
 40
0.0
 40
0.0
 40
0.0
 40
0.0
 40
0.3094419085
 40
0.6435144019
 40
1.0
 40
1.0
 40
1.0
 40
1.0
 10
4.2705568532
 20
4.0381466205
 30
0.0
 10
4.2738293959
 20
4.037798711
 30
0.0
 10
4.2805974286
 20
4.0366195851
 30
0.0
 10
4.2907564593
 20
4.0334268843
 30
0.0
 10
4.29765837
 20
4.0309116661
 30
0.0
 10
4.3011779373
 20
4.0295021859
 30
0.0
  0
SPLINE
  5
315
100
AcDbEntity
  8
0
100
AcDbSpline
 62
7
  6
CONTINUOUS
 70
0
 71
3
 72
10
 73
6
 74
0
 42
0.0000001
 43
0.0000001
 44
0.0000000001
 40
0.0
 40
0.0
 40
0.0
 40
0.0
 40
0.2998419593
 40
0.631932307
 40
1.0
 40
1.0
 40
1.0
 40
1.0
 10
4.2509463253
 20
4.0342281078
 30
0.0
 10
4.2526811139
 20
4.0352776624
 30
0.0
 10
4.2566423401
 20
4.036995453
 30
0.0
 10
4.2633070131
 20
4.0383723603
 30
0.0
 10
4.2680755365
 20
4.0383410953
 30
0.0
 10
4.2705568532
 20
4.0381466205
 30
0.0
  0
SPLINE
  5
316
100
AcDbEntity
  8
0
100
AcDbSpline
 62
7
  6
CONTINUOUS
 70
0
 71
3
 72
10
 73
6
 74
0
 42
0.0000001
 43
0.0000001
 44
0.0000000001
 40
0.0
 40
0.0
 40
0.0
 40
0.0
 40
0.3316885076
 40
0.670600018
 40
1.0
 40
1.0
 40
1.0
 40
1.0
 10
4.2378880462
 20
4.0158956059
 30
0.0
 10
4.2383459749
 20
4.0184156754
 30
0.0
 10
4.2400274624
 20
4.0234058606
 30
0.0
 10
4.2445731954
 20
4.0297777073
 30
0.0
 10
4.2487261161
 20
4.0329867765
 30
0.0
 10
4.2509463253
 20
4.0342281078
 30
0.0
  0
SPLINE
  5
317
100
AcDbEntity
  8
0
100
AcDbSpline
 62
7
  6
CONTINUOUS
 70
0
 71
3
 72
10
 73
6
 74
0
 42
0.0000001
 43
0.0000001
 44
0.0000000001
 40
0.0
 40
0.0
 40
0.0
 40
0.0
 40
0.3604035351
 40
0.6955652432
 40
1.0
 40
1.0
 40
1.0
 40
1.0
 10
4.2424749075
 20
3.9917327735
 30
0.0
 10
4.2409524036
 20
3.9943370057
 30
0.0
 10
4.2384734258
 20
3.9996760949
 30
0.0
 10
4.2369770984
 20
4.0079918877
 30
0.0
 10
4.2373303274
 20
4.0134092277
 30
0.0
 10
4.2378880462
 20
4.0158956059
 30
0.0
  0
SPLINE
  5
318
100
AcDbEntity
  8
0
100
AcDbSpline
 62
7
  6
CONTINUOUS
 70
0
 71
3
 72
10
 73
6
 74
0
 42
0.0000001
 43
0.0000001
 44
0.0000000001
 40
0.0
 40
0.0
 40
0.0
 40
0.0
 40
0.2983324331
 40
0.6309630849
 40
1.0
 40
1.0
 40
1.0
 40
1.0
 10
4.2606886427
 20
3.9751464702
 30
0.0
 10
4.258361743
 20
3.9760355532
 30
0.0
 10
4.2537128262
 20
3.9786428667
 30
0.0
 10
4.247430757
 20
3.984237533
 30
0.0
 10
4.2440421122
 20
3.9890797663
 30
0.0
 10
4.2424749075
 20
3.9917327735
 30
0.0
  0
SPLINE
  5
319
100
AcDbEntity
  8
0
100
AcDbSpline
 62
7
  6
CONTINUOUS
 70
0
 71
3
 72
11
 73
7
 74
0
 42
0.0000001
 43
0.0000001
 44
0.0000000001
 40
0.0
 40
0.0
 40
0.0
 40
0.0
 40
0.2276417409
 40
0.4728123836
 40
0.7333620318
 40
1.0
 40
1.0
 40
1.0
 40
1.0
 10
4.281031604
 20
3.9760869095
 30
0.0
 10
4.2796757398
 20
3.9752339905
 30
0.0
 10
4.2765956062
 20
3.9738633989
 30
0.0
 10
4.2714687051
 20
3.9729594197
 30
0.0
 10
4.2659925524
 20
3.9732996312
 30
0.0
 10
4.2624130468
 20
3.9744071137
 30
0.0
 10
4.2606886427
 20
3.9751464702
 30
0.0
  0
SPLINE
  5
31A
100
AcDbEntity
  8
0
100
AcDbSpline
 62
7
  6
CONTINUOUS
 70
0
 71
3
 72
10
 73
6
 74
0
 42
0.0000001
 43
0.0000001
 44
0.0000000001
 40
0.0
 40
0.0
 40
0.0
 40
0.0
 40
0.313112059
 40
0.6500796804
 40
1.0
 40
1.0
 40
1.0
 40
1.0
 10
4.2898974815
 20
3.9873130289
 30
0.0
 10
4.2895354597
 20
3.9858266433
 30
0.0
 10
4.2882921633
 20
3.9828496063
 30
0.0
 10
4.2852535145
 20
3.9789531928
 30
0.0
 10
4.2825142786
 20
3.97693819
 30
0.0
 10
4.281031604
 20
3.9760869095
 30
0.0
  0
SPLINE
  5
31B
100
AcDbEntity
  8
0
100
AcDbSpline
 62
7
  6
CONTINUOUS
 70
0
 71
3
 72
10
 73
6
 74
0
 42
0.0000001
 43
0.0000001
 44
0.0000000001
 40
0.0
 40
0.0
 40
0.0
 40
0.0
 40
0.3435499969
 40
0.6813991353
 40
1.0
 40
1.0
 40
1.0
 40
1.0
 10
4.2878746626
 20
4.0012941979
 30
0.0
 10
4.2887245767
 20
3.9998697711
 30
0.0
 10
4.2900726535
 20
3.9968183547
 30
0.0
 10
4.2907499306
 20
3.991981058
 30
0.0
 10
4.2903276846
 20
3.9887899065
 30
0.0
 10
4.2898974815
 20
3.9873130289
 30
0.0
  0
SPLINE
  5
31C
100
AcDbEntity
  8
0
100
AcDbSpline
 62
7
  6
CONTINUOUS
 70
0
 71
3
 72
10
 73
6
 74
0
 42
0.0000001
 43
0.0000001
 44
0.0000000001
 40
0.0
 40
0.0
 40
0.0
 40
0.0
 40
0.3209641277
 40
0.6552274669
 40
1.0
 40
1.0
 40
1.0
 40
1.0
 10
4.2826992009
 20
4.0070838603
 30
0.0
 10
4.2833776694
 20
4.0065950194
 30
0.0
 10
4.2846869364
 20
4.0054887549
 30
0.0
 10
4.2864334041
 20
4.0035451244
 30
0.0
 10
4.2874220198
 20
4.002070078
 30
0.0
 10
4.2878746626
 20
4.0012941979
 30
0.0
  0
SPLINE
  5
31D
100
AcDbEntity
  8
0
100
AcDbSpline
 62
7
  6
CONTINUOUS
 70
0
 71
3
 72
10
 73
6
 74
0
 42
0.0000001
 43
0.0000001
 44
0.0000000001
 40
0.0
 40
0.0
 40
0.0
 40
0.0
 40
0.3431393427
 40
0.6775449157
 40
1.0
 40
1.0
 40
1.0
 40
1.0
 10
4.2756419237
 20
4.0102355341
 30
0.0
 10
4.2765107011
 20
4.0100433257
 30
0.0
 10
4.2782049799
 20
4.0095541911
 30
0.0
 10
4.2805771873
 20
4.0084882978
 30
0.0
 10
4.2820264597
 20
4.0075804141
 30
0.0
 10
4.2826992009
 20
4.0070838603
 30
0.0
  0
SPLINE
  5
31E
100
AcDbEntity
  8
0
100
AcDbSpline
 62
7
  6
CONTINUOUS
 70
0
 71
3
 72
10
 73
6
 74
0
 42
0.0000001
 43
0.0000001
 44
0.0000000001
 40
0.0
 40
0.0
 40
0.0
 40
0.0
 40
0.3571085648
 40
0.6946755618
 40
1.0
 40
1.0
 40
1.0
 40
1.0
 10
4.2770652759
 20
3.9968412486
 30
0.0
 10
4.2774835963
 20
3.997917822
 30
0.0
 10
4.2780493628
 20
4.0001314968
 30
0.0
 10
4.2778309694
 20
4.0034071831
 30
0.0
 10
4.2770576857
 20
4.0053856263
 30
0.0
 10
4.2765309399
 20
4.0062209144
 30
0.0
  0
SPLINE
  5
31F
100
AcDbEntity
  8
0
100
AcDbSpline
 62
7
  6
CONTINUOUS
 70
0
 71
3
 72
10
 73
6
 74
0
 42
0.0000001
 43
0.0000001
 44
0.0000000001
 40
0.0
 40
0.0
 40
0.0
 40
0.0
 40
0.3663835179
 40
0.6985000607
 40
1.0
 40
1.0
 40
1.0
 40
1.0
 10
4.269537194
 20
3.9884529848
 30
0.0
 10
4.2707472347
 20
3.9891604238
 30
0.0
 10
4.2729568835
 20
3.9907053223
 30
0.0
 10
4.2755163584
 20
3.9935910905
 30
0.0
 10
4.2766763253
 20
3.9957553633
 30
0.0
 10
4.2770652759
 20
3.9968412486
 30
0.0
  0
SPLINE
  5
320
100
AcDbEntity
  8
0
100
AcDbSpline
 62
7
  6
CONTINUOUS
 70
0
 71
3
 72
10
 73
6
 74
0
 42
0.0000001
 43
0.0000001
 44
0.0000000001
 40
0.0
 40
0.0
 40
0.0
 40
0.0
 40
0.3092705153
 40
0.6448679129
 40
1.0
 40
1.0
 40
1.0
 40
1.0
 10
4.2560578558
 20
3.9858644654
 30
0.0
 10
4.2574713916
 20
3.9855722905
 30
0.0
 10
4.2605157211
 20
3.9853981506
 30
0.0
 10
4.2651474287
 20
3.9862519779
 30
0.0
 10
4.2681065677
 20
3.987616038
 30
0.0
 10
4.269537194
 20
3.9884529848
 30
0.0
  0
SPLINE
  5
321
100
AcDbEntity
  8
0
100
AcDbSpline
 62
7
  6
CONTINUOUS
 70
0
 71
3
 72
10
 73
6
 74
0
 42
0.0000001
 43
0.0000001
 44
0.0000000001
 40
0.0
 40
0.0
 40
0.0
 40
0.0
 40
0.3117613228
 40
0.6495030533
 40
1.0
 40
1.0
 40
1.0
 40
1.0
 10
4.245920509
 20
3.9927173647
 30
0.0
 10
4.2465495621
 20
3.9915683845
 30
0.0
 10
4.248286835
 20
3.9893961216
 30
0.0
 10
4.2518004843
 20
3.9869872872
 30
0.0
 10
4.2546078682
 20
3.9861218983
 30
0.0
 10
4.2560578558
 20
3.9858644654
 30
0.0
  0
SPLINE
  5
322
100
AcDbEntity
  8
0
100
AcDbSpline
 62
7
  6
CONTINUOUS
 70
0
 71
3
 72
10
 73
6
 74
0
 42
0.0000001
 43
0.0000001
 44
0.0000000001
 40
0.0
 40
0.0
 40
0.0
 40
0.0
 40
0.3614894431
 40
0.6991281511
 40
1.0
 40
1.0
 40
1.0
 40
1.0
 10
4.2457981043
 20
4.005114427
 30
0.0
 10
4.2451172513
 20
4.0037178277
 30
0.0
 10
4.2441302218
 20
4.0008162478
 30
0.0
 10
4.244223002
 20
3.9964395046
 30
0.0
 10
4.2452173608
 20
3.9938026748
 30
0.0
 10
4.245920509
 20
3.9927173647
 30
0.0
  0
SPLINE
  5
323
100
AcDbEntity
  8
0
100
AcDbSpline
 62
7
  6
CONTINUOUS
 70
0
 71
3
 72
10
 73
6
 74
0
 42
0.0000001
 43
0.0000001
 44
0.0000000001
 40
0.0
 40
0.0
 40
0.0
 40
0.0
 40
0.3667166384
 40
0.6994579944
 40
1.0
 40
1.0
 40
1.0
 40
1.0
 10
4.2575656512
 20
4.0168782303
 30
0.0
 10
4.255781508
 20
4.0158448816
 30
0.0
 10
4.252506892
 20
4.0136303053
 30
0.0
 10
4.248465861
 20
4.0096730116
 30
0.0
 10
4.2465121082
 20
4.0066458991
 30
0.0
 10
4.2457981043
 20
4.005114427
 30
0.0
  0
SPLINE
  5
324
100
AcDbEntity
  8
0
100
AcDbSpline
 62
7
  6
CONTINUOUS
 70
0
 71
3
 72
10
 73
6
 74
0
 42
0.0000001
 43
0.0000001
 44
0.0000000001
 40
0.0
 40
0.0
 40
0.0
 40
0.0
 40
0.3455131939
 40
0.6791454474
 40
1.0
 40
1.0
 40
1.0
 40
1.0
 10
4.2712943973
 20
4.0222129599
 30
0.0
 10
4.269633918
 20
4.0218378213
 30
0.0
 10
4.2664007028
 20
4.0209499952
 30
0.0
 10
4.2618046657
 20
4.0191531802
 30
0.0
 10
4.2589288544
 20
4.0176786796
 30
0.0
 10
4.2575656512
 20
4.0168782303
 30
0.0
  0
SPLINE
  5
325
100
AcDbEntity
  8
0
100
AcDbSpline
 62
7
  6
CONTINUOUS
 70
0
 71
3
 72
10
 73
6
 74
0
 42
0.0000001
 43
0.0000001
 44
0.0000000001
 40
0.0
 40
0.0
 40
0.0
 40
0.0
 40
0.3495234225
 40
0.6827418356
 40
1.0
 40
1.0
 40
1.0
 40
1.0
 10
4.286579356
 20
4.023253227
 30
0.0
 10
4.2847933599
 20
4.02338384
 30
0.0
 10
4.2812905383
 20
4.0234913183
 30
0.0
 10
4.2761723481
 20
4.0231296604
 30
0.0
 10
4.2728793019
 20
4.0225737725
 30
0.0
 10
4.2712943973
 20
4.0222129599
 30
0.0
  0
SPLINE
  5
326
100
AcDbEntity
  8
0
100
AcDbSpline
 62
7
  6
CONTINUOUS
 70
0
 71
3
 72
10
 73
6
 74
0
 42
0.0000001
 43
0.0000001
 44
0.0000000001
 40
0.0
 40
0.0
 40
0.0
 40
0.0
 40
0.3422679909
 40
0.6759289336
 40
1.0
 40
1.0
 40
1.0
 40
1.0
 10
4.3081879942
 20
4.020416646
 30
0.0
 10
4.3057356038
 20
4.020831013
 30
0.0
 10
4.3008830105
 20
4.0215928481
 30
0.0
 10
4.293684157
 20
4.0225902611
 30
0.0
 10
4.2889265115
 20
4.0230621582
 30
0.0
 10
4.286579356
 20
4.023253227
 30
0.0
  0
LINE
  5
327
100
AcDbEntity
  8
0
100
AcDbLine
 62
7
  6
CONTINUOUS
 10
4.3260234837
 20
4.0175994211
 11
4.3081879942
 21
4.020416646
  0
SPLINE
  5
328
100
AcDbEntity
  8
0
100
AcDbSpline
 62
7
  6
CONTINUOUS
 70
0
 71
3
 72
10
 73
6
 74
0
 42
0.0000001
 43
0.0000001
 44
0.0000000001
 40
0.0
 40
0.0
 40
0.0
 40
0.0
 40
0.3269010246
 40
0.6604613417
 40
1.0
 40
1.0
 40
1.0
 40
1.0
 10
4.3434937776
 20
4.0156226885
 30
0.0
 10
4.3415839556
 20
4.0157771868
 30
0.0
 10
4.3377286555
 20
4.016132618
 30
0.0
 10
4.3319072445
 20
4.0168179978
 30
0.0
 10
4.327994894
 20
4.0173270718
 30
0.0
 10
4.3260234837
 20
4.0175994211
 30
0.0
  0
SPLINE
  5
329
100
AcDbEntity
  8
0
100
AcDbSpline
 62
7
  6
CONTINUOUS
 70
0
 71
3
 72
10
 73
6
 74
0
 42
0.0000001
 43
0.0000001
 44
0.0000000001
 40
0.0
 40
0.0
 40
0.0
 40
0.0
 40
0.3220573857
 40
0.656001036
 40
1.0
 40
1.0
 40
1.0
 40
1.0
 10
4.3544747999
 20
4.0152743689
 30
0.0
 10
4.3532959606
 20
4.0152185806
 30
0.0
 10
4.3508902231
 20
4.0151744627
 30
0.0
 10
4.3472292968
 20
4.0153602363
 30
0.0
 10
4.3447502809
 20
4.0155216123
 30
0.0
 10
4.3434937776
 20
4.0156226885
 30
0.0
  0
SPLINE
  5
32A
100
AcDbEntity
  8
0
100
AcDbSpline
 62
7
  6
CONTINUOUS
 70
0
 71
3
 72
10
 73
6
 74
0
 42
0.0000001
 43
0.0000001
 44
0.0000000001
 40
0.0
 40
0.0
 40
0.0
 40
0.0
 40
0.3581194074
 40
0.6909541933
 40
1.0
 40
1.0
 40
1.0
 40
1.0
 10
4.2625612637
 20
4.0703770622
 30
0.0
 10
4.2655277322
 20
4.0715953019
 30
0.0
 10
4.2711507783
 20
4.0742107382
 30
0.0
 10
4.2787971575
 20
4.0789063204
 30
0.0
 10
4.2833145423
 20
4.0824919439
 30
0.0
 10
4.2853496621
 20
4.0843673017
 30
0.0
  0
SPLINE
  5
32B
100
AcDbEntity
  8
0
100
AcDbSpline
 62
7
  6
CONTINUOUS
 70
0
 71
3
 72
10
 73
6
 74
0
 42
0.0000001
 43
0.0000001
 44
0.0000000001
 40
0.0
 40
0.0
 40
0.0
 40
0.0
 40
0.3084585186
 40
0.6414348976
 40
1.0
 40
1.0
 40
1.0
 40
1.0
 10
4.235751709
 20
4.0640769027
 30
0.0
 10
4.238594863
 20
4.0641723924
 30
0.0
 10
4.2444972067
 20
4.0648184209
 30
0.0
 10
4.2534848256
 20
4.0669682657
 30
0.0
 10
4.2595013187
 20
4.0691232314
 30
0.0
 10
4.2625612637
 20
4.0703770622
 30
0.0
  0
SPLINE
  5
32C
100
AcDbEntity
  8
0
100
AcDbSpline
 62
7
  6
CONTINUOUS
 70
0
 71
3
 72
10
 73
6
 74
0
 42
0.0000001
 43
0.0000001
 44
0.0000000001
 40
0.0
 40
0.0
 40
0.0
 40
0.0
 40
0.3042809546
 40
0.6365121756
 40
1.0
 40
1.0
 40
1.0
 40
1.0
 10
4.2132851795
 20
4.0684855034
 30
0.0
 10
4.215380049
 20
4.0674354523
 30
0.0
 10
4.2199950186
 20
4.0656946021
 30
0.0
 10
4.2275723223
 20
4.0641541543
 30
0.0
 10
4.2329537361
 20
4.0639918231
 30
0.0
 10
4.235751709
 20
4.0640769027
 30
0.0
  0
SPLINE
  5
32D
100
AcDbEntity
  8
0
100
AcDbSpline
 62
7
  6
CONTINUOUS
 70
0
 71
3
 72
10
 73
6
 74
0
 42
0.0000001
 43
0.0000001
 44
0.0000000001
 40
0.0
 40
0.0
 40
0.0
 40
0.0
 40
0.3569731285
 40
0.6900027227
 40
1.0
 40
1.0
 40
1.0
 40
1.0
 10
4.2318302332
 20
4.0688129602
 30
0.0
 10
4.2296492854
 20
4.0684083509
 30
0.0
 10
4.2253917049
 20
4.0678262812
 30
0.0
 10
4.2191656021
 20
4.0676907512
 30
0.0
 10
4.2151779989
 20
4.0681281187
 30
0.0
 10
4.2132851795
 20
4.0684855034
 30
0.0
  0
SPLINE
  5
32E
100
AcDbEntity
  8
0
100
AcDbSpline
 62
7
  6
CONTINUOUS
 70
0
 71
3
 72
10
 73
6
 74
0
 42
0.0000001
 43
0.0000001
 44
0.0000000001
 40
0.0
 40
0.0
 40
0.0
 40
0.0
 40
0.3502876571
 40
0.6839980885
 40
1.0
 40
1.0
 40
1.0
 40
1.0
 10
4.2559958898
 20
4.0764702504
 30
0.0
 10
4.2532561664
 20
4.0753385326
 30
0.0
 10
4.2478493246
 20
4.0732663918
 30
0.0
 10
4.2398113494
 20
4.0706021801
 30
0.0
 10
4.2344555133
 20
4.0693217404
 30
0.0
 10
4.2318302332
 20
4.0688129602
 30
0.0
  0
SPLINE
  5
32F
100
AcDbEntity
  8
0
100
AcDbSpline
 62
7
  6
CONTINUOUS
 70
0
 71
3
 72
10
 73
6
 74
0
 42
0.0000001
 43
0.0000001
 44
0.0000000001
 40
0.0
 40
0.0
 40
0.0
 40
0.0
 40
0.3176106353
 40
0.6511909168
 40
1.0
 40
1.0
 40
1.0
 40
1.0
 10
4.2825509462
 20
4.0896169265
 30
0.0
 10
4.2798828985
 20
4.0879605803
 30
0.0
 10
4.2742898376
 20
4.0847574223
 30
0.0
 10
4.2653852717
 20
4.0804487975
 30
0.0
 10
4.2591911347
 20
4.0777683188
 30
0.0
 10
4.2559958898
 20
4.0764702504
 30
0.0
  0
SPLINE
  5
330
100
AcDbEntity
  8
0
100
AcDbSpline
 62
7
  6
CONTINUOUS
 70
0
 71
3
 72
10
 73
6
 74
0
 42
0.0000001
 43
0.0000001
 44
0.0000000001
 40
0.0
 40
0.0
 40
0.0
 40
0.0
 40
0.3094867674
 40
0.6429624544
 40
1.0
 40
1.0
 40
1.0
 40
1.0
 10
4.2986650094
 20
4.1032767111
 30
0.0
 10
4.2973063602
 20
4.1015607539
 30
0.0
 10
4.2942074877
 20
4.0982066106
 30
0.0
 10
4.2887322196
 20
4.0937093174
 30
0.0
 10
4.2846945758
 20
4.0909512494
 30
0.0
 10
4.2825509462
 20
4.0896169265
 30
0.0
  0
SPLINE
  5
331
100
AcDbEntity
  8
0
100
AcDbSpline
 62
7
  6
CONTINUOUS
 70
0
 71
3
 72
10
 73
6
 74
0
 42
0.0000001
 43
0.0000001
 44
0.0000000001
 40
0.0
 40
0.0
 40
0.0
 40
0.0
 40
0.362791863
 40
0.6952626166
 40
1.0
 40
1.0
 40
1.0
 40
1.0
 10
4.2853496621
 20
4.0843673017
 30
0.0
 10
4.2874251716
 20
4.0862765124
 30
0.0
 10
4.2911989165
 20
4.0901773184
 30
0.0
 10
4.2956662613
 20
4.0965735637
 30
0.0
 10
4.2978468074
 20
4.1010537013
 30
0.0
 10
4.2986650094
 20
4.1032767111
 30
0.0
  0
SPLINE
  5
332
100
AcDbEntity
  8
0
100
AcDbSpline
 62
7
  6
CONTINUOUS
 70
0
 71
3
 72
10
 73
6
 74
0
 42
0.0000001
 43
0.0000001
 44
0.0000000001
 40
0.0
 40
0.0
 40
0.0
 40
0.0
 40
0.3448743725
 40
0.6786451541
 40
1.0
 40
1.0
 40
1.0
 40
1.0
 10
4.2529704574
 20
4.123446203
 30
0.0
 10
4.2553217455
 20
4.1244151424
 30
0.0
 10
4.2599787392
 20
4.1262483447
 30
0.0
 10
4.266905572
 20
4.128782689
 30
0.0
 10
4.2715300878
 20
4.1301901531
 30
0.0
 10
4.273814023
 20
4.1308218175
 30
0.0
  0
SPLINE
  5
333
100
AcDbEntity
  8
0
100
AcDbSpline
 62
7
  6
CONTINUOUS
 70
0
 71
3
 72
10
 73
6
 74
0
 42
0.0000001
 43
0.0000001
 44
0.0000000001
 40
0.0
 40
0.0
 40
0.0
 40
0.0
 40
0.3232026495
 40
0.6569667616
 40
1.0
 40
1.0
 40
1.0
 40
1.0
 10
4.2175248084
 20
4.1076590451
 30
0.0
 10
4.2212632779
 20
4.1095317161
 30
0.0
 10
4.2289259099
 20
4.1132141609
 30
0.0
 10
4.2407876398
 20
4.1183815194
 30
0.0
 10
4.2488614424
 20
4.1217698194
 30
0.0
 10
4.2529704574
 20
4.123446203
 30
0.0
  0
SPLINE
  5
334
100
AcDbEntity
  8
0
100
AcDbSpline
 62
7
  6
CONTINUOUS
 70
0
 71
3
 72
10
 73
6
 74
0
 42
0.0000001
 43
0.0000001
 44
0.0000000001
 40
0.0
 40
0.0
 40
0.0
 40
0.0
 40
0.308770601
 40
0.643016931
 40
1.0
 40
1.0
 40
1.0
 40
1.0
 10
4.201586557
 20
4.0970635305
 30
0.0
 10
4.2029744173
 20
4.0984720259
 30
0.0
 10
4.2061136698
 20
4.1011759913
 30
0.0
 10
4.2116134752
 20
4.1044807688
 30
0.0
 10
4.2154868936
 20
4.1066230466
 30
0.0
 10
4.2175248084
 20
4.1076590451
 30
0.0
  0
SPLINE
  5
335
100
AcDbEntity
  8
0
100
AcDbSpline
 62
7
  6
CONTINUOUS
 70
0
 71
3
 72
10
 73
6
 74
0
 42
0.0000001
 43
0.0000001
 44
0.0000000001
 40
0.0
 40
0.0
 40
0.0
 40
0.0
 40
0.3497495635
 40
0.683803093
 40
1.0
 40
1.0
 40
1.0
 40
1.0
 10
4.2150031748
 20
4.1134549534
 30
0.0
 10
4.2130584259
 20
4.1119035301
 30
0.0
 10
4.2094408717
 20
4.1086220996
 30
0.0
 10
4.2049421831
 20
4.1030819048
 30
0.0
 10
4.202566726
 20
4.0990878165
 30
0.0
 10
4.201586557
 20
4.0970635305
 30
0.0
  0
SPLINE
  5
336
100
AcDbEntity
  8
0
100
AcDbSpline
 62
7
  6
CONTINUOUS
 70
0
 71
3
 72
10
 73
6
 74
0
 42
0.0000001
 43
0.0000001
 44
0.0000000001
 40
0.0
 40
0.0
 40
0.0
 40
0.0
 40
0.355063554
 40
0.6886101623
 40
1.0
 40
1.0
 40
1.0
 40
1.0
 10
4.2394159055
 20
4.1269177939
 30
0.0
 10
4.2363502618
 20
4.1256726201
 30
0.0
 10
4.230487563
 20
4.12305022
 30
0.0
 10
4.222255681
 20
4.11865737
 30
0.0
 10
4.2172895245
 20
4.1152419801
 30
0.0
 10
4.2150031748
 20
4.1134549534
 30
0.0
  0
SPLINE
  5
337
100
AcDbEntity
  8
0
100
AcDbSpline
 62
7
  6
CONTINUOUS
 70
0
 71
3
 72
10
 73
6
 74
0
 42
0.0000001
 43
0.0000001
 44
0.0000000001
 40
0.0
 40
0.0
 40
0.0
 40
0.0
 40
0.3113856949
 40
0.6451649245
 40
1.0
 40
1.0
 40
1.0
 40
1.0
 10
4.2668891449
 20
4.1348544012
 30
0.0
 10
4.2639361399
 20
4.1344855004
 30
0.0
 10
4.2578573496
 20
4.1333499783
 30
0.0
 10
4.2487146332
 20
4.1305280977
 30
0.0
 10
4.2425498515
 20
4.128213436
 30
0.0
 10
4.2394159055
 20
4.1269177939
 30
0.0
  0
SPLINE
  5
338
100
AcDbEntity
  8
0
100
AcDbSpline
 62
7
  6
CONTINUOUS
 70
0
 71
3
 72
10
 73
6
 74
0
 42
0.0000001
 43
0.0000001
 44
0.0000000001
 40
0.0
 40
0.0
 40
0.0
 40
0.0
 40
0.3035483983
 40
0.636169383
 40
1.0
 40
1.0
 40
1.0
 40
1.0
 10
4.2866865166
 20
4.1325384207
 30
0.0
 10
4.2848141611
 20
4.1333397701
 30
0.0
 10
4.2806966866
 20
4.1345816405
 30
0.0
 10
4.2740032915
 20
4.1353589202
 30
0.0
 10
4.2693150627
 20
4.1351261626
 30
0.0
 10
4.2668891449
 20
4.1348544012
 30
0.0
  0
SPLINE
  5
339
100
AcDbEntity
  8
0
100
AcDbSpline
 62
7
  6
CONTINUOUS
 70
0
 71
3
 72
10
 73
6
 74
0
 42
0.0000001
 43
0.0000001
 44
0.0000000001
 40
0.0
 40
0.0
 40
0.0
 40
0.0
 40
0.3538978994
 40
0.6877750943
 40
1.0
 40
1.0
 40
1.0
 40
1.0
 10
4.273814023
 20
4.1308218175
 30
0.0
 10
4.2752979381
 20
4.1312255564
 30
0.0
 10
4.278212834
 20
4.1318956902
 30
0.0
 10
4.2825122653
 20
4.1325770929
 30
0.0
 10
4.2853320761
 20
4.1326178791
 30
0.0
 10
4.2866865166
 20
4.1325384207
 30
0.0
  0
SPLINE
  5
33A
100
AcDbEntity
  8
0
100
AcDbSpline
 62
7
  6
CONTINUOUS
 70
0
 71
3
 72
10
 73
6
 74
0
 42
0.0000001
 43
0.0000001
 44
0.0000000001
 40
0.0
 40
0.0
 40
0.0
 40
0.0
 40
0.3711633091
 40
0.7029735155
 40
1.0
 40
1.0
 40
1.0
 40
1.0
 10
4.2567399435
 20
4.0845976979
 30
0.0
 10
4.2616882921
 20
4.0866916922
 30
0.0
 10
4.2709627379
 20
4.0908667777
 30
0.0
 10
4.2843103836
 20
4.0965430423
 30
0.0
 10
4.2919259233
 20
4.1016548028
 30
0.0
 10
4.2952677719
 20
4.1043606106
 30
0.0
  0
SPLINE
  5
33B
100
AcDbEntity
  8
0
100
AcDbSpline
 62
7
  6
CONTINUOUS
 70
0
 71
3
 72
10
 73
6
 74
0
 42
0.0000001
 43
0.0000001
 44
0.0000000001
 40
0.0
 40
0.0
 40
0.0
 40
0.0
 40
0.3013771358
 40
0.6343660181
 40
1.0
 40
1.0
 40
1.0
 40
1.0
 10
4.2153450254
 20
4.0716436567
 30
0.0
 10
4.2196934533
 20
4.0720794176
 30
0.0
 10
4.2288010391
 20
4.0737945284
 30
0.0
 10
4.242309966
 20
4.0791450185
 30
0.0
 10
4.2518087494
 20
4.08264979
 30
0.0
 10
4.2567399435
 20
4.0845976979
 30
0.0
  0
SPLINE
  5
33C
100
AcDbEntity
  8
0
100
AcDbSpline
 62
7
  6
CONTINUOUS
 70
0
 71
3
 72
11
 73
7
 74
0
 42
0.0000001
 43
0.0000001
 44
0.0000000001
 40
0.0
 40
0.0
 40
0.0
 40
0.0
 40
0.2603620601
 40
0.4979661879
 40
0.7359787797
 40
1.0
 40
1.0
 40
1.0
 40
1.0
 10
4.2015809687
 20
4.0806970669
 30
0.0
 10
4.2021570502
 20
4.0792836105
 30
0.0
 10
4.2035689484
 20
4.0766791972
 30
0.0
 10
4.2067658838
 20
4.0736583362
 30
0.0
 10
4.2108291955
 20
4.0719277386
 30
0.0
 10
4.2137972506
 20
4.0716354955
 30
0.0
 10
4.2153450254
 20
4.0716436567
 30
0.0
  0
SPLINE
  5
33D
100
AcDbEntity
  8
0
100
AcDbSpline
 62
7
  6
CONTINUOUS
 70
0
 71
3
 72
10
 73
6
 74
0
 42
0.0000001
 43
0.0000001
 44
0.0000000001
 40
0.0
 40
0.0
 40
0.0
 40
0.0
 40
0.3134711337
 40
0.6501051226
 40
1.0
 40
1.0
 40
1.0
 40
1.0
 10
4.2012743791
 20
4.0912481645
 30
0.0
 10
4.2008568073
 20
4.0902007941
 30
0.0
 10
4.2003154706
 20
4.087891704
 30
0.0
 10
4.2003993153
 20
4.0842590489
 30
0.0
 10
4.20110008
 20
4.0818601279
 30
0.0
 10
4.2015809687
 20
4.0806970669
 30
0.0
  0
SPLINE
  5
33E
100
AcDbEntity
  8
0
100
AcDbSpline
 62
7
  6
CONTINUOUS
 70
0
 71
3
 72
10
 73
6
 74
0
 42
0.0000001
 43
0.0000001
 44
0.0000000001
 40
0.0
 40
0.0
 40
0.0
 40
0.0
 40
0.3645111158
 40
0.6967651541
 40
1.0
 40
1.0
 40
1.0
 40
1.0
 10
4.2087341578
 20
4.1001003243
 30
0.0
 10
4.2075416309
 20
4.0993144092
 30
0.0
 10
4.2053668034
 20
4.0976292392
 30
0.0
 10
4.2028439328
 20
4.0945959631
 30
0.0
 10
4.2016783503
 20
4.092365499
 30
0.0
 10
4.2012743791
 20
4.0912481645
 30
0.0
  0
SPLINE
  5
33F
100
AcDbEntity
  8
0
100
AcDbSpline
 62
7
  6
CONTINUOUS
 70
0
 71
3
 72
10
 73
6
 74
0
 42
0.0000001
 43
0.0000001
 44
0.0000000001
 40
0.0
 40
0.0
 40
0.0
 40
0.0
 40
0.345114707
 40
0.6790832306
 40
1.0
 40
1.0
 40
1.0
 40
1.0
 10
4.2235889181
 20
4.1078647056
 30
0.0
 10
4.2218360849
 20
4.107058289
 30
0.0
 10
4.2184124403
 20
4.1054172316
 30
0.0
 10
4.2134118651
 20
4.1029131127
 30
0.0
 10
4.2102532728
 20
4.1010549342
 30
0.0
 10
4.2087341578
 20
4.1001003243
 30
0.0
  0
SPLINE
  5
340
100
AcDbEntity
  8
0
100
AcDbSpline
 62
7
  6
CONTINUOUS
 70
0
 71
3
 72
10
 73
6
 74
0
 42
0.0000001
 43
0.0000001
 44
0.0000000001
 40
0.0
 40
0.0
 40
0.0
 40
0.0
 40
0.3389994263
 40
0.6724561142
 40
1.0
 40
1.0
 40
1.0
 40
1.0
 10
4.2503140865
 20
4.1194052601
 30
0.0
 10
4.247268842
 20
4.1181608085
 30
0.0
 10
4.2412437612
 20
4.1156539884
 30
0.0
 10
4.2323253365
 20
4.1118279414
 30
0.0
 10
4.2264762237
 20
4.109193836
 30
0.0
 10
4.2235889181
 20
4.1078647056
 30
0.0
  0
SPLINE
  5
341
100
AcDbEntity
  8
0
100
AcDbSpline
 62
7
  6
CONTINUOUS
 70
0
 71
3
 72
10
 73
6
 74
0
 42
0.0000001
 43
0.0000001
 44
0.0000000001
 40
0.0
 40
0.0
 40
0.0
 40
0.0
 40
0.3037941723
 40
0.6376709702
 40
1.0
 40
1.0
 40
1.0
 40
1.0
 10
4.2849964988
 20
4.1294518436
 30
0.0
 10
4.2813345811
 20
4.1292060295
 30
0.0
 10
4.2736686814
 20
4.1280033481
 30
0.0
 10
4.2622566768
 20
4.1239646624
 30
0.0
 10
4.2543710718
 20
4.1210489825
 30
0.0
 10
4.2503140865
 20
4.1194052601
 30
0.0
  0
SPLINE
  5
342
100
AcDbEntity
  8
0
100
AcDbSpline
 62
7
  6
CONTINUOUS
 70
0
 71
3
 72
11
 73
7
 74
0
 42
0.0000001
 43
0.0000001
 44
0.0000000001
 40
0.0
 40
0.0
 40
0.0
 40
0.0
 40
0.2609769122
 40
0.4985371782
 40
0.7363518687
 40
1.0
 40
1.0
 40
1.0
 40
1.0
 10
4.2986642055
 20
4.1204387932
 30
0.0
 10
4.298090029
 20
4.1218467321
 30
0.0
 10
4.2966874276
 20
4.1244388485
 30
0.0
 10
4.2935126097
 20
4.1274467609
 30
0.0
 10
4.2894791224
 20
4.1291693421
 30
0.0
 10
4.2865325562
 20
4.1294601331
 30
0.0
 10
4.2849964988
 20
4.1294518436
 30
0.0
  0
SPLINE
  5
343
100
AcDbEntity
  8
0
100
AcDbSpline
 62
7
  6
CONTINUOUS
 70
0
 71
3
 72
11
 73
7
 74
0
 42
0.0000001
 43
0.0000001
 44
0.0000000001
 40
0.0
 40
0.0
 40
0.0
 40
0.0
 40
0.2645268413
 40
0.5026524242
 40
0.7390318194
 40
1.0
 40
1.0
 40
1.0
 40
1.0
 10
4.2952677719
 20
4.1043606106
 30
0.0
 10
4.2963763544
 20
4.1054399904
 30
0.0
 10
4.2982846989
 20
4.1077294981
 30
0.0
 10
4.2999400215
 20
4.1118117122
 30
0.0
 10
4.3000693255
 20
4.1161940743
 30
0.0
 10
4.2992442487
 20
4.1190268493
 30
0.0
 10
4.2986642055
 20
4.1204387932
 30
0.0
  0
SPLINE
  5
344
100
AcDbEntity
  8
0
100
AcDbSpline
 62
7
  6
CONTINUOUS
 70
0
 71
3
 72
10
 73
6
 74
0
 42
0.0000001
 43
0.0000001
 44
0.0000000001
 40
0.0
 40
0.0
 40
0.0
 40
0.0
 40
0.3122573169
 40
0.6454215998
 40
1.0
 40
1.0
 40
1.0
 40
1.0
 10
4.205717782
 20
4.1106165953
 30
0.0
 10
4.2068232016
 20
4.1121705415
 30
0.0
 10
4.2093231301
 20
4.1152335043
 30
0.0
 10
4.2137110147
 20
4.1194958776
 30
0.0
 10
4.2169963592
 20
4.1221236457
 30
0.0
 10
4.2187426358
 20
4.123404195
 30
0.0
  0
SPLINE
  5
345
100
AcDbEntity
  8
0
100
AcDbSpline
 62
7
  6
CONTINUOUS
 70
0
 71
3
 72
10
 73
6
 74
0
 42
0.0000001
 43
0.0000001
 44
0.0000000001
 40
0.0
 40
0.0
 40
0.0
 40
0.0
 40
0.3080626572
 40
0.6411499829
 40
1.0
 40
1.0
 40
1.0
 40
1.0
 10
4.1980892659
 20
4.0943421566
 30
0.0
 10
4.1984722171
 20
4.0961593687
 30
0.0
 10
4.1996056496
 20
4.0998757815
 30
0.0
 10
4.2022148952
 20
4.1053284208
 30
0.0
 10
4.2044628849
 20
4.1088544769
 30
0.0
 10
4.205717782
 20
4.1106165953
 30
0.0
  0
SPLINE
  5
346
100
AcDbEntity
  8
0
100
AcDbSpline
 62
7
  6
CONTINUOUS
 70
0
 71
3
 72
10
 73
6
 74
0
 42
0.0000001
 43
0.0000001
 44
0.0000000001
 40
0.0
 40
0.0
 40
0.0
 40
0.0
 40
0.3028894693
 40
0.6351227175
 40
1.0
 40
1.0
 40
1.0
 40
1.0
 10
4.1991197022
 20
4.0796895296
 30
0.0
 10
4.198529884
 20
4.0810723498
 30
0.0
 10
4.1976637483
 20
4.0841341821
 30
0.0
 10
4.1972730004
 20
4.0891127775
 30
0.0
 10
4.1977250102
 20
4.0925681422
 30
0.0
 10
4.1980892659
 20
4.0943421566
 30
0.0
  0
SPLINE
  5
347
100
AcDbEntity
  8
0
100
AcDbSpline
 62
7
  6
CONTINUOUS
 70
0
 71
3
 72
10
 73
6
 74
0
 42
0.0000001
 43
0.0000001
 44
0.0000000001
 40
0.0
 40
0.0
 40
0.0
 40
0.0
 40
0.3650022838
 40
0.6971597887
 40
1.0
 40
1.0
 40
1.0
 40
1.0
 10
4.2086769971
 20
4.0685820833
 30
0.0
 10
4.2071724593
 20
4.0695837263
 30
0.0
 10
4.2044255108
 20
4.0717148002
 30
0.0
 10
4.201201146
 20
4.0755134688
 30
0.0
 10
4.1996691716
 20
4.0782941775
 30
0.0
 10
4.1991197022
 20
4.0796895296
 30
0.0
  0
SPLINE
  5
348
100
AcDbEntity
  8
0
100
AcDbSpline
 62
7
  6
CONTINUOUS
 70
0
 71
3
 72
10
 73
6
 74
0
 42
0.0000001
 43
0.0000001
 44
0.0000000001
 40
0.0
 40
0.0
 40
0.0
 40
0.0
 40
0.3588304335
 40
0.691846555
 40
1.0
 40
1.0
 40
1.0
 40
1.0
 10
4.2254504148
 20
4.0623828217
 30
0.0
 10
4.2233295034
 20
4.0627493739
 30
0.0
 10
4.2192716004
 20
4.0636695172
 30
0.0
 10
4.2136173801
 20
4.0657207128
 30
0.0
 10
4.2102184526
 20
4.0675620711
 30
0.0
 10
4.2086769971
 20
4.0685820833
 30
0.0
  0
SPLINE
  5
349
100
AcDbEntity
  8
0
100
AcDbSpline
 62
7
  6
CONTINUOUS
 70
0
 71
3
 72
10
 73
6
 74
0
 42
0.0000001
 43
0.0000001
 44
0.0000000001
 40
0.0
 40
0.0
 40
0.0
 40
0.0
 40
0.3541760923
 40
0.6872249651
 40
1.0
 40
1.0
 40
1.0
 40
1.0
 10
4.2437351417
 20
4.062351151
 30
0.0
 10
4.2415904972
 20
4.0620434223
 30
0.0
 10
4.237400271
 20
4.061621342
 30
0.0
 10
4.2312730051
 20
4.061621245
 30
0.0
 10
4.227335123
 20
4.0620530228
 30
0.0
 10
4.2254504148
 20
4.0623828217
 30
0.0
  0
SPLINE
  5
34A
100
AcDbEntity
  8
0
100
AcDbSpline
 62
7
  6
CONTINUOUS
 70
0
 71
3
 72
10
 73
6
 74
0
 42
0.0000001
 43
0.0000001
 44
0.0000000001
 40
0.0
 40
0.0
 40
0.0
 40
0.0
 40
0.3493878231
 40
0.6823985049
 40
1.0
 40
1.0
 40
1.0
 40
1.0
 10
4.2635967894
 20
4.0678474239
 30
0.0
 10
4.2613687482
 20
4.0669408687
 30
0.0
 10
4.2569522139
 20
4.0653216195
 30
0.0
 10
4.2503064332
 20
4.0634977446
 30
0.0
 10
4.2458998962
 20
4.0626592865
 30
0.0
 10
4.2437351417
 20
4.062351151
 30
0.0
  0
SPLINE
  5
34B
100
AcDbEntity
  8
0
100
AcDbSpline
 62
7
  6
CONTINUOUS
 70
0
 71
3
 72
10
 73
6
 74
0
 42
0.0000001
 43
0.0000001
 44
0.0000000001
 40
0.0
 40
0.0
 40
0.0
 40
0.0
 40
0.3162619793
 40
0.6491876661
 40
1.0
 40
1.0
 40
1.0
 40
1.0
 10
4.2816796497
 20
4.0778840095
 30
0.0
 10
4.2799218508
 20
4.0765859811
 30
0.0
 10
4.2761864403
 20
4.0740913762
 30
0.0
 10
4.2701469054
 20
4.0707214627
 30
0.0
 10
4.2658380385
 20
4.0687703342
 30
0.0
 10
4.2635967894
 20
4.0678474239
 30
0.0
  0
SPLINE
  5
34C
100
AcDbEntity
  8
0
100
AcDbSpline
 62
7
  6
CONTINUOUS
 70
0
 71
3
 72
10
 73
6
 74
0
 42
0.0000001
 43
0.0000001
 44
0.0000000001
 40
0.0
 40
0.0
 40
0.0
 40
0.0
 40
0.313055474
 40
0.6460529481
 40
1.0
 40
1.0
 40
1.0
 40
1.0
 10
4.2946397525
 20
4.0906896288
 30
0.0
 10
4.2935275469
 20
4.0891391471
 30
0.0
 10
4.2910291396
 20
4.0860822381
 30
0.0
 10
4.2866861122
 20
4.0817916094
 30
0.0
 10
4.283416666
 20
4.0791634903
 30
0.0
 10
4.2816796497
 20
4.0778840095
 30
0.0
  0
SPLINE
  5
34D
100
AcDbEntity
  8
0
100
AcDbSpline
 62
7
  6
CONTINUOUS
 70
0
 71
3
 72
10
 73
6
 74
0
 42
0.0000001
 43
0.0000001
 44
0.0000000001
 40
0.0
 40
0.0
 40
0.0
 40
0.0
 40
0.3076925685
 40
0.6407119373
 40
1.0
 40
1.0
 40
1.0
 40
1.0
 10
4.3022751886
 20
4.1069158505
 30
0.0
 10
4.3019011919
 20
4.1051026599
 30
0.0
 10
4.3007781858
 20
4.1013928708
 30
0.0
 10
4.2981729469
 20
4.0959500085
 30
0.0
 10
4.2959066717
 20
4.0924412907
 30
0.0
 10
4.2946397525
 20
4.0906896288
 30
0.0
  0
SPLINE
  5
34E
100
AcDbEntity
  8
0
100
AcDbSpline
 62
7
  6
CONTINUOUS
 70
0
 71
3
 72
10
 73
6
 74
0
 42
0.0000001
 43
0.0000001
 44
0.0000000001
 40
0.0
 40
0.0
 40
0.0
 40
0.0
 40
0.3025380331
 40
0.6350171161
 40
1.0
 40
1.0
 40
1.0
 40
1.0
 10
4.3013305761
 20
4.1215302913
 30
0.0
 10
4.3019127763
 20
4.1201513699
 30
0.0
 10
4.3027605302
 20
4.1170936752
 30
0.0
 10
4.3030930443
 20
4.1121277104
 30
0.0
 10
4.3026385916
 20
4.1086846381
 30
0.0
 10
4.3022751886
 20
4.1069158505
 30
0.0
  0
SPLINE
  5
34F
100
AcDbEntity
  8
0
100
AcDbSpline
 62
7
  6
CONTINUOUS
 70
0
 71
3
 72
10
 73
6
 74
0
 42
0.0000001
 43
0.0000001
 44
0.0000000001
 40
0.0
 40
0.0
 40
0.0
 40
0.0
 40
0.3648275815
 40
0.6968946893
 40
1.0
 40
1.0
 40
1.0
 40
1.0
 10
4.2917907281
 20
4.1326994579
 30
0.0
 10
4.2932941097
 20
4.1316901392
 30
0.0
 10
4.296038483
 20
4.1295443798
 30
0.0
 10
4.2992514207
 20
4.1257212354
 30
0.0
 10
4.3007806513
 20
4.1229305977
 30
0.0
 10
4.3013305761
 20
4.1215302913
 30
0.0
  0
SPLINE
  5
350
100
AcDbEntity
  8
0
100
AcDbSpline
 62
7
  6
CONTINUOUS
 70
0
 71
3
 72
10
 73
6
 74
0
 42
0.0000001
 43
0.0000001
 44
0.0000000001
 40
0.0
 40
0.0
 40
0.0
 40
0.0
 40
0.3587914174
 40
0.6919147459
 40
1.0
 40
1.0
 40
1.0
 40
1.0
 10
4.274882753
 20
4.138985907
 30
0.0
 10
4.277019252
 20
4.138602767
 30
0.0
 10
4.2811063286
 20
4.1376534345
 30
0.0
 10
4.286810828
 20
4.1355909701
 30
0.0
 10
4.2902374903
 20
4.1337296488
 30
0.0
 10
4.2917907281
 20
4.1326994579
 30
0.0
  0
SPLINE
  5
351
100
AcDbEntity
  8
0
100
AcDbSpline
 62
7
  6
CONTINUOUS
 70
0
 71
3
 72
10
 73
6
 74
0
 42
0.0000001
 43
0.0000001
 44
0.0000000001
 40
0.0
 40
0.0
 40
0.0
 40
0.0
 40
0.3547893365
 40
0.6879592221
 40
1.0
 40
1.0
 40
1.0
 40
1.0
 10
4.2567542313
 20
4.1389738601
 30
0.0
 10
4.2588836002
 20
4.1392867257
 30
0.0
 10
4.2630414122
 20
4.1397186312
 30
0.0
 10
4.2691178423
 20
4.1397574167
 30
0.0
 10
4.2730199257
 20
4.1393220267
 30
0.0
 10
4.274882753
 20
4.138985907
 30
0.0
  0
SPLINE
  5
352
100
AcDbEntity
  8
0
100
AcDbSpline
 62
7
  6
CONTINUOUS
 70
0
 71
3
 72
10
 73
6
 74
0
 42
0.0000001
 43
0.0000001
 44
0.0000000001
 40
0.0
 40
0.0
 40
0.0
 40
0.0
 40
0.3371267411
 40
0.6709055152
 40
1.0
 40
1.0
 40
1.0
 40
1.0
 10
4.2367291462
 20
4.1334811549
 30
0.0
 10
4.2388935707
 20
4.1343668161
 30
0.0
 10
4.2432725619
 20
4.1359608362
 30
0.0
 10
4.2499700428
 20
4.1377940185
 30
0.0
 10
4.2544949454
 20
4.1386463695
 30
0.0
 10
4.2567542313
 20
4.1389738601
 30
0.0
  0
SPLINE
  5
353
100
AcDbEntity
  8
0
100
AcDbSpline
 62
7
  6
CONTINUOUS
 70
0
 71
3
 72
10
 73
6
 74
0
 42
0.0000001
 43
0.0000001
 44
0.0000000001
 40
0.0
 40
0.0
 40
0.0
 40
0.0
 40
0.3080228528
 40
0.6421817536
 40
1.0
 40
1.0
 40
1.0
 40
1.0
 10
4.1691629881
 20
4.4639001805
 30
0.0
 10
4.1700420378
 20
4.4641476353
 30
0.0
 10
4.1719393059
 20
4.4644630078
 30
0.0
 10
4.1749109289
 20
4.464309319
 30
0.0
 10
4.1769458407
 20
4.4640354221
 30
0.0
 10
4.1779882679
 20
4.4638385921
 30
0.0
  0
SPLINE
  5
354
100
AcDbEntity
  8
0
100
AcDbSpline
 62
7
  6
CONTINUOUS
 70
0
 71
3
 72
10
 73
6
 74
0
 42
0.0000001
 43
0.0000001
 44
0.0000000001
 40
0.0
 40
0.0
 40
0.0
 40
0.0
 40
0.3618850386
 40
0.6947573528
 40
1.0
 40
1.0
 40
1.0
 40
1.0
 10
4.1637010872
 20
4.4596084401
 30
0.0
 10
4.1641936039
 20
4.4603028085
 30
0.0
 10
4.1652481276
 20
4.4615657364
 30
0.0
 10
4.1671005271
 20
4.4630429723
 30
0.0
 10
4.1684769026
 20
4.4636882971
 30
0.0
 10
4.1691629881
 20
4.4639001805
 30
0.0
  0
SPLINE
  5
355
100
AcDbEntity
  8
0
100
AcDbSpline
 62
7
  6
CONTINUOUS
 70
0
 71
3
 72
10
 73
6
 74
0
 42
0.0000001
 43
0.0000001
 44
0.0000000001
 40
0.0
 40
0.0
 40
0.0
 40
0.0
 40
0.3229550722
 40
0.6562787215
 40
1.0
 40
1.0
 40
1.0
 40
1.0
 10
4.1640490123
 20
4.4671353285
 30
0.0
 10
4.1640819413
 20
4.4663240429
 30
0.0
 10
4.1640981151
 20
4.4646729548
 30
0.0
 10
4.1639762127
 20
4.4621606545
 30
0.0
 10
4.1638074592
 20
4.4604660309
 30
0.0
 10
4.1637010872
 20
4.4596084401
 30
0.0
  0
SPLINE
  5
356
100
AcDbEntity
  8
0
100
AcDbSpline
 62
7
  6
CONTINUOUS
 70
0
 71
3
 72
10
 73
6
 74
0
 42
0.0000001
 43
0.0000001
 44
0.0000000001
 40
0.0
 40
0.0
 40
0.0
 40
0.0
 40
0.3425397131
 40
0.6758822973
 40
1.0
 40
1.0
 40
1.0
 40
1.0
 10
4.1631978652
 20
4.4745682096
 30
0.0
 10
4.1633507175
 20
4.4737271409
 30
0.0
 10
4.1636179579
 20
4.4720611175
 30
0.0
 10
4.1639074845
 20
4.4695815516
 30
0.0
 10
4.1640163394
 20
4.4679435394
 30
0.0
 10
4.1640490123
 20
4.4671353285
 30
0.0
  0
SPLINE
  5
357
100
AcDbEntity
  8
0
100
AcDbSpline
 62
7
  6
CONTINUOUS
 70
0
 71
3
 72
10
 73
6
 74
0
 42
0.0000001
 43
0.0000001
 44
0.0000000001
 40
0.0
 40
0.0
 40
0.0
 40
0.0
 40
0.3499683755
 40
0.6830493507
 40
1.0
 40
1.0
 40
1.0
 40
1.0
 10
4.1610501393
 20
4.4658816103
 30
0.0
 10
4.1609689535
 20
4.467827904
 30
0.0
 10
4.1606796958
 20
4.4716233819
 30
0.0
 10
4.1598078899
 20
4.4771263756
 30
0.0
 10
4.158952906
 20
4.4806475712
 30
0.0
 10
4.1584565066
 20
4.4823404982
 30
0.0
  0
SPLINE
  5
358
100
AcDbEntity
  8
0
100
AcDbSpline
 62
7
  6
CONTINUOUS
 70
0
 71
3
 72
10
 73
6
 74
0
 42
0.0000001
 43
0.0000001
 44
0.0000000001
 40
0.0
 40
0.0
 40
0.0
 40
0.0
 40
0.3483224518
 40
0.6815807865
 40
1.0
 40
1.0
 40
1.0
 40
1.0
 10
4.1598112621
 20
4.4473263789
 30
0.0
 10
4.1601530627
 20
4.4494615465
 30
0.0
 10
4.1607050228
 20
4.4536595062
 30
0.0
 10
4.161135482
 20
4.4598565089
 30
0.0
 10
4.1611298442
 20
4.4639065019
 30
0.0
 10
4.1610501393
 20
4.4658816103
 30
0.0
  0
SPLINE
  5
359
100
AcDbEntity
  8
0
100
AcDbSpline
 62
7
  6
CONTINUOUS
 70
0
 71
3
 72
10
 73
6
 74
0
 42
0.0000001
 43
0.0000001
 44
0.0000000001
 40
0.0
 40
0.0
 40
0.0
 40
0.0
 40
0.2993642418
 40
0.6322147716
 40
1.0
 40
1.0
 40
1.0
 40
1.0
 10
4.1677283618
 20
4.459756965
 30
0.0
 10
4.1669356194
 20
4.4591578733
 30
0.0
 10
4.1654700655
 20
4.4576014995
 30
0.0
 10
4.1639475244
 20
4.454617287
 30
0.0
 10
4.1633489253
 20
4.4523530379
 30
0.0
 10
4.1631362994
 20
4.4511509376
 30
0.0
  0
SPLINE
  5
35A
100
AcDbEntity
  8
0
100
AcDbSpline
 62
7
  6
CONTINUOUS
 70
0
 71
3
 72
10
 73
6
 74
0
 42
0.0000001
 43
0.0000001
 44
0.0000000001
 40
0.0
 40
0.0
 40
0.0
 40
0.0
 40
0.3703321593
 40
0.70229944
 40
1.0
 40
1.0
 40
1.0
 40
1.0
 10
4.1767980075
 20
4.4614272634
 30
0.0
 10
4.1756480268
 20
4.4616405014
 30
0.0
 10
4.1734146835
 20
4.4618437758
 30
0.0
 10
4.1702669424
 20
4.4612808609
 30
0.0
 10
4.1684665933
 20
4.4603391913
 30
0.0
 10
4.1677283618
 20
4.459756965
 30
0.0
  0
SPLINE
  5
35B
100
AcDbEntity
  8
0
100
AcDbSpline
 62
7
  6
CONTINUOUS
 70
0
 71
3
 72
10
 73
6
 74
0
 42
0.0000001
 43
0.0000001
 44
0.0000000001
 40
0.0
 40
0.0
 40
0.0
 40
0.0
 40
0.3401282813
 40
0.6755508214
 40
1.0
 40
1.0
 40
1.0
 40
1.0
 10
4.2695999163
 20
4.5317140808
 30
0.0
 10
4.2702573473
 20
4.5314985528
 30
0.0
 10
4.2715309993
 20
4.5309609355
 30
0.0
 10
4.2732425484
 20
4.5298438936
 30
0.0
 10
4.2742277369
 20
4.5289195873
 30
0.0
 10
4.2746640286
 20
4.5284244069
 30
0.0
  0
SPLINE
  5
35C
100
AcDbEntity
  8
0
100
AcDbSpline
 62
7
  6
CONTINUOUS
 70
0
 71
3
 72
10
 73
6
 74
0
 42
0.0000001
 43
0.0000001
 44
0.0000000001
 40
0.0
 40
0.0
 40
0.0
 40
0.0
 40
0.3080227921
 40
0.6421816932
 40
1.0
 40
1.0
 40
1.0
 40
1.0
 10
4.1912154821
 20
4.5557661061
 30
0.0
 10
4.1921199724
 20
4.5558920429
 30
0.0
 10
4.1940424841
 20
4.5559471615
 30
0.0
 10
4.1969658003
 20
4.5553918292
 30
0.0
 10
4.1989447567
 20
4.5548444523
 30
0.0
 10
4.1999508533
 20
4.5545080484
 30
0.0
  0
SPLINE
  5
35D
100
AcDbEntity
  8
0
100
AcDbSpline
 62
7
  6
CONTINUOUS
 70
0
 71
3
 72
10
 73
6
 74
0
 42
0.0000001
 43
0.0000001
 44
0.0000000001
 40
0.0
 40
0.0
 40
0.0
 40
0.0
 40
0.3618850249
 40
0.6947573254
 40
1.0
 40
1.0
 40
1.0
 40
1.0
 10
4.1852219371
 20
4.5522548658
 30
0.0
 10
4.1858040842
 20
4.5528760138
 30
0.0
 10
4.1870201623
 20
4.553984238
 30
0.0
 10
4.189055812
 20
4.5551965662
 30
0.0
 10
4.1905069977
 20
4.5556492394
 30
0.0
 10
4.1912154821
 20
4.5557661061
 30
0.0
  0
SPLINE
  5
35E
100
AcDbEntity
  8
0
100
AcDbSpline
 62
7
  6
CONTINUOUS
 70
0
 71
3
 72
10
 73
6
 74
0
 42
0.0000001
 43
0.0000001
 44
0.0000000001
 40
0.0
 40
0.0
 40
0.0
 40
0.0
 40
0.3229550955
 40
0.6562787376
 40
1.0
 40
1.0
 40
1.0
 40
1.0
 10
4.1865875785
 20
4.5596650057
 30
0.0
 10
4.1865101619
 20
4.5588567508
 30
0.0
 10
4.186302236
 20
4.5572187268
 30
0.0
 10
4.1858406974
 20
4.5547461773
 30
0.0
 10
4.1854436481
 20
4.5530901034
 30
0.0
 10
4.1852219371
 20
4.5522548658
 30
0.0
  0
SPLINE
  5
35F
100
AcDbEntity
  8
0
100
AcDbSpline
 62
7
  6
CONTINUOUS
 70
0
 71
3
 72
10
 73
6
 74
0
 42
0.0000001
 43
0.0000001
 44
0.0000000001
 40
0.0
 40
0.0
 40
0.0
 40
0.0
 40
0.3425397382
 40
0.6758823228
 40
1.0
 40
1.0
 40
1.0
 40
1.0
 10
4.1867524788
 20
4.5671446465
 30
0.0
 10
4.1867898378
 20
4.5662906177
 30
0.0
 10
4.1868286326
 20
4.5646037421
 30
0.0
 10
4.1867791601
 20
4.5621078193
 30
0.0
 10
4.1866648319
 20
4.5604701794
 30
0.0
 10
4.1865875785
 20
4.5596650057
 30
0.0
  0
SPLINE
  5
360
100
AcDbEntity
  8
0
100
AcDbSpline
 62
7
  6
CONTINUOUS
 70
0
 71
3
 72
10
 73
6
 74
0
 42
0.0000001
 43
0.0000001
 44
0.0000000001
 40
0.0
 40
0.0
 40
0.0
 40
0.0
 40
0.3110987893
 40
0.6442786459
 40
1.0
 40
1.0
 40
1.0
 40
1.0
 10
4.2779060833
 20
4.5385399141
 30
0.0
 10
4.2773756149
 20
4.5384337604
 30
0.0
 10
4.2762509637
 20
4.5383312769
 30
0.0
 10
4.2745126493
 20
4.5385019355
 30
0.0
 10
4.2733480049
 20
4.5388028024
 30
0.0
 10
4.2727606482
 20
4.5389968532
 30
0.0
  0
SPLINE
  5
361
100
AcDbEntity
  8
0
100
AcDbSpline
 62
7
  6
CONTINUOUS
 70
0
 71
3
 72
10
 73
6
 74
0
 42
0.0000001
 43
0.0000001
 44
0.0000000001
 40
0.0
 40
0.0
 40
0.0
 40
0.0
 40
0.3527761042
 40
0.6869725954
 40
1.0
 40
1.0
 40
1.0
 40
1.0
 10
4.2838909446
 20
4.5414172444
 30
0.0
 10
4.2832380409
 20
4.5409820671
 30
0.0
 10
4.2819315342
 20
4.540188852
 30
0.0
 10
4.2799637863
 20
4.5391408958
 30
0.0
 10
4.2785844476
 20
4.5386966374
 30
0.0
 10
4.2779060833
 20
4.5385399141
 30
0.0
  0
SPLINE
  5
362
100
AcDbEntity
  8
0
100
AcDbSpline
 62
7
  6
CONTINUOUS
 70
0
 71
3
 72
10
 73
6
 74
0
 42
0.0000001
 43
0.0000001
 44
0.0000000001
 40
0.0
 40
0.0
 40
0.0
 40
0.0
 40
0.3202930564
 40
0.6547988694
 40
1.0
 40
1.0
 40
1.0
 40
1.0
 10
4.2746640286
 20
4.5284244069
 30
0.0
 10
4.275133372
 20
4.5279013195
 30
0.0
 10
4.2760028964
 20
4.5267487388
 30
0.0
 10
4.2770508574
 20
4.5248121873
 30
0.0
 10
4.2775517005
 20
4.5234003733
 30
0.0
 10
4.277755875
 20
4.5226709751
 30
0.0
  0
SPLINE
  5
363
100
AcDbEntity
  8
0
100
AcDbSpline
 62
7
  6
CONTINUOUS
 70
0
 71
3
 72
10
 73
6
 74
0
 42
0.0000001
 43
0.0000001
 44
0.0000000001
 40
0.0
 40
0.0
 40
0.0
 40
0.0
 40
0.3004655462
 40
0.6331711321
 40
1.0
 40
1.0
 40
1.0
 40
1.0
 10
4.2743572928
 20
4.5241133298
 30
0.0
 10
4.2737859849
 20
4.5250418401
 30
0.0
 10
4.2722694896
 20
4.5268149238
 30
0.0
 10
4.2692629311
 20
4.5288990693
 30
0.0
 10
4.266902272
 20
4.5298800871
 30
0.0
 10
4.2656362073
 20
4.5302906946
 30
0.0
  0
SPLINE
  5
364
100
AcDbEntity
  8
0
100
AcDbSpline
 62
7
  6
CONTINUOUS
 70
0
 71
3
 72
10
 73
6
 74
0
 42
0.0000001
 43
0.0000001
 44
0.0000000001
 40
0.0
 40
0.0
 40
0.0
 40
0.0
 40
0.3665527797
 40
0.7007153512
 40
1.0
 40
1.0
 40
1.0
 40
1.0
 10
4.2751823607
 20
4.5148073658
 30
0.0
 10
4.275550457
 20
4.5159257882
 30
0.0
 10
4.2760330233
 20
4.5181605021
 30
0.0
 10
4.2757056791
 20
4.5214027585
 30
0.0
 10
4.2748946246
 20
4.5233161538
 30
0.0
 10
4.2743572928
 20
4.5241133298
 30
0.0
  0
SPLINE
  5
365
100
AcDbEntity
  8
0
100
AcDbSpline
 62
7
  6
CONTINUOUS
 70
0
 71
3
 72
10
 73
6
 74
0
 42
0.0000001
 43
0.0000001
 44
0.0000000001
 40
0.0
 40
0.0
 40
0.0
 40
0.0
 40
0.2966176524
 40
0.6285588964
 40
1.0
 40
1.0
 40
1.0
 40
1.0
 10
4.281710259
 20
4.5465201182
 30
0.0
 10
4.2826228638
 20
4.5468607336
 30
0.0
 10
4.2844210922
 20
4.547962513
 30
0.0
 10
4.2866139878
 20
4.5504691349
 30
0.0
 10
4.2875555651
 20
4.5526150345
 30
0.0
 10
4.2879350332
 20
4.5537743287
 30
0.0
  0
SPLINE
  5
366
100
AcDbEntity
  8
0
100
AcDbSpline
 62
7
  6
CONTINUOUS
 70
0
 71
3
 72
10
 73
6
 74
0
 42
0.0000001
 43
0.0000001
 44
0.0000000001
 40
0.0
 40
0.0
 40
0.0
 40
0.0
 40
0.3673859626
 40
0.7001862462
 40
1.0
 40
1.0
 40
1.0
 40
1.0
 10
4.2710130129
 20
4.5467200184
 30
0.0
 10
4.2722795471
 20
4.546297223
 30
0.0
 10
4.2747670885
 20
4.5456841315
 30
0.0
 10
4.2784302602
 20
4.5455581695
 30
0.0
 10
4.2807045164
 20
4.5461008027
 30
0.0
 10
4.281710259
 20
4.5465201182
 30
0.0
  0
SPLINE
  5
367
100
AcDbEntity
  8
0
100
AcDbSpline
 62
7
  6
CONTINUOUS
 70
0
 71
3
 72
10
 73
6
 74
0
 42
0.0000001
 43
0.0000001
 44
0.0000000001
 40
0.0
 40
0.0
 40
0.0
 40
0.0
 40
0.3499683795
 40
0.6830493516
 40
1.0
 40
1.0
 40
1.0
 40
1.0
 10
4.1834463682
 20
4.5588296377
 30
0.0
 10
4.1836299242
 20
4.5607689561
 30
0.0
 10
4.1838581505
 20
4.5645685916
 30
0.0
 10
4.1837408153
 20
4.5701389782
 30
0.0
 10
4.1833713401
 20
4.5737436
 30
0.0
 10
4.1831091531
 20
4.5754882121
 30
0.0
  0
SPLINE
  5
368
100
AcDbEntity
  8
0
100
AcDbSpline
 62
7
  6
CONTINUOUS
 70
0
 71
3
 72
10
 73
6
 74
0
 42
0.0000001
 43
0.0000001
 44
0.0000000001
 40
0.0
 40
0.0
 40
0.0
 40
0.0
 40
0.3483224412
 40
0.6815807731
 40
1.0
 40
1.0
 40
1.0
 40
1.0
 10
4.1797021468
 20
4.5406139155
 30
0.0
 10
4.1803303984
 20
4.5426829907
 30
0.0
 10
4.1814466603
 20
4.5467672898
 30
0.0
 10
4.1827136896
 20
4.552848639
 30
0.0
 10
4.1832574368
 20
4.5568619703
 30
0.0
 10
4.1834463682
 20
4.5588296377
 30
0.0
  0
SPLINE
  5
369
100
AcDbEntity
  8
0
100
AcDbSpline
 62
7
  6
CONTINUOUS
 70
0
 71
3
 72
10
 73
6
 74
0
 42
0.0000001
 43
0.0000001
 44
0.0000000001
 40
0.0
 40
0.0
 40
0.0
 40
0.0
 40
0.2993642622
 40
0.6322147927
 40
1.0
 40
1.0
 40
1.0
 40
1.0
 10
4.1892321399
 20
4.5518557708
 30
0.0
 10
4.1883654639
 20
4.5513697407
 30
0.0
 10
4.1867023507
 20
4.5500265333
 30
0.0
 10
4.1847891076
 20
4.5472764121
 30
0.0
 10
4.1838889221
 20
4.5451142799
 30
0.0
 10
4.1835152106
 20
4.5439521286
 30
0.0
  0
SPLINE
  5
36A
100
AcDbEntity
  8
0
100
AcDbSpline
 62
7
  6
CONTINUOUS
 70
0
 71
3
 72
10
 73
6
 74
0
 42
0.0000001
 43
0.0000001
 44
0.0000000001
 40
0.0
 40
0.0
 40
0.0
 40
0.0
 40
0.3703322094
 40
0.7022995042
 40
1.0
 40
1.0
 40
1.0
 40
1.0
 10
4.1984445222
 20
4.5522804391
 30
0.0
 10
4.1973340925
 20
4.5526476879
 30
0.0
 10
4.195148961
 20
4.5531520107
 30
0.0
 10
4.1919539575
 20
4.553021256
 30
0.0
 10
4.1900425204
 20
4.5523324845
 30
0.0
 10
4.1892321399
 20
4.5518557708
 30
0.0
  0
LINE
  5
36B
100
AcDbEntity
  8
0
100
AcDbLine
 62
7
  6
CONTINUOUS
 10
4.2218767284
 20
4.6451668017
 11
4.2187324342
 21
4.6409473372
  0
LINE
  5
36C
100
AcDbEntity
  8
0
100
AcDbLine
 62
7
  6
CONTINUOUS
 10
4.2243925296
 20
4.6497814504
 11
4.2218767284
 21
4.6451668017
  0
SPLINE
  5
36D
100
AcDbEntity
  8
0
100
AcDbSpline
 62
7
  6
CONTINUOUS
 70
0
 71
3
 72
10
 73
6
 74
0
 42
0.0000001
 43
0.0000001
 44
0.0000000001
 40
0.0
 40
0.0
 40
0.0
 40
0.0
 40
0.3459552642
 40
0.6791303646
 40
1.0
 40
1.0
 40
1.0
 40
1.0
 10
4.227095471
 20
4.6574182554
 30
0.0
 10
4.2268753337
 20
4.6565087289
 30
0.0
 10
4.2263865131
 20
4.6547361219
 30
0.0
 10
4.2254806229
 20
4.6521851934
 30
0.0
 10
4.2247714618
 20
4.6505622946
 30
0.0
 10
4.2243925296
 20
4.6497814504
 30
0.0
  0
SPLINE
  5
36E
100
AcDbEntity
  8
0
100
AcDbSpline
 62
7
  6
CONTINUOUS
 70
0
 71
3
 72
10
 73
6
 74
0
 42
0.0000001
 43
0.0000001
 44
0.0000000001
 40
0.0
 40
0.0
 40
0.0
 40
0.0
 40
0.3461702524
 40
0.679462796
 40
1.0
 40
1.0
 40
1.0
 40
1.0
 10
4.2281972255
 20
4.6661563416
 30
0.0
 10
4.2281679788
 20
4.6651388798
 30
0.0
 10
4.228051052
 20
4.6631428867
 30
0.0
 10
4.2276909006
 20
4.660222521
 30
0.0
 10
4.2273157126
 20
4.6583346721
 30
0.0
 10
4.227095471
 20
4.6574182554
 30
0.0
  0
SPLINE
  5
36F
100
AcDbEntity
  8
0
100
AcDbSpline
 62
7
  6
CONTINUOUS
 70
0
 71
3
 72
10
 73
6
 74
0
 42
0.0000001
 43
0.0000001
 44
0.0000000001
 40
0.0
 40
0.0
 40
0.0
 40
0.0
 40
0.3611439257
 40
0.6937979073
 40
1.0
 40
1.0
 40
1.0
 40
1.0
 10
4.2305593967
 20
4.6554175827
 30
0.0
 10
4.2306056702
 20
4.6567556745
 30
0.0
 10
4.2305167082
 20
4.659341087
 30
0.0
 10
4.2297055771
 20
4.6629781938
 30
0.0
 10
4.2287627921
 20
4.6651720557
 30
0.0
 10
4.2281972255
 20
4.6661563416
 30
0.0
  0
SPLINE
  5
370
100
AcDbEntity
  8
0
100
AcDbSpline
 62
7
  6
CONTINUOUS
 70
0
 71
3
 72
10
 73
6
 74
0
 42
0.0000001
 43
0.0000001
 44
0.0000000001
 40
0.0
 40
0.0
 40
0.0
 40
0.0
 40
0.3565781541
 40
0.6894298975
 40
1.0
 40
1.0
 40
1.0
 40
1.0
 10
4.2273583306
 20
4.6431811839
 30
0.0
 10
4.2280136241
 20
4.6445450191
 30
0.0
 10
4.2291380262
 20
4.647256455
 30
0.0
 10
4.2302068585
 20
4.6513756755
 30
0.0
 10
4.2305200845
 20
4.6541003038
 30
0.0
 10
4.2305593967
 20
4.6554175827
 30
0.0
  0
SPLINE
  5
371
100
AcDbEntity
  8
0
100
AcDbSpline
 62
7
  6
CONTINUOUS
 70
0
 71
3
 72
10
 73
6
 74
0
 42
0.0000001
 43
0.0000001
 44
0.0000000001
 40
0.0
 40
0.0
 40
0.0
 40
0.0
 40
0.3432155544
 40
0.6764736726
 40
1.0
 40
1.0
 40
1.0
 40
1.0
 10
4.2241944276
 20
4.6378178315
 30
0.0
 10
4.2246062074
 20
4.6384001102
 30
0.0
 10
4.2253883385
 20
4.6395691193
 30
0.0
 10
4.2264429653
 20
4.6413606629
 30
0.0
 10
4.2270688424
 20
4.6425744496
 30
0.0
 10
4.2273583306
 20
4.6431811839
 30
0.0
  0
SPLINE
  5
372
100
AcDbEntity
  8
0
100
AcDbSpline
 62
7
  6
CONTINUOUS
 70
0
 71
3
 72
10
 73
6
 74
0
 42
0.0000001
 43
0.0000001
 44
0.0000000001
 40
0.0
 40
0.0
 40
0.0
 40
0.0
 40
0.3353219903
 40
0.6717295693
 40
1.0
 40
1.0
 40
1.0
 40
1.0
 10
4.2792929326
 20
4.5934121763
 30
0.0
 10
4.2806053657
 20
4.5927700596
 30
0.0
 10
4.2833759465
 20
4.591750205
 30
0.0
 10
4.2877192361
 20
4.5911328068
 30
0.0
 10
4.2906344344
 20
4.5913325035
 30
0.0
 10
4.2920423856
 20
4.591584745
 30
0.0
  0
SPLINE
  5
373
100
AcDbEntity
  8
0
100
AcDbSpline
 62
7
  6
CONTINUOUS
 70
0
 71
3
 72
10
 73
6
 74
0
 42
0.0000001
 43
0.0000001
 44
0.0000000001
 40
0.0
 40
0.0
 40
0.0
 40
0.0
 40
0.3076026962
 40
0.6410819496
 40
1.0
 40
1.0
 40
1.0
 40
1.0
 10
4.2744649579
 20
4.597320491
 30
0.0
 10
4.2748085185
 20
4.596775209
 30
0.0
 10
4.2756706449
 20
4.5957248002
 30
0.0
 10
4.277341619
 20
4.5944422696
 30
0.0
 10
4.2786127635
 20
4.593732928
 30
0.0
 10
4.2792929326
 20
4.5934121763
 30
0.0
  0
SPLINE
  5
374
100
AcDbEntity
  8
0
100
AcDbSpline
 62
7
  6
CONTINUOUS
 70
0
 71
3
 72
10
 73
6
 74
0
 42
0.0000001
 43
0.0000001
 44
0.0000000001
 40
0.0
 40
0.0
 40
0.0
 40
0.0
 40
0.3054881529
 40
0.6438583614
 40
1.0
 40
1.0
 40
1.0
 40
1.0
 10
4.2740882365
 20
4.6018318059
 30
0.0
 10
4.2738635375
 20
4.6014072123
 30
0.0
 10
4.2735803043
 20
4.6004061558
 30
0.0
 10
4.273700662
 20
4.5988072019
 30
0.0
 10
4.2741651862
 20
4.5977935443
 30
0.0
 10
4.2744649579
 20
4.597320491
 30
0.0
  0
SPLINE
  5
375
100
AcDbEntity
  8
0
100
AcDbSpline
 62
7
  6
CONTINUOUS
 70
0
 71
3
 72
10
 73
6
 74
0
 42
0.0000001
 43
0.0000001
 44
0.0000000001
 40
0.0
 40
0.0
 40
0.0
 40
0.0
 40
0.352736688
 40
0.690727273
 40
1.0
 40
1.0
 40
1.0
 40
1.0
 10
4.2772648255
 20
4.6041340851
 30
0.0
 10
4.2767940297
 20
4.6040516326
 30
0.0
 10
4.2758843016
 20
4.6037661377
 30
0.0
 10
4.2747752668
 20
4.6029485298
 30
0.0
 10
4.2742594728
 20
4.6022142919
 30
0.0
 10
4.2740882365
 20
4.6018318059
 30
0.0
  0
SPLINE
  5
376
100
AcDbEntity
  8
0
100
AcDbSpline
 62
7
  6
CONTINUOUS
 70
0
 71
3
 72
10
 73
6
 74
0
 42
0.0000001
 43
0.0000001
 44
0.0000000001
 40
0.0
 40
0.0
 40
0.0
 40
0.0
 40
0.3594762581
 40
0.6926504499
 40
1.0
 40
1.0
 40
1.0
 40
1.0
 10
4.2822300228
 20
4.6032329407
 30
0.0
 10
4.2816789015
 20
4.6035030378
 30
0.0
 10
4.28057392
 20
4.6039422658
 30
0.0
 10
4.2788877991
 20
4.6042763394
 30
0.0
 10
4.2777811768
 20
4.6042275956
 30
0.0
 10
4.2772648255
 20
4.6041340851
 30
0.0
  0
SPLINE
  5
377
100
AcDbEntity
  8
0
100
AcDbSpline
 62
7
  6
CONTINUOUS
 70
0
 71
3
 72
10
 73
6
 74
0
 42
0.0000001
 43
0.0000001
 44
0.0000000001
 40
0.0
 40
0.0
 40
0.0
 40
0.0
 40
0.3442669438
 40
0.6782415282
 40
1.0
 40
1.0
 40
1.0
 40
1.0
 10
4.2865977597
 20
4.6003856898
 30
0.0
 10
4.2861187613
 20
4.6007453277
 30
0.0
 10
4.2851605219
 20
4.6014340577
 30
0.0
 10
4.2837254579
 20
4.6024195931
 30
0.0
 10
4.2827285796
 20
4.6029783054
 30
0.0
 10
4.2822300228
 20
4.6032329407
 30
0.0
  0
SPLINE
  5
378
100
AcDbEntity
  8
0
100
AcDbSpline
 62
7
  6
CONTINUOUS
 70
0
 71
3
 72
10
 73
6
 74
0
 42
0.0000001
 43
0.0000001
 44
0.0000000001
 40
0.0
 40
0.0
 40
0.0
 40
0.0
 40
0.3218710611
 40
0.6558206668
 40
1.0
 40
1.0
 40
1.0
 40
1.0
 10
4.2908989684
 20
4.5975705625
 30
0.0
 10
4.2904081398
 20
4.5978233895
 30
0.0
 10
4.2894267888
 20
4.5983771177
 30
0.0
 10
4.2880147841
 20
4.5993528093
 30
0.0
 10
4.2870702046
 20
4.6000316427
 30
0.0
 10
4.2865977597
 20
4.6003856898
 30
0.0
  0
SPLINE
  5
379
100
AcDbEntity
  8
0
100
AcDbSpline
 62
7
  6
CONTINUOUS
 70
0
 71
3
 72
10
 73
6
 74
0
 42
0.0000001
 43
0.0000001
 44
0.0000000001
 40
0.0
 40
0.0
 40
0.0
 40
0.0
 40
0.3116287647
 40
0.6446259354
 40
1.0
 40
1.0
 40
1.0
 40
1.0
 10
4.2976618042
 20
4.595945891
 30
0.0
 10
4.296933554
 20
4.5959322783
 30
0.0
 10
4.295422337
 20
4.5960471429
 30
0.0
 10
4.2931420045
 20
4.5965977189
 30
0.0
 10
4.2916469482
 20
4.5972093657
 30
0.0
 10
4.2908989684
 20
4.5975705625
 30
0.0
  0
SPLINE
  5
37A
100
AcDbEntity
  8
0
100
AcDbSpline
 62
7
  6
CONTINUOUS
 70
0
 71
3
 72
10
 73
6
 74
0
 42
0.0000001
 43
0.0000001
 44
0.0000000001
 40
0.0
 40
0.0
 40
0.0
 40
0.0
 40
0.3531938294
 40
0.6862376205
 40
1.0
 40
1.0
 40
1.0
 40
1.0
 10
4.3050396808
 20
4.5976338339
 30
0.0
 10
4.3042171495
 20
4.5972778273
 30
0.0
 10
4.3025793926
 20
4.5966710514
 30
0.0
 10
4.3000994307
 20
4.5961026792
 30
0.0
 10
4.2984579632
 20
4.5959546709
 30
0.0
 10
4.2976618042
 20
4.595945891
 30
0.0
  0
SPLINE
  5
37B
100
AcDbEntity
  8
0
100
AcDbSpline
 62
7
  6
CONTINUOUS
 70
0
 71
3
 72
10
 73
6
 74
0
 42
0.0000001
 43
0.0000001
 44
0.0000000001
 40
0.0
 40
0.0
 40
0.0
 40
0.0
 40
0.3065616686
 40
0.6391455776
 40
1.0
 40
1.0
 40
1.0
 40
1.0
 10
4.2920423856
 20
4.591584745
 30
0.0
 10
4.2935025312
 20
4.5918198315
 30
0.0
 10
4.2964983169
 20
4.5926307214
 30
0.0
 10
4.300901755
 20
4.5946513068
 30
0.0
 10
4.3036712951
 20
4.5965576533
 30
0.0
 10
4.3050396808
 20
4.5976338339
 30
0.0
  0
SPLINE
  5
37C
100
AcDbEntity
  8
0
100
AcDbSpline
 62
7
  6
CONTINUOUS
 70
0
 71
3
 72
10
 73
6
 74
0
 42
0.0000001
 43
0.0000001
 44
0.0000000001
 40
0.0
 40
0.0
 40
0.0
 40
0.0
 40
0.3538936224
 40
0.6876156744
 40
1.0
 40
1.0
 40
1.0
 40
1.0
 10
4.293422847
 20
4.637287793
 30
0.0
 10
4.2953911398
 20
4.6363460978
 30
0.0
 10
4.2991495175
 20
4.6343775742
 30
0.0
 10
4.3044145735
 20
4.6311527682
 30
0.0
 10
4.307540283
 20
4.6286616029
 30
0.0
 10
4.3089658518
 20
4.6273664726
 30
0.0
  0
SPLINE
  5
37D
100
AcDbEntity
  8
0
100
AcDbSpline
 62
7
  6
CONTINUOUS
 70
0
 71
3
 72
10
 73
6
 74
0
 42
0.0000001
 43
0.0000001
 44
0.0000000001
 40
0.0
 40
0.0
 40
0.0
 40
0.0
 40
0.3135343495
 40
0.6471500946
 40
1.0
 40
1.0
 40
1.0
 40
1.0
 10
4.2779519361
 20
4.6426248865
 30
0.0
 10
4.2796428259
 20
4.6423356749
 30
0.0
 10
4.2830999777
 20
4.6415229341
 30
0.0
 10
4.288250657
 20
4.6396562003
 30
0.0
 10
4.2916872458
 20
4.6381332058
 30
0.0
 10
4.293422847
 20
4.637287793
 30
0.0
  0
SPLINE
  5
37E
100
AcDbEntity
  8
0
100
AcDbSpline
 62
7
  6
CONTINUOUS
 70
0
 71
3
 72
10
 73
6
 74
0
 42
0.0000001
 43
0.0000001
 44
0.0000000001
 40
0.0
 40
0.0
 40
0.0
 40
0.0
 40
0.3031536403
 40
0.6361511768
 40
1.0
 40
1.0
 40
1.0
 40
1.0
 10
4.2669311048
 20
4.6415474086
 30
0.0
 10
4.2679540609
 20
4.6420377164
 30
0.0
 10
4.2702474598
 20
4.6427767246
 30
0.0
 10
4.2739992774
 20
4.64308866
 30
0.0
 10
4.2766086515
 20
4.6428469089
 30
0.0
 10
4.2779519361
 20
4.6426248865
 30
0.0
  0
SPLINE
  5
37F
100
AcDbEntity
  8
0
100
AcDbSpline
 62
7
  6
CONTINUOUS
 70
0
 71
3
 72
10
 73
6
 74
0
 42
0.0000001
 43
0.0000001
 44
0.0000000001
 40
0.0
 40
0.0
 40
0.0
 40
0.0
 40
0.3408382409
 40
0.6772727679
 40
1.0
 40
1.0
 40
1.0
 40
1.0
 10
4.2814783081
 20
4.648059322
 30
0.0
 10
4.2796474969
 20
4.6478741839
 30
0.0
 10
4.2760323178
 20
4.6471337518
 30
0.0
 10
4.2710746581
 20
4.644897087
 30
0.0
 10
4.2681941349
 20
4.6427476605
 30
0.0
 10
4.2669311048
 20
4.6415474086
 30
0.0
  0
SPLINE
  5
380
100
AcDbEntity
  8
0
100
AcDbSpline
 62
7
  6
CONTINUOUS
 70
0
 71
3
 72
10
 73
6
 74
0
 42
0.0000001
 43
0.0000001
 44
0.0000000001
 40
0.0
 40
0.0
 40
0.0
 40
0.0
 40
0.3480289181
 40
0.6831397349
 40
1.0
 40
1.0
 40
1.0
 40
1.0
 10
4.298438229
 20
4.6449565699
 30
0.0
 10
4.2966157206
 20
4.6458369593
 30
0.0
 10
4.2928849537
 20
4.6472779598
 30
0.0
 10
4.2871288186
 20
4.6483047371
 30
0.0
 10
4.2833086767
 20
4.6482725417
 30
0.0
 10
4.2814783081
 20
4.648059322
 30
0.0
  0
SPLINE
  5
381
100
AcDbEntity
  8
0
100
AcDbSpline
 62
7
  6
CONTINUOUS
 70
0
 71
3
 72
10
 73
6
 74
0
 42
0.0000001
 43
0.0000001
 44
0.0000000001
 40
0.0
 40
0.0
 40
0.0
 40
0.0
 40
0.3144264939
 40
0.6492948976
 40
1.0
 40
1.0
 40
1.0
 40
1.0
 10
4.3120697849
 20
4.6328969492
 30
0.0
 10
4.311078184
 20
4.634554559
 30
0.0
 10
4.3086395365
 20
4.6377515661
 30
0.0
 10
4.304033286
 20
4.6418687386
 30
0.0
 10
4.3003778382
 20
4.6440187632
 30
0.0
 10
4.298438229
 20
4.6449565699
 30
0.0
  0
SPLINE
  5
382
100
AcDbEntity
  8
0
100
AcDbSpline
 62
7
  6
CONTINUOUS
 70
0
 71
3
 72
10
 73
6
 74
0
 42
0.0000001
 43
0.0000001
 44
0.0000000001
 40
0.0
 40
0.0
 40
0.0
 40
0.0
 40
0.3170545322
 40
0.6534908679
 40
1.0
 40
1.0
 40
1.0
 40
1.0
 10
4.3155799794
 20
4.6167451003
 30
0.0
 10
4.3158634424
 20
4.6185025362
 30
0.0
 10
4.315957706
 20
4.622214458
 30
0.0
 10
4.3147806815
 20
4.6277543238
 30
0.0
 10
4.3130933899
 20
4.6312424684
 30
0.0
 10
4.3120697849
 20
4.6328969492
 30
0.0
  0
SPLINE
  5
383
100
AcDbEntity
  8
0
100
AcDbSpline
 62
7
  6
CONTINUOUS
 70
0
 71
3
 72
10
 73
6
 74
0
 42
0.0000001
 43
0.0000001
 44
0.0000000001
 40
0.0
 40
0.0
 40
0.0
 40
0.0
 40
0.3647481984
 40
0.697535773
 40
1.0
 40
1.0
 40
1.0
 40
1.0
 10
4.3089658518
 20
4.6273664726
 30
0.0
 10
4.3100971553
 20
4.6263177217
 30
0.0
 10
4.3121221065
 20
4.6241496689
 30
0.0
 10
4.3144031057
 20
4.6205570822
 30
0.0
 10
4.3153165456
 20
4.6179968989
 30
0.0
 10
4.3155799794
 20
4.6167451003
 30
0.0
  0
SPLINE
  5
384
100
AcDbEntity
  8
0
100
AcDbSpline
 62
7
  6
CONTINUOUS
 70
0
 71
3
 72
10
 73
6
 74
0
 42
0.0000001
 43
0.0000001
 44
0.0000000001
 40
0.0
 40
0.0
 40
0.0
 40
0.0
 40
0.341212929
 40
0.6764494402
 40
1.0
 40
1.0
 40
1.0
 40
1.0
 10
4.2608534245
 20
4.6318484478
 30
0.0
 10
4.260211959
 20
4.6305239648
 30
0.0
 10
4.2591472474
 20
4.6277897233
 30
0.0
 10
4.2582996746
 20
4.6235409562
 30
0.0
 10
4.2582243098
 20
4.6206831648
 30
0.0
 10
4.2583176149
 20
4.6192908219
 30
0.0
  0
SPLINE
  5
385
100
AcDbEntity
  8
0
100
AcDbSpline
 62
7
  6
CONTINUOUS
 70
0
 71
3
 72
10
 73
6
 74
0
 42
0.0000001
 43
0.0000001
 44
0.0000000001
 40
0.0
 40
0.0
 40
0.0
 40
0.0
 40
0.293957292
 40
0.6299613277
 40
1.0
 40
1.0
 40
1.0
 40
1.0
 10
4.271640757
 20
4.6402578159
 30
0.0
 10
4.2702453525
 20
4.6401708781
 30
0.0
 10
4.2672909874
 20
4.6392753381
 30
0.0
 10
4.2634276688
 20
4.6363418205
 30
0.0
 10
4.2616066003
 20
4.6334391101
 30
0.0
 10
4.2608534245
 20
4.6318484478
 30
0.0
  0
SPLINE
  5
386
100
AcDbEntity
  8
0
100
AcDbSpline
 62
7
  6
CONTINUOUS
 70
0
 71
3
 72
10
 73
6
 74
0
 42
0.0000001
 43
0.0000001
 44
0.0000000001
 40
0.0
 40
0.0
 40
0.0
 40
0.0
 40
0.3662606924
 40
0.7003221169
 40
1.0
 40
1.0
 40
1.0
 40
1.0
 10
4.2911744976
 20
4.635009929
 30
0.0
 10
4.2889336903
 20
4.6361047316
 30
0.0
 10
4.2845387904
 20
4.637961481
 30
0.0
 10
4.2780448508
 20
4.6401118052
 30
0.0
 10
4.2736763601
 20
4.6404002018
 30
0.0
 10
4.271640757
 20
4.6402578159
 30
0.0
  0
SPLINE
  5
387
100
AcDbEntity
  8
0
100
AcDbSpline
 62
7
  6
CONTINUOUS
 70
0
 71
3
 72
10
 73
6
 74
0
 42
0.0000001
 43
0.0000001
 44
0.0000000001
 40
0.0
 40
0.0
 40
0.0
 40
0.0
 40
0.3021998835
 40
0.6361793944
 40
1.0
 40
1.0
 40
1.0
 40
1.0
 10
4.3107282974
 20
4.621138593
 30
0.0
 10
4.3092100486
 20
4.6230395863
 30
0.0
 10
4.3055466129
 20
4.6266908942
 30
0.0
 10
4.2987690087
 20
4.6310849029
 30
0.0
 10
4.2938186741
 20
4.6337501375
 30
0.0
 10
4.2911744976
 20
4.635009929
 30
0.0
  0
SPLINE
  5
388
100
AcDbEntity
  8
0
100
AcDbSpline
 62
7
  6
CONTINUOUS
 70
0
 71
3
 72
11
 73
7
 74
0
 42
0.0000001
 43
0.0000001
 44
0.0000000001
 40
0.0
 40
0.0
 40
0.0
 40
0.0
 40
0.23655351
 40
0.4885675363
 40
0.7473345402
 40
1.0
 40
1.0
 40
1.0
 40
1.0
 10
4.3123469519
 20
4.6068211363
 30
0.0
 10
4.3129273271
 20
4.6078717865
 30
0.0
 10
4.3137674649
 20
4.6102549558
 30
0.0
 10
4.3139053689
 20
4.6140972925
 30
0.0
 10
4.3129232438
 20
4.6179008406
 30
0.0
 10
4.311548135
 20
4.6201529423
 30
0.0
 10
4.3107282974
 20
4.621138593
 30
0.0
  0
SPLINE
  5
389
100
AcDbEntity
  8
0
100
AcDbSpline
 62
7
  6
CONTINUOUS
 70
0
 71
3
 72
10
 73
6
 74
0
 42
0.0000001
 43
0.0000001
 44
0.0000000001
 40
0.0
 40
0.0
 40
0.0
 40
0.0
 40
0.2978209462
 40
0.6300805951
 40
1.0
 40
1.0
 40
1.0
 40
1.0
 10
4.3055629219
 20
4.6004165224
 30
0.0
 10
4.3064763352
 20
4.6006806293
 30
0.0
 10
4.308311743
 20
4.601598611
 30
0.0
 10
4.3106630087
 20
4.6038150906
 30
0.0
 10
4.3118334323
 20
4.6057576102
 30
0.0
 10
4.3123469519
 20
4.6068211363
 30
0.0
  0
SPLINE
  5
38A
100
AcDbEntity
  8
0
100
AcDbSpline
 62
7
  6
CONTINUOUS
 70
0
 71
3
 72
10
 73
6
 74
0
 42
0.0000001
 43
0.0000001
 44
0.0000000001
 40
0.0
 40
0.0
 40
0.0
 40
0.0
 40
0.3682157204
 40
0.7009050088
 40
1.0
 40
1.0
 40
1.0
 40
1.0
 10
4.295764993
 20
4.6017018737
 30
0.0
 10
4.2968787544
 20
4.601158817
 30
0.0
 10
4.2990961268
 20
4.6003016611
 30
0.0
 10
4.3024586283
 20
4.5998133809
 30
0.0
 10
4.304603748
 20
4.6001115157
 30
0.0
 10
4.3055629219
 20
4.6004165224
 30
0.0
  0
SPLINE
  5
38B
100
AcDbEntity
  8
0
100
AcDbSpline
 62
7
  6
CONTINUOUS
 70
0
 71
3
 72
10
 73
6
 74
0
 42
0.0000001
 43
0.0000001
 44
0.0000000001
 40
0.0
 40
0.0
 40
0.0
 40
0.0
 40
0.3422921206
 40
0.6759566852
 40
1.0
 40
1.0
 40
1.0
 40
1.0
 10
4.2904681709
 20
4.6048336458
 30
0.0
 10
4.2910518166
 20
4.6044425981
 30
0.0
 10
4.2922181242
 20
4.6036909159
 30
0.0
 10
4.2939739227
 20
4.6026268197
 30
0.0
 10
4.295168648
 20
4.6019963381
 30
0.0
 10
4.295764993
 20
4.6017018737
 30
0.0
  0
LINE
  5
38C
100
AcDbEntity
  8
0
100
AcDbLine
 62
7
  6
CONTINUOUS
 10
4.2854695767
 20
4.6079034608
 11
4.2904681709
 21
4.6048336458
  0
SPLINE
  5
38D
100
AcDbEntity
  8
0
100
AcDbSpline
 62
7
  6
CONTINUOUS
 70
0
 71
3
 72
10
 73
6
 74
0
 42
0.0000001
 43
0.0000001
 44
0.0000000001
 40
0.0
 40
0.0
 40
0.0
 40
0.0
 40
0.3019658858
 40
0.6345318132
 40
1.0
 40
1.0
 40
1.0
 40
1.0
 10
4.2776661125
 20
4.6088595386
 30
0.0
 10
4.2784391009
 20
4.6090939689
 30
0.0
 10
4.2801471616
 20
4.6093276536
 30
0.0
 10
4.2828268513
 20
4.608996104
 30
0.0
 10
4.2845888182
 20
4.6083277386
 30
0.0
 10
4.2854695767
 20
4.6079034608
 30
0.0
  0
SPLINE
  5
38E
100
AcDbEntity
  8
0
100
AcDbSpline
 62
7
  6
CONTINUOUS
 70
0
 71
3
 72
10
 73
6
 74
0
 42
0.0000001
 43
0.0000001
 44
0.0000000001
 40
0.0
 40
0.0
 40
0.0
 40
0.0
 40
0.3530469839
 40
0.6905214732
 40
1.0
 40
1.0
 40
1.0
 40
1.0
 10
4.272207237
 20
4.6040525976
 30
0.0
 10
4.2725839353
 20
4.6048485619
 30
0.0
 10
4.2735128649
 20
4.6063299956
 30
0.0
 10
4.2754228916
 20
4.6079848732
 30
0.0
 10
4.2769189028
 20
4.6086657512
 30
0.0
 10
4.2776661125
 20
4.6088595386
 30
0.0
  0
SPLINE
  5
38F
100
AcDbEntity
  8
0
100
AcDbSpline
 62
7
  6
CONTINUOUS
 70
0
 71
3
 72
10
 73
6
 74
0
 42
0.0000001
 43
0.0000001
 44
0.0000000001
 40
0.0
 40
0.0
 40
0.0
 40
0.0
 40
0.32851636
 40
0.6672043768
 40
1.0
 40
1.0
 40
1.0
 40
1.0
 10
4.2719130982
 20
4.5966473304
 30
0.0
 10
4.2715916612
 20
4.5974172922
 30
0.0
 10
4.2711673391
 20
4.5990867183
 30
0.0
 10
4.2712683159
 20
4.6016576598
 30
0.0
 10
4.271825596
 20
4.6032984306
 30
0.0
 10
4.272207237
 20
4.6040525976
 30
0.0
  0
SPLINE
  5
390
100
AcDbEntity
  8
0
100
AcDbSpline
 62
7
  6
CONTINUOUS
 70
0
 71
3
 72
10
 73
6
 74
0
 42
0.0000001
 43
0.0000001
 44
0.0000000001
 40
0.0
 40
0.0
 40
0.0
 40
0.0
 40
0.3663418532
 40
0.6989617536
 40
1.0
 40
1.0
 40
1.0
 40
1.0
 10
4.2776410317
 20
4.5910103871
 30
0.0
 10
4.2767368309
 20
4.5914437292
 30
0.0
 10
4.2750753161
 20
4.5924261008
 30
0.0
 10
4.2730933279
 20
4.5943524285
 30
0.0
 10
4.2722054519
 20
4.595876999
 30
0.0
 10
4.2719130982
 20
4.5966473304
 30
0.0
  0
SPLINE
  5
391
100
AcDbEntity
  8
0
100
AcDbSpline
 62
7
  6
CONTINUOUS
 70
0
 71
3
 72
10
 73
6
 74
0
 42
0.0000001
 43
0.0000001
 44
0.0000000001
 40
0.0
 40
0.0
 40
0.0
 40
0.0
 40
0.3491987554
 40
0.6835942318
 40
1.0
 40
1.0
 40
1.0
 40
1.0
 10
4.2885423522
 20
4.5887821011
 30
0.0
 10
4.2872362718
 20
4.588742001
 30
0.0
 10
4.2846674448
 20
4.5888425267
 30
0.0
 10
4.2809896772
 20
4.5896101466
 30
0.0
 10
4.2787023659
 20
4.5904856108
 30
0.0
 10
4.2776410317
 20
4.5910103871
 30
0.0
  0
SPLINE
  5
392
100
AcDbEntity
  8
0
100
AcDbSpline
 62
7
  6
CONTINUOUS
 70
0
 71
3
 72
10
 73
6
 74
0
 42
0.0000001
 43
0.0000001
 44
0.0000000001
 40
0.0
 40
0.0
 40
0.0
 40
0.0
 40
0.3372070643
 40
0.671992864
 40
1.0
 40
1.0
 40
1.0
 40
1.0
 10
4.300139415
 20
4.5917031404
 30
0.0
 10
4.2989261052
 20
4.5911031996
 30
0.0
 10
4.2964214106
 20
4.590073088
 30
0.0
 10
4.2925158348
 20
4.5890937474
 30
0.0
 10
4.2898584378
 20
4.5888190523
 30
0.0
 10
4.2885423522
 20
4.5887821011
 30
0.0
  0
SPLINE
  5
393
100
AcDbEntity
  8
0
100
AcDbSpline
 62
7
  6
CONTINUOUS
 70
0
 71
3
 72
10
 73
6
 74
0
 42
0.0000001
 43
0.0000001
 44
0.0000000001
 40
0.0
 40
0.0
 40
0.0
 40
0.0
 40
0.3154432581
 40
0.6484560893
 40
1.0
 40
1.0
 40
1.0
 40
1.0
 10
4.3094026984
 20
4.5981474719
 30
0.0
 10
4.3085513667
 20
4.597314772
 30
0.0
 10
4.3066956995
 20
4.5957090123
 30
0.0
 10
4.3035958336
 20
4.5935434615
 30
0.0
 10
4.3013283728
 20
4.5922928078
 30
0.0
 10
4.300139415
 20
4.5917031404
 30
0.0
  0
SPLINE
  5
394
100
AcDbEntity
  8
0
100
AcDbSpline
 62
7
  6
CONTINUOUS
 70
0
 71
3
 72
10
 73
6
 74
0
 42
0.0000001
 43
0.0000001
 44
0.0000000001
 40
0.0
 40
0.0
 40
0.0
 40
0.0
 40
0.314300277
 40
0.6472436929
 40
1.0
 40
1.0
 40
1.0
 40
1.0
 10
4.3156205906
 20
4.6066350913
 30
0.0
 10
4.3151432818
 20
4.6056358749
 30
0.0
 10
4.3140182311
 20
4.6036444774
 30
0.0
 10
4.3119412202
 20
4.6007895462
 30
0.0
 10
4.3102920077
 20
4.5990157
 30
0.0
 10
4.3094026984
 20
4.5981474719
 30
0.0
  0
SPLINE
  5
395
100
AcDbEntity
  8
0
100
AcDbSpline
 62
7
  6
CONTINUOUS
 70
0
 71
3
 72
10
 73
6
 74
0
 42
0.0000001
 43
0.0000001
 44
0.0000000001
 40
0.0
 40
0.0
 40
0.0
 40
0.0
 40
0.3424431298
 40
0.6773379834
 40
1.0
 40
1.0
 40
1.0
 40
1.0
 10
4.3188448118
 20
4.6219776797
 30
0.0
 10
4.3188918317
 20
4.620173307
 30
0.0
 10
4.3187224685
 20
4.6165894975
 30
0.0
 10
4.3176214621
 20
4.61141387
 30
0.0
 10
4.316368437
 20
4.6081625655
 30
0.0
 10
4.3156205906
 20
4.6066350913
 30
0.0
  0
SPLINE
  5
396
100
AcDbEntity
  8
0
100
AcDbSpline
 62
7
  6
CONTINUOUS
 70
0
 71
3
 72
10
 73
6
 74
0
 42
0.0000001
 43
0.0000001
 44
0.0000000001
 40
0.0
 40
0.0
 40
0.0
 40
0.0
 40
0.3067861672
 40
0.6393775869
 40
1.0
 40
1.0
 40
1.0
 40
1.0
 10
4.3150191524
 20
4.6368006813
 30
0.0
 10
4.3158033504
 20
4.6354295937
 30
0.0
 10
4.3171485313
 20
4.6324030658
 30
0.0
 10
4.3184667365
 20
4.6274048495
 30
0.0
 10
4.3187912711
 20
4.6238335958
 30
0.0
 10
4.3188448118
 20
4.6219776797
 30
0.0
  0
SPLINE
  5
397
100
AcDbEntity
  8
0
100
AcDbSpline
 62
7
  6
CONTINUOUS
 70
0
 71
3
 72
10
 73
6
 74
0
 42
0.0000001
 43
0.0000001
 44
0.0000000001
 40
0.0
 40
0.0
 40
0.0
 40
0.0
 40
0.3162683998
 40
0.6495366309
 40
1.0
 40
1.0
 40
1.0
 40
1.0
 10
4.3088524651
 20
4.6451088058
 30
0.0
 10
4.3096335336
 20
4.6443426614
 30
0.0
 10
4.311148124
 20
4.6426755416
 30
0.0
 10
4.3131982842
 20
4.6398832934
 30
0.0
 10
4.314429851
 20
4.6378602151
 30
0.0
 10
4.3150191524
 20
4.6368006813
 30
0.0
  0
SPLINE
  5
398
100
AcDbEntity
  8
0
100
AcDbSpline
 62
7
  6
CONTINUOUS
 70
0
 71
3
 72
10
 73
6
 74
0
 42
0.0000001
 43
0.0000001
 44
0.0000000001
 40
0.0
 40
0.0
 40
0.0
 40
0.0
 40
0.3368270711
 40
0.6709935554
 40
1.0
 40
1.0
 40
1.0
 40
1.0
 10
4.3010033935
 20
4.6506090038
 30
0.0
 10
4.3019761846
 20
4.6501390862
 30
0.0
 10
4.3038666217
 20
4.6491000385
 30
0.0
 10
4.3064967271
 20
4.6472542838
 30
0.0
 10
4.3080996218
 20
4.6458482668
 30
0.0
 10
4.3088524651
 20
4.6451088058
 30
0.0
  0
SPLINE
  5
399
100
AcDbEntity
  8
0
100
AcDbSpline
 62
7
  6
CONTINUOUS
 70
0
 71
3
 72
10
 73
6
 74
0
 42
0.0000001
 43
0.0000001
 44
0.0000000001
 40
0.0
 40
0.0
 40
0.0
 40
0.0
 40
0.334463299
 40
0.672780833
 40
1.0
 40
1.0
 40
1.0
 40
1.0
 10
4.2770326268
 20
4.6517645555
 30
0.0
 10
4.279600385
 20
4.6527329937
 30
0.0
 10
4.2850580505
 20
4.6539945529
 30
0.0
 10
4.293350452
 20
4.6535822076
 30
0.0
 10
4.298605263
 20
4.6518162815
 30
0.0
 10
4.3010033935
 20
4.6506090038
 30
0.0
  0
SPLINE
  5
39A
100
AcDbEntity
  8
0
100
AcDbSpline
 62
7
  6
CONTINUOUS
 70
0
 71
3
 72
10
 73
6
 74
0
 42
0.0000001
 43
0.0000001
 44
0.0000000001
 40
0.0
 40
0.0
 40
0.0
 40
0.0
 40
0.3404891052
 40
0.6783276209
 40
1.0
 40
1.0
 40
1.0
 40
1.0
 10
4.2589243273
 20
4.6351589384
 30
0.0
 10
4.2601399778
 20
4.6377431171
 30
0.0
 10
4.2632147288
 20
4.6426213412
 30
0.0
 10
4.2694850171
 20
4.6483314535
 30
0.0
 10
4.2744793929
 20
4.6508926314
 30
0.0
 10
4.2770326268
 20
4.6517645555
 30
0.0
  0
SPLINE
  5
39B
100
AcDbEntity
  8
0
100
AcDbSpline
 62
7
  6
CONTINUOUS
 70
0
 71
3
 72
10
 73
6
 74
0
 42
0.0000001
 43
0.0000001
 44
0.0000000001
 40
0.0
 40
0.0
 40
0.0
 40
0.0
 40
0.3375592513
 40
0.6715190677
 40
1.0
 40
1.0
 40
1.0
 40
1.0
 10
4.2561926058
 20
4.6264662625
 30
0.0
 10
4.2563587495
 20
4.6274811758
 30
0.0
 10
4.2567828678
 20
4.6294864096
 30
0.0
 10
4.2576996016
 20
4.632396305
 30
0.0
 10
4.2584883175
 20
4.6342581476
 30
0.0
 10
4.2589243273
 20
4.6351589384
 30
0.0
  0
SPLINE
  5
39C
100
AcDbEntity
  8
0
100
AcDbSpline
 62
7
  6
CONTINUOUS
 70
0
 71
3
 72
10
 73
6
 74
0
 42
0.0000001
 43
0.0000001
 44
0.0000000001
 40
0.0
 40
0.0
 40
0.0
 40
0.0
 40
0.3461988217
 40
0.6795865235
 40
1.0
 40
1.0
 40
1.0
 40
1.0
 10
4.2556195631
 20
4.6160815926
 30
0.0
 10
4.25557993
 20
4.6172827916
 30
0.0
 10
4.2555662302
 20
4.6196433238
 30
0.0
 10
4.255739403
 20
4.6231126958
 30
0.0
 10
4.2560157666
 20
4.6253680723
 30
0.0
 10
4.2561926058
 20
4.6264662625
 30
0.0
  0
LINE
  5
39D
100
AcDbEntity
  8
0
100
AcDbLine
 62
7
  6
CONTINUOUS
 10
4.2292370414
 20
4.6411255625
 11
4.2276906346
 21
4.6382626513
  0
SPLINE
  5
39E
100
AcDbEntity
  8
0
100
AcDbSpline
 62
7
  6
CONTINUOUS
 70
0
 71
3
 72
10
 73
6
 74
0
 42
0.0000001
 43
0.0000001
 44
0.0000000001
 40
0.0
 40
0.0
 40
0.0
 40
0.0
 40
0.3050903177
 40
0.6376014393
 40
1.0
 40
1.0
 40
1.0
 40
1.0
 10
4.2329341108
 20
4.6580619082
 30
0.0
 10
4.233051039
 20
4.6562856396
 30
0.0
 10
4.2328953126
 20
4.6525433666
 30
0.0
 10
4.231674816
 20
4.6468118726
 30
0.0
 10
4.2301502946
 20
4.643032664
 30
0.0
 10
4.2292370414
 20
4.6411255625
 30
0.0
  0
SPLINE
  5
39F
100
AcDbEntity
  8
0
100
AcDbSpline
 62
7
  6
CONTINUOUS
 70
0
 71
3
 72
10
 73
6
 74
0
 42
0.0000001
 43
0.0000001
 44
0.0000000001
 40
0.0
 40
0.0
 40
0.0
 40
0.0
 40
0.3628670788
 40
0.6955116307
 40
1.0
 40
1.0
 40
1.0
 40
1.0
 10
4.2272227994
 20
4.67450226
 30
0.0
 10
4.2283594368
 20
4.6727057095
 30
0.0
 10
4.2303268976
 20
4.6691157724
 30
0.0
 10
4.2322587574
 20
4.6635577453
 30
0.0
 10
4.2328497178
 20
4.6598438095
 30
0.0
 10
4.2329341108
 20
4.6580619082
 30
0.0
  0
SPLINE
  5
3A0
100
AcDbEntity
  8
0
100
AcDbSpline
 62
7
  6
CONTINUOUS
 70
0
 71
3
 72
10
 73
6
 74
0
 42
0.0000001
 43
0.0000001
 44
0.0000000001
 40
0.0
 40
0.0
 40
0.0
 40
0.0
 40
0.3500057455
 40
0.683106945
 40
1.0
 40
1.0
 40
1.0
 40
1.0
 10
4.2241660806
 20
4.6656399792
 30
0.0
 10
4.224394116
 20
4.6665616463
 30
0.0
 10
4.2247612998
 20
4.6683815318
 30
0.0
 10
4.2250234692
 20
4.6710858466
 30
0.0
 10
4.225011146
 20
4.6728532481
 30
0.0
 10
4.2249539097
 20
4.673710974
 30
0.0
  0
SPLINE
  5
3A1
100
AcDbEntity
  8
0
100
AcDbSpline
 62
7
  6
CONTINUOUS
 70
0
 71
3
 72
10
 73
6
 74
0
 42
0.0000001
 43
0.0000001
 44
0.0000000001
 40
0.0
 40
0.0
 40
0.0
 40
0.0
 40
0.3465592271
 40
0.6799461123
 40
1.0
 40
1.0
 40
1.0
 40
1.0
 10
4.2207316288
 20
4.6564712351
 30
0.0
 10
4.2212259274
 20
4.6574904746
 30
0.0
 10
4.2221385984
 20
4.6595184754
 30
0.0
 10
4.2233030256
 20
4.6625750642
 30
0.0
 10
4.2239097236
 20
4.6646257365
 30
0.0
 10
4.2241660806
 20
4.6656399792
 30
0.0
  0
SPLINE
  5
3A2
100
AcDbEntity
  8
0
100
AcDbSpline
 62
7
  6
CONTINUOUS
 70
0
 71
3
 72
10
 73
6
 74
0
 42
0.0000001
 43
0.0000001
 44
0.0000000001
 40
0.0
 40
0.0
 40
0.0
 40
0.0
 40
0.3173056733
 40
0.6507655126
 40
1.0
 40
1.0
 40
1.0
 40
1.0
 10
4.2158493069
 20
4.6487382253
 30
0.0
 10
4.216481308
 20
4.6494737681
 30
0.0
 10
4.217697056
 20
4.651053603
 30
0.0
 10
4.2193043764
 20
4.6536571883
 30
0.0
 10
4.2202713689
 20
4.6555082207
 30
0.0
 10
4.2207316288
 20
4.6564712351
 30
0.0
  0
SPLINE
  5
3A3
100
AcDbEntity
  8
0
100
AcDbSpline
 62
7
  6
CONTINUOUS
 70
0
 71
3
 72
10
 73
6
 74
0
 42
0.0000001
 43
0.0000001
 44
0.0000000001
 40
0.0
 40
0.0
 40
0.0
 40
0.0
 40
0.3159364369
 40
0.6490850102
 40
1.0
 40
1.0
 40
1.0
 40
1.0
 10
4.2097099932
 20
4.6434989614
 30
0.0
 10
4.2104462877
 20
4.6439303652
 30
0.0
 10
4.211902754
 20
4.6449153719
 30
0.0
 10
4.2139577344
 20
4.6466757416
 30
0.0
 10
4.2152298516
 20
4.6480208045
 30
0.0
 10
4.2158493069
 20
4.6487382253
 30
0.0
  0
SPLINE
  5
3A4
100
AcDbEntity
  8
0
100
AcDbSpline
 62
7
  6
CONTINUOUS
 70
0
 71
3
 72
10
 73
6
 74
0
 42
0.0000001
 43
0.0000001
 44
0.0000000001
 40
0.0
 40
0.0
 40
0.0
 40
0.0
 40
0.3117724013
 40
0.6447302008
 40
1.0
 40
1.0
 40
1.0
 40
1.0
 10
4.2605030441
 20
4.6069967038
 30
0.0
 10
4.2598180239
 20
4.6079753311
 30
0.0
 10
4.2582372561
 20
4.6098870055
 30
0.0
 10
4.2554133376
 20
4.6124912945
 30
0.0
 10
4.25325387
 20
4.6140180306
 30
0.0
 10
4.2521026414
 20
4.6147443794
 30
0.0
  0
SPLINE
  5
3A5
100
AcDbEntity
  8
0
100
AcDbSpline
 62
7
  6
CONTINUOUS
 70
0
 71
3
 72
10
 73
6
 74
0
 42
0.0000001
 43
0.0000001
 44
0.0000000001
 40
0.0
 40
0.0
 40
0.0
 40
0.0
 40
0.3516502819
 40
0.6871537019
 40
1.0
 40
1.0
 40
1.0
 40
1.0
 10
4.2583176149
 20
4.6192908219
 30
0.0
 10
4.2583991584
 20
4.6179301121
 30
0.0
 10
4.2588021633
 20
4.6152733863
 30
0.0
 10
4.2602273752
 20
4.6116382178
 30
0.0
 10
4.2616345815
 20
4.6095245895
 30
0.0
 10
4.2624301782
 20
4.6086093086
 30
0.0
  0
SPLINE
  5
3A6
100
AcDbEntity
  8
0
100
AcDbSpline
 62
7
  6
CONTINUOUS
 70
0
 71
3
 72
10
 73
6
 74
0
 42
0.0000001
 43
0.0000001
 44
0.0000000001
 40
0.0
 40
0.0
 40
0.0
 40
0.0
 40
0.3080228528
 40
0.6421817536
 40
1.0
 40
1.0
 40
1.0
 40
1.0
 10
4.7528409504
 20
5.035465167
 30
0.0
 10
4.7533479352
 20
5.0347056087
 30
0.0
 10
4.7542341603
 20
5.0329986549
 30
0.0
 10
4.7550062756
 20
5.0301249811
 30
0.0
 10
4.7553746064
 20
5.0281050262
 30
0.0
 10
4.7555095377
 20
5.0270527952
 30
0.0
  0
SPLINE
  5
3A7
100
AcDbEntity
  8
0
100
AcDbSpline
 62
7
  6
CONTINUOUS
 70
0
 71
3
 72
10
 73
6
 74
0
 42
0.0000001
 43
0.0000001
 44
0.0000000001
 40
0.0
 40
0.0
 40
0.0
 40
0.0
 40
0.3618850386
 40
0.6947573528
 40
1.0
 40
1.0
 40
1.0
 40
1.0
 10
4.7470714425
 20
5.0393335226
 30
0.0
 10
4.7478840221
 20
5.039079683
 30
0.0
 10
4.7494110037
 20
5.0384670376
 30
0.0
 10
4.7513883614
 20
5.0371617919
 30
0.0
 10
4.7524274252
 20
5.0360521974
 30
0.0
 10
4.7528409504
 20
5.035465167
 30
0.0
  0
SPLINE
  5
3A8
100
AcDbEntity
  8
0
100
AcDbSpline
 62
7
  6
CONTINUOUS
 70
0
 71
3
 72
10
 73
6
 74
0
 42
0.0000001
 43
0.0000001
 44
0.0000000001
 40
0.0
 40
0.0
 40
0.0
 40
0.0
 40
0.3229550722
 40
0.6562787215
 40
1.0
 40
1.0
 40
1.0
 40
1.0
 10
4.7543374535
 20
5.0413285626
 30
0.0
 10
4.7535760507
 20
5.0410465443
 30
0.0
 10
4.7520107706
 20
5.0405209478
 30
0.0
 10
4.749583761
 20
5.0398605403
 30
0.0
 10
4.7479199306
 20
5.0394973669
 30
0.0
 10
4.7470714425
 20
5.0393335226
 30
0.0
  0
SPLINE
  5
3A9
100
AcDbEntity
  8
0
100
AcDbSpline
 62
7
  6
CONTINUOUS
 70
0
 71
3
 72
10
 73
6
 74
0
 42
0.0000001
 43
0.0000001
 44
0.0000000001
 40
0.0
 40
0.0
 40
0.0
 40
0.0
 40
0.3425397131
 40
0.6758822973
 40
1.0
 40
1.0
 40
1.0
 40
1.0
 10
4.7611435246
 20
5.0444349382
 30
0.0
 10
4.7603908547
 20
5.0440296625
 30
0.0
 10
4.7588889541
 20
5.0432606722
 30
0.0
 10
4.7566202154
 20
5.042219088
 30
0.0
 10
4.7550960112
 20
5.0416093873
 30
0.0
 10
4.7543374535
 20
5.0413285626
 30
0.0
  0
SPLINE
  5
3AA
100
AcDbEntity
  8
0
100
AcDbSpline
 62
7
  6
CONTINUOUS
 70
0
 71
3
 72
10
 73
6
 74
0
 42
0.0000001
 43
0.0000001
 44
0.0000000001
 40
0.0
 40
0.0
 40
0.0
 40
0.0
 40
0.3499683755
 40
0.6830493507
 40
1.0
 40
1.0
 40
1.0
 40
1.0
 10
4.7522183939
 20
5.0437932402
 30
0.0
 10
4.7540443414
 20
5.0444718902
 30
0.0
 10
4.7575646699
 20
5.0459198578
 30
0.0
 10
4.7625289251
 20
5.048449513
 30
0.0
 10
4.7656135765
 20
5.0503507603
 30
0.0
 10
4.76707025
 20
5.0513460075
 30
0.0
  0
SPLINE
  5
3AB
100
AcDbEntity
  8
0
100
AcDbSpline
 62
7
  6
CONTINUOUS
 70
0
 71
3
 72
10
 73
6
 74
0
 42
0.0000001
 43
0.0000001
 44
0.0000000001
 40
0.0
 40
0.0
 40
0.0
 40
0.0
 40
0.3483224518
 40
0.6815807865
 40
1.0
 40
1.0
 40
1.0
 40
1.0
 10
4.7341884861
 20
5.0392376005
 30
0.0
 10
4.7363247733
 20
5.0395723319
 30
0.0
 10
4.7404878353
 20
5.0403446275
 30
0.0
 10
4.7465145543
 20
5.0418502157
 30
0.0
 10
4.7503645843
 20
5.0431070941
 30
0.0
 10
4.7522183939
 20
5.0437932402
 30
0.0
  0
SPLINE
  5
3AC
100
AcDbEntity
  8
0
100
AcDbSpline
 62
7
  6
CONTINUOUS
 70
0
 71
3
 72
10
 73
6
 74
0
 42
0.0000001
 43
0.0000001
 44
0.0000000001
 40
0.0
 40
0.0
 40
0.0
 40
0.0
 40
0.2993642418
 40
0.6322147716
 40
1.0
 40
1.0
 40
1.0
 40
1.0
 10
4.7484571944
 20
5.0355492536
 30
0.0
 10
4.7476424534
 20
5.0361180669
 30
0.0
 10
4.7457093729
 20
5.0370309455
 30
0.0
 10
4.742400727
 20
5.0375567958
 30
0.0
 10
4.7400623209
 20
5.0374264059
 30
0.0
 10
4.7388533506
 20
5.0372571558
 30
0.0
  0
SPLINE
  5
3AD
100
AcDbEntity
  8
0
100
AcDbSpline
 62
7
  6
CONTINUOUS
 70
0
 71
3
 72
10
 73
6
 74
0
 42
0.0000001
 43
0.0000001
 44
0.0000000001
 40
0.0
 40
0.0
 40
0.0
 40
0.0
 40
0.3703321593
 40
0.70229944
 40
1.0
 40
1.0
 40
1.0
 40
1.0
 10
4.7528484172
 20
5.0274396585
 30
0.0
 10
4.752695855
 20
5.0285992493
 30
0.0
 10
4.7521990394
 20
5.0307861003
 30
0.0
 10
4.75069097
 20
5.0336058297
 30
0.0
 10
4.7492390505
 20
5.0350270715
 30
0.0
 10
4.7484571944
 20
5.0355492536
 30
0.0
  0
SPLINE
  5
3AE
100
AcDbEntity
  8
0
100
AcDbSpline
 62
7
  6
CONTINUOUS
 70
0
 71
3
 72
10
 73
6
 74
0
 42
0.0000001
 43
0.0000001
 44
0.0000000001
 40
0.0
 40
0.0
 40
0.0
 40
0.0
 40
0.3867201007
 40
0.7461362662
 40
1.0
 40
1.0
 40
1.0
 40
1.0
 10
4.8209569866
 20
5.0008190355
 30
0.0
 10
4.8209637851
 20
4.9976121683
 30
0.0
 10
4.8212601818
 20
4.9914177107
 30
0.0
 10
4.8226099956
 20
4.9832186497
 30
0.0
 10
4.8239676892
 20
4.9783043708
 30
0.0
 10
4.8246354112
 20
4.9763070227
 30
0.0
  0
SPLINE
  5
3AF
100
AcDbEntity
  8
0
100
AcDbSpline
 62
7
  6
CONTINUOUS
 70
0
 71
3
 72
10
 73
6
 74
0
 42
0.0000001
 43
0.0000001
 44
0.0000000001
 40
0.0
 40
0.0
 40
0.0
 40
0.0
 40
0.3084585375
 40
0.6414349092
 40
1.0
 40
1.0
 40
1.0
 40
1.0
 10
4.8252559905
 20
5.0280212937
 30
0.0
 10
4.8242699076
 20
5.0253529075
 30
0.0
 10
4.8226373983
 20
5.0196441484
 30
0.0
 10
4.821231182
 20
5.010510601
 30
0.0
 10
4.8209525639
 20
5.0041258974
 30
0.0
 10
4.8209569866
 20
5.0008190355
 30
0.0
  0
SPLINE
  5
3B0
100
AcDbEntity
  8
0
100
AcDbSpline
 62
7
  6
CONTINUOUS
 70
0
 71
3
 72
10
 73
6
 74
0
 42
0.0000001
 43
0.0000001
 44
0.0000000001
 40
0.0
 40
0.0
 40
0.0
 40
0.0
 40
0.3042809546
 40
0.6365121756
 40
1.0
 40
1.0
 40
1.0
 40
1.0
 10
4.8378282341
 20
5.0471555405
 30
0.0
 10
4.8360643602
 20
5.0456128693
 30
0.0
 10
4.8327085173
 20
5.0419980633
 30
0.0
 10
4.8284186832
 20
5.0355648811
 30
0.0
 10
4.8262346362
 20
5.0306439153
 30
0.0
 10
4.8252559905
 20
5.0280212937
 30
0.0
  0
SPLINE
  5
3B1
100
AcDbEntity
  8
0
100
AcDbSpline
 62
7
  6
CONTINUOUS
 70
0
 71
3
 72
10
 73
6
 74
0
 42
0.0000001
 43
0.0000001
 44
0.0000000001
 40
0.0
 40
0.0
 40
0.0
 40
0.0
 40
0.3569731297
 40
0.6900027369
 40
1.0
 40
1.0
 40
1.0
 40
1.0
 10
4.8311228247
 20
5.0298620805
 30
0.0
 10
4.8315724511
 20
5.0320341943
 30
0.0
 10
4.8326425832
 20
5.0361959986
 30
0.0
 10
4.8348700825
 20
5.0420115787
 30
0.0
 10
4.8367820161
 20
5.0455381609
 30
0.0
 10
4.8378282341
 20
5.0471555405
 30
0.0
  0
SPLINE
  5
3B2
100
AcDbEntity
  8
0
100
AcDbSpline
 62
7
  6
CONTINUOUS
 70
0
 71
3
 72
10
 73
6
 74
0
 42
0.0000001
 43
0.0000001
 44
0.0000000001
 40
0.0
 40
0.0
 40
0.0
 40
0.0
 40
0.3502876793
 40
0.6839981025
 40
1.0
 40
1.0
 40
1.0
 40
1.0
 10
4.8290794875
 20
5.0045947545
 30
0.0
 10
4.8290671029
 20
5.0075589941
 30
0.0
 10
4.8291920027
 20
5.0133479581
 30
0.0
 10
4.8297631079
 20
5.0217966801
 30
0.0
 10
4.8306017199
 20
5.0272392192
 30
0.0
 10
4.8311228247
 20
5.0298620805
 30
0.0
  0
SPLINE
  5
3B3
100
AcDbEntity
  8
0
100
AcDbSpline
 62
7
  6
CONTINUOUS
 70
0
 71
3
 72
10
 73
6
 74
0
 42
0.0000001
 43
0.0000001
 44
0.0000000001
 40
0.0
 40
0.0
 40
0.0
 40
0.0
 40
0.255327228
 40
0.6193542274
 40
1.0
 40
1.0
 40
1.0
 40
1.0
 10
4.8308232853
 20
4.9774906176
 30
0.0
 10
4.8304787698
 20
4.9797786324
 30
0.0
 10
4.8297862022
 20
4.9853513519
 30
0.0
 10
4.8292145222
 20
4.9943981332
 30
0.0
 10
4.8290737348
 20
5.0011459087
 30
0.0
 10
4.8290794875
 20
5.0045947545
 30
0.0
  0
LINE
  5
3B4
100
AcDbEntity
  8
0
100
AcDbLine
 62
7
  6
CONTINUOUS
 10
4.836322995
 20
5.0008343404
 11
4.8368849549
 21
4.9783845304
  0
SPLINE
  5
3B5
100
AcDbEntity
  8
0
100
AcDbSpline
 62
7
  6
CONTINUOUS
 70
0
 71
3
 72
10
 73
6
 74
0
 42
0.0000001
 43
0.0000001
 44
0.0000000001
 40
0.0
 40
0.0
 40
0.0
 40
0.0
 40
0.3013770916
 40
0.6343659672
 40
1.0
 40
1.0
 40
1.0
 40
1.0
 10
4.8399737067
 20
5.0440549235
 30
0.0
 10
4.8387337832
 20
5.0398643033
 30
0.0
 10
4.8368797394
 20
5.0307839817
 30
0.0
 10
4.8367281068
 20
5.016254843
 30
0.0
 10
4.8363831559
 20
5.0061359826
 30
0.0
 10
4.836322995
 20
5.0008343404
 30
0.0
  0
SPLINE
  5
3B6
100
AcDbEntity
  8
0
100
AcDbSpline
 62
7
  6
CONTINUOUS
 70
0
 71
3
 72
11
 73
7
 74
0
 42
0.0000001
 43
0.0000001
 44
0.0000000001
 40
0.0
 40
0.0
 40
0.0
 40
0.0
 40
0.2603620267
 40
0.4979661547
 40
0.7359787623
 40
1.0
 40
1.0
 40
1.0
 40
1.0
 10
4.8535574356
 20
5.0533767183
 30
0.0
 10
4.8520310911
 20
5.0533775367
 30
0.0
 10
4.8490862404
 20
5.0530546137
 30
0.0
 10
4.8450812217
 20
5.0512364214
 30
0.0
 10
4.8419433538
 20
5.0481284867
 30
0.0
 10
4.8405510896
 20
5.0454909956
 30
0.0
 10
4.8399737067
 20
5.0440549235
 30
0.0
  0
SPLINE
  5
3B7
100
AcDbEntity
  8
0
100
AcDbSpline
 62
7
  6
CONTINUOUS
 70
0
 71
3
 72
10
 73
6
 74
0
 42
0.0000001
 43
0.0000001
 44
0.0000000001
 40
0.0
 40
0.0
 40
0.0
 40
0.0
 40
0.3134711336
 40
0.6501051222
 40
1.0
 40
1.0
 40
1.0
 40
1.0
 10
4.8634419037
 20
5.0496730783
 30
0.0
 10
4.8626300186
 20
5.0504555064
 30
0.0
 10
4.8606967596
 20
5.051829352
 30
0.0
 10
4.8573018248
 20
5.0531245858
 30
0.0
 10
4.8548159795
 20
5.0533823967
 30
0.0
 10
4.8535574356
 20
5.0533767183
 30
0.0
  0
SPLINE
  5
3B8
100
AcDbEntity
  8
0
100
AcDbSpline
 62
7
  6
CONTINUOUS
 70
0
 71
3
 72
10
 73
6
 74
0
 42
0.0000001
 43
0.0000001
 44
0.0000000001
 40
0.0
 40
0.0
 40
0.0
 40
0.0
 40
0.3645111158
 40
0.696765154
 40
1.0
 40
1.0
 40
1.0
 40
1.0
 10
4.86881835
 20
5.0394211099
 30
0.0
 10
4.8685414026
 20
5.0408222106
 30
0.0
 10
4.8678031243
 20
5.0434726101
 30
0.0
 10
4.8659482521
 20
5.04695472
 30
0.0
 10
4.8643237043
 20
5.0488768014
 30
0.0
 10
4.8634419037
 20
5.0496730783
 30
0.0
  0
SPLINE
  5
3B9
100
AcDbEntity
  8
0
100
AcDbSpline
 62
7
  6
CONTINUOUS
 70
0
 71
3
 72
10
 73
6
 74
0
 42
0.0000001
 43
0.0000001
 44
0.0000000001
 40
0.0
 40
0.0
 40
0.0
 40
0.0
 40
0.3451147368
 40
0.6790832434
 40
1.0
 40
1.0
 40
1.0
 40
1.0
 10
4.8703929705
 20
5.022733687
 30
0.0
 10
4.8703087956
 20
5.0246612884
 30
0.0
 10
4.8700833155
 20
5.0284512187
 30
0.0
 10
4.8696547299
 20
5.0340272996
 30
0.0
 10
4.8691280579
 20
5.0376538887
 30
0.0
 10
4.86881835
 20
5.0394211099
 30
0.0
  0
SPLINE
  5
3BA
100
AcDbEntity
  8
0
100
AcDbSpline
 62
7
  6
CONTINUOUS
 70
0
 71
3
 72
10
 73
6
 74
0
 42
0.0000001
 43
0.0000001
 44
0.0000000001
 40
0.0
 40
0.0
 40
0.0
 40
0.0
 40
0.3389993818
 40
0.672456079
 40
1.0
 40
1.0
 40
1.0
 40
1.0
 10
4.8709775987
 20
4.9936290953
 30
0.0
 10
4.8709763039
 20
4.9969188019
 30
0.0
 10
4.8709324084
 20
5.0034444294
 30
0.0
 10
4.8707605883
 20
5.0131473886
 30
0.0
 10
4.8705323494
 20
5.0195582032
 30
0.0
 10
4.8703929705
 20
5.022733687
 30
0.0
  0
LINE
  5
3BB
100
AcDbEntity
  8
0
100
AcDbLine
 62
7
  6
CONTINUOUS
 10
4.8705584766
 20
4.978543399
 11
4.8709775987
 21
4.9936290953
  0
LINE
  5
3BC
100
AcDbEntity
  8
0
100
AcDbLine
 62
7
  6
CONTINUOUS
 10
4.8737149539
 20
4.9896425664
 11
4.8735031675
 21
4.9781707484
  0
SPLINE
  5
3BD
100
AcDbEntity
  8
0
100
AcDbSpline
 62
7
  6
CONTINUOUS
 70
0
 71
3
 72
10
 73
6
 74
0
 42
0.0000001
 43
0.0000001
 44
0.0000000001
 40
0.0
 40
0.0
 40
0.0
 40
0.0
 40
0.3232025262
 40
0.6569666857
 40
1.0
 40
1.0
 40
1.0
 40
1.0
 10
4.8724943228
 20
5.0284257901
 30
0.0
 10
4.8728152617
 20
5.0242568531
 30
0.0
 10
4.8733287278
 20
5.0157708254
 30
0.0
 10
4.8736300376
 20
5.0028359329
 30
0.0
 10
4.8737157828
 20
4.9940803895
 30
0.0
 10
4.8737149539
 20
4.9896425664
 30
0.0
  0
SPLINE
  5
3BE
100
AcDbEntity
  8
0
100
AcDbSpline
 62
7
  6
CONTINUOUS
 70
0
 71
3
 72
10
 73
6
 74
0
 42
0.0000001
 43
0.0000001
 44
0.0000000001
 40
0.0
 40
0.0
 40
0.0
 40
0.0
 40
0.3087708028
 40
0.6430171364
 40
1.0
 40
1.0
 40
1.0
 40
1.0
 10
4.8687080084
 20
5.0471862975
 30
0.0
 10
4.8694875399
 20
5.0453690604
 30
0.0
 10
4.870804576
 20
5.0414407331
 30
0.0
 10
4.871785774
 20
5.0350998611
 30
0.0
 10
4.8723053277
 20
5.030704093
 30
0.0
 10
4.8724943228
 20
5.0284257901
 30
0.0
  0
SPLINE
  5
3BF
100
AcDbEntity
  8
0
100
AcDbSpline
 62
7
  6
CONTINUOUS
 70
0
 71
3
 72
10
 73
6
 74
0
 42
0.0000001
 43
0.0000001
 44
0.0000000001
 40
0.0
 40
0.0
 40
0.0
 40
0.0
 40
0.3497494797
 40
0.6838030177
 40
1.0
 40
1.0
 40
1.0
 40
1.0
 10
4.8788133649
 20
5.0285700144
 30
0.0
 10
4.878111963
 20
5.0309568518
 30
0.0
 10
4.8764410454
 20
5.0355462425
 30
0.0
 10
4.8730118796
 20
5.0418050572
 30
0.0
 10
4.8702117407
 20
5.045513798
 30
0.0
 10
4.8687080084
 20
5.0471862975
 30
0.0
  0
SPLINE
  5
3C0
100
AcDbEntity
  8
0
100
AcDbSpline
 62
7
  6
CONTINUOUS
 70
0
 71
3
 72
10
 73
6
 74
0
 42
0.0000001
 43
0.0000001
 44
0.0000000001
 40
0.0
 40
0.0
 40
0.0
 40
0.0
 40
0.355063567
 40
0.6886101925
 40
1.0
 40
1.0
 40
1.0
 40
1.0
 10
4.8820516462
 20
5.0008798873
 30
0.0
 10
4.8820573924
 20
5.0041887539
 30
0.0
 10
4.8818451205
 20
5.0106077233
 30
0.0
 10
4.8808890726
 20
5.019889264
 30
0.0
 10
4.8796037987
 20
5.0257778695
 30
0.0
 10
4.8788133649
 20
5.0285700144
 30
0.0
  0
SPLINE
  5
3C1
100
AcDbEntity
  8
0
100
AcDbSpline
 62
7
  6
CONTINUOUS
 70
0
 71
3
 72
10
 73
6
 74
0
 42
0.0000001
 43
0.0000001
 44
0.0000000001
 40
0.0
 40
0.0
 40
0.0
 40
0.0
 40
0.1736368724
 40
0.5741845857
 40
1.0
 40
1.0
 40
1.0
 40
1.0
 10
4.8801133382
 20
4.9770979852
 30
0.0
 10
4.8803883595
 20
4.9784542658
 30
0.0
 10
4.8811778387
 20
4.9829640203
 30
0.0
 10
4.8818800071
 20
4.9909063678
 30
0.0
 10
4.8820668128
 20
4.9974887128
 30
0.0
 10
4.8820516462
 20
5.0008798873
 30
0.0
  0
SPLINE
  5
3C2
100
AcDbEntity
  8
0
100
AcDbSpline
 62
7
  6
CONTINUOUS
 70
0
 71
3
 72
10
 73
6
 74
0
 42
0.0000001
 43
0.0000001
 44
0.0000000001
 40
0.0
 40
0.0
 40
0.0
 40
0.0
 40
0.3122572134
 40
0.6454215152
 40
1.0
 40
1.0
 40
1.0
 40
1.0
 10
4.8796946673
 20
5.0382394566
 30
0.0
 10
4.8807156073
 20
5.0366287483
 30
0.0
 10
4.8826066357
 20
5.0331566602
 30
0.0
 10
4.8848946172
 20
5.0274833451
 30
0.0
 10
4.8860858982
 20
5.0234485575
 30
0.0
 10
4.8866115217
 20
5.0213478406
 30
0.0
  0
SPLINE
  5
3C3
100
AcDbEntity
  8
0
100
AcDbSpline
 62
7
  6
CONTINUOUS
 70
0
 71
3
 72
10
 73
6
 74
0
 42
0.0000001
 43
0.0000001
 44
0.0000000001
 40
0.0
 40
0.0
 40
0.0
 40
0.0
 40
0.3080627246
 40
0.6411500463
 40
1.0
 40
1.0
 40
1.0
 40
1.0
 10
4.8675101577
 20
5.0514526815
 30
0.0
 10
4.8690478751
 20
5.0504113662
 30
0.0
 10
4.8720603206
 20
5.0479574786
 30
0.0
 10
4.8761224906
 20
5.043481073
 30
0.0
 10
4.8785374837
 20
5.0400672289
 30
0.0
 10
4.8796946673
 20
5.0382394566
 30
0.0
  0
SPLINE
  5
3C4
100
AcDbEntity
  8
0
100
AcDbSpline
 62
7
  6
CONTINUOUS
 70
0
 71
3
 72
10
 73
6
 74
0
 42
0.0000001
 43
0.0000001
 44
0.0000000001
 40
0.0
 40
0.0
 40
0.0
 40
0.0
 40
0.302889394
 40
0.6351226698
 40
1.0
 40
1.0
 40
1.0
 40
1.0
 10
4.8535547867
 20
5.0560362214
 30
0.0
 10
4.8550579582
 20
5.0560596993
 30
0.0
 10
4.8582200485
 20
5.055704466
 30
0.0
 10
4.8629770889
 20
5.0541847103
 30
0.0
 10
4.8660053695
 20
5.0524603629
 30
0.0
 10
4.8675101577
 20
5.0514526815
 30
0.0
  0
SPLINE
  5
3C5
100
AcDbEntity
  8
0
100
AcDbSpline
 62
7
  6
CONTINUOUS
 70
0
 71
3
 72
10
 73
6
 74
0
 42
0.0000001
 43
0.0000001
 44
0.0000000001
 40
0.0
 40
0.0
 40
0.0
 40
0.0
 40
0.3650022744
 40
0.6971597846
 40
1.0
 40
1.0
 40
1.0
 40
1.0
 10
4.839659184
 20
5.05138547
 30
0.0
 10
4.8411551408
 20
5.0523998841
 30
0.0
 10
4.8441663016
 20
5.0541377313
 30
0.0
 10
4.8489018097
 20
5.0556873682
 30
0.0
 10
4.8520552609
 20
5.0560548363
 30
0.0
 10
4.8535547867
 20
5.0560362214
 30
0.0
  0
SPLINE
  5
3C6
100
AcDbEntity
  8
0
100
AcDbSpline
 62
7
  6
CONTINUOUS
 70
0
 71
3
 72
10
 73
6
 74
0
 42
0.0000001
 43
0.0000001
 44
0.0000000001
 40
0.0
 40
0.0
 40
0.0
 40
0.0
 40
0.3588304491
 40
0.6918465681
 40
1.0
 40
1.0
 40
1.0
 40
1.0
 10
4.8275806281
 20
5.038198851
 30
0.0
 10
4.828721535
 20
5.0400239423
 30
0.0
 10
4.8311070095
 20
5.0434331586
 30
0.0
 10
4.835142939
 20
5.0478928548
 30
0.0
 10
4.838132268
 20
5.0503438185
 30
0.0
 10
4.839659184
 20
5.05138547
 30
0.0
  0
SPLINE
  5
3C7
100
AcDbEntity
  8
0
100
AcDbSpline
 62
7
  6
CONTINUOUS
 70
0
 71
3
 72
10
 73
6
 74
0
 42
0.0000001
 43
0.0000001
 44
0.0000000001
 40
0.0
 40
0.0
 40
0.0
 40
0.0
 40
0.3541761114
 40
0.6872249798
 40
1.0
 40
1.0
 40
1.0
 40
1.0
 10
4.8206411066
 20
5.0212821317
 30
0.0
 10
4.8211667074
 20
5.023384022
 30
0.0
 10
4.8223595071
 20
5.027423005
 30
0.0
 10
4.8246750462
 20
5.0330958949
 30
0.0
 10
4.8265630149
 20
5.0365785557
 30
0.0
 10
4.8275806281
 20
5.038198851
 30
0.0
  0
SPLINE
  5
3C8
100
AcDbEntity
  8
0
100
AcDbSpline
 62
7
  6
CONTINUOUS
 70
0
 71
3
 72
10
 73
6
 74
0
 42
0.0000001
 43
0.0000001
 44
0.0000000001
 40
0.0
 40
0.0
 40
0.0
 40
0.0
 40
0.3493875368
 40
0.6823982451
 40
1.0
 40
1.0
 40
1.0
 40
1.0
 10
4.8182236113
 20
5.000816313
 30
0.0
 10
4.8182263143
 20
5.003221722
 30
0.0
 10
4.8183962582
 20
5.0079226626
 30
0.0
 10
4.819219232
 20
5.0147648573
 30
0.0
 10
4.8201082822
 20
5.0191614679
 30
0.0
 10
4.8206411066
 20
5.0212821317
 30
0.0
  0
SPLINE
  5
3C9
100
AcDbEntity
  8
0
100
AcDbSpline
 62
7
  6
CONTINUOUS
 70
0
 71
3
 72
10
 73
6
 74
0
 42
0.0000001
 43
0.0000001
 44
0.0000000001
 40
0.0
 40
0.0
 40
0.0
 40
0.0
 40
0.3162621288
 40
0.6491877793
 40
1.0
 40
1.0
 40
1.0
 40
1.0
 10
4.8206819435
 20
4.9802814783
 30
0.0
 10
4.820144492
 20
4.9823994689
 30
0.0
 10
4.8192465886
 20
4.9868006186
 30
0.0
 10
4.8184090708
 20
4.9936658102
 30
0.0
 10
4.8182310589
 20
4.9983924936
 30
0.0
 10
4.8182236113
 20
5.000816313
 30
0.0
  0
SPLINE
  5
3CA
100
AcDbEntity
  8
0
100
AcDbSpline
 62
7
  6
CONTINUOUS
 70
0
 71
3
 72
10
 73
6
 74
0
 42
0.0000001
 43
0.0000001
 44
0.0000000001
 40
0.0
 40
0.0
 40
0.0
 40
0.0
 40
0.337126741
 40
0.6709055151
 40
1.0
 40
1.0
 40
1.0
 40
1.0
 10
4.8891436501
 20
5.0008869511
 30
0.0
 10
4.8891456448
 20
4.9985483349
 30
0.0
 10
4.888966531
 20
4.9938916857
 30
0.0
 10
4.8881326344
 20
4.9869981072
 30
0.0
 10
4.8872117125
 20
4.9824866608
 30
0.0
 10
4.8866610817
 20
4.9802711634
 30
0.0
  0
SPLINE
  5
3CB
100
AcDbEntity
  8
0
100
AcDbSpline
 62
7
  6
CONTINUOUS
 70
0
 71
3
 72
10
 73
6
 74
0
 42
0.0000001
 43
0.0000001
 44
0.0000000001
 40
0.0
 40
0.0
 40
0.0
 40
0.0
 40
0.3581194074
 40
0.6909541933
 40
1.0
 40
1.0
 40
1.0
 40
1.0
 10
4.9098119181
 20
4.9993148301
 30
0.0
 10
4.9093837103
 20
4.9961366732
 30
0.0
 10
4.9088372215
 20
4.9899592543
 30
0.0
 10
4.9090805254
 20
4.9809895046
 30
0.0
 10
4.9099270741
 20
4.9752845228
 30
0.0
 10
4.9105336216
 20
4.9725843784
 30
0.0
  0
SPLINE
  5
3CC
100
AcDbEntity
  8
0
100
AcDbSpline
 62
7
  6
CONTINUOUS
 70
0
 71
3
 72
10
 73
6
 74
0
 42
0.0000001
 43
0.0000001
 44
0.0000000001
 40
0.0
 40
0.0
 40
0.0
 40
0.0
 40
0.3084585186
 40
0.6414348976
 40
1.0
 40
1.0
 40
1.0
 40
1.0
 10
4.9177605972
 20
5.0256826653
 30
0.0
 10
4.9164217167
 20
5.0231726768
 30
0.0
 10
4.9140300219
 20
5.017738083
 30
0.0
 10
4.9113980327
 20
5.0088796543
 30
0.0
 10
4.9102560412
 20
5.0025917356
 30
0.0
 10
4.9098119181
 20
4.9993148301
 30
0.0
  0
SPLINE
  5
3CD
100
AcDbEntity
  8
0
100
AcDbSpline
 62
7
  6
CONTINUOUS
 70
0
 71
3
 72
10
 73
6
 74
0
 42
0.0000001
 43
0.0000001
 44
0.0000000001
 40
0.0
 40
0.0
 40
0.0
 40
0.0
 40
0.3042809546
 40
0.6365121756
 40
1.0
 40
1.0
 40
1.0
 40
1.0
 10
4.9328118221
 20
5.0429349502
 30
0.0
 10
4.9308550165
 20
5.0416457656
 30
0.0
 10
4.9270399112
 20
5.0385195098
 30
0.0
 10
4.9219171924
 20
5.0327275962
 30
0.0
 10
4.9190859026
 20
5.0281483207
 30
0.0
 10
4.9177605972
 20
5.0256826653
 30
0.0
  0
SPLINE
  5
3CE
100
AcDbEntity
  8
0
100
AcDbSpline
 62
7
  6
CONTINUOUS
 70
0
 71
3
 72
10
 73
6
 74
0
 42
0.0000001
 43
0.0000001
 44
0.0000000001
 40
0.0
 40
0.0
 40
0.0
 40
0.0
 40
0.3569731285
 40
0.6900027227
 40
1.0
 40
1.0
 40
1.0
 40
1.0
 10
4.9238228812
 20
5.0267107342
 30
0.0
 10
4.9245629532
 20
5.028801795
 30
0.0
 10
4.9261876563
 20
5.0327800028
 30
0.0
 10
4.9291833352
 20
5.0382397309
 30
0.0
 10
4.9315559082
 20
5.0414744129
 30
0.0
 10
4.9328118221
 20
5.0429349502
 30
0.0
  0
SPLINE
  5
3CF
100
AcDbEntity
  8
0
100
AcDbSpline
 62
7
  6
CONTINUOUS
 70
0
 71
3
 72
10
 73
6
 74
0
 42
0.0000001
 43
0.0000001
 44
0.0000000001
 40
0.0
 40
0.0
 40
0.0
 40
0.0
 40
0.3502876571
 40
0.6839980885
 40
1.0
 40
1.0
 40
1.0
 40
1.0
 10
4.9183714607
 20
5.0019540166
 30
0.0
 10
4.9187612261
 20
5.0048925456
 30
0.0
 10
4.9196701204
 20
5.0106110783
 30
0.0
 10
4.921381833
 20
5.0189042748
 30
0.0
 10
4.9229508577
 20
5.0241827848
 30
0.0
 10
4.9238228812
 20
5.0267107342
 30
0.0
  0
SPLINE
  5
3D0
100
AcDbEntity
  8
0
100
AcDbSpline
 62
7
  6
CONTINUOUS
 70
0
 71
3
 72
10
 73
6
 74
0
 42
0.0000001
 43
0.0000001
 44
0.0000000001
 40
0.0
 40
0.0
 40
0.0
 40
0.0
 40
0.3176106353
 40
0.6511909168
 40
1.0
 40
1.0
 40
1.0
 40
1.0
 10
4.916479288
 20
4.9723833251
 30
0.0
 10
4.916378874
 20
4.9755220953
 30
0.0
 10
4.9164013882
 20
4.9819674071
 30
0.0
 10
4.9171222926
 20
4.9918332998
 30
0.0
 10
4.9178979985
 20
4.9985378191
 30
0.0
 10
4.9183714607
 20
5.0019540166
 30
0.0
  0
SPLINE
  5
3D1
100
AcDbEntity
  8
0
100
AcDbSpline
 62
7
  6
CONTINUOUS
 70
0
 71
3
 72
9
 73
5
 74
0
 42
0.0000001
 43
0.0000001
 44
0.0000000001
 40
0.0
 40
0.0
 40
0.0
 40
0.0
 40
0.4184197183
 40
1.0
 40
1.0
 40
1.0
 40
1.0
 10
4.9179281124
 20
4.9594489839
 30
0.0
 10
4.9175597845
 20
4.9612286281
 30
0.0
 10
4.9168917482
 20
4.9655248926
 30
0.0
 10
4.9165630308
 20
4.9698597259
 30
0.0
 10
4.916479288
 20
4.9723833251
 30
0.0
  0
SPLINE
  5
3D2
100
AcDbEntity
  8
0
100
AcDbSpline
 62
7
  6
CONTINUOUS
 70
0
 71
3
 72
9
 73
5
 74
0
 42
0.0000001
 43
0.0000001
 44
0.0000000001
 40
0.0
 40
0.0
 40
0.0
 40
0.0
 40
0.6111421928
 40
1.0
 40
1.0
 40
1.0
 40
1.0
 10
4.9105336216
 20
4.9725843784
 30
0.0
 10
4.9111492919
 20
4.9698323291
 30
0.0
 10
4.9124226149
 20
4.9653766159
 30
0.0
 10
4.9142842205
 20
4.9611433751
 30
0.0
 10
4.91509757
 20
4.9595416666
 30
0.0
  0
SPLINE
  5
3D3
100
AcDbEntity
  8
0
100
AcDbSpline
 62
7
  6
CONTINUOUS
 70
0
 71
3
 72
10
 73
6
 74
0
 42
0.0000001
 43
0.0000001
 44
0.0000000001
 40
0.0
 40
0.0
 40
0.0
 40
0.0
 40
0.4232401919
 40
0.8016057577
 40
1.0
 40
1.0
 40
1.0
 40
1.0
 10
4.9250380099
 20
4.9972459235
 30
0.0
 10
4.9243772878
 20
4.9919135307
 30
0.0
 10
4.923355795
 20
4.9817940823
 30
0.0
 10
4.9218140759
 20
4.9691680701
 30
0.0
 10
4.9220406428
 20
4.9618228586
 30
0.0
 10
4.9222496216
 20
4.9593083195
 30
0.0
  0
SPLINE
  5
3D4
100
AcDbEntity
  8
0
100
AcDbSpline
 62
7
  6
CONTINUOUS
 70
0
 71
3
 72
10
 73
6
 74
0
 42
0.0000001
 43
0.0000001
 44
0.0000000001
 40
0.0
 40
0.0
 40
0.0
 40
0.0
 40
0.3013771358
 40
0.6343660181
 40
1.0
 40
1.0
 40
1.0
 40
1.0
 10
4.9345169401
 20
5.0395719947
 30
0.0
 10
4.9327201063
 20
5.0355882652
 30
0.0
 10
4.9296516429
 20
5.0268433092
 30
0.0
 10
4.9275308398
 20
5.0124689902
 30
0.0
 10
4.9258166692
 20
5.0024904167
 30
0.0
 10
4.9250380099
 20
4.9972459235
 30
0.0
  0
SPLINE
  5
3D5
100
AcDbEntity
  8
0
100
AcDbSpline
 62
7
  6
CONTINUOUS
 70
0
 71
3
 72
11
 73
7
 74
0
 42
0.0000001
 43
0.0000001
 44
0.0000000001
 40
0.0
 40
0.0
 40
0.0
 40
0.0
 40
0.2603620601
 40
0.4979661879
 40
0.7359787797
 40
1.0
 40
1.0
 40
1.0
 40
1.0
 10
4.9492394518
 20
5.0469653124
 30
0.0
 10
4.9477273219
 20
5.0471731393
 30
0.0
 10
4.9447658847
 20
5.0472526063
 30
0.0
 10
4.9405512746
 20
5.0459944095
 30
0.0
 10
4.9370208773
 20
5.0433407772
 30
0.0
 10
4.9352837598
 20
5.0409164876
 30
0.0
 10
4.9345169401
 20
5.0395719947
 30
0.0
  0
SPLINE
  5
3D6
100
AcDbEntity
  8
0
100
AcDbSpline
 62
7
  6
CONTINUOUS
 70
0
 71
3
 72
10
 73
6
 74
0
 42
0.0000001
 43
0.0000001
 44
0.0000000001
 40
0.0
 40
0.0
 40
0.0
 40
0.0
 40
0.3134711337
 40
0.6501051226
 40
1.0
 40
1.0
 40
1.0
 40
1.0
 10
4.9585302651
 20
5.0419552779
 30
0.0
 10
4.9578320016
 20
5.042840591
 30
0.0
 10
4.9561029393
 20
5.0444639473
 30
0.0
 10
4.9529150454
 20
5.0462076632
 30
0.0
 10
4.9504871365
 20
5.0468002437
 30
0.0
 10
4.9492394518
 20
5.0469653124
 30
0.0
  0
SPLINE
  5
3D7
100
AcDbEntity
  8
0
100
AcDbSpline
 62
7
  6
CONTINUOUS
 70
0
 71
3
 72
10
 73
6
 74
0
 42
0.0000001
 43
0.0000001
 44
0.0000000001
 40
0.0
 40
0.0
 40
0.0
 40
0.0
 40
0.3645111158
 40
0.6967651541
 40
1.0
 40
1.0
 40
1.0
 40
1.0
 10
4.9624665711
 20
5.0310688401
 30
0.0
 10
4.9623822121
 20
5.0324945563
 30
0.0
 10
4.9620102257
 20
5.0352205972
 30
0.0
 10
4.9606447669
 20
5.0389221052
 30
0.0
 10
4.9592959196
 20
5.0410467614
 30
0.0
 10
4.9585302651
 20
5.0419552779
 30
0.0
  0
SPLINE
  5
3D8
100
AcDbEntity
  8
0
100
AcDbSpline
 62
7
  6
CONTINUOUS
 70
0
 71
3
 72
10
 73
6
 74
0
 42
0.0000001
 43
0.0000001
 44
0.0000000001
 40
0.0
 40
0.0
 40
0.0
 40
0.0
 40
0.345114707
 40
0.6790832306
 40
1.0
 40
1.0
 40
1.0
 40
1.0
 10
4.9617633423
 20
5.0143220497
 30
0.0
 10
4.9619413817
 20
5.0162432561
 30
0.0
 10
4.9622320066
 20
5.020028748
 30
0.0
 10
4.9625636636
 20
5.0256114327
 30
0.0
 10
4.96253373
 20
5.0292759431
 30
0.0
 10
4.9624665711
 20
5.0310688401
 30
0.0
  0
SPLINE
  5
3D9
100
AcDbEntity
  8
0
100
AcDbSpline
 62
7
  6
CONTINUOUS
 70
0
 71
3
 72
10
 73
6
 74
0
 42
0.0000001
 43
0.0000001
 44
0.0000000001
 40
0.0
 40
0.0
 40
0.0
 40
0.0
 40
0.3389994263
 40
0.6724561142
 40
1.0
 40
1.0
 40
1.0
 40
1.0
 10
4.9583951715
 20
4.9854070977
 30
0.0
 10
4.9588400671
 20
4.9886665826
 30
0.0
 10
4.9596816376
 20
4.9951378657
 30
0.0
 10
4.960827396
 20
5.0047744716
 30
0.0
 10
4.9614707502
 20
5.0111570045
 30
0.0
 10
4.9617633423
 20
5.0143220497
 30
0.0
  0
SPLINE
  5
3DA
100
AcDbEntity
  8
0
100
AcDbSpline
 62
7
  6
CONTINUOUS
 70
0
 71
3
 72
10
 73
6
 74
0
 42
0.0000001
 43
0.0000001
 44
0.0000000001
 40
0.0
 40
0.0
 40
0.0
 40
0.0
 40
0.0964906471
 40
0.5297832132
 40
1.0
 40
1.0
 40
1.0
 40
1.0
 10
4.9529164597
 20
4.9580446848
 30
0.0
 10
4.9532023314
 20
4.9588976875
 30
0.0
 10
4.9546707372
 20
4.9636133053
 30
0.0
 10
4.9563724346
 20
4.97278481
 30
0.0
 10
4.9577901843
 20
4.9810717842
 30
0.0
 10
4.9583951715
 20
4.9854070977
 30
0.0
  0
SPLINE
  5
3DB
100
AcDbEntity
  8
0
100
AcDbSpline
 62
7
  6
CONTINUOUS
 70
0
 71
3
 72
10
 73
6
 74
0
 42
0.0000001
 43
0.0000001
 44
0.0000000001
 40
0.0
 40
0.0
 40
0.0
 40
0.0
 40
0.3122573169
 40
0.6454215998
 40
1.0
 40
1.0
 40
1.0
 40
1.0
 10
4.9730821168
 20
5.0284229628
 30
0.0
 10
4.9738751639
 20
5.0266886682
 30
0.0
 10
4.9752778032
 20
5.0229921852
 30
0.0
 10
4.9767751845
 20
5.017060979
 30
0.0
 10
4.9774082262
 20
5.0129019032
 30
0.0
 10
4.9776440761
 20
5.0107493087
 30
0.0
  0
SPLINE
  5
3DC
100
AcDbEntity
  8
0
100
AcDbSpline
 62
7
  6
CONTINUOUS
 70
0
 71
3
 72
10
 73
6
 74
0
 42
0.0000001
 43
0.0000001
 44
0.0000000001
 40
0.0
 40
0.0
 40
0.0
 40
0.0
 40
0.3080626572
 40
0.6411499829
 40
1.0
 40
1.0
 40
1.0
 40
1.0
 10
4.9628022975
 20
5.0431666708
 30
0.0
 10
4.9641845737
 20
5.0419264193
 30
0.0
 10
4.9668363654
 20
5.0390866316
 30
0.0
 10
4.9702538667
 20
5.0341006389
 30
0.0
 10
4.9721835261
 20
5.0303907947
 30
0.0
 10
4.9730821168
 20
5.0284229628
 30
0.0
  0
SPLINE
  5
3DD
100
AcDbEntity
  8
0
100
AcDbSpline
 62
7
  6
CONTINUOUS
 70
0
 71
3
 72
10
 73
6
 74
0
 42
0.0000001
 43
0.0000001
 44
0.0000000001
 40
0.0
 40
0.0
 40
0.0
 40
0.0
 40
0.3028894693
 40
0.6351227175
 40
1.0
 40
1.0
 40
1.0
 40
1.0
 10
4.9495975321
 20
5.0496006003
 30
0.0
 10
4.9510899987
 20
5.0494199877
 30
0.0
 10
4.9541746911
 20
5.0486391672
 30
0.0
 10
4.9586816551
 20
5.046488267
 30
0.0
 10
4.9614480838
 20
5.0443691327
 30
0.0
 10
4.9628022975
 20
5.0431666708
 30
0.0
  0
SPLINE
  5
3DE
100
AcDbEntity
  8
0
100
AcDbSpline
 62
7
  6
CONTINUOUS
 70
0
 71
3
 72
10
 73
6
 74
0
 42
0.0000001
 43
0.0000001
 44
0.0000000001
 40
0.0
 40
0.0
 40
0.0
 40
0.0
 40
0.3650022838
 40
0.6971597887
 40
1.0
 40
1.0
 40
1.0
 40
1.0
 10
4.935199554
 20
5.0468774632
 30
0.0
 10
4.9368192712
 20
5.0476796098
 30
0.0
 10
4.9400383096
 20
5.048993
 30
0.0
 10
4.9449402355
 20
5.0498860475
 30
0.0
 10
4.9481143871
 20
5.0498224219
 30
0.0
 10
4.9495975321
 20
5.0496006003
 30
0.0
  0
SPLINE
  5
3DF
100
AcDbEntity
  8
0
100
AcDbSpline
 62
7
  6
CONTINUOUS
 70
0
 71
3
 72
10
 73
6
 74
0
 42
0.0000001
 43
0.0000001
 44
0.0000000001
 40
0.0
 40
0.0
 40
0.0
 40
0.0
 40
0.3588304335
 40
0.691846555
 40
1.0
 40
1.0
 40
1.0
 40
1.0
 10
4.9214441272
 20
5.0354508883
 30
0.0
 10
4.9228220263
 20
5.0371043754
 30
0.0
 10
4.9256478453
 20
5.0401585507
 30
0.0
 10
4.930251343
 20
5.0440296513
 30
0.0
 10
4.9335454697
 20
5.0460525298
 30
0.0
 10
4.935199554
 20
5.0468774632
 30
0.0
  0
SPLINE
  5
3E0
100
AcDbEntity
  8
0
100
AcDbSpline
 62
7
  6
CONTINUOUS
 70
0
 71
3
 72
10
 73
6
 74
0
 42
0.0000001
 43
0.0000001
 44
0.0000000001
 40
0.0
 40
0.0
 40
0.0
 40
0.0
 40
0.3541760923
 40
0.6872249651
 40
1.0
 40
1.0
 40
1.0
 40
1.0
 10
4.9122743361
 20
5.0196316856
 30
0.0
 10
4.9130801574
 20
5.0216428666
 30
0.0
 10
4.9148097383
 20
5.0254827491
 30
0.0
 10
4.9178732872
 20
5.0307891655
 30
0.0
 10
4.9202161588
 20
5.0339835825
 30
0.0
 10
4.9214441272
 20
5.0354508883
 30
0.0
  0
SPLINE
  5
3E1
100
AcDbEntity
  8
0
100
AcDbSpline
 62
7
  6
CONTINUOUS
 70
0
 71
3
 72
10
 73
6
 74
0
 42
0.0000001
 43
0.0000001
 44
0.0000000001
 40
0.0
 40
0.0
 40
0.0
 40
0.0
 40
0.3493878231
 40
0.6823985049
 40
1.0
 40
1.0
 40
1.0
 40
1.0
 10
4.9071034241
 20
4.9996828577
 30
0.0
 10
4.9074323449
 20
5.0020656755
 30
0.0
 10
4.9082383011
 20
5.0067001311
 30
0.0
 10
4.9099816695
 20
5.0133674835
 30
0.0
 10
4.9114588119
 20
5.0176028854
 30
0.0
 10
4.9122743361
 20
5.0196316856
 30
0.0
  0
SPLINE
  5
3E2
100
AcDbEntity
  8
0
100
AcDbSpline
 62
7
  6
CONTINUOUS
 70
0
 71
3
 72
10
 73
6
 74
0
 42
0.0000001
 43
0.0000001
 44
0.0000000001
 40
0.0
 40
0.0
 40
0.0
 40
0.0
 40
0.3162619793
 40
0.6491876661
 40
1.0
 40
1.0
 40
1.0
 40
1.0
 10
4.9067539321
 20
4.9790043485
 30
0.0
 10
4.906508706
 20
4.9811756612
 30
0.0
 10
4.90621602
 20
4.985657924
 30
0.0
 10
4.9063173568
 20
4.9925732714
 30
0.0
 10
4.9067820634
 20
4.9972804239
 30
0.0
 10
4.9071034241
 20
4.9996828577
 30
0.0
  0
SPLINE
  5
3E3
100
AcDbEntity
  8
0
100
AcDbSpline
 62
7
  6
CONTINUOUS
 70
0
 71
3
 72
10
 73
6
 74
0
 42
0.0000001
 43
0.0000001
 44
0.0000000001
 40
0.0
 40
0.0
 40
0.0
 40
0.0
 40
0.0622453736
 40
0.516823451
 40
1.0
 40
1.0
 40
1.0
 40
1.0
 10
4.9095772333
 20
4.965930895
 30
0.0
 10
4.9094882133
 20
4.966194413
 30
0.0
 10
4.9087660312
 20
4.9683880763
 30
0.0
 10
4.9076347816
 20
4.9727148249
 30
0.0
 10
4.9069934869
 20
4.9768603079
 30
0.0
 10
4.9067539321
 20
4.9790043485
 30
0.0
  0
SPLINE
  5
3E4
100
AcDbEntity
  8
0
100
AcDbSpline
 62
7
  6
CONTINUOUS
 70
0
 71
3
 72
10
 73
6
 74
0
 42
0.0000001
 43
0.0000001
 44
0.0000000001
 40
0.0
 40
0.0
 40
0.0
 40
0.0
 40
0.4501485067
 40
0.872866754
 40
1.0
 40
1.0
 40
1.0
 40
1.0
 10
4.9721220038
 20
4.9700454687
 30
0.0
 10
4.971328269
 20
4.9680449484
 30
0.0
 10
4.9696234041
 20
4.9642282248
 30
0.0
 10
4.9672552763
 20
4.9600653687
 30
0.0
 10
4.9657774435
 20
4.957887499
 30
0.0
 10
4.9654261733
 20
4.9573907531
 30
0.0
  0
SPLINE
  5
3E5
100
AcDbEntity
  8
0
100
AcDbSpline
 62
7
  6
CONTINUOUS
 70
0
 71
3
 72
10
 73
6
 74
0
 42
0.0000001
 43
0.0000001
 44
0.0000000001
 40
0.0
 40
0.0
 40
0.0
 40
0.0
 40
0.3371267411
 40
0.6709055152
 40
1.0
 40
1.0
 40
1.0
 40
1.0
 10
4.9773777241
 20
4.9901340538
 30
0.0
 10
4.977062517
 20
4.9878167765
 30
0.0
 10
4.9762534832
 20
4.9832274489
 30
0.0
 10
4.9744923253
 20
4.9765106691
 30
0.0
 10
4.9729680316
 20
4.972165813
 30
0.0
 10
4.9721220038
 20
4.9700454687
 30
0.0
  0
SPLINE
  5
3E6
100
AcDbEntity
  8
0
100
AcDbSpline
 62
7
  6
CONTINUOUS
 70
0
 71
3
 72
10
 73
6
 74
0
 42
0.0000001
 43
0.0000001
 44
0.0000000001
 40
0.0
 40
0.0
 40
0.0
 40
0.0
 40
0.3448743725
 40
0.6786451541
 40
1.0
 40
1.0
 40
1.0
 40
1.0
 10
4.9605665453
 20
4.9810861416
 30
0.0
 10
4.9602300273
 20
4.9785653967
 30
0.0
 10
4.9594891303
 20
4.9736157207
 30
0.0
 10
4.9582205204
 20
4.9663497353
 30
0.0
 10
4.9571271622
 20
4.9616410551
 30
0.0
 10
4.956532232
 20
4.9593472771
 30
0.0
  0
SPLINE
  5
3E7
100
AcDbEntity
  8
0
100
AcDbSpline
 62
7
  6
CONTINUOUS
 70
0
 71
3
 72
10
 73
6
 74
0
 42
0.0000001
 43
0.0000001
 44
0.0000000001
 40
0.0
 40
0.0
 40
0.0
 40
0.0
 40
0.3232026495
 40
0.6569667616
 40
1.0
 40
1.0
 40
1.0
 40
1.0
 10
4.96461729
 20
5.019676553
 30
0.0
 10
4.9643698359
 20
5.015502608
 30
0.0
 10
4.9637276107
 20
5.0070253516
 30
0.0
 10
4.9622718095
 20
4.9941691129
 30
0.0
 10
4.961169262
 20
4.9854828448
 30
0.0
 10
4.9605665453
 20
4.9810861416
 30
0.0
  0
SPLINE
  5
3E8
100
AcDbEntity
  8
0
100
AcDbSpline
 62
7
  6
CONTINUOUS
 70
0
 71
3
 72
10
 73
6
 74
0
 42
0.0000001
 43
0.0000001
 44
0.0000000001
 40
0.0
 40
0.0
 40
0.0
 40
0.0
 40
0.308770601
 40
0.643016931
 40
1.0
 40
1.0
 40
1.0
 40
1.0
 10
4.9634104309
 20
5.0387772409
 30
0.0
 10
4.9639362935
 20
5.036871071
 30
0.0
 10
4.96470837
 20
5.0328004159
 30
0.0
 10
4.9648204886
 20
5.0263850559
 30
0.0
 10
4.9647390464
 20
5.0219594383
 30
0.0
 10
4.96461729
 20
5.019676553
 30
0.0
  0
SPLINE
  5
3E9
100
AcDbEntity
  8
0
100
AcDbSpline
 62
7
  6
CONTINUOUS
 70
0
 71
3
 72
10
 73
6
 74
0
 42
0.0000001
 43
0.0000001
 44
0.0000000001
 40
0.0
 40
0.0
 40
0.0
 40
0.0
 40
0.3497495635
 40
0.683803093
 40
1.0
 40
1.0
 40
1.0
 40
1.0
 10
4.9708975105
 20
5.0189623976
 30
0.0
 10
4.9705263131
 20
5.0214223112
 30
0.0
 10
4.969493288
 20
5.0261959204
 30
0.0
 10
4.9669446829
 20
5.0328619963
 30
0.0
 10
4.9646734295
 20
5.0369162467
 30
0.0
 10
4.9634104309
 20
5.0387772409
 30
0.0
  0
SPLINE
  5
3EA
100
AcDbEntity
  8
0
100
AcDbSpline
 62
7
  6
CONTINUOUS
 70
0
 71
3
 72
10
 73
6
 74
0
 42
0.0000001
 43
0.0000001
 44
0.0000000001
 40
0.0
 40
0.0
 40
0.0
 40
0.0
 40
0.355063554
 40
0.6886101623
 40
1.0
 40
1.0
 40
1.0
 40
1.0
 10
4.9703503071
 20
4.9910889324
 30
0.0
 10
4.9708047768
 20
4.9943664446
 30
0.0
 10
4.9714650611
 20
5.0007548908
 30
0.0
 10
4.9717766824
 20
5.0100803348
 30
0.0
 10
4.9713019463
 20
5.0160888474
 30
0.0
 10
4.9708975105
 20
5.0189623976
 30
0.0
  0
SPLINE
  5
3EB
100
AcDbEntity
  8
0
100
AcDbSpline
 62
7
  6
CONTINUOUS
 70
0
 71
3
 72
10
 73
6
 74
0
 42
0.0000001
 43
0.0000001
 44
0.0000000001
 40
0.0
 40
0.0
 40
0.0
 40
0.0
 40
0.3113856949
 40
0.6451649245
 40
1.0
 40
1.0
 40
1.0
 40
1.0
 10
4.9634869909
 20
4.9633281055
 30
0.0
 10
4.964644016
 20
4.9660699333
 30
0.0
 10
4.9667000202
 20
4.9719020812
 30
0.0
 10
4.9688275581
 20
4.9812308461
 30
0.0
 10
4.9699053932
 20
4.9877270346
 30
0.0
 10
4.9703503071
 20
4.9910889324
 30
0.0
  0
LINE
  5
3EC
100
AcDbEntity
  8
0
100
AcDbLine
 62
7
  6
CONTINUOUS
 10
4.9606026509
 20
4.9576753465
 11
4.9634869909
 21
4.9633281055
  0
SPLINE
  5
3ED
100
AcDbEntity
  8
0
100
AcDbSpline
 62
7
  6
CONTINUOUS
 70
0
 71
3
 72
10
 73
6
 74
0
 42
0.0000001
 43
0.0000001
 44
0.0000000001
 40
0.0
 40
0.0
 40
0.0
 40
0.0
 40
0.3290479393
 40
0.6656332227
 40
1.0
 40
1.0
 40
1.0
 40
1.0
 10
5.4533443532
 20
4.530929453
 30
0.0
 10
5.4524563381
 20
4.5296161237
 30
0.0
 10
5.4503551941
 20
4.5271529746
 30
0.0
 10
5.4464837605
 20
4.5242262844
 30
0.0
 10
5.4435169532
 20
4.5228686795
 30
0.0
 10
5.4419890808
 20
4.5223578739
 30
0.0
  0
SPLINE
  5
3EE
100
AcDbEntity
  8
0
100
AcDbSpline
 62
7
  6
CONTINUOUS
 70
0
 71
3
 72
10
 73
6
 74
0
 42
0.0000001
 43
0.0000001
 44
0.0000000001
 40
0.0
 40
0.0
 40
0.0
 40
0.0
 40
0.3579128651
 40
0.692064001
 40
1.0
 40
1.0
 40
1.0
 40
1.0
 10
5.4610539473
 20
4.5512930009
 30
0.0
 10
5.4604444622
 20
4.5487567713
 30
0.0
 10
5.459083333
 20
4.5438991419
 30
0.0
 10
5.4567669149
 20
4.5369741496
 30
0.0
 10
5.4545581282
 20
4.5328171025
 30
0.0
 10
5.4533443532
 20
4.530929453
 30
0.0
  0
SPLINE
  5
3EF
100
AcDbEntity
  8
0
100
AcDbSpline
 62
7
  6
CONTINUOUS
 70
0
 71
3
 72
13
 73
9
 74
0
 42
0.0000001
 43
0.0000001
 44
0.0000000001
 40
0.0
 40
0.0
 40
0.0
 40
0.0
 40
0.1253592518
 40
0.2674301425
 40
0.4258902576
 40
0.6000195467
 40
0.7913753742
 40
1.0
 40
1.0
 40
1.0
 40
1.0
 10
5.4832589616
 20
4.5906728286
 30
0.0
 10
5.4814994319
 20
4.5900594197
 30
0.0
 10
5.4779695644
 20
4.5880502992
 30
0.0
 10
5.4736095234
 20
4.583377832
 30
0.0
 10
5.4698412943
 20
4.5773814484
 30
0.0
 10
5.4666253575
 20
4.5702655641
 30
0.0
 10
5.4639834034
 20
4.5621430858
 30
0.0
 10
5.4623515847
 20
4.5564251801
 30
0.0
 10
5.4615741793
 20
4.553423128
 30
0.0
  0
SPLINE
  5
3F0
100
AcDbEntity
  8
0
100
AcDbSpline
 62
7
  6
CONTINUOUS
 70
0
 71
3
 72
10
 73
6
 74
0
 42
0.0000001
 43
0.0000001
 44
0.0000000001
 40
0.0
 40
0.0
 40
0.0
 40
0.0
 40
0.3193660392
 40
0.6536570965
 40
1.0
 40
1.0
 40
1.0
 40
1.0
 10
5.493928961
 20
4.5919364911
 30
0.0
 10
5.4927841509
 20
4.5920662996
 30
0.0
 10
5.4904162722
 20
4.5921377571
 30
0.0
 10
5.4868206497
 20
4.5917230963
 30
0.0
 10
5.4844410686
 20
4.5910775421
 30
0.0
 10
5.4832589616
 20
4.5906728286
 30
0.0
  0
SPLINE
  5
3F1
100
AcDbEntity
  8
0
100
AcDbSpline
 62
7
  6
CONTINUOUS
 70
0
 71
3
 72
10
 73
6
 74
0
 42
0.0000001
 43
0.0000001
 44
0.0000000001
 40
0.0
 40
0.0
 40
0.0
 40
0.0
 40
0.353568985
 40
0.6874062119
 40
1.0
 40
1.0
 40
1.0
 40
1.0
 10
5.5040944409
 20
4.5882001352
 30
0.0
 10
5.5030146824
 20
4.5889009309
 30
0.0
 10
5.500820916
 20
4.590129604
 30
0.0
 10
5.4973844037
 20
4.5913730329
 30
0.0
 10
5.4950615585
 20
4.5918250834
 30
0.0
 10
5.493928961
 20
4.5919364911
 30
0.0
  0
SPLINE
  5
3F2
100
AcDbEntity
  8
0
100
AcDbSpline
 62
7
  6
CONTINUOUS
 70
0
 71
3
 72
10
 73
6
 74
0
 42
0.0000001
 43
0.0000001
 44
0.0000000001
 40
0.0
 40
0.0
 40
0.0
 40
0.0
 40
0.319525891
 40
0.653021326
 40
1.0
 40
1.0
 40
1.0
 40
1.0
 10
5.4967515194
 20
4.5891573872
 30
0.0
 10
5.497541743
 20
4.589155178
 30
0.0
 10
5.4991576268
 20
4.5890760579
 30
0.0
 10
5.5016089254
 20
4.5887323947
 30
0.0
 10
5.503259262
 20
4.5883972325
 30
0.0
 10
5.5040944409
 20
4.5882001352
 30
0.0
  0
SPLINE
  5
3F3
100
AcDbEntity
  8
0
100
AcDbSpline
 62
7
  6
CONTINUOUS
 70
0
 71
3
 72
10
 73
6
 74
0
 42
0.0000001
 43
0.0000001
 44
0.0000000001
 40
0.0
 40
0.0
 40
0.0
 40
0.0
 40
0.3447538087
 40
0.6785461415
 40
1.0
 40
1.0
 40
1.0
 40
1.0
 10
5.4905452888
 20
4.5880913883
 30
0.0
 10
5.4912328258
 20
4.5883263666
 30
0.0
 10
5.4926104064
 20
4.5887224338
 30
0.0
 10
5.4946920511
 20
4.5890755456
 30
0.0
 10
5.4960740431
 20
4.5891581641
 30
0.0
 10
5.4967515194
 20
4.5891573872
 30
0.0
  0
SPLINE
  5
3F4
100
AcDbEntity
  8
0
100
AcDbSpline
 62
7
  6
CONTINUOUS
 70
0
 71
3
 72
10
 73
6
 74
0
 42
0.0000001
 43
0.0000001
 44
0.0000000001
 40
0.0
 40
0.0
 40
0.0
 40
0.0
 40
0.349728565
 40
0.6828192642
 40
1.0
 40
1.0
 40
1.0
 40
1.0
 10
5.4844069384
 20
4.584776393
 30
0.0
 10
5.4850589975
 20
4.5852675346
 30
0.0
 10
5.486376673
 20
4.5861700122
 30
0.0
 10
5.4884355185
 20
4.5872781872
 30
0.0
 10
5.4898441081
 20
4.5878537329
 30
0.0
 10
5.4905452888
 20
4.5880913883
 30
0.0
  0
SPLINE
  5
3F5
100
AcDbEntity
  8
0
100
AcDbSpline
 62
7
  6
CONTINUOUS
 70
0
 71
3
 72
10
 73
6
 74
0
 42
0.0000001
 43
0.0000001
 44
0.0000000001
 40
0.0
 40
0.0
 40
0.0
 40
0.0
 40
0.3494217783
 40
0.6826310459
 40
1.0
 40
1.0
 40
1.0
 40
1.0
 10
5.4789863894
 20
4.5791590801
 30
0.0
 10
5.4795248346
 20
4.5798953073
 30
0.0
 10
5.480636494
 20
4.5812914554
 30
0.0
 10
5.48244679
 20
4.5831772368
 30
0.0
 10
5.4837452909
 20
4.5842778502
 30
0.0
 10
5.4844069384
 20
4.584776393
 30
0.0
  0
SPLINE
  5
3F6
100
AcDbEntity
  8
0
100
AcDbSpline
 62
7
  6
CONTINUOUS
 70
0
 71
3
 72
10
 73
6
 74
0
 42
0.0000001
 43
0.0000001
 44
0.0000000001
 40
0.0
 40
0.0
 40
0.0
 40
0.0
 40
0.3626342203
 40
0.6962291674
 40
1.0
 40
1.0
 40
1.0
 40
1.0
 10
5.4697078985
 20
4.5539019406
 30
0.0
 10
5.4704836374
 20
4.5570744142
 30
0.0
 10
5.472173823
 20
4.5631104824
 30
0.0
 10
5.4748112257
 20
4.571742046
 30
0.0
 10
5.4774995385
 20
4.5768625801
 30
0.0
 10
5.4789863894
 20
4.5791590801
 30
0.0
  0
LINE
  5
3F7
100
AcDbEntity
  8
0
100
AcDbLine
 62
7
  6
CONTINUOUS
 10
5.4680037399
 20
4.5467660682
 11
5.4697078985
 21
4.5539019406
  0
SPLINE
  5
3F8
100
AcDbEntity
  8
0
100
AcDbSpline
 62
7
  6
CONTINUOUS
 70
0
 71
3
 72
10
 73
6
 74
0
 42
0.0000001
 43
0.0000001
 44
0.0000000001
 40
0.0
 40
0.0
 40
0.0
 40
0.0
 40
0.3084204474
 40
0.6421582143
 40
1.0
 40
1.0
 40
1.0
 40
1.0
 10
5.4608344433
 20
4.5299976444
 30
0.0
 10
5.4619355711
 20
4.5315268668
 30
0.0
 10
5.4639592181
 20
4.5349140268
 30
0.0
 10
5.4662322563
 20
4.5406002201
 30
0.0
 10
5.4674622307
 20
4.5446478197
 30
0.0
 10
5.4680037399
 20
4.5467660682
 30
0.0
  0
SPLINE
  5
3F9
100
AcDbEntity
  8
0
100
AcDbSpline
 62
7
  6
CONTINUOUS
 70
0
 71
3
 72
10
 73
6
 74
0
 42
0.0000001
 43
0.0000001
 44
0.0000000001
 40
0.0
 40
0.0
 40
0.0
 40
0.0
 40
0.3441884548
 40
0.6800217922
 40
1.0
 40
1.0
 40
1.0
 40
1.0
 10
5.4495620389
 20
4.5219046878
 30
0.0
 10
5.4510908272
 20
4.522423634
 30
0.0
 10
5.4540279877
 20
4.523731159
 30
0.0
 10
5.4578525369
 20
4.5264983257
 30
0.0
 10
5.4599512141
 20
4.5287841295
 30
0.0
 10
5.4608344433
 20
4.5299976444
 30
0.0
  0
SPLINE
  5
3FA
100
AcDbEntity
  8
0
100
AcDbSpline
 62
7
  6
CONTINUOUS
 70
0
 71
3
 72
10
 73
6
 74
0
 42
0.0000001
 43
0.0000001
 44
0.0000000001
 40
0.0
 40
0.0
 40
0.0
 40
0.0
 40
0.3191687438
 40
0.6525705006
 40
1.0
 40
1.0
 40
1.0
 40
1.0
 10
5.4438464815
 20
4.5208320253
 30
0.0
 10
5.4444669338
 20
4.5208505796
 30
0.0
 10
5.4457340364
 20
4.5209596454
 30
0.0
 10
5.4476491333
 20
4.5213145764
 30
0.0
 10
5.4489223636
 20
4.5216870289
 30
0.0
 10
5.4495620389
 20
4.5219046878
 30
0.0
  0
SPLINE
  5
3FB
100
AcDbEntity
  8
0
100
AcDbSpline
 62
7
  6
CONTINUOUS
 70
0
 71
3
 72
10
 73
6
 74
0
 42
0.0000001
 43
0.0000001
 44
0.0000000001
 40
0.0
 40
0.0
 40
0.0
 40
0.0
 40
0.3185184523
 40
0.6516353499
 40
1.0
 40
1.0
 40
1.0
 40
1.0
 10
5.4380712484
 20
4.5214853961
 30
0.0
 10
5.4386677803
 20
4.5213194729
 30
0.0
 10
5.4399082937
 20
4.5210497097
 30
0.0
 10
5.4418424573
 20
4.5208274365
 30
0.0
 10
5.4431696113
 20
4.5208110076
 30
0.0
 10
5.4438464815
 20
4.5208320253
 30
0.0
  0
SPLINE
  5
3FC
100
AcDbEntity
  8
0
100
AcDbSpline
 62
7
  6
CONTINUOUS
 70
0
 71
3
 72
10
 73
6
 74
0
 42
0.0000001
 43
0.0000001
 44
0.0000000001
 40
0.0
 40
0.0
 40
0.0
 40
0.0
 40
0.2950374601
 40
0.627575738
 40
1.0
 40
1.0
 40
1.0
 40
1.0
 10
5.4938106045
 20
4.5858514739
 30
0.0
 10
5.492377927
 20
4.5853765292
 30
0.0
 10
5.4895034362
 20
4.5838042662
 30
0.0
 10
5.485877001
 20
4.580123963
 30
0.0
 10
5.4839657802
 20
4.5770329407
 30
0.0
 10
5.4831014583
 20
4.5753350287
 30
0.0
  0
SPLINE
  5
3FD
100
AcDbEntity
  8
0
100
AcDbSpline
 62
7
  6
CONTINUOUS
 70
0
 71
3
 72
10
 73
6
 74
0
 42
0.0000001
 43
0.0000001
 44
0.0000000001
 40
0.0
 40
0.0
 40
0.0
 40
0.0
 40
0.3358966499
 40
0.6746359022
 40
1.0
 40
1.0
 40
1.0
 40
1.0
 10
5.5066090286
 20
4.5846688275
 30
0.0
 10
5.5053250099
 20
4.5854053913
 30
0.0
 10
5.5025218304
 20
4.5865325272
 30
0.0
 10
5.4980743967
 20
4.5869337472
 30
0.0
 10
5.495157009
 20
4.5863445875
 30
0.0
 10
5.4938106045
 20
4.5858514739
 30
0.0
  0
SPLINE
  5
3FE
100
AcDbEntity
  8
0
100
AcDbSpline
 62
7
  6
CONTINUOUS
 70
0
 71
3
 72
10
 73
6
 74
0
 42
0.0000001
 43
0.0000001
 44
0.0000000001
 40
0.0
 40
0.0
 40
0.0
 40
0.0
 40
0.3448520334
 40
0.6819993144
 40
1.0
 40
1.0
 40
1.0
 40
1.0
 10
5.5153520044
 20
4.5740162401
 30
0.0
 10
5.5148385682
 20
4.5755511856
 30
0.0
 10
5.5134738662
 20
4.5784891143
 30
0.0
 10
5.5104494214
 20
4.5821389879
 30
0.0
 10
5.5079284367
 20
4.5839711415
 30
0.0
 10
5.5066090286
 20
4.5846688275
 30
0.0
  0
SPLINE
  5
3FF
100
AcDbEntity
  8
0
100
AcDbSpline
 62
7
  6
CONTINUOUS
 70
0
 71
3
 72
10
 73
6
 74
0
 42
0.0000001
 43
0.0000001
 44
0.0000000001
 40
0.0
 40
0.0
 40
0.0
 40
0.0
 40
0.3321049412
 40
0.6716990075
 40
1.0
 40
1.0
 40
1.0
 40
1.0
 10
5.5134009648
 20
4.5580442624
 30
0.0
 10
5.5144282624
 20
4.5595726232
 30
0.0
 10
5.5160358311
 20
4.5630120277
 30
0.0
 10
5.5167125878
 20
4.5686039731
 30
0.0
 10
5.5159831388
 20
4.5723087112
 30
0.0
 10
5.5153520044
 20
4.5740162401
 30
0.0
  0
SPLINE
  5
400
100
AcDbEntity
  8
0
100
AcDbSpline
 62
7
  6
CONTINUOUS
 70
0
 71
3
 72
10
 73
6
 74
0
 42
0.0000001
 43
0.0000001
 44
0.0000000001
 40
0.0
 40
0.0
 40
0.0
 40
0.0
 40
0.3706113331
 40
0.7027630208
 40
1.0
 40
1.0
 40
1.0
 40
1.0
 10
5.4977915132
 20
4.5468453441
 30
0.0
 10
5.5000761583
 20
4.5476262797
 30
0.0
 10
5.5043152521
 20
4.549442256
 30
0.0
 10
5.5096614164
 20
4.5532514287
 30
0.0
 10
5.5123763484
 20
4.5564011359
 30
0.0
 10
5.5134009648
 20
4.5580442624
 30
0.0
  0
SPLINE
  5
401
100
AcDbEntity
  8
0
100
AcDbSpline
 62
7
  6
CONTINUOUS
 70
0
 71
3
 72
10
 73
6
 74
0
 42
0.0000001
 43
0.0000001
 44
0.0000000001
 40
0.0
 40
0.0
 40
0.0
 40
0.0
 40
0.3117063531
 40
0.6446096927
 40
1.0
 40
1.0
 40
1.0
 40
1.0
 10
5.4850991552
 20
4.5449415215
 30
0.0
 10
5.4864376819
 20
4.5448611452
 30
0.0
 10
5.4892209838
 20
4.5449109612
 30
0.0
 10
5.4934869071
 20
4.5455437149
 30
0.0
 10
5.4963439743
 20
4.5463533553
 30
0.0
 10
5.4977915132
 20
4.5468453441
 30
0.0
  0
SPLINE
  5
402
100
AcDbEntity
  8
0
100
AcDbSpline
 62
7
  6
CONTINUOUS
 70
0
 71
3
 72
10
 73
6
 74
0
 42
0.0000001
 43
0.0000001
 44
0.0000000001
 40
0.0
 40
0.0
 40
0.0
 40
0.0
 40
0.3072140873
 40
0.6399288266
 40
1.0
 40
1.0
 40
1.0
 40
1.0
 10
5.474793056
 20
4.5481092116
 30
0.0
 10
5.4757211217
 20
4.5474899908
 30
0.0
 10
5.4777992098
 20
4.5464116025
 30
0.0
 10
5.4812841584
 20
4.5453311399
 30
0.0
 10
5.4837937087
 20
4.5450171461
 30
0.0
 10
5.4850991552
 20
4.5449415215
 30
0.0
  0
SPLINE
  5
403
100
AcDbEntity
  8
0
100
AcDbSpline
 62
7
  6
CONTINUOUS
 70
0
 71
3
 72
10
 73
6
 74
0
 42
0.0000001
 43
0.0000001
 44
0.0000000001
 40
0.0
 40
0.0
 40
0.0
 40
0.0
 40
0.3116549093
 40
0.6458372317
 40
1.0
 40
1.0
 40
1.0
 40
1.0
 10
5.4831014583
 20
4.5753350287
 30
0.0
 10
5.4818224655
 20
4.5726619655
 30
0.0
 10
5.4794941004
 20
4.5669581797
 30
0.0
 10
5.4770141084
 20
4.557768804
 30
0.0
 10
5.4754900637
 20
4.5514037531
 30
0.0
 10
5.474793056
 20
4.5481092116
 30
0.0
  0
SPLINE
  5
404
100
AcDbEntity
  8
0
100
AcDbSpline
 62
7
  6
CONTINUOUS
 70
0
 71
3
 72
10
 73
6
 74
0
 42
0.0000001
 43
0.0000001
 44
0.0000000001
 40
0.0
 40
0.0
 40
0.0
 40
0.0
 40
0.329434021
 40
0.6650347006
 40
1.0
 40
1.0
 40
1.0
 40
1.0
 10
5.4319687574
 20
4.5774120199
 30
0.0
 10
5.4305397228
 20
4.576931964
 30
0.0
 10
5.4277384271
 20
4.5756930477
 30
0.0
 10
5.4239315607
 20
4.5731133184
 30
0.0
 10
5.4217270839
 20
4.5709508617
 30
0.0
 10
5.4207312325
 20
4.5697856026
 30
0.0
  0
SPLINE
  5
405
100
AcDbEntity
  8
0
100
AcDbSpline
 62
7
  6
CONTINUOUS
 70
0
 71
3
 72
10
 73
6
 74
0
 42
0.0000001
 43
0.0000001
 44
0.0000000001
 40
0.0
 40
0.0
 40
0.0
 40
0.0
 40
0.3109258265
 40
0.6438237756
 40
1.0
 40
1.0
 40
1.0
 40
1.0
 10
5.4433103841
 20
4.5789514975
 30
0.0
 10
5.4421214975
 20
4.5790621834
 30
0.0
 10
5.4396377151
 20
4.5790812877
 30
0.0
 10
5.4358207099
 20
4.5785672752
 30
0.0
 10
5.4332637123
 20
4.5778524388
 30
0.0
 10
5.4319687574
 20
4.5774120199
 30
0.0
  0
SPLINE
  5
406
100
AcDbEntity
  8
0
100
AcDbSpline
 62
7
  6
CONTINUOUS
 70
0
 71
3
 72
10
 73
6
 74
0
 42
0.0000001
 43
0.0000001
 44
0.0000000001
 40
0.0
 40
0.0
 40
0.0
 40
0.0
 40
0.3576394721
 40
0.6904588456
 40
1.0
 40
1.0
 40
1.0
 40
1.0
 10
5.4541101813
 20
4.5752301525
 30
0.0
 10
5.4529340422
 20
4.575937359
 30
0.0
 10
5.4505771569
 20
4.5771706895
 30
0.0
 10
5.4469340872
 20
4.5784180493
 30
0.0
 10
5.4444941132
 20
4.5788530431
 30
0.0
 10
5.4433103841
 20
4.5789514975
 30
0.0
  0
SPLINE
  5
407
100
AcDbEntity
  8
0
100
AcDbSpline
 62
7
  6
CONTINUOUS
 70
0
 71
3
 72
10
 73
6
 74
0
 42
0.0000001
 43
0.0000001
 44
0.0000000001
 40
0.0
 40
0.0
 40
0.0
 40
0.0
 40
0.3420197102
 40
0.6760680913
 40
1.0
 40
1.0
 40
1.0
 40
1.0
 10
5.4448989125
 20
4.576127987
 30
0.0
 10
5.4459560637
 20
4.5762026074
 30
0.0
 10
5.4480559534
 20
4.5762395111
 30
0.0
 10
5.4511455665
 20
4.5759331349
 30
0.0
 10
5.4531440408
 20
4.5755022844
 30
0.0
 10
5.4541101813
 20
4.5752301525
 30
0.0
  0
SPLINE
  5
408
100
AcDbEntity
  8
0
100
AcDbSpline
 62
7
  6
CONTINUOUS
 70
0
 71
3
 72
10
 73
6
 74
0
 42
0.0000001
 43
0.0000001
 44
0.0000000001
 40
0.0
 40
0.0
 40
0.0
 40
0.0
 40
0.3490410035
 40
0.6822893015
 40
1.0
 40
1.0
 40
1.0
 40
1.0
 10
5.4350797304
 20
4.574026121
 30
0.0
 10
5.4361874224
 20
4.5744066452
 30
0.0
 10
5.4383808034
 20
4.5750722153
 30
0.0
 10
5.441663276
 20
4.5757865323
 30
0.0
 10
5.4438354843
 20
4.5760525662
 30
0.0
 10
5.4448989125
 20
4.576127987
 30
0.0
  0
SPLINE
  5
409
100
AcDbEntity
  8
0
100
AcDbSpline
 62
7
  6
CONTINUOUS
 70
0
 71
3
 72
10
 73
6
 74
0
 42
0.0000001
 43
0.0000001
 44
0.0000000001
 40
0.0
 40
0.0
 40
0.0
 40
0.0
 40
0.3115980285
 40
0.644798956
 40
1.0
 40
1.0
 40
1.0
 40
1.0
 10
5.4225113597
 20
4.5673508862
 30
0.0
 10
5.4236590608
 20
4.5682934386
 30
0.0
 10
5.4261835579
 20
4.5700672074
 30
0.0
 10
5.4304182221
 20
4.5722761134
 30
0.0
 10
5.4334772732
 20
4.5734800223
 30
0.0
 10
5.4350797304
 20
4.574026121
 30
0.0
  0
SPLINE
  5
40A
100
AcDbEntity
  8
0
100
AcDbSpline
 62
7
  6
CONTINUOUS
 70
0
 71
3
 72
10
 73
6
 74
0
 42
0.0000001
 43
0.0000001
 44
0.0000000001
 40
0.0
 40
0.0
 40
0.0
 40
0.0
 40
0.3561901542
 40
0.6893680726
 40
1.0
 40
1.0
 40
1.0
 40
1.0
 10
5.4145415288
 20
4.5569237572
 30
0.0
 10
5.4152203478
 20
4.558338913
 30
0.0
 10
5.4166985055
 20
4.5610066295
 30
0.0
 10
5.4194015169
 20
4.5645047814
 30
0.0
 10
5.4214481537
 20
4.5664888066
 30
0.0
 10
5.4225113597
 20
4.5673508862
 30
0.0
  0
SPLINE
  5
40B
100
AcDbEntity
  8
0
100
AcDbSpline
 62
7
  6
CONTINUOUS
 70
0
 71
3
 72
10
 73
6
 74
0
 42
0.0000001
 43
0.0000001
 44
0.0000000001
 40
0.0
 40
0.0
 40
0.0
 40
0.0
 40
0.3141446828
 40
0.6483918505
 40
1.0
 40
1.0
 40
1.0
 40
1.0
 10
5.4207312325
 20
4.5697856026
 30
0.0
 10
5.4197354103
 20
4.5686513982
 30
0.0
 10
5.417912266
 20
4.5661011074
 30
0.0
 10
5.4157986762
 20
4.5617627818
 30
0.0
 10
5.4148885917
 20
4.5585770493
 30
0.0
 10
5.4145415288
 20
4.5569237572
 30
0.0
  0
SPLINE
  5
40C
100
AcDbEntity
  8
0
100
AcDbSpline
 62
7
  6
CONTINUOUS
 70
0
 71
3
 72
15
 73
11
 74
0
 42
0.0000001
 43
0.0000001
 44
0.0000000001
 40
0.0
 40
0.0
 40
0.0
 40
0.0
 40
0.0876679849
 40
0.1860869358
 40
0.2947342795
 40
0.4137283348
 40
0.5432456531
 40
0.6835948347
 40
0.8356826314
 40
1.0
 40
1.0
 40
1.0
 40
1.0
 10
5.4411996205
 20
4.5246643832
 30
0.0
 10
5.4425332513
 20
4.5251495833
 30
0.0
 10
5.4451996203
 20
4.5266783708
 30
0.0
 10
5.4484949174
 20
4.5301862626
 30
0.0
 10
5.4514023325
 20
4.5346096931
 30
0.0
 10
5.4539807191
 20
4.5397950557
 30
0.0
 10
5.456338227
 20
4.5456367624
 30
0.0
 10
5.4584648509
 20
4.5521325447
 30
0.0
 10
5.4603958506
 20
4.5592713813
 30
0.0
 10
5.4616156043
 20
4.5642463826
 30
0.0
 10
5.4622141001
 20
4.5668381118
 30
0.0
  0
SPLINE
  5
40D
100
AcDbEntity
  8
0
100
AcDbSpline
 62
7
  6
CONTINUOUS
 70
0
 71
3
 72
10
 73
6
 74
0
 42
0.0000001
 43
0.0000001
 44
0.0000000001
 40
0.0
 40
0.0
 40
0.0
 40
0.0
 40
0.3336011414
 40
0.6726596811
 40
1.0
 40
1.0
 40
1.0
 40
1.0
 10
5.4265753523
 20
4.5261563847
 30
0.0
 10
5.4280147363
 20
4.5252816814
 30
0.0
 10
5.4311960005
 20
4.5239337255
 30
0.0
 10
5.4362905925
 20
4.5234215033
 30
0.0
 10
5.4396479282
 20
4.5240954379
 30
0.0
 10
5.4411996205
 20
4.5246643832
 30
0.0
  0
SPLINE
  5
40E
100
AcDbEntity
  8
0
100
AcDbSpline
 62
7
  6
CONTINUOUS
 70
0
 71
3
 72
10
 73
6
 74
0
 42
0.0000001
 43
0.0000001
 44
0.0000000001
 40
0.0
 40
0.0
 40
0.0
 40
0.0
 40
0.3707709901
 40
0.702248636
 40
1.0
 40
1.0
 40
1.0
 40
1.0
 10
5.4165289463
 20
4.5392545948
 30
0.0
 10
5.4172072836
 20
4.5372867931
 30
0.0
 10
5.4188055577
 20
4.5336403986
 30
0.0
 10
5.4222910686
 20
4.5291745717
 30
0.0
 10
5.4251126095
 20
4.5269653111
 30
0.0
 10
5.4265753523
 20
4.5261563847
 30
0.0
  0
SPLINE
  5
40F
100
AcDbEntity
  8
0
100
AcDbSpline
 62
7
  6
CONTINUOUS
 70
0
 71
3
 72
11
 73
7
 74
0
 42
0.0000001
 43
0.0000001
 44
0.0000000001
 40
0.0
 40
0.0
 40
0.0
 40
0.0
 40
0.2328929292
 40
0.4813333189
 40
0.740464624
 40
1.0
 40
1.0
 40
1.0
 40
1.0
 10
5.4187918428
 20
4.5569988306
 30
0.0
 10
5.4179070609
 20
4.5558564548
 30
0.0
 10
5.4164176597
 20
4.5532190853
 30
0.0
 10
5.4152351169
 20
4.5487327039
 30
0.0
 10
5.4151877254
 20
4.5439241003
 30
0.0
 10
5.4159643072
 20
4.5407625939
 30
0.0
 10
5.4165289463
 20
4.5392545948
 30
0.0
  0
SPLINE
  5
410
100
AcDbEntity
  8
0
100
AcDbSpline
 62
7
  6
CONTINUOUS
 70
0
 71
3
 72
10
 73
6
 74
0
 42
0.0000001
 43
0.0000001
 44
0.0000000001
 40
0.0
 40
0.0
 40
0.0
 40
0.0
 40
0.3702667642
 40
0.7032926874
 40
1.0
 40
1.0
 40
1.0
 40
1.0
 10
5.4381522301
 20
4.5696119797
 30
0.0
 10
5.435410548
 20
4.5686909388
 30
0.0
 10
5.4303122283
 20
4.566586246
 30
0.0
 10
5.4236256594
 20
4.5624566838
 30
0.0
 10
5.4201438947
 20
4.5588812523
 30
0.0
 10
5.4187918428
 20
4.5569988306
 30
0.0
  0
SPLINE
  5
411
100
AcDbEntity
  8
0
100
AcDbSpline
 62
7
  6
CONTINUOUS
 70
0
 71
3
 72
10
 73
6
 74
0
 42
0.0000001
 43
0.0000001
 44
0.0000000001
 40
0.0
 40
0.0
 40
0.0
 40
0.0
 40
0.3104775882
 40
0.6436621365
 40
1.0
 40
1.0
 40
1.0
 40
1.0
 10
5.4528499917
 20
4.5720525645
 30
0.0
 10
5.4513016135
 20
4.5721248194
 30
0.0
 10
5.4480756503
 20
4.5720171868
 30
0.0
 10
5.4431460014
 20
4.5711572425
 30
0.0
 10
5.4398340951
 20
4.5701918474
 30
0.0
 10
5.4381522301
 20
4.5696119797
 30
0.0
  0
SPLINE
  5
412
100
AcDbEntity
  8
0
100
AcDbSpline
 62
7
  6
CONTINUOUS
 70
0
 71
3
 72
10
 73
6
 74
0
 42
0.0000001
 43
0.0000001
 44
0.0000000001
 40
0.0
 40
0.0
 40
0.0
 40
0.0
 40
0.2979311157
 40
0.630899394
 40
1.0
 40
1.0
 40
1.0
 40
1.0
 10
5.4625283999
 20
4.5684292589
 30
0.0
 10
5.4618053093
 20
4.569189011
 30
0.0
 10
5.45997742
 20
4.5705313092
 30
0.0
 10
5.4566169286
 20
4.5716914093
 30
0.0
 10
5.4541483257
 20
4.5720000301
 30
0.0
 10
5.4528499917
 20
4.5720525645
 30
0.0
  0
SPLINE
  5
413
100
AcDbEntity
  8
0
100
AcDbSpline
 62
7
  6
CONTINUOUS
 70
0
 71
3
 72
10
 73
6
 74
0
 42
0.0000001
 43
0.0000001
 44
0.0000000001
 40
0.0
 40
0.0
 40
0.0
 40
0.0
 40
0.3492473035
 40
0.6823552133
 40
1.0
 40
1.0
 40
1.0
 40
1.0
 10
5.5069110717
 20
4.5487174203
 30
0.0
 10
5.5060303855
 20
4.5481058857
 30
0.0
 10
5.5042608999
 20
4.5469785065
 30
0.0
 10
5.501526065
 20
4.5455749643
 30
0.0
 10
5.4996680062
 20
4.5448305217
 30
0.0
 10
5.4987446872
 20
4.5445167834
 30
0.0
  0
SPLINE
  5
414
100
AcDbEntity
  8
0
100
AcDbSpline
 62
7
  6
CONTINUOUS
 70
0
 71
3
 72
10
 73
6
 74
0
 42
0.0000001
 43
0.0000001
 44
0.0000000001
 40
0.0
 40
0.0
 40
0.0
 40
0.0
 40
0.3462631508
 40
0.6794596448
 40
1.0
 40
1.0
 40
1.0
 40
1.0
 10
5.5144976759
 20
4.5552963397
 30
0.0
 10
5.5136987439
 20
4.5544541698
 30
0.0
 10
5.5120809234
 20
4.5528479082
 30
0.0
 10
5.5095461166
 20
4.5506503167
 30
0.0
 10
5.5077936532
 20
4.5493304615
 30
0.0
 10
5.5069110717
 20
4.5487174203
 30
0.0
  0
SPLINE
  5
415
100
AcDbEntity
  8
0
100
AcDbSpline
 62
7
  6
CONTINUOUS
 70
0
 71
3
 72
10
 73
6
 74
0
 42
0.0000001
 43
0.0000001
 44
0.0000000001
 40
0.0
 40
0.0
 40
0.0
 40
0.0
 40
0.3209696241
 40
0.655373728
 40
1.0
 40
1.0
 40
1.0
 40
1.0
 10
5.5090285224
 20
4.5468654478
 30
0.0
 10
5.5098076966
 20
4.5476174655
 30
0.0
 10
5.5112758098
 20
4.5492840442
 30
0.0
 10
5.513125406
 20
4.5521186857
 30
0.0
 10
5.514083564
 20
4.5542098864
 30
0.0
 10
5.5144976759
 20
4.5552963397
 30
0.0
  0
SPLINE
  5
416
100
AcDbEntity
  8
0
100
AcDbSpline
 62
7
  6
CONTINUOUS
 70
0
 71
3
 72
10
 73
6
 74
0
 42
0.0000001
 43
0.0000001
 44
0.0000000001
 40
0.0
 40
0.0
 40
0.0
 40
0.0
 40
0.3227939746
 40
0.6574145728
 40
1.0
 40
1.0
 40
1.0
 40
1.0
 10
5.5006599539
 20
4.5416586203
 30
0.0
 10
5.5016719903
 20
4.5420009589
 30
0.0
 10
5.5036790243
 20
4.5428669553
 30
0.0
 10
5.5065026121
 20
4.544614928
 30
0.0
 10
5.5082168812
 20
4.5460736716
 30
0.0
 10
5.5090285224
 20
4.5468654478
 30
0.0
  0
SPLINE
  5
417
100
AcDbEntity
  8
0
100
AcDbSpline
 62
7
  6
CONTINUOUS
 70
0
 71
3
 72
10
 73
6
 74
0
 42
0.0000001
 43
0.0000001
 44
0.0000000001
 40
0.0
 40
0.0
 40
0.0
 40
0.0
 40
0.312020267
 40
0.6450970824
 40
1.0
 40
1.0
 40
1.0
 40
1.0
 10
5.4909296493
 20
4.5402021579
 30
0.0
 10
5.4919564376
 20
4.540128299
 30
0.0
 10
5.4940943907
 20
4.5401506598
 30
0.0
 10
5.4973642424
 20
4.5406521468
 30
0.0
 10
5.499552738
 20
4.5412776559
 30
0.0
 10
5.5006599539
 20
4.5416586203
 30
0.0
  0
SPLINE
  5
418
100
AcDbEntity
  8
0
100
AcDbSpline
 62
7
  6
CONTINUOUS
 70
0
 71
3
 72
10
 73
6
 74
0
 42
0.0000001
 43
0.0000001
 44
0.0000000001
 40
0.0
 40
0.0
 40
0.0
 40
0.0
 40
0.3343174573
 40
0.6699417664
 40
1.0
 40
1.0
 40
1.0
 40
1.0
 10
5.4827769067
 20
4.5430336282
 30
0.0
 10
5.4835776391
 20
4.5424821643
 30
0.0
 10
5.4852846646
 20
4.5415173588
 30
0.0
 10
5.4880461129
 20
4.5405602591
 30
0.0
 10
5.4899716144
 20
4.5402614991
 30
0.0
 10
5.4909296493
 20
4.5402021579
 30
0.0
  0
SPLINE
  5
419
100
AcDbEntity
  8
0
100
AcDbSpline
 62
7
  6
CONTINUOUS
 70
0
 71
3
 72
10
 73
6
 74
0
 42
0.0000001
 43
0.0000001
 44
0.0000000001
 40
0.0
 40
0.0
 40
0.0
 40
0.0
 40
0.3494564341
 40
0.6825806084
 40
1.0
 40
1.0
 40
1.0
 40
1.0
 10
5.4903221952
 20
4.5426860903
 30
0.0
 10
5.4894434402
 20
4.5426014091
 30
0.0
 10
5.4877184116
 20
4.5425092247
 30
0.0
 10
5.4851910241
 20
4.5426265614
 30
0.0
 10
5.4835618191
 20
4.5428694884
 30
0.0
 10
5.4827769067
 20
4.5430336282
 30
0.0
  0
SPLINE
  5
41A
100
AcDbEntity
  8
0
100
AcDbSpline
 62
7
  6
CONTINUOUS
 70
0
 71
3
 72
10
 73
6
 74
0
 42
0.0000001
 43
0.0000001
 44
0.0000000001
 40
0.0
 40
0.0
 40
0.0
 40
0.0
 40
0.3632780985
 40
0.6956030028
 40
1.0
 40
1.0
 40
1.0
 40
1.0
 10
5.4187237094
 20
4.5713452414
 30
0.0
 10
5.4198836375
 20
4.5727463391
 30
0.0
 10
5.4222972796
 20
4.5752865237
 30
0.0
 10
5.426393999
 20
4.5782107646
 30
0.0
 10
5.4293083306
 20
4.5795661206
 30
0.0
 10
5.4307561788
 20
4.5800422053
 30
0.0
  0
SPLINE
  5
41B
100
AcDbEntity
  8
0
100
AcDbSpline
 62
7
  6
CONTINUOUS
 70
0
 71
3
 72
10
 73
6
 74
0
 42
0.0000001
 43
0.0000001
 44
0.0000000001
 40
0.0
 40
0.0
 40
0.0
 40
0.0
 40
0.3161436236
 40
0.6506493857
 40
1.0
 40
1.0
 40
1.0
 40
1.0
 10
5.4119942894
 20
4.557169329
 30
0.0
 10
5.4122819141
 20
4.5588142206
 30
0.0
 10
5.413208849
 20
4.5621458496
 30
0.0
 10
5.4154635373
 20
4.5669481746
 30
0.0
 10
5.4175543097
 20
4.5699178529
 30
0.0
 10
5.4187237094
 20
4.5713452414
 30
0.0
  0
SPLINE
  5
41C
100
AcDbEntity
  8
0
100
AcDbSpline
 62
7
  6
CONTINUOUS
 70
0
 71
3
 72
10
 73
6
 74
0
 42
0.0000001
 43
0.0000001
 44
0.0000000001
 40
0.0
 40
0.0
 40
0.0
 40
0.0
 40
0.318663856
 40
0.6518345558
 40
1.0
 40
1.0
 40
1.0
 40
1.0
 10
5.4114361085
 20
4.5479745079
 30
0.0
 10
5.4113647531
 20
4.5489526965
 30
0.0
 10
5.4113153741
 20
4.5509615403
 30
0.0
 10
5.4115029746
 20
4.5540368757
 30
0.0
 10
5.4118030227
 20
4.5561149486
 30
0.0
 10
5.4119942894
 20
4.557169329
 30
0.0
  0
SPLINE
  5
41D
100
AcDbEntity
  8
0
100
AcDbSpline
 62
7
  6
CONTINUOUS
 70
0
 71
3
 72
10
 73
6
 74
0
 42
0.0000001
 43
0.0000001
 44
0.0000000001
 40
0.0
 40
0.0
 40
0.0
 40
0.0
 40
0.3186753964
 40
0.6518338318
 40
1.0
 40
1.0
 40
1.0
 40
1.0
 10
5.4131407218
 20
4.5393442116
 30
0.0
 10
5.4128366607
 20
4.5402302367
 30
0.0
 10
5.4123033173
 20
4.5420738614
 30
0.0
 10
5.4117328421
 20
4.5449607446
 30
0.0
 10
5.4115115712
 20
4.5469538593
 30
0.0
 10
5.4114361085
 20
4.5479745079
 30
0.0
  0
SPLINE
  5
41E
100
AcDbEntity
  8
0
100
AcDbSpline
 62
7
  6
CONTINUOUS
 70
0
 71
3
 72
10
 73
6
 74
0
 42
0.0000001
 43
0.0000001
 44
0.0000000001
 40
0.0
 40
0.0
 40
0.0
 40
0.0
 40
0.3188256403
 40
0.6561596419
 40
1.0
 40
1.0
 40
1.0
 40
1.0
 10
5.4291911174
 20
4.520222386
 30
0.0
 10
5.4267627478
 20
4.5214358768
 30
0.0
 10
5.4221137593
 20
4.524677069
 30
0.0
 10
5.4165545894
 20
4.5312458352
 30
0.0
 10
5.4140649779
 20
4.5365662506
 30
0.0
 10
5.4131407218
 20
4.5393442116
 30
0.0
  0
SPLINE
  5
41F
100
AcDbEntity
  8
0
100
AcDbSpline
 62
7
  6
CONTINUOUS
 70
0
 71
3
 72
9
 73
5
 74
0
 42
0.0000001
 43
0.0000001
 44
0.0000000001
 40
0.0
 40
0.0
 40
0.0
 40
0.0
 40
0.1073334287
 40
1.0
 40
1.0
 40
1.0
 40
1.0
 10
5.4379451203
 20
4.5170806319
 30
0.0
 10
5.4376169912
 20
4.5171435185
 30
0.0
 10
5.4345696793
 20
4.5177820317
 30
0.0
 10
5.4316292087
 20
4.5189083053
 30
0.0
 10
5.4291911174
 20
4.520222386
 30
0.0
  0
SPLINE
  5
420
100
AcDbEntity
  8
0
100
AcDbSpline
 62
7
  6
CONTINUOUS
 70
0
 71
3
 72
10
 73
6
 74
0
 42
0.0000001
 43
0.0000001
 44
0.0000000001
 40
0.0
 40
0.0
 40
0.0
 40
0.0
 40
0.3361710163
 40
0.6722720122
 40
1.0
 40
1.0
 40
1.0
 40
1.0
 10
5.4663807714
 20
4.5279736473
 30
0.0
 10
5.4652368474
 20
4.5264630541
 30
0.0
 10
5.4626485809
 20
4.523655005
 30
0.0
 10
5.4580495566
 20
4.5203368086
 30
0.0
 10
5.4546148281
 20
4.5187778699
 30
0.0
 10
5.4528625216
 20
4.5181932418
 30
0.0
  0
SPLINE
  5
421
100
AcDbEntity
  8
0
100
AcDbSpline
 62
7
  6
CONTINUOUS
 70
0
 71
3
 72
10
 73
6
 74
0
 42
0.0000001
 43
0.0000001
 44
0.0000000001
 40
0.0
 40
0.0
 40
0.0
 40
0.0
 40
0.3607217527
 40
0.6936180814
 40
1.0
 40
1.0
 40
1.0
 40
1.0
 10
5.4739951232
 20
4.5456497855
 30
0.0
 10
5.4735099859
 20
4.5433696445
 30
0.0
 10
5.4723335102
 20
4.5390294929
 30
0.0
 10
5.4697975163
 20
4.5330627443
 30
0.0
 10
5.4675888703
 20
4.5295423804
 30
0.0
 10
5.4663807714
 20
4.5279736473
 30
0.0
  0
SPLINE
  5
422
100
AcDbEntity
  8
0
100
AcDbSpline
 62
7
  6
CONTINUOUS
 70
0
 71
3
 72
10
 73
6
 74
0
 42
0.0000001
 43
0.0000001
 44
0.0000000001
 40
0.0
 40
0.0
 40
0.0
 40
0.0
 40
0.3032116955
 40
0.6357343928
 40
1.0
 40
1.0
 40
1.0
 40
1.0
 10
5.4873120176
 20
4.5368557021
 30
0.0
 10
5.4857382018
 20
4.5372884345
 30
0.0
 10
5.4825446303
 20
4.5386004344
 30
0.0
 10
5.4780232355
 20
4.5415741112
 30
0.0
 10
5.4753097995
 20
4.5441949003
 30
0.0
 10
5.4739951232
 20
4.5456497855
 30
0.0
  0
SPLINE
  5
423
100
AcDbEntity
  8
0
100
AcDbSpline
 62
7
  6
CONTINUOUS
 70
0
 71
3
 72
10
 73
6
 74
0
 42
0.0000001
 43
0.0000001
 44
0.0000000001
 40
0.0
 40
0.0
 40
0.0
 40
0.0
 40
0.3506784861
 40
0.685992134
 40
1.0
 40
1.0
 40
1.0
 40
1.0
 10
5.5024227648
 20
4.5374208608
 30
0.0
 10
5.5007268008
 20
4.5368386715
 30
0.0
 10
5.4972955658
 20
4.5359858984
 30
0.0
 10
5.4921514877
 20
4.5358222553
 30
0.0
 10
5.488849625
 20
4.536393401
 30
0.0
 10
5.4873120176
 20
4.5368557021
 30
0.0
  0
SPLINE
  5
424
100
AcDbEntity
  8
0
100
AcDbSpline
 62
7
  6
CONTINUOUS
 70
0
 71
3
 72
10
 73
6
 74
0
 42
0.0000001
 43
0.0000001
 44
0.0000000001
 40
0.0
 40
0.0
 40
0.0
 40
0.0
 40
0.3340542208
 40
0.6727238402
 40
1.0
 40
1.0
 40
1.0
 40
1.0
 10
5.517728264
 20
4.5515609651
 30
0.0
 10
5.5168021107
 20
4.5493630345
 30
0.0
 10
5.5143014725
 20
4.5451725821
 30
0.0
 10
5.5089818647
 20
4.5402727349
 30
0.0
 10
5.5046476744
 20
4.5381349537
 30
0.0
 10
5.5024227648
 20
4.5374208608
 30
0.0
  0
SPLINE
  5
425
100
AcDbEntity
  8
0
100
AcDbSpline
 62
7
  6
CONTINUOUS
 70
0
 71
3
 72
10
 73
6
 74
0
 42
0.0000001
 43
0.0000001
 44
0.0000000001
 40
0.0
 40
0.0
 40
0.0
 40
0.0
 40
0.3496429764
 40
0.6864375586
 40
1.0
 40
1.0
 40
1.0
 40
1.0
 10
5.5183447848
 20
4.5737131896
 30
0.0
 10
5.5192110511
 20
4.5712194682
 30
0.0
 10
5.5203885276
 20
4.5661081935
 30
0.0
 10
5.5201283737
 20
4.558486131
 30
0.0
 10
5.5187245244
 20
4.553708622
 30
0.0
 10
5.517728264
 20
4.5515609651
 30
0.0
  0
SPLINE
  5
426
100
AcDbEntity
  8
0
100
AcDbSpline
 62
7
  6
CONTINUOUS
 70
0
 71
3
 72
10
 73
6
 74
0
 42
0.0000001
 43
0.0000001
 44
0.0000000001
 40
0.0
 40
0.0
 40
0.0
 40
0.0
 40
0.3097155307
 40
0.6458043771
 40
1.0
 40
1.0
 40
1.0
 40
1.0
 10
5.5039395638
 20
4.5913290055
 30
0.0
 10
5.5060802778
 20
4.5902396372
 30
0.0
 10
5.5102023561
 20
4.5872678829
 30
0.0
 10
5.5152064042
 20
4.581239575
 30
0.0
 10
5.517464199
 20
4.5763151302
 30
0.0
 10
5.5183447848
 20
4.5737131896
 30
0.0
  0
SPLINE
  5
427
100
AcDbEntity
  8
0
100
AcDbSpline
 62
7
  6
CONTINUOUS
 70
0
 71
3
 72
10
 73
6
 74
0
 42
0.0000001
 43
0.0000001
 44
0.0000000001
 40
0.0
 40
0.0
 40
0.0
 40
0.0
 40
0.3331805481
 40
0.6718194402
 40
1.0
 40
1.0
 40
1.0
 40
1.0
 10
5.4826092831
 20
4.5930271861
 30
0.0
 10
5.4849062195
 20
4.593857865
 30
0.0
 10
5.4898031228
 20
4.5948862908
 30
0.0
 10
5.4972045323
 20
4.5942882293
 30
0.0
 10
5.5018428035
 20
4.5925087615
 30
0.0
 10
5.5039395638
 20
4.5913290055
 30
0.0
  0
SPLINE
  5
428
100
AcDbEntity
  8
0
100
AcDbSpline
 62
7
  6
CONTINUOUS
 70
0
 71
3
 72
10
 73
6
 74
0
 42
0.0000001
 43
0.0000001
 44
0.0000000001
 40
0.0
 40
0.0
 40
0.0
 40
0.0
 40
0.3343446398
 40
0.6698018265
 40
1.0
 40
1.0
 40
1.0
 40
1.0
 10
5.4714648645
 20
4.5856375717
 30
0.0
 10
5.4724656621
 20
4.5867618769
 30
0.0
 10
5.4746677117
 20
4.588847911
 30
0.0
 10
5.478438358
 20
4.5913449308
 30
0.0
 10
5.4812001967
 20
4.5925535983
 30
0.0
 10
5.4826092831
 20
4.5930271861
 30
0.0
  0
SPLINE
  5
429
100
AcDbEntity
  8
0
100
AcDbSpline
 62
7
  6
CONTINUOUS
 70
0
 71
3
 72
10
 73
6
 74
0
 42
0.0000001
 43
0.0000001
 44
0.0000000001
 40
0.0
 40
0.0
 40
0.0
 40
0.0
 40
0.3564844338
 40
0.6897779881
 40
1.0
 40
1.0
 40
1.0
 40
1.0
 10
5.4635064678
 20
4.5717311639
 30
0.0
 10
5.4641783066
 20
4.5735228093
 30
0.0
 10
5.4656411496
 20
4.5769313374
 30
0.0
 10
5.4682599877
 20
4.5816302528
 30
0.0
 10
5.4703566597
 20
4.5843947501
 30
0.0
 10
5.4714648645
 20
4.5856375717
 30
0.0
  0
SPLINE
  5
42A
100
AcDbEntity
  8
0
100
AcDbSpline
 62
7
  6
CONTINUOUS
 70
0
 71
3
 72
10
 73
6
 74
0
 42
0.0000001
 43
0.0000001
 44
0.0000000001
 40
0.0
 40
0.0
 40
0.0
 40
0.0
 40
0.3052661919
 40
0.6379409706
 40
1.0
 40
1.0
 40
1.0
 40
1.0
 10
5.4473870857
 20
4.5807469039
 30
0.0
 10
5.449228931
 20
4.5802972341
 30
0.0
 10
5.452984477
 20
4.5789545594
 30
0.0
 10
5.4584265903
 20
4.5759118815
 30
0.0
 10
5.4618279655
 20
4.5732275423
 30
0.0
 10
5.4635064678
 20
4.5717311639
 30
0.0
  0
LINE
  5
42B
100
AcDbEntity
  8
0
100
AcDbLine
 62
7
  6
CONTINUOUS
 10
5.5319726794
 20
4.4876111639
 11
5.5319627072
 21
4.4928733405
  0
LINE
  5
42C
100
AcDbEntity
  8
0
100
AcDbLine
 62
7
  6
CONTINUOUS
 10
5.5327226263
 20
4.4824090665
 11
5.5319726794
 21
4.4876111639
  0
SPLINE
  5
42D
100
AcDbEntity
  8
0
100
AcDbSpline
 62
7
  6
CONTINUOUS
 70
0
 71
3
 72
10
 73
6
 74
0
 42
0.0000001
 43
0.0000001
 44
0.0000000001
 40
0.0
 40
0.0
 40
0.0
 40
0.0
 40
0.3459552643
 40
0.6791303648
 40
1.0
 40
1.0
 40
1.0
 40
1.0
 10
5.5351331373
 20
4.4746749782
 30
0.0
 10
5.5347645564
 20
4.4755351219
 30
0.0
 10
5.5340940895
 20
4.4772473004
 30
0.0
 10
5.5332913262
 20
4.4798325362
 30
0.0
 10
5.5328869712
 20
4.4815568352
 30
0.0
 10
5.5327226263
 20
4.4824090665
 30
0.0
  0
SPLINE
  5
42E
100
AcDbEntity
  8
0
100
AcDbSpline
 62
7
  6
CONTINUOUS
 70
0
 71
3
 72
10
 73
6
 74
0
 42
0.0000001
 43
0.0000001
 44
0.0000000001
 40
0.0
 40
0.0
 40
0.0
 40
0.0
 40
0.3461702524
 40
0.679462796
 40
1.0
 40
1.0
 40
1.0
 40
1.0
 10
5.5394854602
 20
4.4670182624
 30
0.0
 10
5.5388993722
 20
4.4678504791
 30
0.0
 10
5.5377973059
 20
4.4695187447
 30
0.0
 10
5.5363362517
 20
4.4720728718
 30
0.0
 10
5.5355057622
 20
4.4738092551
 30
0.0
 10
5.5351331373
 20
4.4746749782
 30
0.0
  0
SPLINE
  5
42F
100
AcDbEntity
  8
0
100
AcDbSpline
 62
7
  6
CONTINUOUS
 70
0
 71
3
 72
10
 73
6
 74
0
 42
0.0000001
 43
0.0000001
 44
0.0000000001
 40
0.0
 40
0.0
 40
0.0
 40
0.0
 40
0.3611439257
 40
0.6937979074
 40
1.0
 40
1.0
 40
1.0
 40
1.0
 10
5.5311610263
 20
4.4742018962
 30
0.0
 10
5.5319255527
 20
4.4731027465
 30
0.0
 10
5.5335455664
 20
4.4710858609
 30
0.0
 10
5.5363738447
 20
4.4686594805
 30
0.0
 10
5.5384429703
 20
4.4674675942
 30
0.0
 10
5.5394854602
 20
4.4670182624
 30
0.0
  0
SPLINE
  5
430
100
AcDbEntity
  8
0
100
AcDbSpline
 62
7
  6
CONTINUOUS
 70
0
 71
3
 72
10
 73
6
 74
0
 42
0.0000001
 43
0.0000001
 44
0.0000000001
 40
0.0
 40
0.0
 40
0.0
 40
0.0
 40
0.3565781542
 40
0.6894298975
 40
1.0
 40
1.0
 40
1.0
 40
1.0
 10
5.5263940037
 20
4.4859173465
 30
0.0
 10
5.5266863002
 20
4.4844327527
 30
0.0
 10
5.5274102493
 20
4.4815880976
 30
0.0
 10
5.5290220213
 20
4.4776494974
 30
0.0
 10
5.5304033937
 20
4.4752802107
 30
0.0
 10
5.5311610263
 20
4.4742018962
 30
0.0
  0
SPLINE
  5
431
100
AcDbEntity
  8
0
100
AcDbSpline
 62
7
  6
CONTINUOUS
 70
0
 71
3
 72
10
 73
6
 74
0
 42
0.0000001
 43
0.0000001
 44
0.0000000001
 40
0.0
 40
0.0
 40
0.0
 40
0.0
 40
0.3432155569
 40
0.6764736751
 40
1.0
 40
1.0
 40
1.0
 40
1.0
 10
5.5257144937
 20
4.4921071847
 30
0.0
 10
5.5257335872
 20
4.4913942706
 30
0.0
 10
5.5258076133
 20
4.4899896954
 30
0.0
 10
5.5260363747
 20
4.4879234102
 30
0.0
 10
5.5262623395
 20
4.4865765843
 30
0.0
 10
5.5263940037
 20
4.4859173465
 30
0.0
  0
SPLINE
  5
432
100
AcDbEntity
  8
0
100
AcDbSpline
 62
7
  6
CONTINUOUS
 70
0
 71
3
 72
10
 73
6
 74
0
 42
0.0000001
 43
0.0000001
 44
0.0000000001
 40
0.0
 40
0.0
 40
0.0
 40
0.0
 40
0.3246874478
 40
0.6843235793
 40
1.0
 40
1.0
 40
1.0
 40
1.0
 10
5.4642065069
 20
4.491033049
 30
0.0
 10
5.4641320758
 20
4.4915076326
 30
0.0
 10
5.4637591857
 20
4.4924788635
 30
0.0
 10
5.4627673029
 20
4.4936156261
 30
0.0
 10
5.4618907318
 20
4.4941274062
 30
0.0
 10
5.4614611245
 20
4.4943142537
 30
0.0
  0
SPLINE
  5
433
100
AcDbEntity
  8
0
100
AcDbSpline
 62
7
  6
CONTINUOUS
 70
0
 71
3
 72
10
 73
6
 74
0
 42
0.0000001
 43
0.0000001
 44
0.0000000001
 40
0.0
 40
0.0
 40
0.0
 40
0.0
 40
0.3527365776
 40
0.6907271703
 40
1.0
 40
1.0
 40
1.0
 40
1.0
 10
5.4630421404
 20
4.4872866586
 30
0.0
 10
5.4633697194
 20
4.4876347083
 30
0.0
 10
5.463927125
 20
4.4884082775
 30
0.0
 10
5.4643253593
 20
4.4897273099
 30
0.0
 10
5.4642985215
 20
4.4906242085
 30
0.0
 10
5.4642065069
 20
4.491033049
 30
0.0
  0
LINE
  5
434
100
AcDbEntity
  8
0
100
AcDbLine
 62
7
  6
CONTINUOUS
 10
5.4620308637
 20
4.4864145587
 11
5.4630421404
 21
4.4872866586
  0
SPLINE
  5
435
100
AcDbEntity
  8
0
100
AcDbSpline
 62
7
  6
CONTINUOUS
 70
0
 71
3
 72
10
 73
6
 74
0
 42
0.0000001
 43
0.0000001
 44
0.0000000001
 40
0.0
 40
0.0
 40
0.0
 40
0.0
 40
0.3135345178
 40
0.6471502038
 40
1.0
 40
1.0
 40
1.0
 40
1.0
 10
5.4855497068
 20
4.4560549001
 30
0.0
 10
5.4840225343
 20
4.4552735558
 30
0.0
 10
5.4807674732
 20
4.4538533358
 30
0.0
 10
5.4755249936
 20
4.4522625499
 30
0.0
 10
5.4718609239
 20
4.4514233577
 30
0.0
 10
5.4699647622
 20
4.4510605867
 30
0.0
  0
SPLINE
  5
436
100
AcDbEntity
  8
0
100
AcDbSpline
 62
7
  6
CONTINUOUS
 70
0
 71
3
 72
10
 73
6
 74
0
 42
0.0000001
 43
0.0000001
 44
0.0000000001
 40
0.0
 40
0.0
 40
0.0
 40
0.0
 40
0.3031536041
 40
0.6361511311
 40
1.0
 40
1.0
 40
1.0
 40
1.0
 10
5.4937287934
 20
4.4635196298
 30
0.0
 10
5.4932034145
 20
4.4625142356
 30
0.0
 10
5.4918097558
 20
4.4605486502
 30
0.0
 10
5.4889924831
 20
4.4580513693
 30
0.0
 10
5.4867582971
 20
4.4566818109
 30
0.0
 10
5.4855497068
 20
4.4560549001
 30
0.0
  0
SPLINE
  5
437
100
AcDbEntity
  8
0
100
AcDbSpline
 62
7
  6
CONTINUOUS
 70
0
 71
3
 72
10
 73
6
 74
0
 42
0.0000001
 43
0.0000001
 44
0.0000000001
 40
0.0
 40
0.0
 40
0.0
 40
0.0
 40
0.3408392775
 40
0.6772737412
 40
1.0
 40
1.0
 40
1.0
 40
1.0
 10
5.4859815688
 20
4.4495910122
 30
0.0
 10
5.487336622
 20
4.4508359995
 30
0.0
 10
5.4897877984
 20
4.4535945349
 30
0.0
 10
5.4924176028
 20
4.4583553282
 30
0.0
 10
5.4934364744
 20
4.4618019635
 30
0.0
 10
5.4937287934
 20
4.4635196298
 30
0.0
  0
SPLINE
  5
438
100
AcDbEntity
  8
0
100
AcDbSpline
 62
7
  6
CONTINUOUS
 70
0
 71
3
 72
10
 73
6
 74
0
 42
0.0000001
 43
0.0000001
 44
0.0000000001
 40
0.0
 40
0.0
 40
0.0
 40
0.0
 40
0.3480289943
 40
0.6831398125
 40
1.0
 40
1.0
 40
1.0
 40
1.0
 10
5.4705428181
 20
4.4419156533
 30
0.0
 10
5.472529522
 20
4.4423024786
 30
0.0
 10
5.4763800293
 20
4.4433835493
 30
0.0
 10
5.4816041389
 20
4.4460095855
 30
0.0
 10
5.4846436953
 20
4.4483238079
 30
0.0
 10
5.4859815688
 20
4.4495910122
 30
0.0
  0
SPLINE
  5
439
100
AcDbEntity
  8
0
100
AcDbSpline
 62
7
  6
CONTINUOUS
 70
0
 71
3
 72
8
 73
4
 74
0
 42
0.0000001
 43
0.0000001
 44
0.0000000001
 40
0.0
 40
0.0
 40
0.0
 40
0.0
 40
1.0
 40
1.0
 40
1.0
 40
1.0
 10
5.4646353831
 20
4.4412537426
 30
0.0
 10
5.4666186532
 20
4.4413048051
 30
0.0
 10
5.4685981893
 20
4.4415377375
 30
0.0
 10
5.4705428181
 20
4.4419156533
 30
0.0
  0
SPLINE
  5
43A
100
AcDbEntity
  8
0
100
AcDbSpline
 62
7
  6
CONTINUOUS
 70
0
 71
3
 72
10
 73
6
 74
0
 42
0.0000001
 43
0.0000001
 44
0.0000000001
 40
0.0
 40
0.0
 40
0.0
 40
0.0
 40
0.3412129288
 40
0.6764494401
 40
1.0
 40
1.0
 40
1.0
 40
1.0
 10
5.4927851598
 20
4.4749265397
 30
0.0
 10
5.4925053647
 20
4.4763713401
 30
0.0
 10
5.491719959
 20
4.4791984985
 30
0.0
 10
5.4898534169
 20
4.483108284
 30
0.0
 10
5.4882018147
 20
4.4854417067
 30
0.0
 10
5.4872930267
 20
4.4865006821
 30
0.0
  0
SPLINE
  5
43B
100
AcDbEntity
  8
0
100
AcDbSpline
 62
7
  6
CONTINUOUS
 70
0
 71
3
 72
10
 73
6
 74
0
 42
0.0000001
 43
0.0000001
 44
0.0000000001
 40
0.0
 40
0.0
 40
0.0
 40
0.0
 40
0.293957292
 40
0.6299613276
 40
1.0
 40
1.0
 40
1.0
 40
1.0
 10
5.4891851802
 20
4.4617309282
 30
0.0
 10
5.4902504215
 20
4.4626364519
 30
0.0
 10
5.4920795557
 20
4.465123324
 30
0.0
 10
5.4934156605
 20
4.4697865396
 30
0.0
 10
5.4931349604
 20
4.4732016861
 30
0.0
 10
5.4927851598
 20
4.4749265397
 30
0.0
  0
SPLINE
  5
43C
100
AcDbEntity
  8
0
100
AcDbSpline
 62
7
  6
CONTINUOUS
 70
0
 71
3
 72
10
 73
6
 74
0
 42
0.0000001
 43
0.0000001
 44
0.0000000001
 40
0.0
 40
0.0
 40
0.0
 40
0.0
 40
0.3662606923
 40
0.7003221169
 40
1.0
 40
1.0
 40
1.0
 40
1.0
 10
5.4704005013
 20
4.4542313832
 30
0.0
 10
5.4728505857
 20
4.4546971048
 30
0.0
 10
5.4774819249
 20
4.4558431246
 30
0.0
 10
5.4839698608
 20
4.4580114956
 30
0.0
 10
5.4876405385
 20
4.4603974983
 30
0.0
 10
5.4891851802
 20
4.4617309282
 30
0.0
  0
SPLINE
  5
43D
100
AcDbEntity
  8
0
100
AcDbSpline
 62
7
  6
CONTINUOUS
 70
0
 71
3
 72
9
 73
5
 74
0
 42
0.0000001
 43
0.0000001
 44
0.0000000001
 40
0.0
 40
0.0
 40
0.0
 40
0.0
 40
0.5932802572
 40
1.0
 40
1.0
 40
1.0
 40
1.0
 10
5.4655515807
 20
4.4832625296
 30
0.0
 10
5.4650730714
 20
4.4826117627
 30
0.0
 10
5.4640883112
 20
4.4816409285
 30
0.0
 10
5.4629363682
 20
4.4809018425
 30
0.0
 10
5.4624478384
 20
4.4806384278
 30
0.0
  0
SPLINE
  5
43E
100
AcDbEntity
  8
0
100
AcDbSpline
 62
7
  6
CONTINUOUS
 70
0
 71
3
 72
10
 73
6
 74
0
 42
0.0000001
 43
0.0000001
 44
0.0000000001
 40
0.0
 40
0.0
 40
0.0
 40
0.0
 40
0.3530467205
 40
0.6905212516
 40
1.0
 40
1.0
 40
1.0
 40
1.0
 10
5.4670430082
 20
4.4903816267
 30
0.0
 10
5.4672181988
 20
4.4895186283
 30
0.0
 10
5.4673618365
 20
4.4877759532
 30
0.0
 10
5.4668237964
 20
4.4853066776
 30
0.0
 10
5.4660337951
 20
4.4838653106
 30
0.0
 10
5.4655515807
 20
4.4832625296
 30
0.0
  0
SPLINE
  5
43F
100
AcDbEntity
  8
0
100
AcDbSpline
 62
7
  6
CONTINUOUS
 70
0
 71
3
 72
10
 73
6
 74
0
 42
0.0000001
 43
0.0000001
 44
0.0000000001
 40
0.0
 40
0.0
 40
0.0
 40
0.0
 40
0.3285151542
 40
0.6672031546
 40
1.0
 40
1.0
 40
1.0
 40
1.0
 10
5.4628424351
 20
4.4964873446
 30
0.0
 10
5.4635610555
 20
4.4960633823
 30
0.0
 10
5.4649008778
 20
4.4949808369
 30
0.0
 10
5.4663601368
 20
4.492861754
 30
0.0
 10
5.4668968118
 20
4.4912141235
 30
0.0
 10
5.4670430082
 20
4.4903816267
 30
0.0
  0
LINE
  5
440
100
AcDbEntity
  8
0
100
AcDbLine
 62
7
  6
CONTINUOUS
 10
5.4612475833
 20
4.4972645473
 11
5.4628424351
 21
4.4964873446
  0
SPLINE
  5
441
100
AcDbEntity
  8
0
100
AcDbSpline
 62
7
  6
CONTINUOUS
 70
0
 71
3
 72
10
 73
6
 74
0
 42
0.0000001
 43
0.0000001
 44
0.0000000001
 40
0.0
 40
0.0
 40
0.0
 40
0.0
 40
0.462971621
 40
0.9222862432
 40
1.0
 40
1.0
 40
1.0
 40
1.0
 10
5.4718749199
 20
4.4358530149
 30
0.0
 10
5.4708144895
 20
4.4356465385
 30
0.0
 10
5.4686783514
 20
4.4353460608
 30
0.0
 10
5.4663417663
 20
4.4352750314
 30
0.0
 10
5.4650883953
 20
4.435316842
 30
0.0
 10
5.4649070888
 20
4.4353245782
 30
0.0
  0
SPLINE
  5
442
100
AcDbEntity
  8
0
100
AcDbSpline
 62
7
  6
CONTINUOUS
 70
0
 71
3
 72
10
 73
6
 74
0
 42
0.0000001
 43
0.0000001
 44
0.0000000001
 40
0.0
 40
0.0
 40
0.0
 40
0.0
 40
0.3344627932
 40
0.6727803424
 40
1.0
 40
1.0
 40
1.0
 40
1.0
 10
5.4917608986
 20
4.4492873326
 30
0.0
 10
5.4902849997
 20
4.4469736869
 30
0.0
 10
5.4866707008
 20
4.4426941479
 30
0.0
 10
5.4797838379
 20
4.4380567898
 30
0.0
 10
5.4745183572
 20
4.4363229209
 30
0.0
 10
5.4718749199
 20
4.4358530149
 30
0.0
  0
SPLINE
  5
443
100
AcDbEntity
  8
0
100
AcDbSpline
 62
7
  6
CONTINUOUS
 70
0
 71
3
 72
10
 73
6
 74
0
 42
0.0000001
 43
0.0000001
 44
0.0000000001
 40
0.0
 40
0.0
 40
0.0
 40
0.0
 40
0.3404890057
 40
0.6783275206
 40
1.0
 40
1.0
 40
1.0
 40
1.0
 10
5.4963129519
 20
4.4734313987
 30
0.0
 10
5.496887604
 20
4.470633979
 30
0.0
 10
5.4973478851
 20
4.464885997
 30
0.0
 10
5.4957477933
 20
4.4565576354
 30
0.0
 10
5.4932829874
 20
4.4515150008
 30
0.0
 10
5.4917608986
 20
4.4492873326
 30
0.0
  0
SPLINE
  5
444
100
AcDbEntity
  8
0
100
AcDbSpline
 62
7
  6
CONTINUOUS
 70
0
 71
3
 72
10
 73
6
 74
0
 42
0.0000001
 43
0.0000001
 44
0.0000000001
 40
0.0
 40
0.0
 40
0.0
 40
0.0
 40
0.3375592515
 40
0.6715190683
 40
1.0
 40
1.0
 40
1.0
 40
1.0
 10
5.4932929705
 20
4.4820281788
 30
0.0
 10
5.4937679163
 20
4.4811159951
 30
0.0
 10
5.4946295454
 20
4.4792563085
 30
0.0
 10
5.4956386638
 20
4.4763771468
 30
0.0
 10
5.4961224564
 20
4.474413865
 30
0.0
 10
5.4963129519
 20
4.4734313987
 30
0.0
  0
SPLINE
  5
445
100
AcDbEntity
  8
0
100
AcDbSpline
 62
7
  6
CONTINUOUS
 70
0
 71
3
 72
10
 73
6
 74
0
 42
0.0000001
 43
0.0000001
 44
0.0000000001
 40
0.0
 40
0.0
 40
0.0
 40
0.0
 40
0.3461988062
 40
0.6795865008
 40
1.0
 40
1.0
 40
1.0
 40
1.0
 10
5.4875309199
 20
4.4906866224
 30
0.0
 10
5.4882822283
 20
4.4897485461
 30
0.0
 10
5.4897072654
 20
4.4878666388
 30
0.0
 10
5.4916469159
 20
4.4849849204
 30
0.0
 10
5.4927767017
 20
4.4830134514
 30
0.0
 10
5.4932929705
 20
4.4820281788
 30
0.0
  0
LINE
  5
446
100
AcDbEntity
  8
0
100
AcDbLine
 62
7
  6
CONTINUOUS
 10
5.5236582783
 20
4.4864378919
 11
5.5231814966
 21
4.4896566228
  0
SPLINE
  5
447
100
AcDbEntity
  8
0
100
AcDbSpline
 62
7
  6
CONTINUOUS
 70
0
 71
3
 72
10
 73
6
 74
0
 42
0.0000001
 43
0.0000001
 44
0.0000000001
 40
0.0
 40
0.0
 40
0.0
 40
0.0
 40
0.3050902947
 40
0.6376014243
 40
1.0
 40
1.0
 40
1.0
 40
1.0
 10
5.5308436224
 20
4.470661992
 30
0.0
 10
5.5296859302
 20
4.4720142314
 30
0.0
 10
5.5275688302
 20
4.4751040127
 30
0.0
 10
5.5251126756
 20
4.4804244399
 30
0.0
 10
5.524069464
 20
4.4843637667
 30
0.0
 10
5.5236582783
 20
4.4864378919
 30
0.0
  0
SPLINE
  5
448
100
AcDbEntity
  8
0
100
AcDbSpline
 62
7
  6
CONTINUOUS
 70
0
 71
3
 72
10
 73
6
 74
0
 42
0.0000001
 43
0.0000001
 44
0.0000000001
 40
0.0
 40
0.0
 40
0.0
 40
0.0
 40
0.3628670131
 40
0.6955116007
 40
1.0
 40
1.0
 40
1.0
 40
1.0
 10
5.5452652875
 20
4.4609192754
 30
0.0
 10
5.5432789494
 20
4.4616769079
 30
0.0
 10
5.5395530383
 20
4.4633728342
 30
0.0
 10
5.5346766507
 20
4.4666659573
 30
0.0
 10
5.5319786392
 20
4.4692857514
 30
0.0
 10
5.5308436224
 20
4.470661992
 30
0.0
  0
SPLINE
  5
449
100
AcDbEntity
  8
0
100
AcDbSpline
 62
7
  6
CONTINUOUS
 70
0
 71
3
 72
10
 73
6
 74
0
 42
0.0000001
 43
0.0000001
 44
0.0000000001
 40
0.0
 40
0.0
 40
0.0
 40
0.0
 40
0.3500057263
 40
0.6831069128
 40
1.0
 40
1.0
 40
1.0
 40
1.0
 10
5.5424039327
 20
4.4698465618
 30
0.0
 10
5.5427734616
 20
4.4689719671
 30
0.0
 10
5.543569646
 20
4.4672948007
 30
0.0
 10
5.5449797319
 20
4.4649723694
 30
0.0
 10
5.5460483529
 20
4.4635645698
 30
0.0
 10
5.5466079994
 20
4.4629120644
 30
0.0
  0
SPLINE
  5
44A
100
AcDbEntity
  8
0
100
AcDbSpline
 62
7
  6
CONTINUOUS
 70
0
 71
3
 72
10
 73
6
 74
0
 42
0.0000001
 43
0.0000001
 44
0.0000000001
 40
0.0
 40
0.0
 40
0.0
 40
0.0
 40
0.3465592271
 40
0.6799461123
 40
1.0
 40
1.0
 40
1.0
 40
1.0
 10
5.5396614511
 20
4.4792455044
 30
0.0
 10
5.5398762301
 20
4.4781332768
 30
0.0
 10
5.5403603063
 20
4.4759626949
 30
0.0
 10
5.541258969
 20
4.4728176939
 30
0.0
 10
5.5420016236
 20
4.4708122505
 30
0.0
 10
5.5424039327
 20
4.4698465618
 30
0.0
  0
SPLINE
  5
44B
100
AcDbEntity
  8
0
100
AcDbSpline
 62
7
  6
CONTINUOUS
 70
0
 71
3
 72
10
 73
6
 74
0
 42
0.0000001
 43
0.0000001
 44
0.0000000001
 40
0.0
 40
0.0
 40
0.0
 40
0.0
 40
0.3173056733
 40
0.6507655126
 40
1.0
 40
1.0
 40
1.0
 40
1.0
 10
5.5389383711
 20
4.4883621739
 30
0.0
 10
5.5388729423
 20
4.4873946163
 30
0.0
 10
5.5388458685
 20
4.4854013305
 30
0.0
 10
5.5391185302
 20
4.4823537428
 30
0.0
 10
5.5394530982
 20
4.480292321
 30
0.0
 10
5.5396614511
 20
4.4792455044
 30
0.0
  0
SPLINE
  5
44C
100
AcDbEntity
  8
0
100
AcDbSpline
 62
7
  6
CONTINUOUS
 70
0
 71
3
 72
10
 73
6
 74
0
 42
0.0000001
 43
0.0000001
 44
0.0000000001
 40
0.0
 40
0.0
 40
0.0
 40
0.0
 40
0.3159365044
 40
0.6490850723
 40
1.0
 40
1.0
 40
1.0
 40
1.0
 10
5.5407156498
 20
4.4962350665
 30
0.0
 10
5.5403845192
 20
4.4954485598
 30
0.0
 10
5.5398083703
 20
4.4937873585
 30
0.0
 10
5.5392174591
 20
4.4911467753
 30
0.0
 10
5.5390046103
 20
4.489307706
 30
0.0
 10
5.5389383711
 20
4.4883621739
 30
0.0
  0
SPLINE
  5
44D
100
AcDbEntity
  8
0
100
AcDbSpline
 62
7
  6
CONTINUOUS
 70
0
 71
3
 72
10
 73
6
 74
0
 42
0.0000001
 43
0.0000001
 44
0.0000000001
 40
0.0
 40
0.0
 40
0.0
 40
0.0
 40
0.3117723208
 40
0.6447301216
 40
1.0
 40
1.0
 40
1.0
 40
1.0
 10
5.4781783801
 20
4.4950355981
 30
0.0
 10
5.4793131279
 20
4.4946623534
 30
0.0
 10
5.4817240521
 20
4.4940785969
 30
0.0
 10
5.4855452944
 20
4.4936849592
 30
0.0
 10
5.4881889978
 20
4.4937560989
 30
0.0
 10
5.4895459203
 20
4.4938641396
 30
0.0
  0
SPLINE
  5
44E
100
AcDbEntity
  8
0
100
AcDbSpline
 62
7
  6
CONTINUOUS
 70
0
 71
3
 72
10
 73
6
 74
0
 42
0.0000001
 43
0.0000001
 44
0.0000000001
 40
0.0
 40
0.0
 40
0.0
 40
0.0
 40
0.3516502816
 40
0.6871537017
 40
1.0
 40
1.0
 40
1.0
 40
1.0
 10
5.4872930267
 20
4.4865006821
 30
0.0
 10
5.4864126061
 20
4.4875413743
 30
0.0
 10
5.4844984137
 20
4.4894272354
 30
0.0
 10
5.481179593
 20
4.4914842012
 30
0.0
 10
5.478786662
 20
4.4923336336
 30
0.0
 10
5.4776013207
 20
4.4925899136
 30
0.0
  0
SPLINE
  5
44F
100
AcDbEntity
  8
0
100
AcDbSpline
 62
7
  6
CONTINUOUS
 70
0
 71
3
 72
10
 73
6
 74
0
 42
0.0000001
 43
0.0000001
 44
0.0000000001
 40
0.0
 40
0.0
 40
0.0
 40
0.0
 40
0.3539680545
 40
0.6878036899
 40
1.0
 40
1.0
 40
1.0
 40
1.0
 10
5.3907544281
 20
4.035653866
 30
0.0
 10
5.3892230487
 20
4.0385292086
 30
0.0
 10
5.3860723877
 20
4.0440231115
 30
0.0
 10
5.3810559866
 20
4.0517509572
 30
0.0
 10
5.3772757775
 20
4.0563611078
 30
0.0
 10
5.3753291934
 20
4.0584745203
 30
0.0
  0
SPLINE
  5
450
100
AcDbEntity
  8
0
100
AcDbSpline
 62
7
  6
CONTINUOUS
 70
0
 71
3
 72
10
 73
6
 74
0
 42
0.0000001
 43
0.0000001
 44
0.0000000001
 40
0.0
 40
0.0
 40
0.0
 40
0.0
 40
0.346393836
 40
0.6799089431
 40
1.0
 40
1.0
 40
1.0
 40
1.0
 10
5.4072453545
 20
3.9988551725
 30
0.0
 10
5.4055737847
 20
4.0032036156
 30
0.0
 10
5.4021493501
 20
4.0116841002
 30
0.0
 10
5.3967181612
 20
4.023991332
 30
0.0
 10
5.392777845
 20
4.0318541221
 30
0.0
 10
5.3907544281
 20
4.035653866
 30
0.0
  0
SPLINE
  5
451
100
AcDbEntity
  8
0
100
AcDbSpline
 62
7
  6
CONTINUOUS
 70
0
 71
3
 72
10
 73
6
 74
0
 42
0.0000001
 43
0.0000001
 44
0.0000000001
 40
0.0
 40
0.0
 40
0.0
 40
0.0
 40
0.319910691
 40
0.6533106803
 40
1.0
 40
1.0
 40
1.0
 40
1.0
 10
5.3885009052
 20
4.0292159618
 30
0.0
 10
5.3907324226
 20
4.0261310306
 30
0.0
 10
5.3951231862
 20
4.0197088179
 30
0.0
 10
5.4013359236
 20
4.0095534497
 30
0.0
 10
5.4052953308
 20
4.0024914276
 30
0.0
 10
5.4072453545
 20
3.9988551725
 30
0.0
  0
SPLINE
  5
452
100
AcDbEntity
  8
0
100
AcDbSpline
 62
7
  6
CONTINUOUS
 70
0
 71
3
 72
10
 73
6
 74
0
 42
0.0000001
 43
0.0000001
 44
0.0000000001
 40
0.0
 40
0.0
 40
0.0
 40
0.0
 40
0.3140686342
 40
0.6474175606
 40
1.0
 40
1.0
 40
1.0
 40
1.0
 10
5.3699654482
 20
4.0498048357
 30
0.0
 10
5.3721802899
 20
4.0479229911
 30
0.0
 10
5.3765542419
 20
4.0438126972
 30
0.0
 10
5.382701326
 20
4.0368840178
 30
0.0
 10
5.3865874937
 20
4.0318587626
 30
0.0
 10
5.3885009052
 20
4.0292159618
 30
0.0
  0
SPLINE
  5
453
100
AcDbEntity
  8
0
100
AcDbSpline
 62
7
  6
CONTINUOUS
 70
0
 71
3
 72
10
 73
6
 74
0
 42
0.0000001
 43
0.0000001
 44
0.0000000001
 40
0.0
 40
0.0
 40
0.0
 40
0.0
 40
0.3460410644
 40
0.6792527625
 40
1.0
 40
1.0
 40
1.0
 40
1.0
 10
5.4521062202
 20
4.0095843184
 30
0.0
 10
5.4519935405
 20
4.0091853648
 30
0.0
 10
5.4517399442
 20
4.0084107748
 30
0.0
 10
5.4512624404
 20
4.007310316
 30
0.0
 10
5.4508833324
 20
4.0066229655
 30
0.0
 10
5.4506803363
 20
4.0062967029
 30
0.0
  0
SPLINE
  5
454
100
AcDbEntity
  8
0
100
AcDbSpline
 62
7
  6
CONTINUOUS
 70
0
 71
3
 72
10
 73
6
 74
0
 42
0.0000001
 43
0.0000001
 44
0.0000000001
 40
0.0
 40
0.0
 40
0.0
 40
0.0
 40
0.3590625221
 40
0.6924690363
 40
1.0
 40
1.0
 40
1.0
 40
1.0
 10
5.3954031981
 20
4.0103354586
 30
0.0
 10
5.3921956702
 20
4.0150163078
 30
0.0
 10
5.3856816627
 20
4.0238231487
 30
0.0
 10
5.3753216742
 20
4.0357859433
 30
0.0
 10
5.3678174482
 20
4.0426370121
 30
0.0
 10
5.3640172261
 20
4.045666535
 30
0.0
  0
SPLINE
  5
455
100
AcDbEntity
  8
0
100
AcDbSpline
 62
7
  6
CONTINUOUS
 70
0
 71
3
 72
10
 73
6
 74
0
 42
0.0000001
 43
0.0000001
 44
0.0000000001
 40
0.0
 40
0.0
 40
0.0
 40
0.0
 40
0.3498130174
 40
0.6834830462
 40
1.0
 40
1.0
 40
1.0
 40
1.0
 10
5.4301016954
 20
3.9494450656
 30
0.0
 10
5.4264706204
 20
3.9567722688
 30
0.0
 10
5.4191238164
 20
3.9709637132
 30
0.0
 10
5.4077325623
 20
3.9913857507
 30
0.0
 10
5.3995604966
 20
4.0042145822
 30
0.0
 10
5.3954031981
 20
4.0103354586
 30
0.0
  0
SPLINE
  5
456
100
AcDbEntity
  8
0
100
AcDbSpline
 62
7
  6
CONTINUOUS
 70
0
 71
3
 72
10
 73
6
 74
0
 42
0.0000001
 43
0.0000001
 44
0.0000000001
 40
0.0
 40
0.0
 40
0.0
 40
0.0
 40
0.3038322578
 40
0.6381093593
 40
1.0
 40
1.0
 40
1.0
 40
1.0
 10
5.4489315444
 20
4.0137201831
 30
0.0
 10
5.4486393237
 20
4.0148934642
 30
0.0
 10
5.4477028836
 20
4.0172921113
 30
0.0
 10
5.445360956
 20
4.0205319188
 30
0.0
 10
5.4435863039
 20
4.0226600808
 30
0.0
 10
5.4426056565
 20
4.0237147973
 30
0.0
  0
SPLINE
  5
457
100
AcDbEntity
  8
0
100
AcDbSpline
 62
7
  6
CONTINUOUS
 70
0
 71
3
 72
10
 73
6
 74
0
 42
0.0000001
 43
0.0000001
 44
0.0000000001
 40
0.0
 40
0.0
 40
0.0
 40
0.0
 40
0.3678329184
 40
0.7014277117
 40
1.0
 40
1.0
 40
1.0
 40
1.0
 10
5.4463736043
 20
4.0045307948
 30
0.0
 10
5.4470126325
 20
4.0055384768
 30
0.0
 10
5.4480777655
 20
4.0075591745
 30
0.0
 10
5.4491007377
 20
4.0106691094
 30
0.0
 10
5.449101324
 20
4.0127666335
 30
0.0
 10
5.4489315444
 20
4.0137201831
 30
0.0
  0
LINE
  5
458
100
AcDbEntity
  8
0
100
AcDbLine
 62
7
  6
CONTINUOUS
 10
5.4128746823
 20
3.9940157196
 11
5.4239858019
 21
3.9683442909
  0
SPLINE
  5
459
100
AcDbEntity
  8
0
100
AcDbSpline
 62
7
  6
CONTINUOUS
 70
0
 71
3
 72
11
 73
7
 74
0
 42
0.0000001
 43
0.0000001
 44
0.0000000001
 40
0.0
 40
0.0
 40
0.0
 40
0.0
 40
0.2197260463
 40
0.4598914014
 40
0.7195682998
 40
1.0
 40
1.0
 40
1.0
 40
1.0
 10
5.3750167894
 20
4.063445669
 30
0.0
 10
5.3788444087
 20
4.0590719304
 30
0.0
 10
5.3861394311
 20
4.0492701385
 30
0.0
 10
5.3953026504
 20
4.0325432571
 30
0.0
 10
5.4037146607
 20
4.0136922925
 30
0.0
 10
5.4097781828
 20
4.0007563381
 30
0.0
 10
5.4128746823
 20
3.9940157196
 30
0.0
  0
LINE
  5
45A
100
AcDbEntity
  8
0
100
AcDbLine
 62
7
  6
CONTINUOUS
 10
5.3968644474
 20
3.9186498502
 11
5.4008890985
 21
3.9220399513
  0
LINE
  5
45B
100
AcDbEntity
  8
0
100
AcDbLine
 62
7
  6
CONTINUOUS
 10
5.3933614661
 20
3.9147315138
 11
5.3968644474
 21
3.9186498502
  0
SPLINE
  5
45C
100
AcDbEntity
  8
0
100
AcDbSpline
 62
7
  6
CONTINUOUS
 70
0
 71
3
 72
10
 73
6
 74
0
 42
0.0000001
 43
0.0000001
 44
0.0000000001
 40
0.0
 40
0.0
 40
0.0
 40
0.0
 40
0.3459552643
 40
0.6791303648
 40
1.0
 40
1.0
 40
1.0
 40
1.0
 10
5.3889862574
 20
3.9079135792
 30
0.0
 10
5.3894082464
 20
3.9087488182
 30
0.0
 10
5.3902888835
 20
3.9103629927
 30
0.0
 10
5.3917532826
 20
3.9126397027
 30
0.0
 10
5.392814258
 20
3.9140578146
 30
0.0
 10
5.3933614661
 20
3.9147315138
 30
0.0
  0
SPLINE
  5
45D
100
AcDbEntity
  8
0
100
AcDbSpline
 62
7
  6
CONTINUOUS
 70
0
 71
3
 72
10
 73
6
 74
0
 42
0.0000001
 43
0.0000001
 44
0.0000000001
 40
0.0
 40
0.0
 40
0.0
 40
0.0
 40
0.3461702524
 40
0.679462796
 40
1.0
 40
1.0
 40
1.0
 40
1.0
 10
5.385918492
 20
3.8996578643
 30
0.0
 10
5.3861792769
 20
3.9006417724
 30
0.0
 10
5.3867488479
 20
3.9025583446
 30
0.0
 10
5.3877662752
 20
3.9053193383
 30
0.0
 10
5.3885625936
 20
3.9070716558
 30
0.0
 10
5.3889862574
 20
3.9079135792
 30
0.0
  0
SPLINE
  5
45E
100
AcDbEntity
  8
0
100
AcDbSpline
 62
7
  6
CONTINUOUS
 70
0
 71
3
 72
10
 73
6
 74
0
 42
0.0000001
 43
0.0000001
 44
0.0000000001
 40
0.0
 40
0.0
 40
0.0
 40
0.0
 40
0.3611439257
 40
0.6937979074
 40
1.0
 40
1.0
 40
1.0
 40
1.0
 10
5.3860706318
 20
3.9106523015
 30
0.0
 10
5.3857200623
 20
3.9093601204
 30
0.0
 10
5.3852163631
 20
3.9068226888
 30
0.0
 10
5.3851756301
 20
3.9030964548
 30
0.0
 10
5.3855926006
 20
3.9007452828
 30
0.0
 10
5.385918492
 20
3.8996578643
 30
0.0
  0
SPLINE
  5
45F
100
AcDbEntity
  8
0
100
AcDbSpline
 62
7
  6
CONTINUOUS
 70
0
 71
3
 72
10
 73
6
 74
0
 42
0.0000001
 43
0.0000001
 44
0.0000000001
 40
0.0
 40
0.0
 40
0.0
 40
0.0
 40
0.3565781542
 40
0.6894298975
 40
1.0
 40
1.0
 40
1.0
 40
1.0
 10
5.3919810043
 20
3.9218345989
 30
0.0
 10
5.3910316241
 20
3.9206564083
 30
0.0
 10
5.3893178374
 20
3.9182733221
 30
0.0
 10
5.3873367216
 20
3.9145069497
 30
0.0
 10
5.3864096718
 20
3.9119258089
 30
0.0
 10
5.3860706318
 20
3.9106523015
 30
0.0
  0
SPLINE
  5
460
100
AcDbEntity
  8
0
100
AcDbSpline
 62
7
  6
CONTINUOUS
 70
0
 71
3
 72
10
 73
6
 74
0
 42
0.0000001
 43
0.0000001
 44
0.0000000001
 40
0.0
 40
0.0
 40
0.0
 40
0.0
 40
0.3432155569
 40
0.6764736751
 40
1.0
 40
1.0
 40
1.0
 40
1.0
 10
5.3962859148
 20
3.9263338851
 30
0.0
 10
5.395752064
 20
3.9258610063
 30
0.0
 10
5.3947236801
 20
3.9249014555
 30
0.0
 10
5.3932878588
 20
3.9233980316
 30
0.0
 10
5.3924013777
 20
3.9223592094
 30
0.0
 10
5.3919810043
 20
3.9218345989
 30
0.0
  0
SPLINE
  5
461
100
AcDbEntity
  8
0
100
AcDbSpline
 62
7
  6
CONTINUOUS
 70
0
 71
3
 72
10
 73
6
 74
0
 42
0.0000001
 43
0.0000001
 44
0.0000000001
 40
0.0
 40
0.0
 40
0.0
 40
0.0
 40
0.3353212505
 40
0.6717288376
 40
1.0
 40
1.0
 40
1.0
 40
1.0
 10
5.3527816944
 20
3.9821468788
 30
0.0
 10
5.3516505422
 20
3.983071692
 30
0.0
 10
5.3491860051
 20
3.9846971941
 30
0.0
 10
5.3450984097
 20
3.9862899604
 30
0.0
 10
5.3422146174
 20
3.9867611489
 30
0.0
 10
5.3407862612
 20
3.9868370406
 30
0.0
  0
SPLINE
  5
462
100
AcDbEntity
  8
0
100
AcDbSpline
 62
7
  6
CONTINUOUS
 70
0
 71
3
 72
10
 73
6
 74
0
 42
0.0000001
 43
0.0000001
 44
0.0000000001
 40
0.0
 40
0.0
 40
0.0
 40
0.0
 40
0.3076028004
 40
0.641082036
 40
1.0
 40
1.0
 40
1.0
 40
1.0
 10
5.3565897741
 20
3.9772394621
 30
0.0
 10
5.3563797886
 20
3.977848783
 30
0.0
 10
5.3557802681
 20
3.9790682881
 30
0.0
 10
5.3544462675
 20
3.9806984643
 30
0.0
 10
5.3533706609
 20
3.981679301
 30
0.0
 10
5.3527816944
 20
3.9821468788
 30
0.0
  0
SPLINE
  5
463
100
AcDbEntity
  8
0
100
AcDbSpline
 62
7
  6
CONTINUOUS
 70
0
 71
3
 72
10
 73
6
 74
0
 42
0.0000001
 43
0.0000001
 44
0.0000000001
 40
0.0
 40
0.0
 40
0.0
 40
0.0
 40
0.3054881104
 40
0.6438583277
 40
1.0
 40
1.0
 40
1.0
 40
1.0
 10
5.3559265074
 20
3.9727612955
 30
0.0
 10
5.3562422161
 20
3.9731233695
 30
0.0
 10
5.356746533
 20
3.974033315
 30
0.0
 10
5.3569944325
 20
3.9756175147
 30
0.0
 10
5.356773619
 20
3.9767104593
 30
0.0
 10
5.3565897741
 20
3.9772394621
 30
0.0
  0
SPLINE
  5
464
100
AcDbEntity
  8
0
100
AcDbSpline
 62
7
  6
CONTINUOUS
 70
0
 71
3
 72
10
 73
6
 74
0
 42
0.0000001
 43
0.0000001
 44
0.0000000001
 40
0.0
 40
0.0
 40
0.0
 40
0.0
 40
0.3527365776
 40
0.6907271703
 40
1.0
 40
1.0
 40
1.0
 40
1.0
 10
5.3523081655
 20
3.9712451186
 30
0.0
 10
5.3527853507
 20
3.9712179006
 30
0.0
 10
5.3537362326
 20
3.9712881438
 30
0.0
 10
5.35500265
 20
3.9718309364
 30
0.0
 10
5.3556724633
 20
3.9724280105
 30
0.0
 10
5.3559265074
 20
3.9727612955
 30
0.0
  0
SPLINE
  5
465
100
AcDbEntity
  8
0
100
AcDbSpline
 62
7
  6
CONTINUOUS
 70
0
 71
3
 72
10
 73
6
 74
0
 42
0.0000001
 43
0.0000001
 44
0.0000000001
 40
0.0
 40
0.0
 40
0.0
 40
0.0
 40
0.359476393
 40
0.6926506242
 40
1.0
 40
1.0
 40
1.0
 40
1.0
 10
5.3476798761
 20
3.9732561405
 30
0.0
 10
5.34815477
 20
3.9728673429
 30
0.0
 10
5.3491302774
 20
3.9721874217
 30
0.0
 10
5.3506955813
 20
3.971477185
 30
0.0
 10
5.3517841027
 20
3.9712719728
 30
0.0
 10
5.3523081655
 20
3.9712451186
 30
0.0
  0
SPLINE
  5
466
100
AcDbEntity
  8
0
100
AcDbSpline
 62
7
  6
CONTINUOUS
 70
0
 71
3
 72
10
 73
6
 74
0
 42
0.0000001
 43
0.0000001
 44
0.0000000001
 40
0.0
 40
0.0
 40
0.0
 40
0.0
 40
0.3442669006
 40
0.6782414796
 40
1.0
 40
1.0
 40
1.0
 40
1.0
 10
5.3440776055
 20
3.9770254374
 30
0.0
 10
5.3444618379
 20
3.9765659332
 30
0.0
 10
5.3452375129
 20
3.9756766081
 30
0.0
 10
5.3464096492
 20
3.974389447
 30
0.0
 10
5.3472526279
 20
3.9736178821
 30
0.0
 10
5.3476798761
 20
3.9732561405
 30
0.0
  0
SPLINE
  5
467
100
AcDbEntity
  8
0
100
AcDbSpline
 62
7
  6
CONTINUOUS
 70
0
 71
3
 72
10
 73
6
 74
0
 42
0.0000001
 43
0.0000001
 44
0.0000000001
 40
0.0
 40
0.0
 40
0.0
 40
0.0
 40
0.3218710644
 40
0.655820656
 40
1.0
 40
1.0
 40
1.0
 40
1.0
 10
5.3405327746
 20
3.9807482754
 30
0.0
 10
5.3409529113
 20
3.9803900583
 30
0.0
 10
5.34178191
 20
3.9796268898
 30
0.0
 10
5.3429338413
 20
3.9783545743
 30
0.0
 10
5.3436984768
 20
3.9774780025
 30
0.0
 10
5.3440776055
 20
3.9770254374
 30
0.0
  0
SPLINE
  5
468
100
AcDbEntity
  8
0
100
AcDbSpline
 62
7
  6
CONTINUOUS
 70
0
 71
3
 72
10
 73
6
 74
0
 42
0.0000001
 43
0.0000001
 44
0.0000000001
 40
0.0
 40
0.0
 40
0.0
 40
0.0
 40
0.3116288237
 40
0.6446259768
 40
1.0
 40
1.0
 40
1.0
 40
1.0
 10
5.3343195246
 20
3.9838741433
 30
0.0
 10
5.3350316468
 20
3.9837211196
 30
0.0
 10
5.3364767195
 20
3.983264243
 30
0.0
 10
5.3385711101
 20
3.9822075594
 30
0.0
 10
5.3398870221
 20
3.9812707127
 30
0.0
 10
5.3405327746
 20
3.9807482754
 30
0.0
  0
SPLINE
  5
469
100
AcDbEntity
  8
0
100
AcDbSpline
 62
7
  6
CONTINUOUS
 70
0
 71
3
 72
10
 73
6
 74
0
 42
0.0000001
 43
0.0000001
 44
0.0000000001
 40
0.0
 40
0.0
 40
0.0
 40
0.0
 40
0.3531938294
 40
0.6862376205
 40
1.0
 40
1.0
 40
1.0
 40
1.0
 10
5.3267511353
 20
3.9839153322
 30
0.0
 10
5.3276332244
 20
3.9840741315
 30
0.0
 10
5.3293662618
 20
3.9842909406
 30
0.0
 10
5.331910489
 20
3.9842780649
 30
0.0
 10
5.3335423913
 20
3.9840473774
 30
0.0
 10
5.3343195246
 20
3.9838741433
 30
0.0
  0
SPLINE
  5
46A
100
AcDbEntity
  8
0
100
AcDbSpline
 62
7
  6
CONTINUOUS
 70
0
 71
3
 72
10
 73
6
 74
0
 42
0.0000001
 43
0.0000001
 44
0.0000000001
 40
0.0
 40
0.0
 40
0.0
 40
0.0
 40
0.306561641
 40
0.6391455504
 40
1.0
 40
1.0
 40
1.0
 40
1.0
 10
5.3407862612
 20
3.9868370406
 30
0.0
 10
5.3393110094
 20
3.9869415507
 30
0.0
 10
5.3362092112
 20
3.9868360909
 30
0.0
 10
5.3314607409
 20
3.9858742894
 30
0.0
 10
5.3283290931
 20
3.9846506507
 30
0.0
 10
5.3267511353
 20
3.9839153322
 30
0.0
  0
SPLINE
  5
46B
100
AcDbEntity
  8
0
100
AcDbSpline
 62
7
  6
CONTINUOUS
 70
0
 71
3
 72
10
 73
6
 74
0
 42
0.0000001
 43
0.0000001
 44
0.0000000001
 40
0.0
 40
0.0
 40
0.0
 40
0.0
 40
0.3538935337
 40
0.6876155297
 40
1.0
 40
1.0
 40
1.0
 40
1.0
 10
5.3290071599
 20
3.9426564125
 30
0.0
 10
5.3273058716
 20
3.9440226416
 30
0.0
 10
5.3240962335
 20
3.9467972959
 30
0.0
 10
5.3197065634
 20
3.951139068
 30
0.0
 10
5.3172322121
 20
3.9542781047
 30
0.0
 10
5.3161400075
 20
3.9558645162
 30
0.0
  0
SPLINE
  5
46C
100
AcDbEntity
  8
0
100
AcDbSpline
 62
7
  6
CONTINUOUS
 70
0
 71
3
 72
10
 73
6
 74
0
 42
0.0000001
 43
0.0000001
 44
0.0000000001
 40
0.0
 40
0.0
 40
0.0
 40
0.0
 40
0.3135345178
 40
0.6471502038
 40
1.0
 40
1.0
 40
1.0
 40
1.0
 10
5.3428508352
 20
3.933927935
 30
0.0
 10
5.3412706432
 20
3.9345955786
 30
0.0
 10
5.3380903786
 20
3.9361762002
 30
0.0
 10
5.3335019649
 20
3.9391696352
 30
0.0
 10
5.3305038879
 20
3.941437053
 30
0.0
 10
5.3290071599
 20
3.9426564125
 30
0.0
  0
SPLINE
  5
46D
100
AcDbEntity
  8
0
100
AcDbSpline
 62
7
  6
CONTINUOUS
 70
0
 71
3
 72
10
 73
6
 74
0
 42
0.0000001
 43
0.0000001
 44
0.0000000001
 40
0.0
 40
0.0
 40
0.0
 40
0.0
 40
0.3031536041
 40
0.6361511311
 40
1.0
 40
1.0
 40
1.0
 40
1.0
 10
5.3538265654
 20
3.932460627
 30
0.0
 10
5.3527186818
 20
3.9322168357
 30
0.0
 10
5.3503171295
 20
3.9320209862
 30
0.0
 10
5.3465931933
 20
3.9325739211
 30
0.0
 10
5.3441079437
 20
3.9334050717
 30
0.0
 10
5.3428508352
 20
3.933927935
 30
0.0
  0
SPLINE
  5
46E
100
AcDbEntity
  8
0
100
AcDbSpline
 62
7
  6
CONTINUOUS
 70
0
 71
3
 72
10
 73
6
 74
0
 42
0.0000001
 43
0.0000001
 44
0.0000000001
 40
0.0
 40
0.0
 40
0.0
 40
0.0
 40
0.3408392775
 40
0.6772737412
 40
1.0
 40
1.0
 40
1.0
 40
1.0
 10
5.3381768054
 20
3.9294422025
 30
0.0
 10
5.3400015324
 20
3.9292044339
 30
0.0
 10
5.3436902789
 20
3.9290998763
 30
0.0
 10
5.3490276639
 20
3.9301455081
 30
0.0
 10
5.3523228577
 20
3.9315804617
 30
0.0
 10
5.3538265654
 20
3.932460627
 30
0.0
  0
SPLINE
  5
46F
100
AcDbEntity
  8
0
100
AcDbSpline
 62
7
  6
CONTINUOUS
 70
0
 71
3
 72
10
 73
6
 74
0
 42
0.0000001
 43
0.0000001
 44
0.0000000001
 40
0.0
 40
0.0
 40
0.0
 40
0.0
 40
0.3480289943
 40
0.6831398125
 40
1.0
 40
1.0
 40
1.0
 40
1.0
 10
5.3223733016
 20
3.9363353461
 30
0.0
 10
5.3239466557
 20
3.9350620891
 30
0.0
 10
5.3272498622
 20
3.9328073283
 30
0.0
 10
5.3326195157
 20
3.9304934117
 30
0.0
 10
5.336346102
 20
3.9296525298
 30
0.0
 10
5.3381768054
 20
3.9294422025
 30
0.0
  0
SPLINE
  5
470
100
AcDbEntity
  8
0
100
AcDbSpline
 62
7
  6
CONTINUOUS
 70
0
 71
3
 72
10
 73
6
 74
0
 42
0.0000001
 43
0.0000001
 44
0.0000000001
 40
0.0
 40
0.0
 40
0.0
 40
0.0
 40
0.3144260778
 40
0.6492944364
 40
1.0
 40
1.0
 40
1.0
 40
1.0
 10
5.3118553265
 20
3.9511888193
 30
0.0
 10
5.3124422598
 20
3.9493485914
 30
0.0
 10
5.3140865344
 20
3.9456792342
 30
0.0
 10
5.3176310601
 20
3.9406191
 30
0.0
 10
5.3206990491
 20
3.9376912414
 30
0.0
 10
5.3223733016
 20
3.9363353461
 30
0.0
  0
SPLINE
  5
471
100
AcDbEntity
  8
0
100
AcDbSpline
 62
7
  6
CONTINUOUS
 70
0
 71
3
 72
10
 73
6
 74
0
 42
0.0000001
 43
0.0000001
 44
0.0000000001
 40
0.0
 40
0.0
 40
0.0
 40
0.0
 40
0.3170533633
 40
0.6534895689
 40
1.0
 40
1.0
 40
1.0
 40
1.0
 10
5.3121256981
 20
3.9677154871
 30
0.0
 10
5.3114484592
 20
3.9660692009
 30
0.0
 10
5.3105091683
 20
3.9624768568
 30
0.0
 10
5.3103902187
 20
3.956814581
 30
0.0
 10
5.3112365168
 20
3.953033319
 30
0.0
 10
5.3118553265
 20
3.9511888193
 30
0.0
  0
SPLINE
  5
472
100
AcDbEntity
  8
0
100
AcDbSpline
 62
7
  6
CONTINUOUS
 70
0
 71
3
 72
10
 73
6
 74
0
 42
0.0000001
 43
0.0000001
 44
0.0000000001
 40
0.0
 40
0.0
 40
0.0
 40
0.0
 40
0.3647482392
 40
0.697535805
 40
1.0
 40
1.0
 40
1.0
 40
1.0
 10
5.3161400075
 20
3.9558645162
 30
0.0
 10
5.3152780404
 20
3.9571438672
 30
0.0
 10
5.3138015933
 20
3.9597169946
 30
0.0
 10
5.3124011185
 20
3.96373549
 30
0.0
 10
5.3120963576
 20
3.9664366064
 30
0.0
 10
5.3121256981
 20
3.9677154871
 30
0.0
  0
SPLINE
  5
473
100
AcDbEntity
  8
0
100
AcDbSpline
 62
7
  6
CONTINUOUS
 70
0
 71
3
 72
10
 73
6
 74
0
 42
0.0000001
 43
0.0000001
 44
0.0000000001
 40
0.0
 40
0.0
 40
0.0
 40
0.0
 40
0.3412129288
 40
0.6764494401
 40
1.0
 40
1.0
 40
1.0
 40
1.0
 10
5.3619582094
 20
3.9405157126
 30
0.0
 10
5.3628851419
 20
3.9416587479
 30
0.0
 10
5.3645460218
 20
3.9440776659
 30
0.0
 10
5.3663413012
 20
3.9480206818
 30
0.0
 10
5.3670671772
 20
3.9507857777
 30
0.0
 10
5.3672942418
 20
3.952162646
 30
0.0
  0
SPLINE
  5
474
100
AcDbEntity
  8
0
100
AcDbSpline
 62
7
  6
CONTINUOUS
 70
0
 71
3
 72
10
 73
6
 74
0
 42
0.0000001
 43
0.0000001
 44
0.0000000001
 40
0.0
 40
0.0
 40
0.0
 40
0.0
 40
0.293957292
 40
0.6299613276
 40
1.0
 40
1.0
 40
1.0
 40
1.0
 10
5.3495357623
 20
3.9347914814
 30
0.0
 10
5.3509141576
 20
3.9345575186
 30
0.0
 10
5.3539949569
 20
3.9347548511
 30
0.0
 10
5.3584260189
 20
3.9367287927
 30
0.0
 10
5.3608617424
 20
3.9391390353
 30
0.0
 10
5.3619582094
 20
3.9405157126
 30
0.0
  0
SPLINE
  5
475
100
AcDbEntity
  8
0
100
AcDbSpline
 62
7
  6
CONTINUOUS
 70
0
 71
3
 72
10
 73
6
 74
0
 42
0.0000001
 43
0.0000001
 44
0.0000000001
 40
0.0
 40
0.0
 40
0.0
 40
0.0
 40
0.3662606923
 40
0.7003221169
 40
1.0
 40
1.0
 40
1.0
 40
1.0
 10
5.3317162186
 20
3.9443607656
 30
0.0
 10
5.333647866
 20
3.9427832522
 30
0.0
 10
5.3375027355
 20
3.9399720879
 30
0.0
 10
5.3433341689
 20
3.9363958426
 30
0.0
 10
5.3475214191
 20
3.9351176334
 30
0.0
 10
5.3495357623
 20
3.9347914814
 30
0.0
  0
SPLINE
  5
476
100
AcDbEntity
  8
0
100
AcDbSpline
 62
7
  6
CONTINUOUS
 70
0
 71
3
 72
10
 73
6
 74
0
 42
0.0000001
 43
0.0000001
 44
0.0000000001
 40
0.0
 40
0.0
 40
0.0
 40
0.0
 40
0.3021998835
 40
0.6361793944
 40
1.0
 40
1.0
 40
1.0
 40
1.0
 10
5.3158460848
 20
3.9623302927
 30
0.0
 10
5.3168901873
 20
3.9601328612
 30
0.0
 10
5.3196231735
 20
3.955741552
 30
0.0
 10
5.3252184919
 20
3.9499161212
 30
0.0
 10
5.3294295279
 20
3.9461910086
 30
0.0
 10
5.3317162186
 20
3.9443607656
 30
0.0
  0
SPLINE
  5
477
100
AcDbEntity
  8
0
100
AcDbSpline
 62
7
  6
CONTINUOUS
 70
0
 71
3
 72
11
 73
7
 74
0
 42
0.0000001
 43
0.0000001
 44
0.0000000001
 40
0.0
 40
0.0
 40
0.0
 40
0.0
 40
0.23655351
 40
0.4885675363
 40
0.7473345402
 40
1.0
 40
1.0
 40
1.0
 40
1.0
 10
5.3175392037
 20
3.9766391346
 30
0.0
 10
5.3167342704
 20
3.9757487505
 30
0.0
 10
5.3153721902
 20
3.9736203557
 30
0.0
 10
5.3143606318
 20
3.9699110001
 30
0.0
 10
5.3144483735
 20
3.9659836792
 30
0.0
 10
5.3152729506
 20
3.9634770961
 30
0.0
 10
5.3158460848
 20
3.9623302927
 30
0.0
  0
SPLINE
  5
478
100
AcDbEntity
  8
0
100
AcDbSpline
 62
7
  6
CONTINUOUS
 70
0
 71
3
 72
10
 73
6
 74
0
 42
0.0000001
 43
0.0000001
 44
0.0000000001
 40
0.0
 40
0.0
 40
0.0
 40
0.0
 40
0.2978209746
 40
0.6300806233
 40
1.0
 40
1.0
 40
1.0
 40
1.0
 10
5.3256063612
 20
3.9813256186
 30
0.0
 10
5.3246567734
 20
3.9812770413
 30
0.0
 10
5.3226602505
 20
3.9808023741
 30
0.0
 10
5.3198650179
 20
3.9791812919
 30
0.0
 10
5.3182819872
 20
3.977557319
 30
0.0
 10
5.3175392037
 20
3.9766391346
 30
0.0
  0
SPLINE
  5
479
100
AcDbEntity
  8
0
100
AcDbSpline
 62
7
  6
CONTINUOUS
 70
0
 71
3
 72
10
 73
6
 74
0
 42
0.0000001
 43
0.0000001
 44
0.0000000001
 40
0.0
 40
0.0
 40
0.0
 40
0.0
 40
0.3682157542
 40
0.7009050336
 40
1.0
 40
1.0
 40
1.0
 40
1.0
 10
5.334852008
 20
3.9778371213
 30
0.0
 10
5.3338916587
 20
3.978620132
 30
0.0
 10
5.3319285659
 20
3.9799609259
 30
0.0
 10
5.3287663683
 20
3.9812040466
 30
0.0
 10
5.3266098392
 20
3.9814035673
 30
0.0
 10
5.3256063612
 20
3.9813256186
 30
0.0
  0
SPLINE
  5
47A
100
AcDbEntity
  8
0
100
AcDbSpline
 62
7
  6
CONTINUOUS
 70
0
 71
3
 72
10
 73
6
 74
0
 42
0.0000001
 43
0.0000001
 44
0.0000000001
 40
0.0
 40
0.0
 40
0.0
 40
0.0
 40
0.3422921273
 40
0.6759567279
 40
1.0
 40
1.0
 40
1.0
 40
1.0
 10
5.3392938528
 20
3.9735786789
 30
0.0
 10
5.3388149095
 20
3.9740926574
 30
0.0
 10
5.337851037
 20
3.9750907803
 30
0.0
 10
5.336384579
 20
3.9765276622
 30
0.0
 10
5.3353653669
 20
3.977414275
 30
0.0
 10
5.334852008
 20
3.9778371213
 30
0.0
  0
LINE
  5
47B
100
AcDbEntity
  8
0
100
AcDbLine
 62
7
  6
CONTINUOUS
 10
5.3434594989
 20
3.9694486534
 11
5.3392938528
 21
3.9735786789
  0
SPLINE
  5
47C
100
AcDbEntity
  8
0
100
AcDbSpline
 62
7
  6
CONTINUOUS
 70
0
 71
3
 72
10
 73
6
 74
0
 42
0.0000001
 43
0.0000001
 44
0.0000000001
 40
0.0
 40
0.0
 40
0.0
 40
0.0
 40
0.3019659612
 40
0.6345318789
 40
1.0
 40
1.0
 40
1.0
 40
1.0
 10
5.3508385409
 20
3.9667361156
 30
0.0
 10
5.3500324447
 20
3.9666843701
 30
0.0
 10
5.3483161467
 20
3.9668468498
 30
0.0
 10
5.3457829408
 20
3.9677814763
 30
0.0
 10
5.3442201196
 20
3.9688344851
 30
0.0
 10
5.3434594989
 20
3.9694486534
 30
0.0
  0
SPLINE
  5
47D
100
AcDbEntity
  8
0
100
AcDbSpline
 62
7
  6
CONTINUOUS
 70
0
 71
3
 72
10
 73
6
 74
0
 42
0.0000001
 43
0.0000001
 44
0.0000000001
 40
0.0
 40
0.0
 40
0.0
 40
0.0
 40
0.3530467205
 40
0.6905212516
 40
1.0
 40
1.0
 40
1.0
 40
1.0
 10
5.3572507569
 20
3.9701696832
 30
0.0
 10
5.356702272
 20
3.9694807548
 30
0.0
 10
5.355459634
 20
3.968250552
 30
0.0
 10
5.3532222136
 20
3.9670754947
 30
0.0
 10
5.3516102594
 20
3.9667541781
 30
0.0
 10
5.3508385409
 20
3.9667361156
 30
0.0
  0
SPLINE
  5
47E
100
AcDbEntity
  8
0
100
AcDbSpline
 62
7
  6
CONTINUOUS
 70
0
 71
3
 72
10
 73
6
 74
0
 42
0.0000001
 43
0.0000001
 44
0.0000000001
 40
0.0
 40
0.0
 40
0.0
 40
0.0
 40
0.3285151542
 40
0.6672031546
 40
1.0
 40
1.0
 40
1.0
 40
1.0
 10
5.3592279318
 20
3.9773121887
 30
0.0
 10
5.3593650781
 20
3.9764891758
 30
0.0
 10
5.3593970214
 20
3.9747669657
 30
0.0
 10
5.3587117033
 20
3.9722869882
 30
0.0
 10
5.3577945132
 20
3.9708167948
 30
0.0
 10
5.3572507569
 20
3.9701696832
 30
0.0
  0
SPLINE
  5
47F
100
AcDbEntity
  8
0
100
AcDbSpline
 62
7
  6
CONTINUOUS
 70
0
 71
3
 72
10
 73
6
 74
0
 42
0.0000001
 43
0.0000001
 44
0.0000000001
 40
0.0
 40
0.0
 40
0.0
 40
0.0
 40
0.3663418203
 40
0.6989617204
 40
1.0
 40
1.0
 40
1.0
 40
1.0
 10
5.3549383465
 20
3.9841080569
 30
0.0
 10
5.3557197207
 20
3.9834797109
 30
0.0
 10
5.3571130481
 20
3.9821439249
 30
0.0
 10
5.3586028565
 20
3.9798159456
 30
0.0
 10
5.3591191847
 20
3.9781289233
 30
0.0
 10
5.3592279318
 20
3.9773121887
 30
0.0
  0
SPLINE
  5
480
100
AcDbEntity
  8
0
100
AcDbSpline
 62
7
  6
CONTINUOUS
 70
0
 71
3
 72
10
 73
6
 74
0
 42
0.0000001
 43
0.0000001
 44
0.0000000001
 40
0.0
 40
0.0
 40
0.0
 40
0.0
 40
0.3491975442
 40
0.6835931415
 40
1.0
 40
1.0
 40
1.0
 40
1.0
 10
5.3448337568
 20
3.98876652
 30
0.0
 10
5.3461144886
 20
3.9885073529
 30
0.0
 10
5.3485925037
 20
3.987822958
 30
0.0
 10
5.3519978571
 20
3.9862358918
 30
0.0
 10
5.3540248629
 20
3.9848613015
 30
0.0
 10
5.3549383465
 20
3.9841080569
 30
0.0
  0
SPLINE
  5
481
100
AcDbEntity
  8
0
100
AcDbSpline
 62
7
  6
CONTINUOUS
 70
0
 71
3
 72
10
 73
6
 74
0
 42
0.0000001
 43
0.0000001
 44
0.0000000001
 40
0.0
 40
0.0
 40
0.0
 40
0.0
 40
0.3372084431
 40
0.6719942005
 40
1.0
 40
1.0
 40
1.0
 40
1.0
 10
5.332876075
 20
3.9885705211
 30
0.0
 10
5.3341943231
 20
3.9888775874
 30
0.0
 10
5.3368680631
 20
3.9893086088
 30
0.0
 10
5.3408940841
 20
3.9893703444
 30
0.0
 10
5.3435440027
 20
3.9890310381
 30
0.0
 10
5.3448337568
 20
3.98876652
 30
0.0
  0
SPLINE
  5
482
100
AcDbEntity
  8
0
100
AcDbSpline
 62
7
  6
CONTINUOUS
 70
0
 71
3
 72
10
 73
6
 74
0
 42
0.0000001
 43
0.0000001
 44
0.0000000001
 40
0.0
 40
0.0
 40
0.0
 40
0.0
 40
0.3154433328
 40
0.6484561469
 40
1.0
 40
1.0
 40
1.0
 40
1.0
 10
5.3223860905
 20
3.9844114419
 30
0.0
 10
5.3234050597
 20
3.9850277665
 30
0.0
 10
5.3255783422
 20
3.9861674169
 30
0.0
 10
5.3290907699
 20
3.9875679946
 30
0.0
 10
5.331583889
 20
3.9882678972
 30
0.0
 10
5.332876075
 20
3.9885705211
 30
0.0
  0
SPLINE
  5
483
100
AcDbEntity
  8
0
100
AcDbSpline
 62
7
  6
CONTINUOUS
 70
0
 71
3
 72
10
 73
6
 74
0
 42
0.0000001
 43
0.0000001
 44
0.0000000001
 40
0.0
 40
0.0
 40
0.0
 40
0.0
 40
0.3143002696
 40
0.6472436837
 40
1.0
 40
1.0
 40
1.0
 40
1.0
 10
5.3143945159
 20
3.977567715
 30
0.0
 10
5.3150873616
 20
3.9784315564
 30
0.0
 10
5.3166373779
 20
3.9801134757
 30
0.0
 10
5.319311374
 20
3.9824187632
 30
0.0
 10
5.3213220347
 20
3.9837691987
 30
0.0
 10
5.3223860905
 20
3.9844114419
 30
0.0
  0
SPLINE
  5
484
100
AcDbEntity
  8
0
100
AcDbSpline
 62
7
  6
CONTINUOUS
 70
0
 71
3
 72
10
 73
6
 74
0
 42
0.0000001
 43
0.0000001
 44
0.0000000001
 40
0.0
 40
0.0
 40
0.0
 40
0.0
 40
0.3424441058
 40
0.6773388976
 40
1.0
 40
1.0
 40
1.0
 40
1.0
 10
5.3077523856
 20
3.9633665635
 30
0.0
 10
5.3081185911
 20
3.9651340146
 30
0.0
 10
5.3091017506
 20
3.9685844935
 30
0.0
 10
5.3113553936
 20
3.9733720217
 30
0.0
 10
5.3133176673
 20
3.9762513443
 30
0.0
 10
5.3143945159
 20
3.977567715
 30
0.0
  0
SPLINE
  5
485
100
AcDbEntity
  8
0
100
AcDbSpline
 62
7
  6
CONTINUOUS
 70
0
 71
3
 72
10
 73
6
 74
0
 42
0.0000001
 43
0.0000001
 44
0.0000000001
 40
0.0
 40
0.0
 40
0.0
 40
0.0
 40
0.306786155
 40
0.6393775677
 40
1.0
 40
1.0
 40
1.0
 40
1.0
 10
5.3080925454
 20
3.948061612
 30
0.0
 10
5.3076421134
 20
3.9495755343
 30
0.0
 10
5.307023493
 20
3.9528292554
 30
0.0
 10
5.3068813191
 20
3.9579964251
 30
0.0
 10
5.3073807611
 20
3.9615474456
 30
0.0
 10
5.3077523856
 20
3.9633665635
 30
0.0
  0
SPLINE
  5
486
100
AcDbEntity
  8
0
100
AcDbSpline
 62
7
  6
CONTINUOUS
 70
0
 71
3
 72
10
 73
6
 74
0
 42
0.0000001
 43
0.0000001
 44
0.0000000001
 40
0.0
 40
0.0
 40
0.0
 40
0.0
 40
0.3162684125
 40
0.6495366412
 40
1.0
 40
1.0
 40
1.0
 40
1.0
 10
5.312199396
 20
3.93856495
 30
0.0
 10
5.3116138887
 20
3.9394891929
 30
0.0
 10
5.3105199497
 20
3.9414580917
 30
0.0
 10
5.3091614813
 20
3.9446446813
 30
0.0
 10
5.3084243635
 20
3.9468955148
 30
0.0
 10
5.3080925454
 20
3.948061612
 30
0.0
  0
SPLINE
  5
487
100
AcDbEntity
  8
0
100
AcDbSpline
 62
7
  6
CONTINUOUS
 70
0
 71
3
 72
10
 73
6
 74
0
 42
0.0000001
 43
0.0000001
 44
0.0000000001
 40
0.0
 40
0.0
 40
0.0
 40
0.0
 40
0.3368270711
 40
0.6709935554
 40
1.0
 40
1.0
 40
1.0
 40
1.0
 10
5.3185853097
 20
3.9314179081
 30
0.0
 10
5.3177455081
 20
3.9320975244
 30
0.0
 10
5.3161422458
 20
3.9335407578
 30
0.0
 10
5.3140030439
 20
3.9359382732
 30
0.0
 10
5.3127635165
 20
3.9376731297
 30
0.0
 10
5.312199396
 20
3.93856495
 30
0.0
  0
SPLINE
  5
488
100
AcDbEntity
  8
0
100
AcDbSpline
 62
7
  6
CONTINUOUS
 70
0
 71
3
 72
10
 73
6
 74
0
 42
0.0000001
 43
0.0000001
 44
0.0000000001
 40
0.0
 40
0.0
 40
0.0
 40
0.0
 40
0.3344627932
 40
0.6727803424
 40
1.0
 40
1.0
 40
1.0
 40
1.0
 10
5.3416590549
 20
3.9248197776
 30
0.0
 10
5.3389380099
 20
3.9244631989
 30
0.0
 10
5.3333364663
 20
3.9244810778
 30
0.0
 10
5.3253572537
 20
3.9267758846
 30
0.0
 10
5.3206444474
 20
3.9296949674
 30
0.0
 10
5.3185853097
 20
3.9314179081
 30
0.0
  0
SPLINE
  5
489
100
AcDbEntity
  8
0
100
AcDbSpline
 62
7
  6
CONTINUOUS
 70
0
 71
3
 72
10
 73
6
 74
0
 42
0.0000001
 43
0.0000001
 44
0.0000000001
 40
0.0
 40
0.0
 40
0.0
 40
0.0
 40
0.3404890057
 40
0.6783275206
 40
1.0
 40
1.0
 40
1.0
 40
1.0
 10
5.363080486
 20
3.9368522089
 30
0.0
 10
5.3613069174
 20
3.9346138532
 30
0.0
 10
5.3571995708
 20
3.9305665258
 30
0.0
 10
5.3497911565
 20
3.9264388996
 30
0.0
 10
5.3443439275
 20
3.9250857074
 30
0.0
 10
5.3416590549
 20
3.9248197776
 30
0.0
  0
SPLINE
  5
48A
100
AcDbEntity
  8
0
100
AcDbSpline
 62
7
  6
CONTINUOUS
 70
0
 71
3
 72
10
 73
6
 74
0
 42
0.0000001
 43
0.0000001
 44
0.0000000001
 40
0.0
 40
0.0
 40
0.0
 40
0.0
 40
0.3375592515
 40
0.6715190683
 40
1.0
 40
1.0
 40
1.0
 40
1.0
 10
5.367724795
 20
3.9446915527
 30
0.0
 10
5.367331311
 20
3.9437413826
 30
0.0
 10
5.366460553
 20
3.941885953
 30
0.0
 10
5.364903636
 20
3.939262234
 30
0.0
 10
5.3637106508
 20
3.9376296541
 30
0.0
 10
5.363080486
 20
3.9368522089
 30
0.0
  0
SPLINE
  5
48B
100
AcDbEntity
  8
0
100
AcDbSpline
 62
7
  6
CONTINUOUS
 70
0
 71
3
 72
10
 73
6
 74
0
 42
0.0000001
 43
0.0000001
 44
0.0000000001
 40
0.0
 40
0.0
 40
0.0
 40
0.0
 40
0.3461988062
 40
0.6795865008
 40
1.0
 40
1.0
 40
1.0
 40
1.0
 10
5.3706537729
 20
3.9546710798
 30
0.0
 10
5.3704180965
 20
3.9534925603
 30
0.0
 10
5.369892468
 20
3.9511912519
 30
0.0
 10
5.368931727
 20
3.9478530605
 30
0.0
 10
5.3681477064
 20
3.9457203585
 30
0.0
 10
5.367724795
 20
3.9446915527
 30
0.0
  0
LINE
  5
48C
100
AcDbEntity
  8
0
100
AcDbLine
 62
7
  6
CONTINUOUS
 10
5.3906212749
 20
3.9242648863
 11
5.3927804964
 21
3.9266990826
  0
SPLINE
  5
48D
100
AcDbEntity
  8
0
100
AcDbSpline
 62
7
  6
CONTINUOUS
 70
0
 71
3
 72
10
 73
6
 74
0
 42
0.0000001
 43
0.0000001
 44
0.0000000001
 40
0.0
 40
0.0
 40
0.0
 40
0.0
 40
0.3050902947
 40
0.6376014243
 40
1.0
 40
1.0
 40
1.0
 40
1.0
 10
5.3831548846
 20
3.9086200404
 30
0.0
 10
5.3834466099
 20
3.9103760868
 30
0.0
 10
5.384452674
 20
3.9139839526
 30
0.0
 10
5.3869495719
 20
3.9192853809
 30
0.0
 10
5.3892967078
 20
3.9226166778
 30
0.0
 10
5.3906212749
 20
3.9242648863
 30
0.0
  0
SPLINE
  5
48E
100
AcDbEntity
  8
0
100
AcDbSpline
 62
7
  6
CONTINUOUS
 70
0
 71
3
 72
10
 73
6
 74
0
 42
0.0000001
 43
0.0000001
 44
0.0000000001
 40
0.0
 40
0.0
 40
0.0
 40
0.0
 40
0.3628670131
 40
0.6955116007
 40
1.0
 40
1.0
 40
1.0
 40
1.0
 10
5.3849615983
 20
3.8913099065
 30
0.0
 10
5.384265185
 20
3.8933185265
 30
0.0
 10
5.3831693703
 20
3.8972628604
 30
0.0
 10
5.3825575675
 20
3.9031151688
 30
0.0
 10
5.3828301978
 20
3.9068659366
 30
0.0
 10
5.3831548846
 20
3.9086200404
 30
0.0
  0
SPLINE
  5
48F
100
AcDbEntity
  8
0
100
AcDbSpline
 62
7
  6
CONTINUOUS
 70
0
 71
3
 72
10
 73
6
 74
0
 42
0.0000001
 43
0.0000001
 44
0.0000000001
 40
0.0
 40
0.0
 40
0.0
 40
0.0
 40
0.3500057263
 40
0.6831069128
 40
1.0
 40
1.0
 40
1.0
 40
1.0
 10
5.389961053
 20
3.8992401805
 30
0.0
 10
5.3895286031
 20
3.8983949263
 30
0.0
 10
5.3887555967
 20
3.8967069519
 30
0.0
 10
5.3878828968
 20
3.8941339334
 30
0.0
 10
5.387491356
 20
3.8924104061
 30
0.0
 10
5.3873512418
 20
3.8915622696
 30
0.0
  0
SPLINE
  5
490
100
AcDbEntity
  8
0
100
AcDbSpline
 62
7
  6
CONTINUOUS
 70
0
 71
3
 72
10
 73
6
 74
0
 42
0.0000001
 43
0.0000001
 44
0.0000000001
 40
0.0
 40
0.0
 40
0.0
 40
0.0
 40
0.3465592271
 40
0.6799461123
 40
1.0
 40
1.0
 40
1.0
 40
1.0
 10
5.3953982275
 20
3.9073825672
 30
0.0
 10
5.3946842691
 20
3.9065031108
 30
0.0
 10
5.393332665
 20
3.9047370637
 30
0.0
 10
5.3915011038
 20
3.9020270805
 30
0.0
 10
5.3904422141
 20
3.9001690999
 30
0.0
 10
5.389961053
 20
3.8992401805
 30
0.0
  0
SPLINE
  5
491
100
AcDbEntity
  8
0
100
AcDbSpline
 62
7
  6
CONTINUOUS
 70
0
 71
3
 72
10
 73
6
 74
0
 42
0.0000001
 43
0.0000001
 44
0.0000000001
 40
0.0
 40
0.0
 40
0.0
 40
0.0
 40
0.3173056733
 40
0.6507655126
 40
1.0
 40
1.0
 40
1.0
 40
1.0
 10
5.4019172147
 20
3.9137965607
 30
0.0
 10
5.4011339658
 20
3.913224748
 30
0.0
 10
5.3995896175
 20
3.9119642284
 30
0.0
 10
5.3974302935
 20
3.9097964058
 30
0.0
 10
5.3960662089
 20
3.9082150554
 30
0.0
 10
5.3953982275
 20
3.9073825672
 30
0.0
  0
SPLINE
  5
492
100
AcDbEntity
  8
0
100
AcDbSpline
 62
7
  6
CONTINUOUS
 70
0
 71
3
 72
10
 73
6
 74
0
 42
0.0000001
 43
0.0000001
 44
0.0000000001
 40
0.0
 40
0.0
 40
0.0
 40
0.0
 40
0.3159365044
 40
0.6490850723
 40
1.0
 40
1.0
 40
1.0
 40
1.0
 10
5.4090906131
 20
3.9174956841
 30
0.0
 10
5.4082752674
 20
3.917243788
 30
0.0
 10
5.4066323719
 20
3.9166173442
 30
0.0
 10
5.4042297374
 20
3.9153726742
 30
0.0
 10
5.4026841121
 20
3.9143535949
 30
0.0
 10
5.4019172147
 20
3.9137965607
 30
0.0
  0
SPLINE
  5
493
100
AcDbEntity
  8
0
100
AcDbSpline
 62
7
  6
CONTINUOUS
 70
0
 71
3
 72
10
 73
6
 74
0
 42
0.0000001
 43
0.0000001
 44
0.0000000001
 40
0.0
 40
0.0
 40
0.0
 40
0.0
 40
0.3117723208
 40
0.6447301216
 40
1.0
 40
1.0
 40
1.0
 40
1.0
 10
5.3679735849
 20
3.9646310086
 30
0.0
 10
5.3684170646
 20
3.9635218243
 30
0.0
 10
5.3695195934
 20
3.9612997178
 30
0.0
 10
5.3716742967
 20
3.9581194509
 30
0.0
 10
5.3734281326
 20
3.9561399844
 30
0.0
 10
5.3743831096
 20
3.9551699686
 30
0.0
  0
SPLINE
  5
494
100
AcDbEntity
  8
0
100
AcDbSpline
 62
7
  6
CONTINUOUS
 70
0
 71
3
 72
10
 73
6
 74
0
 42
0.0000001
 43
0.0000001
 44
0.0000000001
 40
0.0
 40
0.0
 40
0.0
 40
0.0
 40
0.3516502816
 40
0.6871537017
 40
1.0
 40
1.0
 40
1.0
 40
1.0
 10
5.3672942418
 20
3.952162646
 30
0.0
 10
5.3675255348
 20
3.9535060313
 30
0.0
 10
5.367739769
 20
3.9561845959
 30
0.0
 10
5.3671821994
 20
3.9600491522
 30
0.0
 10
5.366294756
 20
3.9624282483
 30
0.0
 10
5.3657291552
 20
3.963501006
 30
0.0
  0
ENDSEC
  0
SECTION
  2
OBJECTS
  0
DICTIONARY
  5
C
100
AcDbDictionary
280
0
281
1
  3
ACAD_GROUP
350
D
  3
ACAD_MLINESTYLE
350
17
  3
ACAD_LAYOUT
350
1A
  3
ACAD_PLOTSETTINGS
350
19
  3
ACAD_PLOTSTYLENAME
350
E
  0
DICTIONARY
  5
D
102
{ACAD_REACTORS
330
C
102
}
100
AcDbDictionary
280
0
281
1
  0
ACDBDICTIONARYWDFLT
  5
E
102
{ACAD_REACTORS
330
C
102
}
100
AcDbDictionary
281
1
  3
Normal
350
F
100
AcDbDictionaryWithDefault
340
F
  0
DICTIONARY
  5
17
102
{ACAD_REACTORS
330
C
102
}
100
AcDbDictionary
280
0
281
1
  3
Standard
350
18
  0
DICTIONARY
  5
19
102
{ACAD_REACTORS
330
C
102
}
100
AcDbDictionary
281
1
  0
DICTIONARY
  5
1A
102
{ACAD_REACTORS
330
C
102
}
100
AcDbDictionary
281
1
  3
Model
350
495
  3
Layout1
350
496
  0
ACDBPLACEHOLDER
  5
F
102
{ACAD_REACTORS
330
E
102
}
  0
MLINESTYLE
  5
18
102
{ACAD_REACTORS
330
17
102
}
100
AcDbMlineStyle
  2
STANDARD
 70
0
  3

 62
256
 51
90.0
 52
90.0
 71
2
 49
0.5
 62
256
  6
BYLAYER
 49
-0.5
 62
256
  6
BYLAYER
  0
LAYOUT
  5
495
102
{ACAD_REACTORS
330
1A
102
}
100
AcDbPlotSettings
  1

  2
none_device
  4
ANSI_A_(11.00_x_8.50_Inches)
  6

 40
0.0
 41
0.0
 42
0.0
 43
0.0
 44
279.4
 45
215.9
 46
0.0
 47
0.0
 48
0.0
 49
0.0
140
0.0
141
0.0
142
1.0
143
1.0
 70
1024
 72
0
 73
0
 74
0
  7

 75
0
147
1.0
148
0.0
149
0.0
100
AcDbLayout
  1
Model
 70
0
 71
0
 10
0.0
 20
0.0
 11
11.0
 21
8.5
 12
0.0
 22
0.0
 32
0.0
 14
0.0
 24
0.0
 34
0.0
 15
0.0
 25
0.0
 35
0.0
146
0.0
 13
0.0
 23
0.0
 33
0.0
 16
1.0
 26
0.0
 36
0.0
 17
0.0
 27
1.0
 37
0.0
 76
0
330
21E
345
0
346
0
  0
LAYOUT
  5
496
102
{ACAD_REACTORS
330
1A
102
}
100
AcDbPlotSettings
  1

  2
none_device
  4
ANSI_A_(11.00_x_8.50_Inches)
  6

 40
0.0
 41
0.0
 42
0.0
 43
0.0
 44
279.4
 45
215.9
 46
0.0
 47
0.0
 48
0.0
 49
0.0
140
0.0
141
0.0
142
1.0
143
1.0
 70
0
 72
0
 73
0
 74
0
  7

 75
0
147
1.0
148
0.0
149
0.0
100
AcDbLayout
  1
Layout1
 70
0
 71
1
 10
0.0
 20
0.0
 11
11.0
 21
8.5
 12
0.0
 22
0.0
 32
0.0
 14
0.0
 24
0.0
 34
0.0
 15
0.0
 25
0.0
 35
0.0
146
0.0
 13
0.0
 23
0.0
 33
0.0
 16
1.0
 26
0.0
 36
0.0
 17
0.0
 27
1.0
 37
0.0
 76
0
330
21F
345
0
346
0
  0
ENDSEC
  0
EOF
