999
DXF file: 3-2904tr_RIGHT.dxf
999
Pro/ENGINEER 2018400 by Parametric Technology Corporation
  0
SECTION
  2
HEADER
  9
$ACADVER
  1
AC1027
  9
$DWGCODEPAGE
  3
ANSI_1252
  9
$EXTMAX
 10
11.0
 20
8.5
 30
0.0
  9
$EXTMIN
 10
0.0
 20
0.0
 30
0.0
  9
$LIMMIN
 10
0.0
 20
0.0
  9
$LIMMAX
 10
11.0
 20
8.5
  9
$VIEWCTR
 10
5.5
 20
4.25
  9
$VIEWSIZE
 40
8.5
  9
$CLAYER
  8
0
  9
$LTSCALE
 40
0.605
  9
$CELTYPE
  6
BYLAYER
  9
$DIMSCALE
 40
1.0
  9
$DIMASZ
 40
0.1
  9
$DIMEXO
 40
0.0625
  9
$DIMDLI
 40
0.418
  9
$DIMEXE
 40
0.125
  9
$DIMCEN
 40
0.099
  9
$DIMLFAC
 40
1.0
  9
$DIMBLK
  1
_FILLED
  9
$DIMALT
 70
1
  9
$DIMALTD
 70
2
  9
$DIMALTTD
 70
2
  9
$DIMALTF
 40
25.4
  9
$DIMTXT
 40
0.08
  9
$DIMTOL
 70
1
  9
$DIMLIM
 70
0
  9
$DIMTFAC
 40
1.0
  9
$DIMTP
 40
0.001
  9
$DIMTM
 40
0.001
  9
$DIMGAP
 40
0.09
  9
$DIMDSEP
 70
46
  9
$AUNITS
 70
0
  9
$PDMODE
 70
3
  9
$PDSIZE
 40
0.3125
  9
$HANDSEED
  5
2F6
  9
$TILEMODE
 70
1
  9
$MEASUREMENT
 70
0
  9
$INSUNITS
 70
1
  0
ENDSEC
  0
SECTION
  2
CLASSES
  0
CLASS
  1
ACDBDICTIONARYWDFLT
  2
AcDbDictionaryWithDefault
  3
AutoCAD 2000
 90
0
 91
1
280
0
281
0
  0
CLASS
  1
ACDBPLACEHOLDER
  2
AcDbPlaceHolder
  3
AutoCAD 2000
 90
0
 91
1
280
0
281
0
  0
CLASS
  1
LAYOUT
  2
AcDbLayout
  3
AutoCAD 2000
 90
0
 91
0
280
0
281
0
  0
ENDSEC
  0
SECTION
  2
TABLES
  0
TABLE
  2
VPORT
  5
8
100
AcDbSymbolTable
 70
2
  0
VPORT
  5
1F4
100
AcDbSymbolTableRecord
100
AcDbViewportTableRecord
  2
*ACTIVE
 70
0
 10
0.0
 20
0.0
 11
1.0
 21
1.0
 12
5.5
 22
4.25
 13
0.0
 23
0.0
 14
1.0
 24
1.0
 15
0.0
 25
0.0
 16
0.0
 26
0.0
 36
1.0
 17
0.0
 27
0.0
 37
0.0
 40
8.5
 41
1.2941176471
 42
50.0
 43
0.0
 44
0.0
 50
0.0
 51
0.0
 71
0
 72
100
 73
1
 74
1
 75
0
 76
0
 77
0
 78
0
  0
ENDTAB
  0
TABLE
  2
LTYPE
  5
5
100
AcDbSymbolTable
 70
6
  0
LTYPE
  5
14
100
AcDbSymbolTableRecord
100
AcDbLinetypeTableRecord
  2
BYBLOCK
 70
0
  3

 72
65
 73
0
 40
0.0
  0
LTYPE
  5
15
100
AcDbSymbolTableRecord
100
AcDbLinetypeTableRecord
  2
BYLAYER
 70
0
  3

 72
65
 73
0
 40
0.0
  0
LTYPE
  5
16
100
AcDbSymbolTableRecord
100
AcDbLinetypeTableRecord
  2
CONTINUOUS
 70
64
  3
Solid line
 72
65
 73
0
 40
0.0
  0
LTYPE
  5
1F5
100
AcDbSymbolTableRecord
100
AcDbLinetypeTableRecord
  2
CENTER
 70
64
  3
____ _ ____ _ ____ _ ____ _ ____ _ ____ _ ____
 72
65
 73
4
 40
0.6
 49
0.375
 74
0
 49
-0.075
 74
0
 49
0.075
 74
0
 49
-0.075
 74
0
  0
LTYPE
  5
1F6
100
AcDbSymbolTableRecord
100
AcDbLinetypeTableRecord
  2
HIDDEN
 70
64
  3
- - - - - - - - - - - - - - - - - - - -
 72
65
 73
2
 40
0.2
 49
0.1
 74
0
 49
-0.1
 74
0
  0
LTYPE
  5
1F7
100
AcDbSymbolTableRecord
100
AcDbLinetypeTableRecord
  2
PHANTOM
 70
64
  3
_____ _ _ _____ _ _ _____ _ _ _____
 72
65
 73
6
 40
0.8
 49
0.45
 74
0
 49
-0.05
 74
0
 49
0.1
 74
0
 49
-0.05
 74
0
 49
0.1
 74
0
 49
-0.05
 74
0
  0
LTYPE
  5
1F8
100
AcDbSymbolTableRecord
100
AcDbLinetypeTableRecord
  2
DOT
 70
64
  3
. . . . . . . . . . . . . . . . . . . .
 72
65
 73
2
 40
0.2
 49
0.1
 74
0
 49
-0.1
 74
0
  0
LTYPE
  5
1F9
100
AcDbSymbolTableRecord
100
AcDbLinetypeTableRecord
  2
DASHED
 70
64
  3
- - - - - - - - - - - - - - - - - - - -
 72
65
 73
2
 40
0.2
 49
0.1
 74
0
 49
-0.1
 74
0
  0
ENDTAB
  0
TABLE
  2
LAYER
  5
2
100
AcDbSymbolTable
 70
36
  0
LAYER
  5
10
100
AcDbSymbolTableRecord
100
AcDbLayerTableRecord
  2
0
 70
0
 62
7
  6
CONTINUOUS
370
-3
390
F
  0
LAYER
  5
1FA
100
AcDbSymbolTableRecord
100
AcDbLayerTableRecord
  2
DEFAULT_1
 70
0
 62
7
  6
CENTER
370
-3
390
F
  0
LAYER
  5
1FB
100
AcDbSymbolTableRecord
100
AcDbLayerTableRecord
  2
DEFAULT_2
 70
0
 62
8
  6
HIDDEN
370
-3
390
F
  0
LAYER
  5
1FC
100
AcDbSymbolTableRecord
100
AcDbLayerTableRecord
  2
DEFAULT_3
 70
0
 62
7
  6
PHANTOM
370
-3
390
F
  0
LAYER
  5
1FD
100
AcDbSymbolTableRecord
100
AcDbLayerTableRecord
  2
ALL_ASSEMBLY_MEMBERS
 70
0
 62
7
  6
CONTINUOUS
370
-3
390
F
  0
LAYER
  5
1FE
100
AcDbSymbolTableRecord
100
AcDbLayerTableRecord
  2
ALL_FEATURES
 70
0
 62
7
  6
CONTINUOUS
370
-3
390
F
  0
LAYER
  5
1FF
100
AcDbSymbolTableRecord
100
AcDbLayerTableRecord
  2
AXES_FEATURES
 70
0
 62
7
  6
CONTINUOUS
370
-3
390
F
  0
LAYER
  5
200
100
AcDbSymbolTableRecord
100
AcDbLayerTableRecord
  2
CHAMFER_FEATURES
 70
0
 62
7
  6
CONTINUOUS
370
-3
390
F
  0
LAYER
  5
201
100
AcDbSymbolTableRecord
100
AcDbLayerTableRecord
  2
COORDINATE_SYSTEMS
 70
0
 62
7
  6
CONTINUOUS
370
-3
390
F
  0
LAYER
  5
202
100
AcDbSymbolTableRecord
100
AcDbLayerTableRecord
  2
CUT_FEATURES
 70
0
 62
7
  6
CONTINUOUS
370
-3
390
F
  0
LAYER
  5
203
100
AcDbSymbolTableRecord
100
AcDbLayerTableRecord
  2
DATUM_CURVES
 70
0
 62
7
  6
CONTINUOUS
370
-3
390
F
  0
LAYER
  5
204
100
AcDbSymbolTableRecord
100
AcDbLayerTableRecord
  2
DATUM_PLANES
 70
0
 62
7
  6
CONTINUOUS
370
-3
390
F
  0
LAYER
  5
205
100
AcDbSymbolTableRecord
100
AcDbLayerTableRecord
  2
DATUM_POINTS
 70
0
 62
7
  6
CONTINUOUS
370
-3
390
F
  0
LAYER
  5
206
100
AcDbSymbolTableRecord
100
AcDbLayerTableRecord
  2
DEFAULT_COORDINATE_SYSTEM
 70
0
 62
7
  6
CONTINUOUS
370
-3
390
F
  0
LAYER
  5
207
100
AcDbSymbolTableRecord
100
AcDbLayerTableRecord
  2
DEFAULT_DATUM_AXES
 70
0
 62
7
  6
CONTINUOUS
370
-3
390
F
  0
LAYER
  5
208
100
AcDbSymbolTableRecord
100
AcDbLayerTableRecord
  2
DEFAULT_DATUM_CURVES
 70
0
 62
7
  6
CONTINUOUS
370
-3
390
F
  0
LAYER
  5
209
100
AcDbSymbolTableRecord
100
AcDbLayerTableRecord
  2
DEFAULT_DATUM_PLANES
 70
0
 62
7
  6
CONTINUOUS
370
-3
390
F
  0
LAYER
  5
20A
100
AcDbSymbolTableRecord
100
AcDbLayerTableRecord
  2
DEFAULT_SURFACES
 70
0
 62
7
  6
CONTINUOUS
370
-3
390
F
  0
LAYER
  5
20B
100
AcDbSymbolTableRecord
100
AcDbLayerTableRecord
  2
DIMENSIONS
 70
0
 62
7
  6
CONTINUOUS
370
-3
390
F
  0
LAYER
  5
20C
100
AcDbSymbolTableRecord
100
AcDbLayerTableRecord
  2
HOLE_FEATURES
 70
0
 62
7
  6
CONTINUOUS
370
-3
390
F
  0
LAYER
  5
20D
100
AcDbSymbolTableRecord
100
AcDbLayerTableRecord
  2
IMPORT_FEATURE
 70
0
 62
7
  6
CONTINUOUS
370
-3
390
F
  0
LAYER
  5
20E
100
AcDbSymbolTableRecord
100
AcDbLayerTableRecord
  2
NOTES
 70
0
 62
7
  6
CONTINUOUS
370
-3
390
F
  0
LAYER
  5
20F
100
AcDbSymbolTableRecord
100
AcDbLayerTableRecord
  2
PART_REFERENCE_DIMENSIONS
 70
0
 62
7
  6
CONTINUOUS
370
-3
390
F
  0
LAYER
  5
210
100
AcDbSymbolTableRecord
100
AcDbLayerTableRecord
  2
PLATED_SURFACES
 70
0
 62
7
  6
CONTINUOUS
370
-3
390
F
  0
LAYER
  5
211
100
AcDbSymbolTableRecord
100
AcDbLayerTableRecord
  2
PLATED_SURFACE_AREA
 70
0
 62
7
  6
CONTINUOUS
370
-3
390
F
  0
LAYER
  5
212
100
AcDbSymbolTableRecord
100
AcDbLayerTableRecord
  2
POINTS
 70
0
 62
7
  6
CONTINUOUS
370
-3
390
F
  0
LAYER
  5
213
100
AcDbSymbolTableRecord
100
AcDbLayerTableRecord
  2
PROTRUSION
 70
0
 62
7
  6
CONTINUOUS
370
-3
390
F
  0
LAYER
  5
214
100
AcDbSymbolTableRecord
100
AcDbLayerTableRecord
  2
PROTRUSION_FEATURES
 70
0
 62
7
  6
CONTINUOUS
370
-3
390
F
  0
LAYER
  5
215
100
AcDbSymbolTableRecord
100
AcDbLayerTableRecord
  2
QUILT
 70
0
 62
7
  6
CONTINUOUS
370
-3
390
F
  0
LAYER
  5
216
100
AcDbSymbolTableRecord
100
AcDbLayerTableRecord
  2
QUILTS
 70
0
 62
7
  6
CONTINUOUS
370
-3
390
F
  0
LAYER
  5
217
100
AcDbSymbolTableRecord
100
AcDbLayerTableRecord
  2
REFERENCE_DIMENSIONS
 70
0
 62
7
  6
CONTINUOUS
370
-3
390
F
  0
LAYER
  5
218
100
AcDbSymbolTableRecord
100
AcDbLayerTableRecord
  2
ROUND_FEATURES
 70
0
 62
7
  6
CONTINUOUS
370
-3
390
F
  0
LAYER
  5
219
100
AcDbSymbolTableRecord
100
AcDbLayerTableRecord
  2
SHELL_FEATURES
 70
0
 62
7
  6
CONTINUOUS
370
-3
390
F
  0
LAYER
  5
21A
100
AcDbSymbolTableRecord
100
AcDbLayerTableRecord
  2
SURFACE_FEATURES
 70
0
 62
7
  6
CONTINUOUS
370
-3
390
F
  0
LAYER
  5
21B
100
AcDbSymbolTableRecord
100
AcDbLayerTableRecord
  2
XSEC_DATUMS
 70
0
 62
7
  6
CONTINUOUS
370
-3
390
F
  0
ENDTAB
  0
TABLE
  2
STYLE
  5
3
100
AcDbSymbolTable
 70
1
  0
STYLE
  5
11
100
AcDbSymbolTableRecord
100
AcDbTextStyleTableRecord
  2
STANDARD
 70
0
 40
0.0
 41
0.8
 50
0.0
 71
0
 42
0.2
  3
txt
  4

  0
STYLE
  5
21C
100
AcDbSymbolTableRecord
100
AcDbTextStyleTableRecord
  2
TEXTSTYLE_1
 70
0
 40
0.0
 41
0.8
 50
0.0
 71
0
 42
0.2
  3
gdt
  4

  0
ENDTAB
  0
TABLE
  2
VIEW
  5
6
100
AcDbSymbolTable
 70
0
  0
ENDTAB
  0
TABLE
  2
UCS
  5
7
100
AcDbSymbolTable
 70
0
  0
ENDTAB
  0
TABLE
  2
APPID
  5
9
100
AcDbSymbolTable
 70
1
  0
APPID
  5
21D
100
AcDbSymbolTableRecord
100
AcDbRegAppTableRecord
  2
ACAD
 70
0
  0
ENDTAB
  0
TABLE
  2
BLOCK_RECORD
  5
1
100
AcDbSymbolTable
 70
0
  0
BLOCK_RECORD
  5
21E
100
AcDbSymbolTableRecord
100
AcDbBlockTableRecord
  2
*Model_Space
  0
BLOCK_RECORD
  5
21F
100
AcDbSymbolTableRecord
100
AcDbBlockTableRecord
  2
*Paper_Space
  0
BLOCK_RECORD
  5
220
100
AcDbSymbolTableRecord
100
AcDbBlockTableRecord
  2
_FILLED
  0
ENDTAB
  0
TABLE
  2
DIMSTYLE
  5
A
100
AcDbSymbolTable
 70
1
100
AcDbDimStyleTable
 71
0
  0
DIMSTYLE
105
221
100
AcDbSymbolTableRecord
100
AcDbDimStyleTableRecord
  2
STANDARD
 70
0
  3

  4

 40
1.0
 41
0.1
 42
0.0625
 43
0.38
 44
0.125
 45
0.0
 46
0.0
 47
0.001
 48
0.001
140
0.08
141
0.09
142
0.0
143
25.4
144
1.0
145
0.0
146
1.0
147
0.09
 71
1.0
 72
0.0
 73
1
 74
1
 75
0
 76
0
 77
0
 78
4
 79
1
170
1
171
2
172
0
173
0
174
0
175
0
176
0
177
0
178
0
270
2
179
3
271
3
272
3
273
2
274
2
275
0
280
0
281
0
282
0
283
1
284
4
285
0
286
0
287
3
288
0
340
11
278
46
341
220
342
220
343
220
344
220
  0
ENDTAB
  0
ENDSEC
  0
SECTION
  2
BLOCKS
  0
BLOCK
  5
20
100
AcDbEntity
  8
0
100
AcDbBlockBegin
  2
*Model_Space
 70
0
 10
0.0
 20
0.0
 30
0.0
  3
*Model_Space
  1

  0
ENDBLK
  5
21
100
AcDbEntity
  8
0
100
AcDbBlockEnd
  0
BLOCK
  5
1C
100
AcDbEntity
  8
0
100
AcDbBlockBegin
  2
*Paper_Space
 70
0
 10
0.0
 20
0.0
 30
0.0
  3
*Paper_Space
  1

  0
ENDBLK
  5
1D
100
AcDbEntity
  8
0
100
AcDbBlockEnd
  0
BLOCK
  5
222
100
AcDbEntity
  8
0
100
AcDbBlockBegin
  2
_FILLED
 70
64
 10
0.0
 20
0.0
  3
_FILLED
  1

  0
SOLID
  5
223
100
AcDbEntity
  8
0
  6
BYBLOCK
 62
0
100
AcDbTrace
 10
0.0
 20
0.0
 11
-1.0
 21
0.2
 12
-1.0
 22
-0.2
 13
-1.0
 23
-0.2
  0
ENDBLK
  5
224
100
AcDbEntity
  8
0
  6
BYBLOCK
 62
0
100
AcDbBlockEnd
  0
ENDSEC
  0
SECTION
  2
ENTITIES
  0
MTEXT
  5
225
100
AcDbEntity
  8
0
100
AcDbMText
 62
2
  6
CONTINUOUS
  7
STANDARD
 71
3
 72
1
 10
4.8543478261
 20
2.3780007764
 30
0.0
 11
1.0
 21
0.0
 31
0.0
 73
2
 44
0.9
  1
SCALE  .500
 40
0.08
 41
0.704
  0
LINE
  5
226
100
AcDbEntity
  8
0
100
AcDbLine
 62
7
  6
CONTINUOUS
 10
0.0
 20
0.0
 11
0.0
 21
8.5
  0
LINE
  5
227
100
AcDbEntity
  8
0
100
AcDbLine
 62
7
  6
CONTINUOUS
 10
0.0
 20
0.0
 11
11.0
 21
0.0
  0
LINE
  5
228
100
AcDbEntity
  8
0
100
AcDbLine
 62
7
  6
CONTINUOUS
 10
0.0
 20
8.5
 11
11.0
 21
8.5
  0
LINE
  5
229
100
AcDbEntity
  8
0
100
AcDbLine
 62
7
  6
CONTINUOUS
 10
11.0
 20
0.0
 11
11.0
 21
8.5
  0
LINE
  5
22A
100
AcDbEntity
  8
0
100
AcDbLine
 62
7
  6
CONTINUOUS
 10
5.4688360151
 20
2.4730007764
 11
5.4313360151
 21
2.4730007764
  0
LINE
  5
22B
100
AcDbEntity
  8
0
100
AcDbLine
 62
7
  6
CONTINUOUS
 10
5.4688360151
 20
2.4754089896
 11
5.5188360151
 21
2.4754089896
  0
LWPOLYLINE
  5
22C
100
AcDbEntity
  8
0
100
AcDbPolyline
 62
7
  6
CONTINUOUS
 90
27
 70
0
 10
3.7643676629
 20
4.1132718264
 10
3.7644408777
 20
4.1124986823
 10
3.7646809585
 20
4.1110196535
 10
3.7650481045
 20
4.1095658324
 10
3.7655384149
 20
4.1081488459
 10
3.7661481687
 20
4.1067797195
 10
3.7668740682
 20
4.1054689876
 10
3.7677127982
 20
4.104227762
 10
3.7686605614
 20
4.1030679435
 10
3.7697115279
 20
4.1019996729
 10
3.7708556796
 20
4.1010289352
 10
3.7720823112
 20
4.1001612453
 10
3.7733802782
 20
4.0994023354
 10
3.7747383948
 20
4.0987577694
 10
3.7761462687
 20
4.0982326927
 10
3.7775939431
 20
4.0978323046
 10
3.7790710777
 20
4.0975621577
 10
3.7805665307
 20
4.097427953
 10
3.7820689241
 20
4.0974319986
 10
3.7835668341
 20
4.0975711128
 10
3.785048706
 20
4.0978415947
 10
3.7865025749
 20
4.098239598
 10
3.7879165599
 20
4.098761147
 10
3.7892795291
 20
4.0994025061
 10
3.7905805784
 20
4.1001602448
 10
3.7918082683
 20
4.1010308477
 10
3.7929041785
 20
4.1019666965
  0
LINE
  5
22D
100
AcDbEntity
  8
0
100
AcDbLine
 62
7
  6
CONTINUOUS
 10
3.7549640913
 20
4.5100835444
 11
3.7549640913
 21
4.1859180084
  0
LINE
  5
22E
100
AcDbEntity
  8
0
100
AcDbLine
 62
7
  6
CONTINUOUS
 10
3.7643676629
 20
4.5827297264
 11
3.7643676629
 21
4.1132718264
  0
LINE
  5
22F
100
AcDbEntity
  8
0
100
AcDbLine
 62
7
  6
CONTINUOUS
 10
3.7929041785
 20
4.1019666964
 11
3.7929041786
 21
4.3039279467
  0
LINE
  5
230
100
AcDbEntity
  8
0
100
AcDbLine
 62
7
  6
CONTINUOUS
 10
3.7929041784
 20
4.3920736053
 11
3.7929041785
 21
4.5940348564
  0
LINE
  5
231
100
AcDbEntity
  8
0
100
AcDbLine
 62
7
  6
CONTINUOUS
 10
3.8231619594
 20
4.1152765093
 11
3.8231619594
 21
4.2429401873
  0
LINE
  5
232
100
AcDbEntity
  8
0
100
AcDbLine
 62
7
  6
CONTINUOUS
 10
3.8231619595
 20
4.4530613656
 11
3.8231619594
 21
4.5807250435
  0
LINE
  5
233
100
AcDbEntity
  8
0
100
AcDbLine
 62
7
  6
CONTINUOUS
 10
3.874192774
 20
4.198893435
 11
3.874192774
 21
4.1309123747
  0
LINE
  5
234
100
AcDbEntity
  8
0
100
AcDbLine
 62
7
  6
CONTINUOUS
 10
3.874192774
 20
4.4971081178
 11
3.874192774
 21
4.5650891781
  0
LINE
  5
235
100
AcDbEntity
  8
0
100
AcDbLine
 62
7
  6
CONTINUOUS
 10
3.8158478261
 20
3.7716444465
 11
3.8618902626
 21
4.1236334628
  0
LINE
  5
236
100
AcDbEntity
  8
ALL_FEATURES
100
AcDbLine
 62
7
  6
CONTINUOUS
 10
5.1965977845
 20
3.4795057809
 11
5.1535742456
 21
3.480632392
  0
LINE
  5
237
100
AcDbEntity
  8
0
100
AcDbLine
 62
7
  6
CONTINUOUS
 10
3.8158478261
 20
4.9243571063
 11
3.8618902628
 21
4.5723680889
  0
LINE
  5
238
100
AcDbEntity
  8
0
100
AcDbLine
 62
7
  6
CONTINUOUS
 10
4.1202421023
 20
4.519364748
 11
4.1202421073
 21
4.4036789534
  0
LINE
  5
239
100
AcDbEntity
  8
0
100
AcDbLine
 62
7
  6
CONTINUOUS
 10
4.1202421073
 20
4.2923225995
 11
4.1202421023
 21
4.1766368048
  0
LINE
  5
23A
100
AcDbEntity
  8
0
100
AcDbLine
 62
7
  6
CONTINUOUS
 10
4.1008478261
 20
4.9243571063
 11
4.050055436
 21
4.5360552532
  0
LINE
  5
23B
100
AcDbEntity
  8
0
100
AcDbLine
 62
7
  6
CONTINUOUS
 10
4.1008478261
 20
3.7716444465
 11
4.050055436
 21
4.1599462996
  0
LWPOLYLINE
  5
23C
100
AcDbEntity
  8
0
100
AcDbPolyline
 62
7
  6
CONTINUOUS
 90
24
 70
0
 10
4.1768478261
 20
4.5090452811
 10
4.1767841709
 20
4.5104608263
 10
4.1765950718
 20
4.5118713726
 10
4.1762833914
 20
4.5132666784
 10
4.1758521057
 20
4.5146362071
 10
4.1753042319
 20
4.5159693668
 10
4.1746427639
 20
4.517255482
 10
4.1738704621
 20
4.5184839653
 10
4.1729908623
 20
4.5196427912
 10
4.1720085814
 20
4.5207190458
 10
4.1709287299
 20
4.5217021178
 10
4.1697603349
 20
4.522585975
 10
4.1685145783
 20
4.5233648874
 10
4.1672021858
 20
4.5240336715
 10
4.1658339154
 20
4.5245871427
 10
4.1644213896
 20
4.5250198551
 10
4.1629755359
 20
4.5253267099
 10
4.1615076583
 20
4.5255024963
 10
4.1600301793
 20
4.5255420561
 10
4.1585544107
 20
4.5254432558
 10
4.1570917101
 20
4.5252098355
 10
4.1556546067
 20
4.5248466495
 10
4.1542547863
 20
4.5243586664
 10
4.1528705131
 20
4.5237341415
  0
LINE
  5
23D
100
AcDbEntity
  8
0
100
AcDbLine
 62
7
  6
CONTINUOUS
 10
4.1528705131
 20
4.5237341415
 11
4.1528705131
 21
4.1722674113
  0
LINE
  5
23E
100
AcDbEntity
  8
0
100
AcDbLine
 62
7
  6
CONTINUOUS
 10
4.1768478261
 20
4.1869562717
 11
4.1768478261
 21
4.5090452811
  0
LINE
  5
23F
100
AcDbEntity
  8
ALL_FEATURES
100
AcDbLine
 62
7
  6
CONTINUOUS
 10
4.2568478261
 20
4.2184578097
 11
4.2568478261
 21
4.2069108044
  0
LINE
  5
240
100
AcDbEntity
  8
ALL_FEATURES
100
AcDbLine
 62
7
  6
CONTINUOUS
 10
4.2768478261
 20
4.2011373017
 11
4.2768478261
 21
4.2242313124
  0
LINE
  5
241
100
AcDbEntity
  8
0
100
AcDbLine
 62
7
  6
CONTINUOUS
 10
3.8009200623
 20
3.7416907556
 11
4.1157755899
 21
3.7416907556
  0
LINE
  5
242
100
AcDbEntity
  8
0
100
AcDbLine
 62
7
  6
CONTINUOUS
 10
3.8020978261
 20
3.7716444465
 11
4.1145978261
 21
3.7716444465
  0
LINE
  5
243
100
AcDbEntity
  8
ALL_FEATURES
100
AcDbLine
 62
7
  6
CONTINUOUS
 10
4.2968478261
 20
4.2069108044
 11
4.2968478261
 21
4.2184578097
  0
LINE
  5
244
100
AcDbEntity
  8
0
100
AcDbLine
 62
7
  6
CONTINUOUS
 10
4.3768478261
 20
4.5042507764
 11
4.3768478261
 21
4.1917507764
  0
LINE
  5
245
100
AcDbEntity
  8
0
100
AcDbLine
 62
7
  6
CONTINUOUS
 10
4.3918478261
 20
4.1671953416
 11
4.3918478261
 21
4.5288062112
  0
LINE
  5
246
100
AcDbEntity
  8
0
100
AcDbLine
 62
7
  6
CONTINUOUS
 10
4.4067812031
 20
4.1443116552
 11
4.4067812031
 21
4.5516898976
  0
LINE
  5
247
100
AcDbEntity
  8
0
100
AcDbLine
 62
7
  6
CONTINUOUS
 10
4.3178478261
 20
4.2184127346
 11
4.3177202665
 21
4.2167969052
  0
LINE
  5
248
100
AcDbEntity
  8
0
100
AcDbLine
 62
7
  6
CONTINUOUS
 10
4.6628350836
 20
4.8142356594
 11
4.6585287406
 21
4.8088527676
  0
LINE
  5
249
100
AcDbEntity
  8
0
100
AcDbLine
 62
7
  6
CONTINUOUS
 10
5.1438360151
 20
3.8630007764
 11
4.7018784196
 21
3.8630007764
  0
LINE
  5
24A
100
AcDbEntity
  8
0
100
AcDbLine
 62
7
  6
CONTINUOUS
 10
4.6413887361
 20
3.8977419011
 11
4.6395886495
 21
3.898127642
  0
LWPOLYLINE
  5
24B
100
AcDbEntity
  8
0
100
AcDbPolyline
 62
7
  6
CONTINUOUS
 90
24
 70
0
 10
4.1528705131
 20
4.1722674113
 10
4.1542547863
 20
4.1716428864
 10
4.1556546067
 20
4.1711549033
 10
4.1570917101
 20
4.1707917173
 10
4.1585544107
 20
4.170558297
 10
4.1600301793
 20
4.1704594967
 10
4.1615076583
 20
4.1704990565
 10
4.1629755359
 20
4.1706748429
 10
4.1644213896
 20
4.1709816977
 10
4.1658339154
 20
4.1714144101
 10
4.1672021858
 20
4.1719678812
 10
4.1685145783
 20
4.1726366654
 10
4.1697603349
 20
4.1734155778
 10
4.1709287299
 20
4.174299435
 10
4.1720085814
 20
4.175282507
 10
4.1729908623
 20
4.1763587615
 10
4.1738704621
 20
4.1775175875
 10
4.1746427639
 20
4.1787460708
 10
4.1753042319
 20
4.180032186
 10
4.1758521057
 20
4.1813653457
 10
4.1762833914
 20
4.1827348744
 10
4.1765950718
 20
4.1841301802
 10
4.1767841709
 20
4.1855407265
 10
4.1768478261
 20
4.1869562717
  0
LINE
  5
24C
100
AcDbEntity
  8
ALL_FEATURES
100
AcDbLine
 62
7
  6
CONTINUOUS
 10
4.2515364321
 20
4.2037353779
 11
4.2499659548
 21
4.204845873
  0
LINE
  5
24D
100
AcDbEntity
  8
ALL_FEATURES
100
AcDbLine
 62
7
  6
CONTINUOUS
 10
4.2500234758
 20
4.2049163708
 11
4.2500005974
 21
4.2049350379
  0
LWPOLYLINE
  5
24E
100
AcDbEntity
  8
0
100
AcDbPolyline
 62
7
  6
CONTINUOUS
 90
27
 70
0
 10
3.7929041785
 20
4.5940348563
 10
3.7918082683
 20
4.5949707051
 10
3.7905805784
 20
4.595841308
 10
3.7892795291
 20
4.5965990466
 10
3.7879165599
 20
4.5972404058
 10
3.7865025749
 20
4.5977619548
 10
3.785048706
 20
4.5981599581
 10
3.7835668341
 20
4.59843044
 10
3.7820689241
 20
4.5985695542
 10
3.7805665307
 20
4.5985735998
 10
3.7790710777
 20
4.5984393951
 10
3.7775939431
 20
4.5981692481
 10
3.7761462687
 20
4.5977688601
 10
3.7747383948
 20
4.5972437834
 10
3.7733802782
 20
4.5965992174
 10
3.7720823112
 20
4.5958403075
 10
3.7708556796
 20
4.5949726176
 10
3.7697115279
 20
4.5940018799
 10
3.7686605614
 20
4.5929336093
 10
3.7677127982
 20
4.5917737908
 10
3.7668740682
 20
4.5905325652
 10
3.7661481687
 20
4.5892218333
 10
3.7655384149
 20
4.5878527068
 10
3.7650481045
 20
4.5864357204
 10
3.7646809585
 20
4.5849818993
 10
3.7644408777
 20
4.5835028705
 10
3.7643676629
 20
4.5827297264
  0
LINE
  5
24F
100
AcDbEntity
  8
ALL_FEATURES
100
AcDbLine
 62
7
  6
CONTINUOUS
 10
4.250022242
 20
4.2049160135
 11
4.2500003294
 21
4.2049349605
  0
LINE
  5
250
100
AcDbEntity
  8
0
100
AcDbLine
 62
7
  6
CONTINUOUS
 10
4.6628350836
 20
3.8817658934
 11
4.6585287406
 21
3.8871487852
  0
LINE
  5
251
100
AcDbEntity
  8
0
100
AcDbLine
 62
7
  6
CONTINUOUS
 10
3.8718077504
 20
4.1294933799
 11
3.874192774
 21
4.1309123747
  0
LINE
  5
252
100
AcDbEntity
  8
0
100
AcDbLine
 62
7
  6
CONTINUOUS
 10
3.8542301481
 20
4.1191041147
 11
3.874192774
 21
4.1309123747
  0
LINE
  5
253
100
AcDbEntity
  8
0
100
AcDbLine
 62
7
  6
CONTINUOUS
 10
3.8566092617
 20
4.1205127639
 11
3.8653833771
 21
4.1257020661
  0
LINE
  5
254
100
AcDbEntity
  8
0
100
AcDbLine
 62
7
  6
CONTINUOUS
 10
3.8653833771
 20
4.1257020661
 11
3.8718077504
 21
4.1294933799
  0
LINE
  5
255
100
AcDbEntity
  8
ALL_FEATURES
100
AcDbLine
 62
7
  6
CONTINUOUS
 10
4.2568478261
 20
4.2069108044
 11
4.2768478261
 21
4.2011373017
  0
LINE
  5
256
100
AcDbEntity
  8
ALL_FEATURES
100
AcDbLine
 62
7
  6
CONTINUOUS
 10
4.2968478261
 20
4.2184578097
 11
4.2768478261
 21
4.2242313124
  0
LINE
  5
257
100
AcDbEntity
  8
0
100
AcDbLine
 62
7
  6
CONTINUOUS
 10
3.874192774
 20
4.5650891781
 11
3.8542301481
 21
4.5768974381
  0
LWPOLYLINE
  5
258
100
AcDbEntity
  8
0
100
AcDbPolyline
 62
7
  6
CONTINUOUS
 90
3
 70
0
 10
3.874192774
 20
4.5650891781
 10
3.8718110434
 20
4.5665064651
 10
3.8653870305
 20
4.5702972318
  0
LINE
  5
259
100
AcDbEntity
  8
0
100
AcDbLine
 62
7
  6
CONTINUOUS
 10
4.610194821
 20
3.9240853331
 11
4.610194821
 21
4.7719162197
  0
LINE
  5
25A
100
AcDbEntity
  8
0
100
AcDbLine
 62
7
  6
CONTINUOUS
 10
4.6395886495
 20
3.898127642
 11
4.6395886495
 21
4.7978739108
  0
LINE
  5
25B
100
AcDbEntity
  8
0
100
AcDbLine
 62
7
  6
CONTINUOUS
 10
4.6413887361
 20
4.7982596516
 11
4.6413887361
 21
3.8977419011
  0
LINE
  5
25C
100
AcDbEntity
  8
0
100
AcDbLine
 62
7
  6
CONTINUOUS
 10
4.6585287406
 20
4.8088527676
 11
4.6585287406
 21
3.8871487852
  0
LINE
  5
25D
100
AcDbEntity
  8
0
100
AcDbLine
 62
7
  6
CONTINUOUS
 10
4.6628350836
 20
3.8817658934
 11
4.6628350836
 21
4.8142356594
  0
LINE
  5
25E
100
AcDbEntity
  8
0
100
AcDbLine
 62
7
  6
CONTINUOUS
 10
4.7018784196
 20
3.8630007764
 11
4.7018784196
 21
4.8330007764
  0
LINE
  5
25F
100
AcDbEntity
  8
ALL_FEATURES
100
AcDbLine
 62
7
  6
CONTINUOUS
 10
4.3021592201
 20
4.2037353779
 11
4.309358313
 21
4.2088259053
  0
LINE
  5
260
100
AcDbEntity
  8
0
100
AcDbLine
 62
7
  6
CONTINUOUS
 10
3.9345147215
 20
4.1599462996
 11
4.050055436
 21
4.1599462996
  0
LINE
  5
261
100
AcDbEntity
  8
0
100
AcDbLine
 62
7
  6
CONTINUOUS
 10
4.1768478261
 20
4.1917507764
 11
4.3768478261
 21
4.1917507764
  0
LINE
  5
262
100
AcDbEntity
  8
0
100
AcDbLine
 62
7
  6
CONTINUOUS
 10
4.7488478261
 20
4.8299894503
 11
4.7488478261
 21
4.9437840445
  0
LINE
  5
263
100
AcDbEntity
  8
ALL_FEATURES
100
AcDbLine
 62
7
  6
CONTINUOUS
 10
4.2768478261
 20
4.2242313124
 11
4.2568478261
 21
4.2184578097
  0
LINE
  5
264
100
AcDbEntity
  8
ALL_FEATURES
100
AcDbLine
 62
7
  6
CONTINUOUS
 10
4.2768478261
 20
4.2011373017
 11
4.2968478261
 21
4.2069108044
  0
LINE
  5
265
100
AcDbEntity
  8
0
100
AcDbLine
 62
7
  6
CONTINUOUS
 10
4.1202421023
 20
4.1766368048
 11
4.0570186717
 21
4.1634650039
  0
LINE
  5
266
100
AcDbEntity
  8
0
100
AcDbLine
 62
7
  6
CONTINUOUS
 10
4.3918478261
 20
4.2561262129
 11
4.3768478261
 21
4.2561262129
  0
LINE
  5
267
100
AcDbEntity
  8
0
100
AcDbLine
 62
7
  6
CONTINUOUS
 10
4.3918478261
 20
4.2590103158
 11
4.3768478261
 21
4.2590103158
  0
LINE
  5
268
100
AcDbEntity
  8
0
100
AcDbLine
 62
7
  6
CONTINUOUS
 10
4.3918478261
 20
4.2672291795
 11
4.3768478261
 21
4.2672291795
  0
LINE
  5
269
100
AcDbEntity
  8
0
100
AcDbLine
 62
7
  6
CONTINUOUS
 10
4.3918478261
 20
4.2754424096
 11
4.3768478261
 21
4.2754424096
  0
LINE
  5
26A
100
AcDbEntity
  8
0
100
AcDbLine
 62
7
  6
CONTINUOUS
 10
4.3768478261
 20
4.2868929392
 11
4.3918478261
 21
4.2868929392
  0
LINE
  5
26B
100
AcDbEntity
  8
0
100
AcDbLine
 62
7
  6
CONTINUOUS
 10
4.3918478261
 20
4.2906288895
 11
4.3768478261
 21
4.2906288895
  0
LINE
  5
26C
100
AcDbEntity
  8
0
100
AcDbLine
 62
7
  6
CONTINUOUS
 10
4.3918478261
 20
4.3029208569
 11
4.3768478261
 21
4.3029208569
  0
LINE
  5
26D
100
AcDbEntity
  8
0
100
AcDbLine
 62
7
  6
CONTINUOUS
 10
4.3768478261
 20
4.3123256328
 11
4.3918478261
 21
4.3123256328
  0
LINE
  5
26E
100
AcDbEntity
  8
0
100
AcDbLine
 62
7
  6
CONTINUOUS
 10
4.3768478261
 20
4.3212156317
 11
4.3918478261
 21
4.3212156317
  0
LINE
  5
26F
100
AcDbEntity
  8
0
100
AcDbLine
 62
7
  6
CONTINUOUS
 10
4.3918478261
 20
4.3227629493
 11
4.3768478261
 21
4.3227629493
  0
LINE
  5
270
100
AcDbEntity
  8
0
100
AcDbLine
 62
7
  6
CONTINUOUS
 10
4.3918478261
 20
4.3372623134
 11
4.3768478261
 21
4.3372623134
  0
LINE
  5
271
100
AcDbEntity
  8
0
100
AcDbLine
 62
7
  6
CONTINUOUS
 10
4.3768478261
 20
4.3431895437
 11
4.3918478261
 21
4.3431895437
  0
LINE
  5
272
100
AcDbEntity
  8
0
100
AcDbLine
 62
7
  6
CONTINUOUS
 10
4.1768478261
 20
4.3480007764
 11
4.1295978261
 21
4.3480007764
  0
LINE
  5
273
100
AcDbEntity
  8
0
100
AcDbLine
 62
7
  6
CONTINUOUS
 10
3.7549640946
 20
4.3480007764
 11
3.7870978261
 21
4.3480007764
  0
LINE
  5
274
100
AcDbEntity
  8
0
100
AcDbLine
 62
7
  6
CONTINUOUS
 10
4.3768478261
 20
4.3528120091
 11
4.3918478261
 21
4.3528120091
  0
LINE
  5
275
100
AcDbEntity
  8
0
100
AcDbLine
 62
7
  6
CONTINUOUS
 10
4.3918478261
 20
4.3587392394
 11
4.3768478261
 21
4.3587392394
  0
LINE
  5
276
100
AcDbEntity
  8
0
100
AcDbLine
 62
7
  6
CONTINUOUS
 10
4.1202421023
 20
4.519364748
 11
4.0570186717
 21
4.5325365489
  0
LINE
  5
277
100
AcDbEntity
  8
ALL_FEATURES
100
AcDbLine
 62
7
  6
CONTINUOUS
 10
4.8788478261
 20
4.8299899542
 11
4.8788478261
 21
4.9437840445
  0
LINE
  5
278
100
AcDbEntity
  8
0
100
AcDbLine
 62
7
  6
CONTINUOUS
 10
4.3918478261
 20
4.3732386035
 11
4.3768478261
 21
4.3732386035
  0
LINE
  5
279
100
AcDbEntity
  8
0
100
AcDbLine
 62
7
  6
CONTINUOUS
 10
4.3768478261
 20
4.3747859211
 11
4.3918478261
 21
4.3747859211
  0
LINE
  5
27A
100
AcDbEntity
  8
0
100
AcDbLine
 62
7
  6
CONTINUOUS
 10
4.3768478261
 20
4.3836759199
 11
4.3918478261
 21
4.3836759199
  0
LINE
  5
27B
100
AcDbEntity
  8
0
100
AcDbLine
 62
7
  6
CONTINUOUS
 10
4.3918478261
 20
4.3930806958
 11
4.3768478261
 21
4.3930806958
  0
LINE
  5
27C
100
AcDbEntity
  8
0
100
AcDbLine
 62
7
  6
CONTINUOUS
 10
4.3918478261
 20
4.4053726633
 11
4.3768478261
 21
4.4053726633
  0
LINE
  5
27D
100
AcDbEntity
  8
0
100
AcDbLine
 62
7
  6
CONTINUOUS
 10
4.3768478261
 20
4.4091086136
 11
4.3918478261
 21
4.4091086136
  0
LINE
  5
27E
100
AcDbEntity
  8
0
100
AcDbLine
 62
7
  6
CONTINUOUS
 10
4.3918478261
 20
4.4205591432
 11
4.3768478261
 21
4.4205591432
  0
LINE
  5
27F
100
AcDbEntity
  8
0
100
AcDbLine
 62
7
  6
CONTINUOUS
 10
4.3918478261
 20
4.4287723733
 11
4.3768478261
 21
4.4287723733
  0
LINE
  5
280
100
AcDbEntity
  8
0
100
AcDbLine
 62
7
  6
CONTINUOUS
 10
4.3918478261
 20
4.436991237
 11
4.3768478261
 21
4.436991237
  0
LINE
  5
281
100
AcDbEntity
  8
ALL_FEATURES
100
AcDbLine
 62
7
  6
CONTINUOUS
 10
4.3918478261
 20
4.4398753399
 11
4.3768478261
 21
4.4398753399
  0
LINE
  5
282
100
AcDbEntity
  8
0
100
AcDbLine
 62
7
  6
CONTINUOUS
 10
4.1768478261
 20
4.5042507764
 11
4.3768478261
 21
4.5042507764
  0
LINE
  5
283
100
AcDbEntity
  8
ALL_FEATURES
100
AcDbLine
 62
7
  6
CONTINUOUS
 10
5.1438360151
 20
3.4906289652
 11
5.1438360151
 21
5.2053725876
  0
LINE
  5
284
100
AcDbEntity
  8
ALL_FEATURES
100
AcDbLine
 62
7
  6
CONTINUOUS
 10
5.1535742456
 20
3.480632392
 11
5.1535742456
 21
5.2153691608
  0
LINE
  5
285
100
AcDbEntity
  8
0
100
AcDbLine
 62
7
  6
CONTINUOUS
 10
4.050055436
 20
4.5360552532
 11
3.9345151115
 21
4.5360552532
  0
LINE
  5
286
100
AcDbEntity
  8
ALL_FEATURES
100
AcDbLine
 62
7
  6
CONTINUOUS
 10
5.1965977845
 20
3.4795057809
 11
5.1965977845
 21
5.2164957719
  0
LINE
  5
287
100
AcDbEntity
  8
ALL_FEATURES
100
AcDbLine
 62
7
  6
CONTINUOUS
 10
5.2063360151
 20
5.9645007764
 11
5.2063360151
 21
2.7315007764
  0
LINE
  5
288
100
AcDbEntity
  8
ALL_FEATURES
100
AcDbLine
 62
7
  6
CONTINUOUS
 10
5.2358419467
 20
6.0030996693
 11
5.2358419467
 21
2.6929018835
  0
LINE
  5
289
100
AcDbEntity
  8
ALL_FEATURES
100
AcDbLine
 62
7
  6
CONTINUOUS
 10
5.391535016
 20
6.1869858079
 11
5.391535016
 21
2.5090157449
  0
LINE
  5
28A
100
AcDbEntity
  8
ALL_FEATURES
100
AcDbLine
 62
7
  6
CONTINUOUS
 10
5.4313360151
 20
6.2230007764
 11
5.4313360151
 21
2.4730007764
  0
LINE
  5
28B
100
AcDbEntity
  8
0
100
AcDbLine
 62
7
  6
CONTINUOUS
 10
4.6413887361
 20
4.7982596516
 11
4.6395886495
 21
4.7978739108
  0
LINE
  5
28C
100
AcDbEntity
  8
0
100
AcDbLine
 62
7
  6
CONTINUOUS
 10
5.1438360151
 20
4.8330007764
 11
4.9013478261
 21
4.8330007764
  0
LINE
  5
28D
100
AcDbEntity
  8
0
100
AcDbLine
 62
7
  6
CONTINUOUS
 10
4.7263478261
 20
4.8330007764
 11
4.7018784196
 21
4.8330007764
  0
LINE
  5
28E
100
AcDbEntity
  8
0
100
AcDbLine
 62
7
  6
CONTINUOUS
 10
3.8020978261
 20
4.9243571063
 11
4.1145978261
 21
4.9243571063
  0
LINE
  5
28F
100
AcDbEntity
  8
ALL_FEATURES
100
AcDbLine
 62
7
  6
CONTINUOUS
 10
4.7488478261
 20
4.9437840445
 11
4.8788478261
 21
4.9437840445
  0
LINE
  5
290
100
AcDbEntity
  8
0
100
AcDbLine
 62
7
  6
CONTINUOUS
 10
5.4688360151
 20
2.4754089896
 11
5.4688360151
 21
2.4730007764
  0
LINE
  5
291
100
AcDbEntity
  8
0
100
AcDbLine
 62
7
  6
CONTINUOUS
 10
5.5188360151
 20
6.2230007764
 11
5.5188360151
 21
2.4754089896
  0
LINE
  5
292
100
AcDbEntity
  8
0
100
AcDbLine
 62
7
  6
CONTINUOUS
 10
3.8009200623
 20
4.9543107972
 11
4.1157755899
 21
4.9543107972
  0
LINE
  5
293
100
AcDbEntity
  8
ALL_FEATURES
100
AcDbLine
 62
7
  6
CONTINUOUS
 10
4.8583932806
 20
4.9722249358
 11
4.7693023715
 21
4.9722249358
  0
LINE
  5
294
100
AcDbEntity
  8
ALL_FEATURES
100
AcDbLine
 62
7
  6
CONTINUOUS
 10
5.1965977845
 20
5.2164957719
 11
5.1535742456
 21
5.2153691608
  0
LINE
  5
295
100
AcDbEntity
  8
ALL_FEATURES
100
AcDbLine
 62
7
  6
CONTINUOUS
 10
5.5188360151
 20
6.2230007764
 11
5.4313360151
 21
6.2230007764
  0
ARC
  5
296
100
AcDbEntity
  8
0
100
AcDbCircle
 62
7
  6
CONTINUOUS
 10
3.9583478261
 20
2.9555007764
 40
2.005
100
AcDbArc
 50
85.4966382723
 51
94.5033617277
  0
ARC
  5
297
100
AcDbEntity
  8
0
100
AcDbCircle
 62
7
  6
CONTINUOUS
 10
3.1260014248
 20
4.0675712136
 40
0.6399999999
100
AcDbArc
 50
4.094816567
 51
10.6562856397
  0
ARC
  5
298
100
AcDbEntity
  8
0
100
AcDbCircle
 62
7
  6
CONTINUOUS
 10
4.2555805264
 20
3.8005986858
 40
0.3755
100
AcDbArc
 50
19.1995510708
 51
66.2551185683
  0
ARC
  5
299
100
AcDbEntity
  8
0
100
AcDbCircle
 62
7
  6
CONTINUOUS
 10
3.7962619689
 20
4.234379142
 40
0.347388965
100
AcDbArc
 50
80.3942194317
 51
85.5588676713
  0
ARC
  5
29A
100
AcDbEntity
  8
0
100
AcDbCircle
 62
7
  6
CONTINUOUS
 10
4.2768368201
 20
4.1684196504
 40
0.0700963048
100
AcDbArc
 50
83.0769201158
 51
89.9910038377
  0
ARC
  5
29B
100
AcDbEntity
  8
0
100
AcDbCircle
 62
7
  6
CONTINUOUS
 10
4.1302897667
 20
4.1276567635
 40
0.05
100
AcDbArc
 50
63.1526567454
 51
101.5927103279
  0
ARC
  5
29C
100
AcDbEntity
  8
0
100
AcDbCircle
 62
7
  6
CONTINUOUS
 10
3.8270336987
 20
4.0654266386
 40
0.0499999999
100
AcDbArc
 50
94.4411323288
 51
133.0463997286
  0
ARC
  5
29D
100
AcDbEntity
  8
0
100
AcDbCircle
 62
7
  6
CONTINUOUS
 10
4.2607054921
 20
4.1987455859
 40
0.0353045285
100
AcDbArc
 50
130.7442325688
 51
133.2705965688
  0
ARC
  5
29E
100
AcDbEntity
  8
0
100
AcDbCircle
 62
7
  6
CONTINUOUS
 10
4.2586756254
 20
4.2009213484
 40
0.0323289435
100
AcDbArc
 50
133.2942902305
 51
135.3369414947
  0
ARC
  5
29F
100
AcDbEntity
  8
0
100
AcDbCircle
 62
7
  6
CONTINUOUS
 10
3.8020978261
 20
3.7566444465
 40
0.015
100
AcDbArc
 50
90.0
 51
265.4966382723
  0
ARC
  5
2A0
100
AcDbEntity
  8
0
100
AcDbCircle
 62
7
  6
CONTINUOUS
 10
4.1145978261
 20
3.7566444465
 40
0.015
100
AcDbArc
 50
274.5033617277
 51
90.0
  0
ARC
  5
2A1
100
AcDbEntity
  8
0
100
AcDbCircle
 62
7
  6
CONTINUOUS
 10
4.0351821398
 20
4.1580007764
 40
0.015
100
AcDbArc
 50
7.4523461736
 51
32.4795077826
  0
ARC
  5
2A2
100
AcDbEntity
  8
0
100
AcDbCircle
 62
7
  6
CONTINUOUS
 10
3.9583478261
 20
5.7405007764
 40
2.005
100
AcDbArc
 50
265.4966382723
 51
274.5033617277
  0
ARC
  5
2A3
100
AcDbEntity
  8
0
100
AcDbCircle
 62
7
  6
CONTINUOUS
 10
3.1260014248
 20
4.6284303392
 40
0.6399999999
100
AcDbArc
 50
349.3437143603
 51
355.905183433
  0
ARC
  5
2A4
100
AcDbEntity
  8
0
100
AcDbCircle
 62
7
  6
CONTINUOUS
 10
4.2555805264
 20
4.895402867
 40
0.3755
100
AcDbArc
 50
293.7448814317
 51
340.8004489292
  0
ARC
  5
2A5
100
AcDbEntity
  8
0
100
AcDbCircle
 62
7
  6
CONTINUOUS
 10
3.7962619689
 20
4.4616224108
 40
0.347388965
100
AcDbArc
 50
274.4411323287
 51
279.6057805683
  0
CIRCLE
  5
2A6
100
AcDbEntity
  8
0
100
AcDbCircle
 62
7
  6
CONTINUOUS
 10
3.9583478261
 20
4.3480007764
 40
0.17125
  0
CIRCLE
  5
2A7
100
AcDbEntity
  8
0
100
AcDbCircle
 62
7
  6
CONTINUOUS
 10
3.9583478261
 20
4.3480007764
 40
0.1574277638
  0
ARC
  5
2A8
100
AcDbEntity
  8
0
100
AcDbCircle
 62
7
  6
CONTINUOUS
 10
4.1302897667
 20
4.5683447893
 40
0.05
100
AcDbArc
 50
258.4072896721
 51
296.8473432546
  0
ARC
  5
2A9
100
AcDbEntity
  8
0
100
AcDbCircle
 62
7
  6
CONTINUOUS
 10
3.8270336987
 20
4.6305749142
 40
0.0499999999
100
AcDbArc
 50
226.9536002714
 51
265.5588676712
  0
ARC
  5
2AA
100
AcDbEntity
  8
0
100
AcDbCircle
 62
7
  6
CONTINUOUS
 10
3.8020978261
 20
4.9393571063
 40
0.015
100
AcDbArc
 50
94.5033617277
 51
270.0
  0
ARC
  5
2AB
100
AcDbEntity
  8
0
100
AcDbCircle
 62
7
  6
CONTINUOUS
 10
4.1145978261
 20
4.9393571063
 40
0.015
100
AcDbArc
 50
270.0
 51
85.4966382723
  0
ARC
  5
2AC
100
AcDbEntity
  8
0
100
AcDbCircle
 62
7
  6
CONTINUOUS
 10
4.0351821398
 20
4.5380007764
 40
0.015
100
AcDbArc
 50
327.5231007454
 51
352.5476538264
  0
ARC
  5
2AD
100
AcDbEntity
  8
ALL_FEATURES
100
AcDbCircle
 62
7
  6
CONTINUOUS
 10
5.1800922087
 20
2.4878452653
 40
0.2125
100
AcDbArc
 50
5.7176220275
 51
74.7903499152
  0
ARC
  5
2AE
100
AcDbEntity
  8
ALL_FEATURES
100
AcDbCircle
 62
7
  6
CONTINUOUS
 10
4.2811356909
 20
4.1630887216
 40
0.0725583219
100
AcDbArc
 50
86.673781113
 51
93.387894143
  0
ARC
  5
2AF
100
AcDbEntity
  8
ALL_FEATURES
100
AcDbCircle
 62
7
  6
CONTINUOUS
 10
4.2811341002
 20
4.1713379954
 40
0.0643249402
100
AcDbArc
 50
86.2741863944
 51
93.8207067779
  0
ARC
  5
2B0
100
AcDbEntity
  8
0
100
AcDbCircle
 62
7
  6
CONTINUOUS
 10
4.7018784196
 20
3.9130007764
 40
0.05
100
AcDbArc
 50
218.66
 51
270.0
  0
ARC
  5
2B1
100
AcDbEntity
  8
0
100
AcDbCircle
 62
7
  6
CONTINUOUS
 10
4.6479699789
 20
3.937239703
 40
0.04
100
AcDbArc
 50
199.1995510708
 51
257.905
  0
ARC
  5
2B2
100
AcDbEntity
  8
ALL_FEATURES
100
AcDbCircle
 62
7
  6
CONTINUOUS
 10
5.4313360151
 20
2.5130007764
 40
0.04
100
AcDbArc
 50
185.7176220275
 51
270.0
  0
ARC
  5
2B3
100
AcDbEntity
  8
ALL_FEATURES
100
AcDbCircle
 62
7
  6
CONTINUOUS
 10
5.2463360151
 20
2.7315007764
 40
0.04
100
AcDbArc
 50
180.0
 51
254.7903499152
  0
ARC
  5
2B4
100
AcDbEntity
  8
0
100
AcDbCircle
 62
7
  6
CONTINUOUS
 10
4.2906567119
 20
4.1960228161
 40
0.0388903867
100
AcDbArc
 50
49.269343518
 51
53.2505050137
  0
ARC
  5
2B5
100
AcDbEntity
  8
0
100
AcDbCircle
 62
7
  6
CONTINUOUS
 10
4.635102739
 20
3.8684078554
 40
0.03
100
AcDbArc
 50
38.6599999999
 51
77.9049999999
  0
ARC
  5
2B6
100
AcDbEntity
  8
0
100
AcDbCircle
 62
7
  6
CONTINUOUS
 10
4.2953025144
 20
4.2317192759
 40
0.0281102955
100
AcDbArc
 50
301.5589501088
 51
303.1874760709
  0
ARC
  5
2B7
100
AcDbEntity
  8
0
100
AcDbCircle
 62
7
  6
CONTINUOUS
 10
4.4168478261
 20
4.1671953416
 40
0.025
100
AcDbArc
 50
180.0
 51
246.2551185677
  0
ARC
  5
2B8
100
AcDbEntity
  8
ALL_FEATURES
100
AcDbCircle
 62
7
  6
CONTINUOUS
 10
4.2890988531
 20
4.2222095168
 40
0.0226244745
100
AcDbArc
 50
303.1317531744
 51
305.2585488324
  0
ARC
  5
2B9
100
AcDbEntity
  8
ALL_FEATURES
100
AcDbCircle
 62
7
  6
CONTINUOUS
 10
4.29930088
 20
4.2132870021
 40
0.0182689887
100
AcDbArc
 50
46.3894470346
 51
48.8125181128
  0
ARC
  5
2BA
100
AcDbEntity
  8
ALL_FEATURES
100
AcDbCircle
 62
7
  6
CONTINUOUS
 10
5.1963360151
 20
3.4695092077
 40
0.01
100
AcDbArc
 50
0.0
 51
88.5
  0
ARC
  5
2BB
100
AcDbEntity
  8
ALL_FEATURES
100
AcDbCircle
 62
7
  6
CONTINUOUS
 10
5.1538360151
 20
3.4906289652
 40
0.01
100
AcDbArc
 50
180.0
 51
268.5
  0
ARC
  5
2BC
100
AcDbEntity
  8
0
100
AcDbCircle
 62
7
  6
CONTINUOUS
 10
4.6163647694
 20
4.3480007764
 40
0.8765169433
100
AcDbArc
 50
169.3437143601
 51
190.6562856399
  0
ARC
  5
2BD
100
AcDbEntity
  8
ALL_FEATURES
100
AcDbCircle
 62
7
  6
CONTINUOUS
 10
5.1800922087
 20
6.2081562875
 40
0.2125
100
AcDbArc
 50
285.2096500848
 51
354.2823779725
  0
ARC
  5
2BE
100
AcDbEntity
  8
ALL_FEATURES
100
AcDbCircle
 62
7
  6
CONTINUOUS
 10
4.8138478261
 20
4.8395007764
 40
0.14
100
AcDbArc
 50
71.446995465
 51
108.553004535
  0
ARC
  5
2BF
100
AcDbEntity
  8
0
100
AcDbCircle
 62
7
  6
CONTINUOUS
 10
4.7018784196
 20
4.7830007764
 40
0.05
100
AcDbArc
 50
90.0
 51
141.34
  0
ARC
  5
2C0
100
AcDbEntity
  8
0
100
AcDbCircle
 62
7
  6
CONTINUOUS
 10
4.6479699789
 20
4.7587618498
 40
0.04
100
AcDbArc
 50
102.095
 51
160.8004489292
  0
ARC
  5
2C1
100
AcDbEntity
  8
ALL_FEATURES
100
AcDbCircle
 62
7
  6
CONTINUOUS
 10
5.4313360151
 20
6.1830007764
 40
0.04
100
AcDbArc
 50
90.0
 51
174.2823779725
  0
ARC
  5
2C2
100
AcDbEntity
  8
ALL_FEATURES
100
AcDbCircle
 62
7
  6
CONTINUOUS
 10
5.2463360151
 20
5.9645007764
 40
0.04
100
AcDbArc
 50
105.2096500848
 51
180.0
  0
ARC
  5
2C3
100
AcDbEntity
  8
ALL_FEATURES
100
AcDbCircle
 62
7
  6
CONTINUOUS
 10
4.7788478261
 20
4.9437840445
 40
0.03
100
AcDbArc
 50
108.553004535
 51
180.0
  0
ARC
  5
2C4
100
AcDbEntity
  8
ALL_FEATURES
100
AcDbCircle
 62
7
  6
CONTINUOUS
 10
4.8488478261
 20
4.9437840445
 40
0.03
100
AcDbArc
 50
0.0
 51
71.446995465
  0
ARC
  5
2C5
100
AcDbEntity
  8
0
100
AcDbCircle
 62
7
  6
CONTINUOUS
 10
4.635102739
 20
4.8275936974
 40
0.03
100
AcDbArc
 50
282.0950000001
 51
321.3400000001
  0
ARC
  5
2C6
100
AcDbEntity
  8
0
100
AcDbCircle
 62
7
  6
CONTINUOUS
 10
4.4168478261
 20
4.5288062112
 40
0.025
100
AcDbArc
 50
113.7448814323
 51
180.0
  0
ARC
  5
2C7
100
AcDbEntity
  8
ALL_FEATURES
100
AcDbCircle
 62
7
  6
CONTINUOUS
 10
5.1963360151
 20
5.2264923451
 40
0.01
100
AcDbArc
 50
271.5
 51
360.0
  0
ARC
  5
2C8
100
AcDbEntity
  8
ALL_FEATURES
100
AcDbCircle
 62
7
  6
CONTINUOUS
 10
5.1538360151
 20
5.2053725876
 40
0.01
100
AcDbArc
 50
91.5
 51
180.0
  0
SPLINE
  5
2C9
100
AcDbEntity
  8
DEFAULT_2
100
AcDbSpline
 62
8
  6
HIDDEN
 70
0
 71
3
 72
39
 73
35
 74
0
 42
0.0000001
 43
0.0000001
 44
0.0000000001
 40
0.0
 40
0.0
 40
0.0
 40
0.0
 40
0.0625
 40
0.125
 40
0.15625
 40
0.171875
 40
0.1875
 40
0.21875
 40
0.25
 40
0.28125
 40
0.3125
 40
0.328125
 40
0.34375
 40
0.375
 40
0.4375
 40
0.46875
 40
0.484375
 40
0.5
 40
0.515625
 40
0.53125
 40
0.5625
 40
0.625
 40
0.65625
 40
0.671875
 40
0.6875
 40
0.71875
 40
0.75
 40
0.78125
 40
0.8125
 40
0.828125
 40
0.84375
 40
0.875
 40
0.9375
 40
1.0
 40
1.0
 40
1.0
 40
1.0
 10
4.2397862606
 20
4.2271797233
 30
0.0
 10
4.2396779024
 20
4.2270569932
 30
0.0
 10
4.2394609434
 20
4.2268115826
 30
0.0
 10
4.2391909572
 20
4.2265045709
 30
0.0
 10
4.238999739
 20
4.2262901194
 30
0.0
 10
4.2388939268
 20
4.2261668672
 30
0.0
 10
4.2388011317
 20
4.2260409402
 30
0.0
 10
4.2386806523
 20
4.2258844738
 30
0.0
 10
4.2385380815
 20
4.2256962029
 30
0.0
 10
4.2383946699
 20
4.2255084689
 30
0.0
 10
4.2382762927
 20
4.2253506604
 30
0.0
 10
4.2381792933
 20
4.2252274177
 30
0.0
 10
4.2380905788
 20
4.2250932494
 30
0.0
 10
4.2379390822
 20
4.2248533354
 30
0.0
 10
4.2377649054
 20
4.2245815548
 30
0.0
 10
4.2376114713
 20
4.2243425486
 30
0.0
 10
4.2375260783
 20
4.2242068242
 30
0.0
 10
4.2374554768
 20
4.2241028214
 30
0.0
 10
4.2374099602
 20
4.2240072316
 30
0.0
 10
4.2373405316
 20
4.2238768329
 30
0.0
 10
4.2372230027
 20
4.2236501183
 30
0.0
 10
4.237087672
 20
4.2233896828
 30
0.0
 10
4.2369679429
 20
4.223163818
 30
0.0
 10
4.2369022861
 20
4.2230319625
 30
0.0
 10
4.2368472273
 20
4.222889693
 30
0.0
 10
4.236774731
 20
4.2227154297
 30
0.0
 10
4.2366894681
 20
4.2225047817
 30
0.0
 10
4.2366031513
 20
4.2222945441
 30
0.0
 10
4.2365332897
 20
4.2221192547
 30
0.0
 10
4.2364729615
 20
4.2219790374
 30
0.0
 10
4.2364287338
 20
4.2218388363
 30
0.0
 10
4.2363588145
 20
4.2215934949
 30
0.0
 10
4.2362549933
 20
4.2212430016
 30
0.0
 10
4.236173136
 20
4.2209626086
 30
0.0
 10
4.2361320574
 20
4.2208224119
 30
0.0
  0
SPLINE
  5
2CA
100
AcDbEntity
  8
DEFAULT_2
100
AcDbSpline
 62
8
  6
HIDDEN
 70
0
 71
3
 72
108
 73
104
 74
0
 42
0.0000001
 43
0.0000001
 44
0.0000000001
 40
0.0
 40
0.0
 40
0.0
 40
0.0
 40
0.03125
 40
0.0625
 40
0.09375
 40
0.109375
 40
0.125
 40
0.140625
 40
0.1484375
 40
0.15625
 40
0.16015625
 40
0.1640625
 40
0.166015625
 40
0.1669921875
 40
0.16796875
 40
0.169921875
 40
0.171875
 40
0.1796875
 40
0.1875
 40
0.1953125
 40
0.203125
 40
0.21875
 40
0.25
 40
0.28125
 40
0.296875
 40
0.3046875
 40
0.3125
 40
0.3203125
 40
0.328125
 40
0.330078125
 40
0.33203125
 40
0.3330078125
 40
0.333984375
 40
0.3359375
 40
0.33984375
 40
0.34375
 40
0.3515625
 40
0.359375
 40
0.375
 40
0.390625
 40
0.40625
 40
0.421875
 40
0.4375
 40
0.453125
 40
0.46875
 40
0.4765625
 40
0.484375
 40
0.48828125
 40
0.4921875
 40
0.49609375
 40
0.498046875
 40
0.4990234375
 40
0.5
 40
0.5009765625
 40
0.501953125
 40
0.50390625
 40
0.5078125
 40
0.51171875
 40
0.515625
 40
0.5234375
 40
0.53125
 40
0.546875
 40
0.5625
 40
0.578125
 40
0.59375
 40
0.609375
 40
0.625
 40
0.640625
 40
0.6484375
 40
0.65625
 40
0.66015625
 40
0.6640625
 40
0.666015625
 40
0.6669921875
 40
0.66796875
 40
0.669921875
 40
0.671875
 40
0.6796875
 40
0.6875
 40
0.6953125
 40
0.703125
 40
0.71875
 40
0.75
 40
0.78125
 40
0.796875
 40
0.8046875
 40
0.8125
 40
0.8203125
 40
0.828125
 40
0.830078125
 40
0.83203125
 40
0.8330078125
 40
0.833984375
 40
0.8359375
 40
0.83984375
 40
0.84375
 40
0.8515625
 40
0.859375
 40
0.875
 40
0.890625
 40
0.90625
 40
0.9375
 40
1.0
 40
1.0
 40
1.0
 40
1.0
 10
4.2361320574
 20
4.220822412
 30
0.0
 10
4.2361242381
 20
4.2205590351
 30
0.0
 10
4.2361085994
 20
4.2200322814
 30
0.0
 10
4.2360851422
 20
4.2192421509
 30
0.0
 10
4.2360655922
 20
4.2185837087
 30
0.0
 10
4.2360499572
 20
4.218056955
 30
0.0
 10
4.2360382172
 20
4.2176618897
 30
0.0
 10
4.2360284778
 20
4.2173326687
 30
0.0
 10
4.2360205878
 20
4.2170692916
 30
0.0
 10
4.2360158807
 20
4.2169046818
 30
0.0
 10
4.2360116017
 20
4.2167729918
 30
0.0
 10
4.2360100984
 20
4.2166906906
 30
0.0
 10
4.2360066992
 20
4.2166330695
 30
0.0
 10
4.2360084287
 20
4.2166001593
 30
0.0
 10
4.2360239879
 20
4.2165673103
 30
0.0
 10
4.2360387099
 20
4.2165262281
 30
0.0
 10
4.2360779332
 20
4.2164276481
 30
0.0
 10
4.2361351341
 20
4.2162797708
 30
0.0
 10
4.2362123359
 20
4.2160826051
 30
0.0
 10
4.2362892879
 20
4.2158854384
 30
0.0
 10
4.2363919777
 20
4.2156225498
 30
0.0
 10
4.236571644
 20
4.2151624946
 30
0.0
 10
4.2368283335
 20
4.2145052733
 30
0.0
 10
4.2370850076
 20
4.2138480507
 30
0.0
 10
4.2372646954
 20
4.2133879972
 30
0.0
 10
4.2373673515
 20
4.213125106
 30
0.0
 10
4.2374444069
 20
4.2129279473
 30
0.0
 10
4.2375212202
 20
4.2127307515
 30
0.0
 10
4.237579509
 20
4.2125829587
 30
0.0
 10
4.2376173125
 20
4.2124842683
 30
0.0
 10
4.2376346349
 20
4.2124433882
 30
0.0
 10
4.2376448282
 20
4.2124101222
 30
0.0
 10
4.2376684232
 20
4.2123789111
 30
0.0
 10
4.2377159411
 20
4.2123252466
 30
0.0
 10
4.2377805752
 20
4.2122480849
 30
0.0
 10
4.2378858052
 20
4.2121249046
 30
0.0
 10
4.238016721
 20
4.2119708338
 30
0.0
 10
4.2382265338
 20
4.2117243738
 30
0.0
 10
4.2384886806
 20
4.2114162805
 30
0.0
 10
4.2388033078
 20
4.2110465765
 30
0.0
 10
4.2391179214
 20
4.2106768703
 30
0.0
 10
4.2394325387
 20
4.2103071647
 30
0.0
 10
4.2397471546
 20
4.2099374589
 30
0.0
 10
4.2400617723
 20
4.2095677535
 30
0.0
 10
4.2403239489
 20
4.2092596644
 30
0.0
 10
4.2405337008
 20
4.209013196
 30
0.0
 10
4.2406647717
 20
4.2088591466
 30
0.0
 10
4.2407696835
 20
4.2087359223
 30
0.0
 10
4.2408482164
 20
4.2086434623
 30
0.0
 10
4.2409141406
 20
4.2085665455
 30
0.0
 10
4.2409593454
 20
4.2085124422
 30
0.0
 10
4.2409866477
 20
4.2084819345
 30
0.0
 10
4.2410029807
 20
4.2084579029
 30
0.0
 10
4.2410351534
 20
4.2084382703
 30
0.0
 10
4.2410725252
 20
4.2084105592
 30
0.0
 10
4.2411405002
 20
4.2083627795
 30
0.0
 10
4.2412362614
 20
4.2082941491
 30
0.0
 10
4.241351751
 20
4.2082119526
 30
0.0
 10
4.2415055359
 20
4.2081023014
 30
0.0
 10
4.2416978359
 20
4.2079652566
 30
0.0
 10
4.2420054773
 20
4.2077459741
 30
0.0
 10
4.2423900424
 20
4.2074718747
 30
0.0
 10
4.2428515148
 20
4.2071429538
 30
0.0
 10
4.2433129888
 20
4.2068140334
 30
0.0
 10
4.2437744618
 20
4.2064851126
 30
0.0
 10
4.2442359375
 20
4.2061561931
 30
0.0
 10
4.2446974033
 20
4.2058272685
 30
0.0
 10
4.2450819889
 20
4.2055531805
 30
0.0
 10
4.2453895885
 20
4.2053338749
 30
0.0
 10
4.2455819951
 20
4.2051968889
 30
0.0
 10
4.2457355612
 20
4.2050871168
 30
0.0
 10
4.2458323594
 20
4.2050189275
 30
0.0
 10
4.245898476
 20
4.2049703567
 30
0.0
 10
4.2459388263
 20
4.2049439136
 30
0.0
 10
4.2459888544
 20
4.2049224105
 30
0.0
 10
4.2460480817
 20
4.2048938432
 30
0.0
 10
4.2461929498
 20
4.2048266713
 30
0.0
 10
4.2464091083
 20
4.2047253297
 30
0.0
 10
4.2466979733
 20
4.2045905412
 30
0.0
 10
4.2469866634
 20
4.2044556635
 30
0.0
 10
4.2473716446
 20
4.2042758577
 30
0.0
 10
4.2480453331
 20
4.2039611829
 30
0.0
 10
4.2490077615
 20
4.2035116558
 30
0.0
 10
4.249970179
 20
4.2030621232
 30
0.0
 10
4.2506438829
 20
4.2027474562
 30
0.0
 10
4.2510288399
 20
4.2025676381
 30
0.0
 10
4.2513176043
 20
4.2024327981
 30
0.0
 10
4.2516061903
 20
4.2022978678
 30
0.0
 10
4.25182313
 20
4.2021969235
 30
0.0
 10
4.2519669786
 20
4.2021292331
 30
0.0
 10
4.252028073
 20
4.2021016155
 30
0.0
 10
4.2520742483
 20
4.2020781526
 30
0.0
 10
4.2521302987
 20
4.2020596953
 30
0.0
 10
4.252232975
 20
4.2020297206
 30
0.0
 10
4.2523772617
 20
4.2019856861
 30
0.0
 10
4.2526094581
 20
4.2019159091
 30
0.0
 10
4.2528992456
 20
4.2018284556
 30
0.0
 10
4.2533631615
 20
4.2016886599
 30
0.0
 10
4.2539429687
 20
4.2015138707
 30
0.0
 10
4.2546387748
 20
4.2013041427
 30
0.0
 10
4.2555665032
 20
4.2010244987
 30
0.0
 10
4.2571900341
 20
4.2005351249
 30
0.0
 10
4.2585816298
 20
4.2001156605
 30
0.0
 10
4.2595093608
 20
4.1998360178
 30
0.0
  0
SPLINE
  5
2CB
100
AcDbEntity
  8
DEFAULT_2
100
AcDbSpline
 62
8
  6
HIDDEN
 70
0
 71
3
 72
94
 73
90
 74
0
 42
0.0000001
 43
0.0000001
 44
0.0000000001
 40
0.0
 40
0.0
 40
0.0
 40
0.0
 40
0.0625
 40
0.09375
 40
0.109375
 40
0.125
 40
0.140625
 40
0.15625
 40
0.16015625
 40
0.1640625
 40
0.166015625
 40
0.16796875
 40
0.171875
 40
0.1796875
 40
0.1875
 40
0.203125
 40
0.21875
 40
0.25
 40
0.28125
 40
0.296875
 40
0.3125
 40
0.3203125
 40
0.328125
 40
0.33203125
 40
0.333984375
 40
0.3359375
 40
0.33984375
 40
0.34375
 40
0.3515625
 40
0.359375
 40
0.375
 40
0.390625
 40
0.40625
 40
0.421875
 40
0.4375
 40
0.453125
 40
0.46875
 40
0.4765625
 40
0.484375
 40
0.4921875
 40
0.49609375
 40
0.498046875
 40
0.5
 40
0.501953125
 40
0.50390625
 40
0.5078125
 40
0.515625
 40
0.5234375
 40
0.53125
 40
0.546875
 40
0.5625
 40
0.578125
 40
0.59375
 40
0.609375
 40
0.625
 40
0.640625
 40
0.6484375
 40
0.65625
 40
0.66015625
 40
0.6640625
 40
0.666015625
 40
0.66796875
 40
0.669921875
 40
0.671875
 40
0.6796875
 40
0.6875
 40
0.6953125
 40
0.703125
 40
0.71875
 40
0.75
 40
0.78125
 40
0.796875
 40
0.8046875
 40
0.8125
 40
0.8203125
 40
0.828125
 40
0.830078125
 40
0.83203125
 40
0.833984375
 40
0.8359375
 40
0.83984375
 40
0.84375
 40
0.8515625
 40
0.859375
 40
0.875
 40
0.890625
 40
0.90625
 40
0.9375
 40
1.0
 40
1.0
 40
1.0
 40
1.0
 10
4.2941862896
 20
4.1998360174
 30
0.0
 10
4.2949598166
 20
4.2000594697
 30
0.0
 10
4.2961201108
 20
4.2003946454
 30
0.0
 10
4.2974737743
 20
4.2007856933
 30
0.0
 10
4.2982473151
 20
4.2010091357
 30
0.0
 10
4.2988274179
 20
4.2011767552
 30
0.0
 10
4.2994077227
 20
4.2013442306
 30
0.0
 10
4.2998423848
 20
4.2014702413
 30
0.0
 10
4.3001330405
 20
4.2015536198
 30
0.0
 10
4.3002528361
 20
4.2015892964
 30
0.0
 10
4.3003517308
 20
4.2016156552
 30
0.0
 10
4.3004394413
 20
4.2016499954
 30
0.0
 10
4.3005877381
 20
4.2017137989
 30
0.0
 10
4.3008023019
 20
4.2018030121
 30
0.0
 10
4.3011440889
 20
4.2019468344
 30
0.0
 10
4.3015718416
 20
4.2021262419
 30
0.0
 10
4.3022559543
 20
4.2024135017
 30
0.0
 10
4.3031112066
 20
4.2027724994
 30
0.0
 10
4.3039663777
 20
4.2031315456
 30
0.0
 10
4.3046506205
 20
4.2034187279
 30
0.0
 10
4.3050780479
 20
4.2035983291
 30
0.0
 10
4.3054205017
 20
4.2037417543
 30
0.0
 10
4.305633368
 20
4.2038319783
 30
0.0
 10
4.3057847137
 20
4.2038939662
 30
0.0
 10
4.305867537
 20
4.2039312168
 30
0.0
 10
4.3059365729
 20
4.2039753569
 30
0.0
 10
4.3060275885
 20
4.2040281731
 30
0.0
 10
4.3061705753
 20
4.2041139972
 30
0.0
 10
4.3063502122
 20
4.2042208261
 30
0.0
 10
4.3066371262
 20
4.2043920045
 30
0.0
 10
4.3069959421
 20
4.204605891
 30
0.0
 10
4.3074264468
 20
4.2048625919
 30
0.0
 10
4.3078569716
 20
4.2051192828
 30
0.0
 10
4.3082874903
 20
4.2053759766
 30
0.0
 10
4.3087180131
 20
4.2056326686
 30
0.0
 10
4.3091485258
 20
4.205889365
 30
0.0
 10
4.3095073167
 20
4.2061032654
 30
0.0
 10
4.3097942816
 20
4.2062744155
 30
0.0
 10
4.3100096904
 20
4.2064026967
 30
0.0
 10
4.3101886091
 20
4.2065098564
 30
0.0
 10
4.3103150074
 20
4.2065843605
 30
0.0
 10
4.3103854311
 20
4.206627727
 30
0.0
 10
4.3104433304
 20
4.206658019
 30
0.0
 10
4.3104818058
 20
4.2066968459
 30
0.0
 10
4.3105398816
 20
4.2067456381
 30
0.0
 10
4.3106383574
 20
4.2068324116
 30
0.0
 10
4.3107806876
 20
4.2069556484
 30
0.0
 10
4.3109507774
 20
4.207103843
 30
0.0
 10
4.3111778106
 20
4.2073013274
 30
0.0
 10
4.3114615174
 20
4.2075482202
 30
0.0
 10
4.3118020019
 20
4.2078444755
 30
0.0
 10
4.3121424763
 20
4.2081407351
 30
0.0
 10
4.3124829551
 20
4.2084369933
 30
0.0
 10
4.3128234261
 20
4.208733253
 30
0.0
 10
4.313163924
 20
4.2090295081
 30
0.0
 10
4.3134475891
 20
4.2092764013
 30
0.0
 10
4.3136747072
 20
4.2094738848
 30
0.0
 10
4.3138162326
 20
4.2095973826
 30
0.0
 10
4.3139304226
 20
4.2096960191
 30
0.0
 10
4.3139995789
 20
4.2097580361
 30
0.0
 10
4.3140599714
 20
4.209806804
 30
0.0
 10
4.3140913909
 20
4.2098456954
 30
0.0
 10
4.3141189224
 20
4.2098852355
 30
0.0
 10
4.3141759853
 20
4.2099639821
 30
0.0
 10
4.3142607397
 20
4.2100822421
 30
0.0
 10
4.3143742257
 20
4.2102398419
 30
0.0
 10
4.3144875833
 20
4.2103974632
 30
0.0
 10
4.3146387715
 20
4.2106076175
 30
0.0
 10
4.3149033299
 20
4.2109753909
 30
0.0
 10
4.3152812824
 20
4.2115007796
 30
0.0
 10
4.315659227
 20
4.2120261695
 30
0.0
 10
4.3159237965
 20
4.2123939412
 30
0.0
 10
4.3160749673
 20
4.2126040983
 30
0.0
 10
4.3161883785
 20
4.2127617107
 30
0.0
 10
4.3163016629
 20
4.212919344
 30
0.0
 10
4.3163869819
 20
4.2130375104
 30
0.0
 10
4.316443308
 20
4.2131163791
 30
0.0
 10
4.3164724589
 20
4.2131556509
 30
0.0
 10
4.3164977689
 20
4.2131955544
 30
0.0
 10
4.3165132392
 20
4.2132517642
 30
0.0
 10
4.3165388348
 20
4.2133209975
 30
0.0
 10
4.3165762907
 20
4.2134323459
 30
0.0
 10
4.3166243079
 20
4.2135713345
 30
0.0
 10
4.3167004663
 20
4.2137938262
 30
0.0
 10
4.3167958939
 20
4.2140719032
 30
0.0
 10
4.3169103087
 20
4.2144056116
 30
0.0
 10
4.3170628961
 20
4.2148505506
 30
0.0
 10
4.317329908
 20
4.2156291965
 30
0.0
 10
4.3175587808
 20
4.2162966064
 30
0.0
 10
4.3177113614
 20
4.2167415465
 30
0.0
  0
LINE
  5
2CC
100
AcDbEntity
  8
DEFAULT_2
100
AcDbLine
 62
8
  6
HIDDEN
 10
4.3177113614
 20
4.2167415463
 11
4.317846964
 21
4.218545671
  0
LINE
  5
2CD
100
AcDbEntity
  8
DEFAULT_2
100
AcDbLine
 62
8
  6
HIDDEN
 10
4.317846964
 20
4.218545671
 11
4.3177589837
 21
4.2197615469
  0
LINE
  5
2CE
100
AcDbEntity
  8
DEFAULT_2
100
AcDbLine
 62
8
  6
HIDDEN
 10
4.3177589837
 20
4.2197615469
 11
4.3177419713
 21
4.2198848834
  0
LINE
  5
2CF
100
AcDbEntity
  8
DEFAULT_2
100
AcDbLine
 62
8
  6
HIDDEN
 10
4.3177419713
 20
4.2198848834
 11
4.3174617367
 21
4.2212194349
  0
LINE
  5
2D0
100
AcDbEntity
  8
DEFAULT_2
100
AcDbLine
 62
8
  6
HIDDEN
 10
4.3174617367
 20
4.2212194349
 11
4.3174270935
 21
4.2213420288
  0
LINE
  5
2D1
100
AcDbEntity
  8
DEFAULT_2
100
AcDbLine
 62
8
  6
HIDDEN
 10
4.3174270935
 20
4.2213420288
 11
4.3169471373
 21
4.2226860599
  0
LINE
  5
2D2
100
AcDbEntity
  8
DEFAULT_2
100
AcDbLine
 62
8
  6
HIDDEN
 10
4.3169471373
 20
4.2226860599
 11
4.3168526323
 21
4.2229020407
  0
LINE
  5
2D3
100
AcDbEntity
  8
DEFAULT_2
100
AcDbLine
 62
8
  6
HIDDEN
 10
4.3168526323
 20
4.2229020407
 11
4.3161811806
 21
4.2241982168
  0
LINE
  5
2D4
100
AcDbEntity
  8
DEFAULT_2
100
AcDbLine
 62
8
  6
HIDDEN
 10
4.3161811807
 20
4.2241982167
 11
4.3160443248
 21
4.2244259385
  0
LINE
  5
2D5
100
AcDbEntity
  8
DEFAULT_2
100
AcDbLine
 62
8
  6
HIDDEN
 10
4.3160443248
 20
4.2244259385
 11
4.3151691805
 21
4.225700975
  0
LINE
  5
2D6
100
AcDbEntity
  8
DEFAULT_2
100
AcDbLine
 62
8
  6
HIDDEN
 10
4.3151691805
 20
4.225700975
 11
4.3150265241
 21
4.2258858032
  0
LINE
  5
2D7
100
AcDbEntity
  8
DEFAULT_2
100
AcDbLine
 62
8
  6
HIDDEN
 10
4.3150265241
 20
4.2258858032
 11
4.3139094003
 21
4.2271797141
  0
SPLINE
  5
2D8
100
AcDbEntity
  8
ALL_FEATURES
100
AcDbSpline
 62
7
  6
CONTINUOUS
 70
0
 71
3
 72
43
 73
39
 74
0
 42
0.0000001
 43
0.0000001
 44
0.0000000001
 40
0.0
 40
0.0
 40
0.0
 40
0.0
 40
0.0422838451
 40
0.0844188612
 40
0.1262432611
 40
0.1676237743
 40
0.2084396997
 40
0.2485687901
 40
0.287889911
 40
0.3262912406
 40
0.3636708121
 40
0.3999367057
 40
0.435008792
 40
0.4688211152
 40
0.5013258129
 40
0.5324940454
 40
0.5623220168
 40
0.5908314725
 40
0.6180768857
 40
0.6441458814
 40
0.6691657013
 40
0.6933019317
 40
0.7167604385
 40
0.7283148568
 40
0.7397920504
 40
0.7512257866
 40
0.7626505455
 40
0.7741012432
 40
0.7856125849
 40
0.8089401536
 40
0.8329017918
 40
0.8577237107
 40
0.8835962056
 40
0.896978546
 40
0.9106760791
 40
0.9390592212
 40
0.9688222283
 40
1.0
 40
1.0
 40
1.0
 40
1.0
 10
4.2768478251
 20
4.2355201951
 30
0.0
 10
4.2760596866
 20
4.2354735262
 30
0.0
 10
4.2744875878
 20
4.235354544
 30
0.0
 10
4.2721438594
 20
4.2350990131
 30
0.0
 10
4.2698267634
 20
4.2347667705
 30
0.0
 10
4.2675467903
 20
4.2343588415
 30
0.0
 10
4.2653137833
 20
4.2338762831
 30
0.0
 10
4.2631374452
 20
4.2333207035
 30
0.0
 10
4.2610275057
 20
4.2326938367
 30
0.0
 10
4.2589934796
 20
4.2319978521
 30
0.0
 10
4.2570445496
 20
4.231235244
 30
0.0
 10
4.2551896238
 20
4.23040873
 30
0.0
 10
4.2534372148
 20
4.2295214743
 30
0.0
 10
4.2517955668
 20
4.2285766911
 30
0.0
 10
4.2502723184
 20
4.2275781795
 30
0.0
 10
4.2488748628
 20
4.2265295932
 30
0.0
 10
4.2476098091
 20
4.2254352319
 30
0.0
 10
4.2464836042
 20
4.2242991349
 30
0.0
 10
4.2455017602
 20
4.2231259934
 30
0.0
 10
4.2446697819
 20
4.2219202341
 30
0.0
 10
4.2439920796
 20
4.2206869151
 30
0.0
 10
4.2434732096
 20
4.2194311548
 30
0.0
 10
4.2431743155
 20
4.2183648157
 30
0.0
 10
4.2430196055
 20
4.2175101573
 30
0.0
 10
4.2429453245
 20
4.2168704686
 30
0.0
 10
4.2429123801
 20
4.2162297622
 30
0.0
 10
4.2429208723
 20
4.2155887572
 30
0.0
 10
4.2429709508
 20
4.2149481808
 30
0.0
 10
4.2430936119
 20
4.2140921127
 30
0.0
 10
4.2433532476
 20
4.2130221079
 30
0.0
 10
4.2438292607
 20
4.2117593067
 30
0.0
 10
4.2444683539
 20
4.2105172969
 30
0.0
 10
4.2451269594
 20
4.2095158028
 30
0.0
 10
4.2457286574
 20
4.208730881
 30
0.0
 10
4.2463964842
 20
4.207938939
 30
0.0
 10
4.2473297812
 20
4.2069728725
 30
0.0
 10
4.2485827346
 20
4.2058697403
 30
0.0
 10
4.2494906323
 20
4.2051819751
 30
0.0
 10
4.2499659549
 20
4.2048458734
 30
0.0
  0
SPLINE
  5
2D9
100
AcDbEntity
  8
ALL_FEATURES
100
AcDbSpline
 62
7
  6
CONTINUOUS
 70
0
 71
3
 72
21
 73
17
 74
0
 42
0.0000001
 43
0.0000001
 44
0.0000000001
 40
0.0
 40
0.0
 40
0.0
 40
0.0
 40
0.0697308383
 40
0.1393243434
 40
0.2771865865
 40
0.4120853488
 40
0.4780180745
 40
0.5427142836
 40
0.6060179606
 40
0.6677893778
 40
0.7278972869
 40
0.7862254717
 40
0.8426740382
 40
0.8971565679
 40
0.9496121506
 40
1.0
 40
1.0
 40
1.0
 40
1.0
 10
4.2768478261
 20
4.1971843071
 30
0.0
 10
4.2762314326
 20
4.1971843071
 30
0.0
 10
4.27499977
 20
4.1972027321
 30
0.0
 10
4.2725517225
 20
4.1973124498
 30
0.0
 10
4.269535658
 20
4.1975839828
 30
0.0
 10
4.2665740076
 20
4.1980371036
 30
0.0
 10
4.2642738908
 20
4.1985065779
 30
0.0
 10
4.2626065033
 20
4.1989063584
 30
0.0
 10
4.2609897864
 20
4.1993552124
 30
0.0
 10
4.2594294238
 20
4.1998513495
 30
0.0
 10
4.2579309645
 20
4.2003931263
 30
0.0
 10
4.2564997204
 20
4.2009786461
 30
0.0
 10
4.2551407032
 20
4.2016056886
 30
0.0
 10
4.2538587929
 20
4.2022722714
 30
0.0
 10
4.2526585147
 20
4.2029758684
 30
0.0
 10
4.2519001054
 20
4.2034782147
 30
0.0
 10
4.2515364358
 20
4.2037353792
 30
0.0
  0
SPLINE
  5
2DA
100
AcDbEntity
  8
ALL_FEATURES
100
AcDbSpline
 62
7
  6
CONTINUOUS
 70
0
 71
3
 72
21
 73
17
 74
0
 42
0.0000001
 43
0.0000001
 44
0.0000000001
 40
0.0
 40
0.0
 40
0.0
 40
0.0
 40
0.0512381848
 40
0.1044250032
 40
0.1595137161
 40
0.2164352173
 40
0.2751033436
 40
0.3354211718
 40
0.3972751437
 40
0.460542547
 40
0.5250911937
 40
0.5907747068
 40
0.7249257436
 40
0.8617983556
 40
0.9308381316
 40
1.0
 40
1.0
 40
1.0
 40
1.0
 10
4.3014646248
 20
4.2032634212
 30
0.0
 10
4.3010974332
 20
4.2030235676
 30
0.0
 10
4.300335429
 20
4.2025553828
 30
0.0
 10
4.2991372231
 20
4.2018996426
 30
0.0
 10
4.2978659233
 20
4.2012793774
 30
0.0
 10
4.296525775
 20
4.2006965405
 30
0.0
 10
4.2951211607
 20
4.2001529544
 30
0.0
 10
4.293656614
 20
4.1996505679
 30
0.0
 10
4.2921369654
 20
4.1991908588
 30
0.0
 10
4.290567166
 20
4.1987753798
 30
0.0
 10
4.2889523406
 20
4.1984055912
 30
0.0
 10
4.2867308966
 20
4.1979718413
 30
0.0
 10
4.2838773511
 20
4.1975533653
 30
0.0
 10
4.2809755433
 20
4.1973025728
 30
0.0
 10
4.2786228931
 20
4.1972013066
 30
0.0
 10
4.2774398371
 20
4.1971843071
 30
0.0
 10
4.2768478261
 20
4.1971843071
 30
0.0
  0
SPLINE
  5
2DB
100
AcDbEntity
  8
ALL_FEATURES
100
AcDbSpline
 62
7
  6
CONTINUOUS
 70
0
 71
3
 72
23
 73
19
 74
0
 42
0.0000001
 43
0.0000001
 44
0.0000000001
 40
0.0
 40
0.0
 40
0.0
 40
0.0
 40
0.0768691228
 40
0.1498689109
 40
0.219130625
 40
0.2848702631
 40
0.3474057265
 40
0.4071636401
 40
0.4646840276
 40
0.5206156908
 40
0.5756948818
 40
0.6307124905
 40
0.6864700462
 40
0.7437302997
 40
0.8031836598
 40
0.8654150073
 40
0.9309003448
 40
1.0
 40
1.0
 40
1.0
 40
1.0
 10
4.309358283
 20
4.2088259151
 30
0.0
 10
4.3098006569
 20
4.2091387267
 30
0.0
 10
4.310643829
 20
4.2097766889
 30
0.0
 10
4.3118049341
 20
4.2107974229
 30
0.0
 10
4.3128249028
 20
4.2118530326
 30
0.0
 10
4.3136990677
 20
4.2129394171
 30
0.0
 10
4.3144233331
 20
4.2140522743
 30
0.0
 10
4.314994006
 20
4.2151871038
 30
0.0
 10
4.3154075657
 20
4.2163391831
 30
0.0
 10
4.3156614237
 20
4.2175032221
 30
0.0
 10
4.3157531288
 20
4.2186735829
 30
0.0
 10
4.3156819749
 20
4.2198441782
 30
0.0
 10
4.3154475987
 20
4.2210088241
 30
0.0
 10
4.3150515383
 20
4.2221616754
 30
0.0
 10
4.3144954335
 20
4.2232970667
 30
0.0
 10
4.3137821866
 20
4.2244100109
 30
0.0
 10
4.3129147925
 20
4.2254954136
 30
0.0
 10
4.3122545578
 20
4.2261785846
 30
0.0
 10
4.3119019681
 20
4.2265145689
 30
0.0
  0
LINE
  5
2DC
100
AcDbEntity
  8
ALL_FEATURES
100
AcDbLine
 62
7
  6
CONTINUOUS
 10
4.3113314667
 20
4.2270354904
 11
4.3095376326
 21
4.2284393217
  0
SPLINE
  5
2DD
100
AcDbEntity
  8
ALL_FEATURES
100
AcDbSpline
 62
7
  6
CONTINUOUS
 70
0
 71
3
 72
19
 73
15
 74
0
 42
0.0000001
 43
0.0000001
 44
0.0000000001
 40
0.0
 40
0.0
 40
0.0
 40
0.0
 40
0.0499612345
 40
0.1018471194
 40
0.1556431303
 40
0.2113218606
 40
0.2688427793
 40
0.3281478718
 40
0.4518180203
 40
0.5816909394
 40
0.6487164452
 40
0.7169830842
 40
0.8567552433
 40
1.0
 40
1.0
 40
1.0
 40
1.0
 10
4.3095376326
 20
4.2284393217
 30
0.0
 10
4.3091901763
 20
4.2286835877
 30
0.0
 10
4.3084685067
 20
4.229162738
 30
0.0
 10
4.3073315221
 20
4.2298403543
 30
0.0
 10
4.3061222068
 20
4.2304887843
 30
0.0
 10
4.3048433862
 20
4.2311061487
 30
0.0
 10
4.303498013
 20
4.2316906471
 30
0.0
 10
4.3015931915
 20
4.2324344356
 30
0.0
 10
4.2990649971
 20
4.2332671141
 30
0.0
 10
4.2964253188
 20
4.2339515929
 30
0.0
 10
4.2942200836
 20
4.2344201372
 30
0.0
 10
4.2919193961
 20
4.2348397833
 30
0.0
 10
4.2889599011
 20
4.2352505895
 30
0.0
 10
4.2865612352
 20
4.2354534833
 30
0.0
 10
4.2853455839
 20
4.2355247448
 30
0.0
  0
SPLINE
  5
2DE
100
AcDbEntity
  8
ALL_FEATURES
100
AcDbSpline
 62
7
  6
CONTINUOUS
 70
0
 71
3
 72
41
 73
37
 74
0
 42
0.0000001
 43
0.0000001
 44
0.0000000001
 40
0.0
 40
0.0
 40
0.0
 40
0.0
 40
0.0435772512
 40
0.087032409
 40
0.1301794658
 40
0.1728637099
 40
0.2149494797
 40
0.2563016289
 40
0.2967851582
 40
0.3362721018
 40
0.3746484794
 40
0.4118091565
 40
0.4476645394
 40
0.4821379769
 40
0.5151720746
 40
0.5467305404
 40
0.5767995781
 40
0.6053961315
 40
0.6325657955
 40
0.6456445495
 40
0.658401932
 40
0.6830127929
 40
0.7065750712
 40
0.7293011481
 40
0.7514436909
 40
0.773287342
 40
0.7951336257
 40
0.8172838908
 40
0.8400223739
 40
0.8636010599
 40
0.888231643
 40
0.9009998568
 40
0.9140899692
 40
0.9412836486
 40
0.9699053259
 40
1.0
 40
1.0
 40
1.0
 40
1.0
 10
4.2768478261
 20
4.2281843071
 30
0.0
 10
4.2775530852
 20
4.2281843071
 30
0.0
 10
4.2789617447
 20
4.2281602025
 30
0.0
 10
4.2810662118
 20
4.2280522744
 30
0.0
 10
4.2831513183
 20
4.2278727909
 30
0.0
 10
4.2852068178
 20
4.2276226824
 30
0.0
 10
4.2872232888
 20
4.2273031399
 30
0.0
 10
4.2891915378
 20
4.2269156035
 30
0.0
 10
4.2911024545
 20
4.2264620173
 30
0.0
 10
4.2929470508
 20
4.2259442333
 30
0.0
 10
4.2947168155
 20
4.2253649406
 30
0.0
 10
4.2964035012
 20
4.2247265661
 30
0.0
 10
4.2979993647
 20
4.2240322597
 30
0.0
 10
4.2994969995
 20
4.2232850993
 30
0.0
 10
4.3008894748
 20
4.222488493
 30
0.0
 10
4.3021704432
 20
4.2216461836
 30
0.0
 10
4.303333874
 20
4.2207617138
 30
0.0
 10
4.3043745184
 20
4.2198393655
 30
0.0
 10
4.3051448406
 20
4.2190321566
 30
0.0
 10
4.3056922909
 20
4.2183712992
 30
0.0
 10
4.3061821131
 20
4.2177177901
 30
0.0
 10
4.3067131083
 20
4.216884459
 30
0.0
 10
4.3072185154
 20
4.2158514473
 30
0.0
 10
4.3075816744
 20
4.2148020612
 30
0.0
 10
4.3077999572
 20
4.2137414264
 30
0.0
 10
4.3078722172
 20
4.2126750973
 30
0.0
 10
4.3077974243
 20
4.2116088192
 30
0.0
 10
4.3075766318
 20
4.2105483311
 30
0.0
 10
4.3072109895
 20
4.2094991869
 30
0.0
 10
4.3067031548
 20
4.2084664973
 30
0.0
 10
4.3061702082
 20
4.2076335164
 30
0.0
 10
4.3056788553
 20
4.206980309
 30
0.0
 10
4.3051298488
 20
4.206319774
 30
0.0
 10
4.3043576191
 20
4.2055130233
 30
0.0
 10
4.3033148585
 20
4.2045913265
 30
0.0
 10
4.3025568898
 20
4.204016589
 30
0.0
 10
4.3021592164
 20
4.2037353792
 30
0.0
  0
LINE
  5
2DF
100
AcDbEntity
  8
ALL_FEATURES
100
AcDbLine
 62
7
  6
CONTINUOUS
 10
4.2515364358
 20
4.2037353792
 11
4.250022242
 21
4.2049160135
  0
SPLINE
  5
2E0
100
AcDbEntity
  8
ALL_FEATURES
100
AcDbSpline
 62
7
  6
CONTINUOUS
 70
0
 71
3
 72
38
 73
34
 74
0
 42
0.0000001
 43
0.0000001
 44
0.0000000001
 40
0.0
 40
0.0
 40
0.0
 40
0.0
 40
0.0280967383
 40
0.0548485182
 40
0.0803434138
 40
0.1047028387
 40
0.1280895771
 40
0.150703182
 40
0.1727786017
 40
0.1945777887
 40
0.2163771291
 40
0.2384529994
 40
0.2610673305
 40
0.2844550332
 40
0.3088156226
 40
0.3343118378
 40
0.3475283274
 40
0.3610713219
 40
0.3891695716
 40
0.4186649977
 40
0.4495816122
 40
0.4819180829
 40
0.5156484259
 40
0.5507303861
 40
0.5871011582
 40
0.624685842
 40
0.6633961402
 40
0.7031326507
 40
0.7437874541
 40
0.82735435
 40
0.9131230974
 40
0.9565069902
 40
1.0
 40
1.0
 40
1.0
 40
1.0
 10
4.2500003294
 20
4.2049349605
 30
0.0
 10
4.249670406
 20
4.2052206982
 30
0.0
 10
4.2490463155
 20
4.2058022462
 30
0.0
 10
4.2482054147
 20
4.2067265187
 30
0.0
 10
4.2474864787
 20
4.20767708
 30
0.0
 10
4.2468931679
 20
4.2086502878
 30
0.0
 10
4.2464281571
 20
4.209641998
 30
0.0
 10
4.2460939964
 20
4.2106480637
 30
0.0
 10
4.2458927774
 20
4.2116639703
 30
0.0
 10
4.2458254553
 20
4.2126848678
 30
0.0
 10
4.2458929251
 20
4.2137057623
 30
0.0
 10
4.2460942906
 20
4.2147216612
 30
0.0
 10
4.2464285954
 20
4.2157277119
 30
0.0
 10
4.2468937523
 20
4.21671941
 30
0.0
 10
4.2474871868
 20
4.2176925719
 30
0.0
 10
4.2480792533
 20
4.2184752265
 30
0.0
 10
4.2486114857
 20
4.2190884068
 30
0.0
 10
4.2491975666
 20
4.2197073647
 30
0.0
 10
4.2500070066
 20
4.2204614924
 30
0.0
 10
4.2510808595
 20
4.2213219127
 30
0.0
 10
4.2522645002
 20
4.2221451592
 30
0.0
 10
4.2535528758
 20
4.222927728
 30
0.0
 10
4.2549404624
 20
4.2236665667
 30
0.0
 10
4.2564214922
 20
4.2243583121
 30
0.0
 10
4.257989571
 20
4.2250003168
 30
0.0
 10
4.2596381129
 20
4.2255896759
 30
0.0
 10
4.2613600837
 20
4.2261239584
 30
0.0
 10
4.2631481829
 20
4.2266009497
 30
0.0
 10
4.2656329429
 20
4.2271626916
 30
0.0
 10
4.268852488
 20
4.2277053979
 30
0.0
 10
4.2721434901
 20
4.2280305485
 30
0.0
 10
4.2748225271
 20
4.228162183
 30
0.0
 10
4.2761722008
 20
4.2281843071
 30
0.0
 10
4.2768478261
 20
4.2281843071
 30
0.0
  0
SPLINE
  5
2E1
100
AcDbEntity
  8
ALL_FEATURES
100
AcDbSpline
 62
7
  6
CONTINUOUS
 70
0
 71
3
 72
23
 73
19
 74
0
 42
0.0000001
 43
0.0000001
 44
0.0000000001
 40
0.0
 40
0.0
 40
0.0
 40
0.0
 40
0.0456113423
 40
0.0927570753
 40
0.1418619867
 40
0.193255349
 40
0.2471704847
 40
0.3037505147
 40
0.3630549331
 40
0.4250723028
 40
0.4897252205
 40
0.556884386
 40
0.6263702162
 40
0.6979662688
 40
0.771418762
 40
0.8464483962
 40
0.9227495668
 40
1.0
 40
1.0
 40
1.0
 40
1.0
 10
4.2446111336
 20
4.2217777568
 30
0.0
 10
4.2447292593
 20
4.2222606361
 30
0.0
 10
4.2450359042
 20
4.2232274853
 30
0.0
 10
4.2456856386
 20
4.2246343998
 30
0.0
 10
4.2465264623
 20
4.2260103542
 30
0.0
 10
4.2475525309
 20
4.2273478995
 30
0.0
 10
4.2487571329
 20
4.2286404705
 30
0.0
 10
4.250132798
 20
4.2298814965
 30
0.0
 10
4.2516709659
 20
4.2310649297
 30
0.0
 10
4.2533623932
 20
4.2321846694
 30
0.0
 10
4.2551966989
 20
4.2332353189
 30
0.0
 10
4.2571628817
 20
4.234211393
 30
0.0
 10
4.2592489038
 20
4.2351083106
 30
0.0
 10
4.2614421946
 20
4.2359214141
 30
0.0
 10
4.2637293274
 20
4.2366470766
 30
0.0
 10
4.2660964635
 20
4.2372816486
 30
0.0
 10
4.2685290681
 20
4.2378225521
 30
0.0
 10
4.2701769631
 20
4.2381176509
 30
0.0
 10
4.2710085392
 20
4.2382494251
 30
0.0
  0
LINE
  5
2E2
100
AcDbEntity
  8
ALL_FEATURES
100
AcDbLine
 62
7
  6
CONTINUOUS
 10
4.3066697327
 20
4.2316410935
 11
4.3074257079
 21
4.2308314091
  0
LINE
  5
2E3
100
AcDbEntity
  8
ALL_FEATURES
100
AcDbLine
 62
7
  6
CONTINUOUS
 10
4.3074257079
 20
4.2308314091
 11
4.3086268187
 21
4.2290539647
  0
SPLINE
  5
2E4
100
AcDbEntity
  8
0
100
AcDbSpline
 62
7
  6
CONTINUOUS
 70
0
 71
3
 72
27
 73
23
 74
0
 42
0.0000001
 43
0.0000001
 44
0.0000000001
 40
0.0
 40
0.0
 40
0.0
 40
0.0
 40
0.0603496628
 40
0.1283011717
 40
0.2021783139
 40
0.2805890312
 40
0.3622385833
 40
0.4457783113
 40
0.4877862278
 40
0.5296630377
 40
0.5711667377
 40
0.6120524662
 40
0.632185236
 40
0.6520678126
 40
0.6909610772
 40
0.7284965103
 40
0.7644496483
 40
0.7986080919
 40
0.8307685098
 40
0.8882961305
 40
0.9707100493
 40
1.0
 40
1.0
 40
1.0
 40
1.0
 10
3.874192774
 20
4.1309123747
 30
0.0
 10
3.8775143503
 20
4.1328780398
 30
0.0
 10
3.8846245594
 20
4.1369754828
 30
0.0
 10
3.8960037674
 20
4.1431201013
 30
0.0
 10
3.9086275682
 20
4.1493759081
 30
0.0
 10
3.9223149094
 20
4.1554317888
 30
0.0
 10
3.9368854207
 20
4.1609706829
 30
0.0
 10
3.9495587007
 20
4.1648817053
 30
0.0
 10
3.9599519107
 20
4.1674666394
 30
0.0
 10
3.9678065904
 20
4.1690935153
 30
0.0
 10
3.9756505557
 20
4.1703853857
 30
0.0
 10
3.9821618815
 20
4.1711741476
 30
0.0
 10
3.9873159549
 20
4.1716314634
 30
0.0
 10
3.9923515764
 20
4.1719685268
 30
0.0
 10
3.9985093043
 20
4.1721845617
 30
0.0
 10
4.0056984295
 20
4.1721376371
 30
0.0
 10
4.0125771995
 20
4.1718168394
 30
0.0
 10
4.0190962013
 20
4.1712662019
 30
0.0
 10
4.0269617471
 20
4.170323042
 30
0.0
 10
4.037823985
 20
4.1685080916
 30
0.0
 10
4.0483641245
 20
4.1659987367
 30
0.0
 10
4.0552263555
 20
4.1640086117
 30
0.0
 10
4.0570186717
 20
4.1634650039
 30
0.0
  0
SPLINE
  5
2E5
100
AcDbEntity
  8
0
100
AcDbSpline
 62
7
  6
CONTINUOUS
 70
0
 71
3
 72
27
 73
23
 74
0
 42
0.0000001
 43
0.0000001
 44
0.0000000001
 40
0.0
 40
0.0
 40
0.0
 40
0.0
 40
0.0292903983
 40
0.1117041162
 40
0.1692314551
 40
0.2013917801
 40
0.2355501347
 40
0.2715031074
 40
0.3090383975
 40
0.3479314321
 40
0.367813916
 40
0.3879465755
 40
0.4288320038
 40
0.4703354679
 40
0.5122121126
 40
0.554219957
 40
0.6377598944
 40
0.7194096594
 40
0.7978206905
 40
0.8716981391
 40
0.9396501219
 40
1.0
 40
1.0
 40
1.0
 40
1.0
 10
4.0570186717
 20
4.5325365489
 30
0.0
 10
4.0552263281
 20
4.5319929327
 30
0.0
 10
4.0483640817
 20
4.5300028042
 30
0.0
 10
4.0378239435
 20
4.527493453
 30
0.0
 10
4.0269617417
 20
4.5256785118
 30
0.0
 10
4.0190962256
 20
4.5247353516
 30
0.0
 10
4.0125772458
 20
4.5241847204
 30
0.0
 10
4.0056985016
 20
4.5238639093
 30
0.0
 10
3.9985094112
 20
4.5238170015
 30
0.0
 10
3.9923517115
 20
4.5240330001
 30
0.0
 10
3.9873161193
 20
4.5243700886
 30
0.0
 10
3.9821620769
 20
4.5248273853
 30
0.0
 10
3.9756507869
 20
4.5256161064
 30
0.0
 10
3.9678068734
 20
4.5269080118
 30
0.0
 10
3.9599522086
 20
4.5285348102
 30
0.0
 10
3.9495590135
 20
4.5311197999
 30
0.0
 10
3.9368856951
 20
4.5350307663
 30
0.0
 10
3.9223151362
 20
4.5405696727
 30
0.0
 10
3.9086277409
 20
4.5466255616
 30
0.0
 10
3.8960038739
 20
4.552881393
 30
0.0
 10
3.8846246099
 20
4.5590260417
 30
0.0
 10
3.8775143622
 20
4.563123506
 30
0.0
 10
3.874192774
 20
4.5650891781
 30
0.0
  0
SPLINE
  5
2E6
100
AcDbEntity
  8
0
100
AcDbSpline
 62
7
  6
CONTINUOUS
 70
0
 71
3
 72
15
 73
11
 74
0
 42
0.0000001
 43
0.0000001
 44
0.0000000001
 40
0.0
 40
0.0
 40
0.0
 40
0.0
 40
0.134594765
 40
0.2684962752
 40
0.4005930208
 40
0.5299954411
 40
0.6557775485
 40
0.7768402366
 40
0.8920016813
 40
1.0
 40
1.0
 40
1.0
 40
1.0
 10
4.2768478261
 20
4.2385159543
 30
0.0
 10
4.2749591567
 20
4.2385159543
 30
0.0
 10
4.271189838
 20
4.2383622682
 30
0.0
 10
4.2656039325
 20
4.2376828182
 30
0.0
 10
4.2601630226
 20
4.2365646051
 30
0.0
 10
4.2549410445
 20
4.2350378117
 30
0.0
 10
4.250009401
 20
4.2331352297
 30
0.0
 10
4.2454399551
 20
4.230900379
 30
0.0
 10
4.2413100609
 20
4.2283820412
 30
0.0
 10
4.2388108023
 20
4.2264826899
 30
0.0
 10
4.2376628092
 20
4.2254933801
 30
0.0
  0
LINE
  5
2E7
100
AcDbEntity
  8
0
100
AcDbLine
 62
7
  6
CONTINUOUS
 10
4.3105269854
 20
4.2277166224
 11
4.3095178111
 21
4.2300947205
  0
SPLINE
  5
2E8
100
AcDbEntity
  8
0
100
AcDbSpline
 62
7
  6
CONTINUOUS
 70
0
 71
3
 72
9
 73
5
 74
0
 42
0.0000001
 43
0.0000001
 44
0.0000000001
 40
0.0
 40
0.0
 40
0.0
 40
0.0
 40
0.4879272229
 40
1.0
 40
1.0
 40
1.0
 40
1.0
 10
4.3139255123
 20
4.2271840918
 30
0.0
 10
4.3128733097
 20
4.2279716596
 30
0.0
 10
4.3106407906
 20
4.2294856994
 30
0.0
 10
4.3082928999
 20
4.2308121468
 30
0.0
 10
4.3070674596
 20
4.2314453
 30
0.0
  0
SPLINE
  5
2E9
100
AcDbEntity
  8
0
100
AcDbSpline
 62
7
  6
CONTINUOUS
 70
0
 71
3
 72
10
 73
6
 74
0
 42
0.0000001
 43
0.0000001
 44
0.0000000001
 40
0.0
 40
0.0
 40
0.0
 40
0.0
 40
0.2388822263
 40
0.4867155313
 40
1.0
 40
1.0
 40
1.0
 40
1.0
 10
4.3070674596
 20
4.2314453
 30
0.0
 10
4.3054511419
 20
4.2322804094
 30
0.0
 10
4.3020719991
 20
4.2338207198
 30
0.0
 10
4.2948797224
 20
4.236344792
 30
0.0
 10
4.2891666059
 20
4.2375334272
 30
0.0
 10
4.2852859996
 20
4.2380048738
 30
0.0
  0
SPLINE
  5
2EA
100
AcDbEntity
  8
0
100
AcDbSpline
 62
7
  6
CONTINUOUS
 70
0
 71
3
 72
13
 73
9
 74
0
 42
0.0000001
 43
0.0000001
 44
0.0000000001
 40
0.0
 40
0.0
 40
0.0
 40
0.0
 40
0.2747356808
 40
0.5290563692
 40
0.6503010092
 40
0.7685907875
 40
0.884840384
 40
1.0
 40
1.0
 40
1.0
 40
1.0
 10
4.3138972722
 20
4.2271921005
 30
0.0
 10
4.3145184465
 20
4.2265369058
 30
0.0
 10
4.3156312938
 20
4.225191163
 30
0.0
 10
4.3167044493
 20
4.2233284135
 30
0.0
 10
4.3173002888
 20
4.2218161593
 30
0.0
 10
4.3176155241
 20
4.2206879432
 30
0.0
 10
4.3178048892
 20
4.2195522876
 30
0.0
 10
4.3178472709
 20
4.2187911777
 30
0.0
 10
4.3178473751
 20
4.2184127345
 30
0.0
  0
SPLINE
  5
2EB
100
AcDbEntity
  8
0
100
AcDbSpline
 62
7
  6
CONTINUOUS
 70
0
 71
3
 72
13
 73
9
 74
0
 42
0.0000001
 43
0.0000001
 44
0.0000000001
 40
0.0
 40
0.0
 40
0.0
 40
0.0
 40
0.1065093203
 40
0.2167870386
 40
0.4520003658
 40
0.5787010934
 40
0.7120781709
 40
1.0
 40
1.0
 40
1.0
 40
1.0
 10
4.3177202665
 20
4.2167969052
 30
0.0
 10
4.3176237468
 20
4.2164052894
 30
0.0
 10
4.3173755663
 20
4.2156200927
 30
0.0
 10
4.3166674806
 20
4.2140582916
 30
0.0
 10
4.3156558432
 20
4.2125656684
 30
0.0
 10
4.3144013901
 20
4.2111695375
 30
0.0
 10
4.3128886435
 20
4.2097458406
 30
0.0
 10
4.3116019596
 20
4.2087911076
 30
0.0
 10
4.3106895366
 20
4.2081942199
 30
0.0
  0
SPLINE
  5
2EC
100
AcDbEntity
  8
0
100
AcDbSpline
 62
7
  6
CONTINUOUS
 70
0
 71
3
 72
9
 73
5
 74
0
 42
0.0000001
 43
0.0000001
 44
0.0000000001
 40
0.0
 40
0.0
 40
0.0
 40
0.0
 40
0.4801132266
 40
1.0
 40
1.0
 40
1.0
 40
1.0
 10
4.3100147557
 20
4.2077664333
 30
0.0
 10
4.309024032
 20
4.2071576073
 30
0.0
 10
4.3068844315
 20
4.2060113866
 30
0.0
 10
4.3046452179
 20
4.2050791294
 30
0.0
 10
4.303464042
 20
4.2046428448
 30
0.0
  0
SPLINE
  5
2ED
100
AcDbEntity
  8
0
100
AcDbSpline
 62
7
  6
CONTINUOUS
 70
0
 71
3
 72
33
 73
29
 74
0
 42
0.0000001
 43
0.0000001
 44
0.0000000001
 40
0.0
 40
0.0
 40
0.0
 40
0.0
 40
0.0858886681
 40
0.1707656078
 40
0.2533901153
 40
0.3327560997
 40
0.4079193306
 40
0.4436457091
 40
0.4779981746
 40
0.5108839975
 40
0.5422280713
 40
0.571981558
 40
0.6001198179
 40
0.6266523942
 40
0.65164715
 40
0.67524299
 40
0.6976534339
 40
0.7191836413
 40
0.7402274613
 40
0.7612206205
 40
0.782614221
 40
0.8048272529
 40
0.828182473
 40
0.8791162316
 40
0.9069873214
 40
0.9364564917
 40
0.9674847218
 40
1.0
 40
1.0
 40
1.0
 40
1.0
 10
4.2768478261
 20
4.1967163943
 30
0.0
 10
4.2788064679
 20
4.1967163943
 30
0.0
 10
4.2827009439
 20
4.1967729675
 30
0.0
 10
4.2884744234
 20
4.1970328543
 30
0.0
 10
4.2940879654
 20
4.1974756746
 30
0.0
 10
4.2994593928
 20
4.198118597
 30
0.0
 10
4.3037390735
 20
4.1988477863
 30
0.0
 10
4.3069733722
 20
4.1995646361
 30
0.0
 10
4.3092458263
 20
4.2001581608
 30
0.0
 10
4.3113952247
 20
4.2008197612
 30
0.0
 10
4.3134103788
 20
4.2015526479
 30
0.0
 10
4.3152797906
 20
4.2023601166
 30
0.0
 10
4.3169918566
 20
4.2032445888
 30
0.0
 10
4.3185349743
 20
4.2042078206
 30
0.0
 10
4.3198968615
 20
4.2052522292
 30
0.0
 10
4.3210651263
 20
4.2063789875
 30
0.0
 10
4.3220291764
 20
4.2075863663
 30
0.0
 10
4.3227765043
 20
4.208873013
 30
0.0
 10
4.3232950734
 20
4.210233776
 30
0.0
 10
4.3235800143
 20
4.2116588076
 30
0.0
 10
4.3236260848
 20
4.2131377638
 30
0.0
 10
4.323433018
 20
4.2146583609
 30
0.0
 10
4.3228498134
 20
4.216786608
 30
0.0
 10
4.3218026868
 20
4.2188937215
 30
0.0
 10
4.3204064324
 20
4.2209316
 30
0.0
 10
4.3191287688
 20
4.2224934213
 30
0.0
 10
4.3176640456
 20
4.2240297982
 30
0.0
 10
4.3165945387
 20
4.2250093257
 30
0.0
 10
4.316032843
 20
4.2254933801
 30
0.0
  0
SPLINE
  5
2EE
100
AcDbEntity
  8
0
100
AcDbSpline
 62
7
  6
CONTINUOUS
 70
0
 71
3
 72
10
 73
6
 74
0
 42
0.0000001
 43
0.0000001
 44
0.0000000001
 40
0.0
 40
0.0
 40
0.0
 40
0.0
 40
0.239884192
 40
0.4854152494
 40
1.0
 40
1.0
 40
1.0
 40
1.0
 10
4.3177127374
 20
4.2201330816
 30
0.0
 10
4.3176575258
 20
4.2198291606
 30
0.0
 10
4.3175120804
 20
4.2192197388
 30
0.0
 10
4.3170836412
 20
4.2180036808
 30
0.0
 10
4.3166202875
 20
4.2171330167
 30
0.0
 10
4.316261812
 20
4.2165757336
 30
0.0
  0
LINE
  5
2EF
100
AcDbEntity
  8
0
100
AcDbLine
 62
7
  6
CONTINUOUS
 10
4.316261812
 20
4.2165757336
 11
4.3147247631
 21
4.2146199393
  0
SPLINE
  5
2F0
100
AcDbEntity
  8
0
100
AcDbSpline
 62
7
  6
CONTINUOUS
 70
0
 71
3
 72
34
 73
30
 74
0
 42
0.0000001
 43
0.0000001
 44
0.0000000001
 40
0.0
 40
0.0
 40
0.0
 40
0.0
 40
0.0307544485
 40
0.0599978823
 40
0.0876997115
 40
0.1138669862
 40
0.1385611651
 40
0.1619299938
 40
0.1841971407
 40
0.205659047
 40
0.2266998256
 40
0.2477375295
 40
0.2691788112
 40
0.2913991193
 40
0.3147006571
 40
0.3393011193
 40
0.3653484536
 40
0.3929267073
 40
0.4220625044
 40
0.4527425963
 40
0.4849327856
 40
0.5185745875
 40
0.5535890293
 40
0.5898873722
 40
0.6659430301
 40
0.7459069465
 40
0.8289037555
 40
0.9139890617
 40
1.0
 40
1.0
 40
1.0
 40
1.0
 10
4.2356815725
 20
4.2236465353
 30
0.0
 10
4.235208217
 20
4.2231672387
 30
0.0
 10
4.2343148505
 20
4.2222016709
 30
0.0
 10
4.2331177512
 20
4.2206968846
 30
0.0
 10
4.2321054398
 20
4.2191809686
 30
0.0
 10
4.2312868665
 20
4.2176640074
 30
0.0
 10
4.2306717833
 20
4.2161550578
 30
0.0
 10
4.2302666858
 20
4.214664401
 30
0.0
 10
4.2300759601
 20
4.2132020502
 30
0.0
 10
4.2301059059
 20
4.2117778858
 30
0.0
 10
4.2303567834
 20
4.2104028244
 30
0.0
 10
4.2308239442
 20
4.2090860083
 30
0.0
 10
4.2315034228
 20
4.2078361308
 30
0.0
 10
4.2323858582
 20
4.2066587937
 30
0.0
 10
4.2334597203
 20
4.2055554474
 30
0.0
 10
4.234715522
 20
4.2045276767
 30
0.0
 10
4.2361428669
 20
4.2035755857
 30
0.0
 10
4.237730495
 20
4.2026969496
 30
0.0
 10
4.2394679284
 20
4.2018901273
 30
0.0
 10
4.2413448718
 20
4.2011534411
 30
0.0
 10
4.2433509502
 20
4.2004841003
 30
0.0
 10
4.245476113
 20
4.1998792716
 30
0.0
 10
4.2477104424
 20
4.1993360634
 30
0.0
 10
4.2508715501
 20
4.1986801729
 30
0.0
 10
4.2550327553
 20
4.1980107802
 30
0.0
 10
4.2602358692
 20
4.1974181939
 30
0.0
 10
4.2656547517
 20
4.1970092999
 30
0.0
 10
4.2712159618
 20
4.1967687575
 30
0.0
 10
4.2749638582
 20
4.1967163943
 30
0.0
 10
4.2768478261
 20
4.1967163943
 30
0.0
  0
LINE
  5
2F1
100
AcDbEntity
  8
0
100
AcDbLine
 62
7
  6
CONTINUOUS
 10
4.3116455709
 20
4.226771404
 11
4.3115068179
 21
4.2276871712
  0
LINE
  5
2F2
100
AcDbEntity
  8
0
100
AcDbLine
 62
7
  6
CONTINUOUS
 10
4.3115068179
 20
4.2276871712
 11
4.3108726142
 21
4.2292603436
  0
SPLINE
  5
2F3
100
AcDbEntity
  8
0
100
AcDbSpline
 62
7
  6
CONTINUOUS
 70
0
 71
3
 72
15
 73
11
 74
0
 42
0.0000001
 43
0.0000001
 44
0.0000000001
 40
0.0
 40
0.0
 40
0.0
 40
0.0
 40
0.0414431941
 40
0.1545441927
 40
0.3155766489
 40
0.4999967084
 40
0.6844176311
 40
0.8454506494
 40
0.9585536013
 40
1.0
 40
1.0
 40
1.0
 40
1.0
 10
4.9013478261
 20
4.8330007764
 30
0.0
 10
4.8989488597
 20
4.8326341055
 30
0.0
 10
4.8899947887
 20
4.8313192243
 30
0.0
 10
4.8716527443
 20
4.8290403364
 30
0.0
 10
4.8448813691
 20
4.8268223022
 30
0.0
 10
4.813848354
 20
4.8259201307
 30
0.0
 10
4.7828153039
 20
4.8268222386
 30
0.0
 10
4.7560437275
 20
4.8290402438
 30
0.0
 10
4.7377013482
 20
4.8313191544
 30
0.0
 10
4.7287469779
 20
4.8326340769
 30
0.0
 10
4.7263478261
 20
4.8330007764
 30
0.0
  0
ENDSEC
  0
SECTION
  2
OBJECTS
  0
DICTIONARY
  5
C
100
AcDbDictionary
280
0
281
1
  3
ACAD_GROUP
350
D
  3
ACAD_MLINESTYLE
350
17
  3
ACAD_LAYOUT
350
1A
  3
ACAD_PLOTSETTINGS
350
19
  3
ACAD_PLOTSTYLENAME
350
E
  0
DICTIONARY
  5
D
102
{ACAD_REACTORS
330
C
102
}
100
AcDbDictionary
280
0
281
1
  0
ACDBDICTIONARYWDFLT
  5
E
102
{ACAD_REACTORS
330
C
102
}
100
AcDbDictionary
281
1
  3
Normal
350
F
100
AcDbDictionaryWithDefault
340
F
  0
DICTIONARY
  5
17
102
{ACAD_REACTORS
330
C
102
}
100
AcDbDictionary
280
0
281
1
  3
Standard
350
18
  0
DICTIONARY
  5
19
102
{ACAD_REACTORS
330
C
102
}
100
AcDbDictionary
281
1
  0
DICTIONARY
  5
1A
102
{ACAD_REACTORS
330
C
102
}
100
AcDbDictionary
281
1
  3
Model
350
2F4
  3
Layout1
350
2F5
  0
ACDBPLACEHOLDER
  5
F
102
{ACAD_REACTORS
330
E
102
}
  0
MLINESTYLE
  5
18
102
{ACAD_REACTORS
330
17
102
}
100
AcDbMlineStyle
  2
STANDARD
 70
0
  3

 62
256
 51
90.0
 52
90.0
 71
2
 49
0.5
 62
256
  6
BYLAYER
 49
-0.5
 62
256
  6
BYLAYER
  0
LAYOUT
  5
2F4
102
{ACAD_REACTORS
330
1A
102
}
100
AcDbPlotSettings
  1

  2
none_device
  4
ANSI_A_(11.00_x_8.50_Inches)
  6

 40
0.0
 41
0.0
 42
0.0
 43
0.0
 44
279.4
 45
215.9
 46
0.0
 47
0.0
 48
0.0
 49
0.0
140
0.0
141
0.0
142
1.0
143
1.0
 70
1024
 72
0
 73
0
 74
0
  7

 75
0
147
1.0
148
0.0
149
0.0
100
AcDbLayout
  1
Model
 70
0
 71
0
 10
0.0
 20
0.0
 11
11.0
 21
8.5
 12
0.0
 22
0.0
 32
0.0
 14
0.0
 24
0.0
 34
0.0
 15
0.0
 25
0.0
 35
0.0
146
0.0
 13
0.0
 23
0.0
 33
0.0
 16
1.0
 26
0.0
 36
0.0
 17
0.0
 27
1.0
 37
0.0
 76
0
330
21E
345
0
346
0
  0
LAYOUT
  5
2F5
102
{ACAD_REACTORS
330
1A
102
}
100
AcDbPlotSettings
  1

  2
none_device
  4
ANSI_A_(11.00_x_8.50_Inches)
  6

 40
0.0
 41
0.0
 42
0.0
 43
0.0
 44
279.4
 45
215.9
 46
0.0
 47
0.0
 48
0.0
 49
0.0
140
0.0
141
0.0
142
1.0
143
1.0
 70
0
 72
0
 73
0
 74
0
  7

 75
0
147
1.0
148
0.0
149
0.0
100
AcDbLayout
  1
Layout1
 70
0
 71
1
 10
0.0
 20
0.0
 11
11.0
 21
8.5
 12
0.0
 22
0.0
 32
0.0
 14
0.0
 24
0.0
 34
0.0
 15
0.0
 25
0.0
 35
0.0
146
0.0
 13
0.0
 23
0.0
 33
0.0
 16
1.0
 26
0.0
 36
0.0
 17
0.0
 27
1.0
 37
0.0
 76
0
330
21F
345
0
346
0
  0
ENDSEC
  0
EOF
