999
DXF file: E:\BT Custom\CADOUTPUT\_TOP.dxf
999
Pro/ENGINEER 2018400 by Parametric Technology Corporation
  0
SECTION
  2
HEADER
  9
$ACADVER
  1
AC1018
  9
$DWGCODEPAGE
  3
ANSI_1252
  9
$EXTMAX
 10
22.0
 20
17.0
 30
0.0
  9
$EXTMIN
 10
0.0
 20
0.0
 30
0.0
  9
$LIMMIN
 10
0.0
 20
0.0
  9
$LIMMAX
 10
22.0
 20
17.0
  9
$VIEWCTR
 10
11.0
 20
8.5
  9
$VIEWSIZE
 40
17.0
  9
$CLAYER
  8
0
  9
$LTSCALE
 40
1.21
  9
$CELTYPE
  6
BYLAYER
  9
$DIMSCALE
 40
1.0
  9
$DIMASZ
 40
0.1
  9
$DIMEXO
 40
0.0625
  9
$DIMDLI
 40
0.836
  9
$DIMEXE
 40
0.125
  9
$DIMCEN
 40
0.198
  9
$DIMLFAC
 40
1.0
  9
$DIMBLK
  1
_FILLED
  9
$DIMALT
 70
1
  9
$DIMALTD
 70
2
  9
$DIMALTTD
 70
2
  9
$DIMALTF
 40
25.4
  9
$DIMTXT
 40
0.08
  9
$DIMTOL
 70
1
  9
$DIMLIM
 70
0
  9
$DIMTFAC
 40
1.0
  9
$DIMTP
 40
0.001
  9
$DIMTM
 40
0.001
  9
$DIMGAP
 40
0.09
  9
$DIMDSEP
 70
46
  9
$AUNITS
 70
0
  9
$PDMODE
 70
3
  9
$PDSIZE
 40
0.06
  9
$HANDSEED
  5
4E5
  9
$TILEMODE
 70
1
  9
$MEASUREMENT
 70
0
  9
$INSUNITS
 70
1
  0
ENDSEC
  0
SECTION
  2
CLASSES
  0
CLASS
  1
ACDBDICTIONARYWDFLT
  2
AcDbDictionaryWithDefault
  3
AutoCAD 2000
 90
0
 91
1
280
0
281
0
  0
CLASS
  1
ACDBPLACEHOLDER
  2
AcDbPlaceHolder
  3
AutoCAD 2000
 90
0
 91
1
280
0
281
0
  0
CLASS
  1
LAYOUT
  2
AcDbLayout
  3
AutoCAD 2000
 90
0
 91
0
280
0
281
0
  0
ENDSEC
  0
SECTION
  2
TABLES
  0
TABLE
  2
VPORT
  5
8
100
AcDbSymbolTable
 70
2
  0
VPORT
  5
1F4
100
AcDbSymbolTableRecord
100
AcDbViewportTableRecord
  2
*ACTIVE
 70
0
 10
0.0
 20
0.0
 11
1.0
 21
1.0
 12
11.0
 22
8.5
 13
0.0
 23
0.0
 14
1.0
 24
1.0
 15
0.0
 25
0.0
 16
0.0
 26
0.0
 36
1.0
 17
0.0
 27
0.0
 37
0.0
 40
17.0
 41
1.2941176471
 42
50.0
 43
0.0
 44
0.0
 50
0.0
 51
0.0
 71
0
 72
100
 73
1
 74
1
 75
0
 76
0
 77
0
 78
0
  0
ENDTAB
  0
TABLE
  2
LTYPE
  5
5
100
AcDbSymbolTable
 70
6
  0
LTYPE
  5
14
100
AcDbSymbolTableRecord
100
AcDbLinetypeTableRecord
  2
BYBLOCK
 70
0
  3

 72
65
 73
0
 40
0.0
  0
LTYPE
  5
15
100
AcDbSymbolTableRecord
100
AcDbLinetypeTableRecord
  2
BYLAYER
 70
0
  3

 72
65
 73
0
 40
0.0
  0
LTYPE
  5
16
100
AcDbSymbolTableRecord
100
AcDbLinetypeTableRecord
  2
CONTINUOUS
 70
64
  3
Solid line
 72
65
 73
0
 40
0.0
  0
LTYPE
  5
1F5
100
AcDbSymbolTableRecord
100
AcDbLinetypeTableRecord
  2
CENTER
 70
64
  3
____ _ ____ _ ____ _ ____ _ ____ _ ____ _ ____
 72
65
 73
4
 40
0.6
 49
0.375
 74
0
 49
-0.075
 74
0
 49
0.075
 74
0
 49
-0.075
 74
0
  0
LTYPE
  5
1F6
100
AcDbSymbolTableRecord
100
AcDbLinetypeTableRecord
  2
HIDDEN
 70
64
  3
- - - - - - - - - - - - - - - - - - - -
 72
65
 73
2
 40
0.2
 49
0.1
 74
0
 49
-0.1
 74
0
  0
LTYPE
  5
1F7
100
AcDbSymbolTableRecord
100
AcDbLinetypeTableRecord
  2
PHANTOM
 70
64
  3
_____ _ _ _____ _ _ _____ _ _ _____
 72
65
 73
6
 40
0.8
 49
0.45
 74
0
 49
-0.05
 74
0
 49
0.1
 74
0
 49
-0.05
 74
0
 49
0.1
 74
0
 49
-0.05
 74
0
  0
LTYPE
  5
1F8
100
AcDbSymbolTableRecord
100
AcDbLinetypeTableRecord
  2
DOT
 70
64
  3
. . . . . . . . . . . . . . . . . . . .
 72
65
 73
2
 40
0.2
 49
0.1
 74
0
 49
-0.1
 74
0
  0
LTYPE
  5
1F9
100
AcDbSymbolTableRecord
100
AcDbLinetypeTableRecord
  2
DASHED
 70
64
  3
- - - - - - - - - - - - - - - - - - - -
 72
65
 73
2
 40
0.2
 49
0.1
 74
0
 49
-0.1
 74
0
  0
ENDTAB
  0
TABLE
  2
LAYER
  5
2
100
AcDbSymbolTable
 70
36
  0
LAYER
  5
10
100
AcDbSymbolTableRecord
100
AcDbLayerTableRecord
  2
0
 70
0
 62
7
  6
CONTINUOUS
370
-3
390
F
  0
LAYER
  5
1FA
100
AcDbSymbolTableRecord
100
AcDbLayerTableRecord
  2
DEFAULT_1
 70
0
 62
7
  6
CENTER
370
-3
390
F
  0
LAYER
  5
1FB
100
AcDbSymbolTableRecord
100
AcDbLayerTableRecord
  2
DEFAULT_2
 70
0
 62
8
  6
HIDDEN
370
-3
390
F
  0
LAYER
  5
1FC
100
AcDbSymbolTableRecord
100
AcDbLayerTableRecord
  2
DEFAULT_3
 70
0
 62
7
  6
PHANTOM
370
-3
390
F
  0
LAYER
  5
1FD
100
AcDbSymbolTableRecord
100
AcDbLayerTableRecord
  2
ALL_FEATURES
 70
0
 62
7
  6
CONTINUOUS
370
-3
390
F
  0
LAYER
  5
1FE
100
AcDbSymbolTableRecord
100
AcDbLayerTableRecord
  2
AXES_FEATURES
 70
0
 62
7
  6
CONTINUOUS
370
-3
390
F
  0
LAYER
  5
1FF
100
AcDbSymbolTableRecord
100
AcDbLayerTableRecord
  2
DEFAULT_COORDINATE_SYSTEM
 70
0
 62
7
  6
CONTINUOUS
370
-3
390
F
  0
LAYER
  5
200
100
AcDbSymbolTableRecord
100
AcDbLayerTableRecord
  2
DEFAULT_DATUM_AXES
 70
0
 62
7
  6
CONTINUOUS
370
-3
390
F
  0
LAYER
  5
201
100
AcDbSymbolTableRecord
100
AcDbLayerTableRecord
  2
DEFAULT_DATUM_PLANES
 70
0
 62
7
  6
CONTINUOUS
370
-3
390
F
  0
LAYER
  5
202
100
AcDbSymbolTableRecord
100
AcDbLayerTableRecord
  2
DIMENSIONS
 70
0
 62
7
  6
CONTINUOUS
370
-3
390
F
  0
ENDTAB
  0
TABLE
  2
STYLE
  5
3
100
AcDbSymbolTable
 70
1
  0
STYLE
  5
11
100
AcDbSymbolTableRecord
100
AcDbTextStyleTableRecord
  2
STANDARD
 70
0
 40
0.0
 41
0.8
 50
0.0
 71
0
 42
0.2
  3
txt
  4

  0
STYLE
  5
203
100
AcDbSymbolTableRecord
100
AcDbTextStyleTableRecord
  2
TEXTSTYLE_1
 70
0
 40
0.0
 41
0.8
 50
0.0
 71
0
 42
0.2
  3
gdt
  4

  0
ENDTAB
  0
TABLE
  2
VIEW
  5
6
100
AcDbSymbolTable
 70
0
  0
ENDTAB
  0
TABLE
  2
UCS
  5
7
100
AcDbSymbolTable
 70
0
  0
ENDTAB
  0
TABLE
  2
APPID
  5
9
100
AcDbSymbolTable
 70
1
  0
APPID
  5
204
100
AcDbSymbolTableRecord
100
AcDbRegAppTableRecord
  2
ACAD
 70
0
  0
ENDTAB
  0
TABLE
  2
BLOCK_RECORD
  5
1
100
AcDbSymbolTable
 70
0
  0
BLOCK_RECORD
  5
205
100
AcDbSymbolTableRecord
100
AcDbBlockTableRecord
  2
*Model_Space
  0
BLOCK_RECORD
  5
206
100
AcDbSymbolTableRecord
100
AcDbBlockTableRecord
  2
*Paper_Space
  0
BLOCK_RECORD
  5
207
100
AcDbSymbolTableRecord
100
AcDbBlockTableRecord
  2
_FILLED
  0
ENDTAB
  0
TABLE
  2
DIMSTYLE
  5
A
100
AcDbSymbolTable
 70
1
100
AcDbDimStyleTable
 71
0
  0
DIMSTYLE
105
208
100
AcDbSymbolTableRecord
100
AcDbDimStyleTableRecord
  2
STANDARD
 70
0
  3

  4

 40
1.0
 41
0.1
 42
0.0625
 43
0.38
 44
0.125
 45
0.0
 46
0.0
 47
0.001
 48
0.001
140
0.08
141
0.09
142
0.0
143
25.4
144
1.0
145
0.0
146
1.0
147
0.09
 71
1.0
 72
0.0
 73
1
 74
1
 75
0
 76
0
 77
0
 78
4
 79
1
170
1
171
2
172
0
173
0
174
0
175
0
176
0
177
0
178
0
270
2
179
3
271
3
272
3
273
2
274
2
275
0
280
0
281
0
282
0
283
1
284
4
285
0
286
0
287
3
288
0
340
11
278
46
341
207
342
207
343
207
344
207
  0
ENDTAB
  0
ENDSEC
  0
SECTION
  2
BLOCKS
  0
BLOCK
  5
20
100
AcDbEntity
  8
0
100
AcDbBlockBegin
  2
*Model_Space
 70
0
 10
0.0
 20
0.0
 30
0.0
  3
*Model_Space
  1

  0
ENDBLK
  5
21
100
AcDbEntity
  8
0
100
AcDbBlockEnd
  0
BLOCK
  5
1C
100
AcDbEntity
  8
0
100
AcDbBlockBegin
  2
*Paper_Space
 70
0
 10
0.0
 20
0.0
 30
0.0
  3
*Paper_Space
  1

  0
ENDBLK
  5
1D
100
AcDbEntity
  8
0
100
AcDbBlockEnd
  0
BLOCK
  5
209
100
AcDbEntity
  8
0
100
AcDbBlockBegin
  2
_FILLED
 70
64
 10
0.0
 20
0.0
  3
_FILLED
  1

  0
SOLID
  5
20A
100
AcDbEntity
  8
0
  6
BYBLOCK
 62
0
100
AcDbTrace
 10
0.0
 20
0.0
 11
-1.0
 21
0.2
 12
-1.0
 22
-0.2
 13
-1.0
 23
-0.2
  0
ENDBLK
  5
20B
100
AcDbEntity
  8
0
  6
BYBLOCK
 62
0
100
AcDbBlockEnd
  0
ENDSEC
  0
SECTION
  2
ENTITIES
  0
LINE
  5
20C
100
AcDbEntity
  8
0
100
AcDbLine
 62
9
  6
CONTINUOUS
 10
0.372229726
 20
11.3351173993
 11
0.372229726
 21
11.9648284546
  0
LINE
  5
20D
100
AcDbEntity
  8
0
100
AcDbLine
 62
7
  6
CONTINUOUS
 10
0.4321371079
 20
11.3374729269
 11
0.4321371079
 21
11.9624725453
  0
LINE
  5
20E
100
AcDbEntity
  8
0
100
AcDbLine
 62
7
  6
CONTINUOUS
 10
1.2889577546
 20
12.1624729269
 11
1.1066691379
 21
11.8467397811
  0
LINE
  5
20F
100
AcDbEntity
  8
0
100
AcDbLine
 62
7
  6
CONTINUOUS
 10
1.2998497676
 20
10.4972602672
 11
1.3902310341
 21
11.1882144278
  0
LINE
  5
210
100
AcDbEntity
  8
0
100
AcDbLine
 62
7
  6
CONTINUOUS
 10
1.8698497676
 20
12.8026855866
 11
1.779468501
 21
12.111731426
  0
LINE
  5
211
100
AcDbEntity
  8
0
100
AcDbLine
 62
7
  6
CONTINUOUS
 10
1.8807417805
 20
11.1374729269
 11
2.0630303973
 21
11.4532060727
  0
LINE
  5
212
100
AcDbEntity
  8
0
100
AcDbLine
 62
7
  6
CONTINUOUS
 10
1.2998497676
 20
12.8026855866
 11
1.3902303223
 21
12.1117368681
  0
LINE
  5
213
100
AcDbEntity
  8
0
100
AcDbLine
 62
7
  6
CONTINUOUS
 10
2.7375624273
 20
11.3374733085
 11
2.7375624273
 21
11.9624725453
  0
LINE
  5
214
100
AcDbEntity
  8
0
100
AcDbLine
 62
9
  6
CONTINUOUS
 10
2.7974698091
 20
11.3351173993
 11
2.7974698091
 21
11.9648284546
  0
LINE
  5
215
100
AcDbEntity
  8
0
100
AcDbLine
 62
7
  6
CONTINUOUS
 10
1.8698497676
 20
10.4972602672
 11
1.7794692129
 21
11.1882089857
  0
LINE
  5
216
100
AcDbEntity
  8
0
100
AcDbLine
 62
7
  6
CONTINUOUS
 10
4.8138206841
 20
11.8865239838
 11
4.8185278801
 21
11.9013551355
  0
LINE
  5
217
100
AcDbEntity
  8
0
100
AcDbLine
 62
7
  6
CONTINUOUS
 10
4.8317609459
 20
11.9385894141
 11
4.8374692819
 21
11.9530647605
  0
LINE
  5
218
100
AcDbEntity
  8
0
100
AcDbLine
 62
7
  6
CONTINUOUS
 10
4.8532124554
 20
11.3106366727
 11
4.8634630789
 21
11.3366304697
  0
LINE
  5
219
100
AcDbEntity
  8
0
100
AcDbLine
 62
7
  6
CONTINUOUS
 10
5.2715073104
 20
12.3713596155
 11
5.281757934
 21
12.3973534126
  0
LINE
  5
21A
100
AcDbEntity
  8
0
100
AcDbLine
 62
7
  6
CONTINUOUS
 10
4.8532124554
 20
11.9893091811
 11
4.8598953165
 21
12.0033612316
  0
LINE
  5
21B
100
AcDbEntity
  8
0
100
AcDbLine
 62
7
  6
CONTINUOUS
 10
4.8317609459
 20
11.3613564397
 11
4.8437615523
 21
11.3865901119
  0
LINE
  5
21C
100
AcDbEntity
  8
0
100
AcDbLine
 62
7
  6
CONTINUOUS
 10
5.3214669526
 20
12.3910611422
 11
5.333467559
 21
12.4162948144
  0
LINE
  5
21D
100
AcDbEntity
  8
0
100
AcDbLine
 62
7
  6
CONTINUOUS
 10
4.8780751958
 20
12.0384468059
 11
4.8857014234
 21
12.0520100432
  0
LINE
  5
21E
100
AcDbEntity
  8
0
100
AcDbLine
 62
7
  6
CONTINUOUS
 10
4.8138206841
 20
11.41342187
 11
4.8275153211
 21
11.4377777664
  0
LINE
  5
21F
100
AcDbEntity
  8
0
100
AcDbLine
 62
7
  6
CONTINUOUS
 10
5.3726546071
 20
12.4073073734
 11
5.386349244
 21
12.4316632698
  0
LINE
  5
220
100
AcDbEntity
  8
0
100
AcDbLine
 62
7
  6
CONTINUOUS
 10
4.9062332455
 20
12.0857731861
 11
4.9147672826
 21
12.0987843722
  0
LINE
  5
221
100
AcDbEntity
  8
0
100
AcDbLine
 62
7
  6
CONTINUOUS
 10
4.7994753159
 20
11.4665902106
 11
4.8148001326
 21
11.4899547726
  0
LINE
  5
222
100
AcDbEntity
  8
0
100
AcDbLine
 62
7
  6
CONTINUOUS
 10
5.4248316133
 20
12.4200225619
 11
5.44015643
 21
12.443387124
  0
LINE
  5
223
100
AcDbEntity
  8
0
100
AcDbLine
 62
7
  6
CONTINUOUS
 10
4.7887917259
 20
11.520613566
 11
4.805675271
 21
11.5428778574
  0
LINE
  5
224
100
AcDbEntity
  8
0
100
AcDbLine
 62
7
  6
CONTINUOUS
 10
5.4777546981
 20
12.4291474235
 11
5.4946382432
 21
12.4514117149
  0
LINE
  5
225
100
AcDbEntity
  8
0
100
AcDbLine
 62
7
  6
CONTINUOUS
 10
4.9718953773
 20
12.1741190568
 11
4.9821216176
 21
12.1858470047
  0
LINE
  5
226
100
AcDbEntity
  8
0
100
AcDbLine
 62
7
  6
CONTINUOUS
 10
4.7818197259
 20
11.5752400545
 11
4.8001832806
 21
11.5963002688
  0
LINE
  5
227
100
AcDbEntity
  8
0
100
AcDbLine
 62
7
  6
CONTINUOUS
 10
5.5311771095
 20
12.4346394139
 11
5.5495406641
 21
12.4556996282
  0
LINE
  5
228
100
AcDbEntity
  8
0
100
AcDbLine
 62
7
  6
CONTINUOUS
 10
5.0090933124
 20
12.2147266381
 11
5.0200960564
 21
12.2257293821
  0
LINE
  5
229
100
AcDbEntity
  8
0
100
AcDbLine
 62
7
  6
CONTINUOUS
 10
4.7785918227
 20
11.6302149821
 11
4.7983497676
 21
11.6499729269
  0
LINE
  5
22A
100
AcDbEntity
  8
0
100
AcDbLine
 62
7
  6
CONTINUOUS
 10
5.5848497676
 20
12.4364729269
 11
5.6046077124
 21
12.4562308718
  0
LINE
  5
22B
100
AcDbEntity
  8
0
100
AcDbLine
 62
7
  6
CONTINUOUS
 10
5.0489756897
 20
12.2527010768
 11
5.0607036377
 21
12.2629273172
  0
LINE
  5
22C
100
AcDbEntity
  8
0
100
AcDbLine
 62
7
  6
CONTINUOUS
 10
4.7791230663
 20
11.6852820304
 11
4.8001832806
 21
11.703645585
  0
LINE
  5
22D
100
AcDbEntity
  8
0
100
AcDbLine
 62
7
  6
CONTINUOUS
 10
5.6385224257
 20
12.4346394139
 11
5.65958264
 21
12.4530029686
  0
LINE
  5
22E
100
AcDbEntity
  8
0
100
AcDbLine
 62
7
  6
CONTINUOUS
 10
5.0913565595
 20
12.2878653187
 11
5.1037550302
 21
12.2972673759
  0
LINE
  5
22F
100
AcDbEntity
  8
0
100
AcDbLine
 62
7
  6
CONTINUOUS
 10
4.7834109796
 20
11.7401844513
 11
4.805675271
 21
11.7570679964
  0
LINE
  5
230
100
AcDbEntity
  8
0
100
AcDbLine
 62
7
  6
CONTINUOUS
 10
5.6919448371
 20
12.4291474235
 11
5.7142091285
 21
12.4460309686
  0
LINE
  5
231
100
AcDbEntity
  8
0
100
AcDbLine
 62
7
  6
CONTINUOUS
 10
5.1360383223
 20
12.3200554118
 11
5.1490495084
 21
12.328589449
  0
LINE
  5
232
100
AcDbEntity
  8
0
100
AcDbLine
 62
7
  6
CONTINUOUS
 10
4.7785918227
 20
11.6697308718
 11
4.7791230663
 21
11.6852820304
  0
LINE
  5
233
100
AcDbEntity
  8
0
100
AcDbLine
 62
7
  6
CONTINUOUS
 10
4.7818197259
 20
11.7247057994
 11
4.7834109796
 21
11.7401844513
  0
LINE
  5
234
100
AcDbEntity
  8
0
100
AcDbLine
 62
7
  6
CONTINUOUS
 10
4.9718953773
 20
11.125826797
 11
4.9747528374
 21
11.1536222587
  0
LINE
  5
235
100
AcDbEntity
  8
0
100
AcDbLine
 62
7
  6
CONTINUOUS
 10
5.0884990994
 20
12.2600698571
 11
5.0913565595
 21
12.2878653187
  0
LINE
  5
236
100
AcDbEntity
  8
0
100
AcDbLine
 62
7
  6
CONTINUOUS
 10
4.7887917259
 20
11.7793322878
 11
4.7914355705
 21
11.7946662645
  0
LINE
  5
237
100
AcDbEntity
  8
0
100
AcDbLine
 62
7
  6
CONTINUOUS
 10
4.9375553186
 20
11.1688781895
 11
4.9423029467
 21
11.1964138536
  0
LINE
  5
238
100
AcDbEntity
  8
0
100
AcDbLine
 62
7
  6
CONTINUOUS
 10
5.1312906942
 20
12.2925197478
 11
5.1360383223
 21
12.3200554118
  0
LINE
  5
239
100
AcDbEntity
  8
0
100
AcDbLine
 62
7
  6
CONTINUOUS
 10
4.9062332455
 20
11.2141726677
 11
4.9128489059
 21
11.2413201502
  0
LINE
  5
23A
100
AcDbEntity
  8
0
100
AcDbLine
 62
7
  6
CONTINUOUS
 10
5.1761969909
 20
12.3219737886
 11
5.1828126513
 21
12.3491212711
  0
LINE
  5
23B
100
AcDbEntity
  8
0
100
AcDbLine
 62
7
  6
CONTINUOUS
 10
4.8780751958
 20
11.2614990479
 11
4.8865280433
 21
11.2881317747
  0
LINE
  5
23C
100
AcDbEntity
  8
0
100
AcDbLine
 62
7
  6
CONTINUOUS
 10
5.2230086154
 20
12.3482946512
 11
5.2314614629
 21
12.374927378
  0
LINE
  5
23D
100
AcDbEntity
  8
0
100
AcDbLine
 62
7
  6
CONTINUOUS
 10
4.7914355705
 20
11.7946662645
 11
4.8148001326
 21
11.8099910812
  0
LINE
  5
23E
100
AcDbEntity
  8
0
100
AcDbLine
 62
7
  6
CONTINUOUS
 10
5.7448679218
 20
12.4200225619
 11
5.7682324839
 21
12.4353473786
  0
LINE
  5
23F
100
AcDbEntity
  8
0
100
AcDbLine
 62
7
  6
CONTINUOUS
 10
5.1828126513
 20
12.3491212711
 11
5.1963758886
 21
12.3567474987
  0
LINE
  5
240
100
AcDbEntity
  8
0
100
AcDbLine
 62
7
  6
CONTINUOUS
 10
4.8031594247
 20
11.8484734505
 11
4.8275153211
 21
11.8621680874
  0
LINE
  5
241
100
AcDbEntity
  8
0
100
AcDbLine
 62
7
  6
CONTINUOUS
 10
5.7970449281
 20
12.4073073734
 11
5.8214008245
 21
12.4210020103
  0
LINE
  5
242
100
AcDbEntity
  8
0
100
AcDbLine
 62
7
  6
CONTINUOUS
 10
4.8185278801
 20
11.9013551355
 11
4.8437615523
 21
11.9133557419
  0
LINE
  5
243
100
AcDbEntity
  8
0
100
AcDbLine
 62
7
  6
CONTINUOUS
 10
5.8482325825
 20
12.3910611422
 11
5.8734662548
 21
12.4030617486
  0
LINE
  5
244
100
AcDbEntity
  8
0
100
AcDbLine
 62
7
  6
CONTINUOUS
 10
5.281757934
 20
12.3973534126
 11
5.2962332804
 21
12.4030617486
  0
LINE
  5
245
100
AcDbEntity
  8
0
100
AcDbLine
 62
7
  6
CONTINUOUS
 10
4.8374692819
 20
11.9530647605
 11
4.8634630789
 21
11.9633153841
  0
LINE
  5
246
100
AcDbEntity
  8
0
100
AcDbLine
 62
7
  6
CONTINUOUS
 10
5.8981922247
 20
12.3713596155
 11
5.9241860218
 21
12.3816102391
  0
LINE
  5
247
100
AcDbEntity
  8
0
100
AcDbLine
 62
7
  6
CONTINUOUS
 10
5.333467559
 20
12.4162948144
 11
5.3482987107
 21
12.4210020103
  0
LINE
  5
248
100
AcDbEntity
  8
0
100
AcDbLine
 62
7
  6
CONTINUOUS
 10
1.1066691379
 20
11.4532060727
 11
1.2889577546
 21
11.1374729269
  0
LINE
  5
249
100
AcDbEntity
  8
0
100
AcDbLine
 62
7
  6
CONTINUOUS
 10
4.7834109796
 20
11.5597614025
 11
4.7818197259
 21
11.5752400545
  0
LINE
  5
24A
100
AcDbEntity
  8
0
100
AcDbLine
 62
7
  6
CONTINUOUS
 10
5.0913565595
 20
11.0120805351
 11
5.0884990994
 21
11.0398759968
  0
LINE
  5
24B
100
AcDbEntity
  8
0
100
AcDbLine
 62
7
  6
CONTINUOUS
 10
4.9747528374
 20
12.1463235951
 11
4.9718953773
 21
12.1741190568
  0
LINE
  5
24C
100
AcDbEntity
  8
0
100
AcDbLine
 62
7
  6
CONTINUOUS
 10
4.7791230663
 20
11.6146638235
 11
4.7785918227
 21
11.6302149821
  0
LINE
  5
24D
100
AcDbEntity
  8
0
100
AcDbLine
 62
7
  6
CONTINUOUS
 10
5.0489756897
 20
11.047244777
 11
5.0480217204
 21
11.075170441
  0
LINE
  5
24E
100
AcDbEntity
  8
0
100
AcDbLine
 62
7
  6
CONTINUOUS
 10
5.0100472817
 20
12.1868009741
 11
5.0090933124
 21
12.2147266381
  0
LINE
  5
24F
100
AcDbEntity
  8
0
100
AcDbLine
 62
7
  6
CONTINUOUS
 10
4.8604702345
 20
9.2762888639
 11
4.8573542721
 21
9.1495667595
  0
LINE
  5
250
100
AcDbEntity
  8
0
100
AcDbLine
 62
7
  6
CONTINUOUS
 10
4.8573542721
 20
9.1495667595
 11
4.8539697605
 21
9.0183734639
  0
LINE
  5
251
100
AcDbEntity
  8
0
100
AcDbLine
 62
7
  6
CONTINUOUS
 10
4.8539697605
 20
9.0183734639
 11
4.8503222581
 21
8.8821442769
  0
LINE
  5
252
100
AcDbEntity
  8
0
100
AcDbLine
 62
7
  6
CONTINUOUS
 10
4.688433898
 20
3.4104781028
 11
4.6868414178
 21
3.3526289079
  0
LINE
  5
253
100
AcDbEntity
  8
0
100
AcDbLine
 62
7
  6
CONTINUOUS
 10
4.8503222581
 20
8.8821442769
 11
4.8464045836
 21
8.7402751707
  0
LINE
  5
254
100
AcDbEntity
  8
0
100
AcDbLine
 62
7
  6
CONTINUOUS
 10
4.7048313772
 20
3.9928998881
 11
4.699949884
 21
3.819003324
  0
LINE
  5
255
100
AcDbEntity
  8
0
100
AcDbLine
 62
7
  6
CONTINUOUS
 10
4.6868414178
 20
3.3526289079
 11
4.6822123651
 21
3.1861750383
  0
LWPOLYLINE
  5
256
100
AcDbEntity
  8
0
100
AcDbPolyline
 62
7
  6
CONTINUOUS
 90
3
 70
0
 10
4.699949884
 20
3.819003324
 10
4.6933771916
 20
3.58824059
 10
4.688433898
 20
3.4104781028
  0
LINE
  5
257
100
AcDbEntity
  8
0
100
AcDbLine
 62
7
  6
CONTINUOUS
 10
4.8464045836
 20
8.7402751707
 11
4.8422004602
 21
8.5923169831
  0
LINE
  5
258
100
AcDbEntity
  8
0
100
AcDbLine
 62
7
  6
CONTINUOUS
 10
4.6822123651
 20
3.1861750383
 11
4.67920588
 21
3.0817847771
  0
LINE
  5
259
100
AcDbEntity
  8
0
100
AcDbLine
 62
7
  6
CONTINUOUS
 10
4.8422004602
 20
8.5923169831
 11
4.8375649322
 21
8.4340609135
  0
LWPOLYLINE
  5
25A
100
AcDbEntity
  8
0
100
AcDbPolyline
 62
7
  6
CONTINUOUS
 90
6
 70
0
 10
4.7381519243
 20
5.1657256742
 10
4.733371013
 20
5.0054687238
 10
4.728591033
 20
4.8410712453
 10
4.7238492533
 20
4.6747076212
 10
4.7191235303
 20
4.5065413182
 10
4.7048313772
 20
3.9928998881
  0
LINE
  5
25B
100
AcDbEntity
  8
0
100
AcDbLine
 62
7
  6
CONTINUOUS
 10
4.767295226
 20
6.1258699264
 11
4.7381519198
 21
5.1657255259
  0
LINE
  5
25C
100
AcDbEntity
  8
0
100
AcDbLine
 62
7
  6
CONTINUOUS
 10
4.8375649322
 20
8.4340609135
 11
4.767295226
 21
6.1258699264
  0
LINE
  5
25D
100
AcDbEntity
  8
0
100
AcDbLine
 62
7
  6
CONTINUOUS
 10
4.67920588
 20
3.0817847771
 11
4.6763389581
 21
2.9870048723
  0
LWPOLYLINE
  5
25E
100
AcDbEntity
  8
0
100
AcDbPolyline
 62
7
  6
CONTINUOUS
 90
20
 70
0
 10
4.6763389581
 20
2.9870048723
 10
4.6736993885
 20
2.9052729446
 10
4.6724628563
 20
2.8691692609
 10
4.6712790425
 20
2.8360583706
 10
4.6701461741
 20
2.80579971
 10
4.6690628286
 20
2.7782557538
 10
4.6680275646
 20
2.7532732652
 10
4.6670396041
 20
2.7307036307
 10
4.6660987471
 20
2.7104119486
 10
4.6652054117
 20
2.6922761309
 10
4.6643607226
 20
2.6761857611
 10
4.663566014
 20
2.6620231044
 10
4.6628242255
 20
2.6496877024
 10
4.6621396779
 20
2.6390950701
 10
4.6615183544
 20
2.6301754856
 10
4.6609686707
 20
2.6228777494
 10
4.6605014681
 20
2.6171603239
 10
4.6601272726
 20
2.6129519368
 10
4.6598603917
 20
2.6101993477
 10
4.6598337001
 20
2.6099386788
  0
LINE
  5
25F
100
AcDbEntity
  8
0
100
AcDbLine
 62
7
  6
CONTINUOUS
 10
5.0090933124
 20
11.0852192157
 11
5.0100472817
 21
11.1131448798
  0
LINE
  5
260
100
AcDbEntity
  8
0
100
AcDbLine
 62
7
  6
CONTINUOUS
 10
5.0480217204
 20
12.2247754128
 11
5.0489756897
 21
12.2527010768
  0
LWPOLYLINE
  5
261
100
AcDbEntity
  8
0
100
AcDbPolyline
 62
7
  6
CONTINUOUS
 90
30
 70
0
 10
4.6599082467
 20
2.6099295945
 10
4.6567710231
 20
2.5841852941
 10
4.6548202157
 20
2.5511024618
 10
4.6550892781
 20
2.5180553238
 10
4.6575806458
 20
2.4850109679
 10
4.6623023597
 20
2.4519370379
 10
4.6692913455
 20
2.4188060633
 10
4.6785938005
 20
2.3856662821
 10
4.6902431739
 20
2.3526254105
 10
4.7042889166
 20
2.3197498905
 10
4.7208258302
 20
2.2870444699
 10
4.7399851445
 20
2.2545066153
 10
4.7619350518
 20
2.222094325
 10
4.7868421543
 20
2.1898270903
 10
4.8147437925
 20
2.1579201383
 10
4.8456341066
 20
2.1266138244
 10
4.8795878752
 20
2.0960575631
 10
4.9167131123
 20
2.066393409
 10
4.9571102362
 20
2.0377943102
 10
5.0008281394
 20
2.0104512588
 10
5.0478210563
 20
1.9845925144
 10
5.098031824
 20
1.9604559717
 10
5.1513614552
 20
1.9383004554
 10
5.2076031697
 20
1.918423403
 10
5.2665082636
 20
1.9011150288
 10
5.3277518918
 20
1.8866124532
 10
5.3908960444
 20
1.8751212789
 10
5.4554834466
 20
1.8668030198
 10
5.5210465182
 20
1.8617901714
 10
5.5848497672
 20
1.8601796336
  0
LINE
  5
262
100
AcDbEntity
  8
0
100
AcDbLine
 62
7
  6
CONTINUOUS
 10
6.2321442165
 20
12.1310676643
 11
6.2273965884
 21
12.1035320003
  0
LINE
  5
263
100
AcDbEntity
  8
0
100
AcDbLine
 62
7
  6
CONTINUOUS
 10
6.0384088409
 20
11.0074261061
 11
6.0336612128
 21
10.979890442
  0
LINE
  5
264
100
AcDbEntity
  8
0
100
AcDbLine
 62
7
  6
CONTINUOUS
 10
6.2634662897
 20
12.0857731861
 11
6.2568506292
 21
12.0586257036
  0
LINE
  5
265
100
AcDbEntity
  8
0
100
AcDbLine
 62
7
  6
CONTINUOUS
 10
5.9935025443
 20
10.9779720652
 11
5.9868868838
 21
10.9508245827
  0
LINE
  5
266
100
AcDbEntity
  8
0
100
AcDbLine
 62
7
  6
CONTINUOUS
 10
6.2916243394
 20
12.0384468059
 11
6.2831714918
 21
12.0118140791
  0
LINE
  5
267
100
AcDbEntity
  8
0
100
AcDbLine
 62
7
  6
CONTINUOUS
 10
5.9466909197
 20
10.9516512026
 11
5.9382380722
 21
10.9250184758
  0
LINE
  5
268
100
AcDbEntity
  8
0
100
AcDbLine
 62
7
  6
CONTINUOUS
 10
6.355878851
 20
11.41342187
 11
6.351171655
 21
11.3985907184
  0
LINE
  5
269
100
AcDbEntity
  8
0
100
AcDbLine
 62
7
  6
CONTINUOUS
 10
6.3164870797
 20
11.9893091811
 11
6.3062364562
 21
11.9633153841
  0
LINE
  5
26A
100
AcDbEntity
  8
0
100
AcDbLine
 62
7
  6
CONTINUOUS
 10
5.8981922247
 20
10.9285862383
 11
5.8879416012
 21
10.9025924412
  0
LINE
  5
26B
100
AcDbEntity
  8
0
100
AcDbLine
 62
7
  6
CONTINUOUS
 10
6.3379385892
 20
11.3613564397
 11
6.3322302533
 21
11.3468810933
  0
LINE
  5
26C
100
AcDbEntity
  8
0
100
AcDbLine
 62
7
  6
CONTINUOUS
 10
6.3379385892
 20
11.9385894141
 11
6.3259379828
 21
11.9133557419
  0
LINE
  5
26D
100
AcDbEntity
  8
0
100
AcDbLine
 62
7
  6
CONTINUOUS
 10
5.8482325825
 20
10.9088847117
 11
5.8362319761
 21
10.8836510394
  0
LINE
  5
26E
100
AcDbEntity
  8
0
100
AcDbLine
 62
7
  6
CONTINUOUS
 10
6.3164870797
 20
11.3106366727
 11
6.3098042186
 21
11.2965846223
  0
LINE
  5
26F
100
AcDbEntity
  8
0
100
AcDbLine
 62
7
  6
CONTINUOUS
 10
6.355878851
 20
11.8865239838
 11
6.3421842141
 21
11.8621680874
  0
LINE
  5
270
100
AcDbEntity
  8
0
100
AcDbLine
 62
7
  6
CONTINUOUS
 10
5.7970449281
 20
10.8926384804
 11
5.7833502912
 21
10.868282584
  0
LINE
  5
271
100
AcDbEntity
  8
0
100
AcDbLine
 62
7
  6
CONTINUOUS
 10
6.2916243394
 20
11.2614990479
 11
6.2839981117
 21
11.2479358107
  0
LINE
  5
272
100
AcDbEntity
  8
0
100
AcDbLine
 62
7
  6
CONTINUOUS
 10
6.3702242192
 20
11.8333556433
 11
6.3548994025
 21
11.8099910812
  0
LINE
  5
273
100
AcDbEntity
  8
0
100
AcDbLine
 62
7
  6
CONTINUOUS
 10
5.7448679218
 20
10.879923292
 11
5.7295431051
 21
10.8565587299
  0
LINE
  5
274
100
AcDbEntity
  8
0
100
AcDbLine
 62
7
  6
CONTINUOUS
 10
6.2634662897
 20
11.2141726677
 11
6.2549322525
 21
11.2011614817
  0
LINE
  5
275
100
AcDbEntity
  8
0
100
AcDbLine
 62
7
  6
CONTINUOUS
 10
6.4102281882
 20
11.0595772209
 11
6.410020737
 21
11.0592873494
  0
LINE
  5
276
100
AcDbEntity
  8
0
100
AcDbLine
 62
7
  6
CONTINUOUS
 10
6.3809078093
 20
11.7793322878
 11
6.3640242641
 21
11.7570679964
  0
LINE
  5
277
100
AcDbEntity
  8
0
100
AcDbLine
 62
7
  6
CONTINUOUS
 10
5.6919448371
 20
10.8707984304
 11
5.675061292
 21
10.8485341389
  0
LINE
  5
278
100
AcDbEntity
  8
0
100
AcDbLine
 62
7
  6
CONTINUOUS
 10
6.3878798092
 20
11.7247057994
 11
6.3695162545
 21
11.703645585
  0
LINE
  5
279
100
AcDbEntity
  8
0
100
AcDbLine
 62
7
  6
CONTINUOUS
 10
5.6385224257
 20
10.8653064399
 11
5.620158871
 21
10.8442462256
  0
LINE
  5
27A
100
AcDbEntity
  8
0
100
AcDbLine
 62
7
  6
CONTINUOUS
 10
6.1978041578
 20
11.125826797
 11
6.1875779175
 21
11.1140988491
  0
LINE
  5
27B
100
AcDbEntity
  8
0
100
AcDbLine
 62
7
  6
CONTINUOUS
 10
6.3911077124
 20
11.6697308718
 11
6.3713497676
 21
11.6499729269
  0
LINE
  5
27C
100
AcDbEntity
  8
0
100
AcDbLine
 62
7
  6
CONTINUOUS
 10
5.5848497676
 20
10.8634729269
 11
5.5650918227
 21
10.8437149821
  0
LINE
  5
27D
100
AcDbEntity
  8
0
100
AcDbLine
 62
7
  6
CONTINUOUS
 10
6.1606062228
 20
11.0852192158
 11
6.1496034787
 21
11.0742164717
  0
LINE
  5
27E
100
AcDbEntity
  8
0
100
AcDbLine
 62
7
  6
CONTINUOUS
 10
6.3905764689
 20
11.6146638235
 11
6.3695162545
 21
11.5963002688
  0
LINE
  5
27F
100
AcDbEntity
  8
0
100
AcDbLine
 62
7
  6
CONTINUOUS
 10
5.5311771095
 20
10.8653064399
 11
5.5101168951
 21
10.8469428853
  0
LINE
  5
280
100
AcDbEntity
  8
0
100
AcDbLine
 62
7
  6
CONTINUOUS
 10
6.1207238454
 20
11.047244777
 11
6.1089958975
 21
11.0370185367
  0
LINE
  5
281
100
AcDbEntity
  8
0
100
AcDbLine
 62
7
  6
CONTINUOUS
 10
6.3862885555
 20
11.5597614025
 11
6.3640242641
 21
11.5428778574
  0
LINE
  5
282
100
AcDbEntity
  8
0
100
AcDbLine
 62
7
  6
CONTINUOUS
 10
5.4777546981
 20
10.8707984304
 11
5.4554904066
 21
10.8539148852
  0
LINE
  5
283
100
AcDbEntity
  8
0
100
AcDbLine
 62
7
  6
CONTINUOUS
 10
6.0783429757
 20
11.0120805351
 11
6.065944505
 21
11.002678478
  0
LINE
  5
284
100
AcDbEntity
  8
0
100
AcDbLine
 62
7
  6
CONTINUOUS
 10
6.3782639646
 20
11.5052795894
 11
6.3548994025
 21
11.4899547726
  0
LINE
  5
285
100
AcDbEntity
  8
0
100
AcDbLine
 62
7
  6
CONTINUOUS
 10
5.4248316133
 20
10.879923292
 11
5.4014670512
 21
10.8645984752
  0
LINE
  5
286
100
AcDbEntity
  8
0
100
AcDbLine
 62
7
  6
CONTINUOUS
 10
6.0336612128
 20
10.979890442
 11
6.0206500268
 21
10.9713564048
  0
LINE
  5
287
100
AcDbEntity
  8
0
100
AcDbLine
 62
7
  6
CONTINUOUS
 10
6.3665401104
 20
11.4514724033
 11
6.3421842141
 21
11.4377777664
  0
LINE
  5
288
100
AcDbEntity
  8
0
100
AcDbLine
 62
7
  6
CONTINUOUS
 10
5.3726546071
 20
10.8926384804
 11
5.3482987107
 21
10.8789438435
  0
LINE
  5
289
100
AcDbEntity
  8
0
100
AcDbLine
 62
7
  6
CONTINUOUS
 10
6.351171655
 20
11.3985907184
 11
6.3259379828
 21
11.3865901119
  0
LINE
  5
28A
100
AcDbEntity
  8
0
100
AcDbLine
 62
7
  6
CONTINUOUS
 10
5.3214669526
 20
10.9088847117
 11
5.2962332804
 21
10.8968841052
  0
LINE
  5
28B
100
AcDbEntity
  8
0
100
AcDbLine
 62
7
  6
CONTINUOUS
 10
4.8598953165
 20
12.0033612316
 11
4.8865280433
 21
12.0118140791
  0
LINE
  5
28C
100
AcDbEntity
  8
0
100
AcDbLine
 62
7
  6
CONTINUOUS
 10
5.9466909197
 20
12.3482946512
 11
5.9733236466
 21
12.3567474987
  0
LINE
  5
28D
100
AcDbEntity
  8
0
100
AcDbLine
 62
7
  6
CONTINUOUS
 10
2.0630303973
 20
11.8467397811
 11
1.8807417805
 21
12.1624729269
  0
LWPOLYLINE
  5
28E
100
AcDbEntity
  8
0
100
AcDbPolyline
 62
7
  6
CONTINUOUS
 90
17
 70
0
 10
6.5095722625
 20
2.6129519368
 10
6.5091980671
 20
2.6171603239
 10
6.5087308645
 20
2.6228777494
 10
6.5081811807
 20
2.6301754856
 10
6.5075598572
 20
2.6390950701
 10
6.5068753096
 20
2.6496877024
 10
6.5061335211
 20
2.6620231044
 10
6.5053388126
 20
2.6761857611
 10
6.5044941234
 20
2.6922761309
 10
6.503600788
 20
2.7104119486
 10
6.502659931
 20
2.7307036307
 10
6.5016719705
 20
2.7532732652
 10
6.5006367066
 20
2.7782557538
 10
6.499553361
 20
2.80579971
 10
6.4984204926
 20
2.8360583706
 10
6.4972366788
 20
2.8691692609
 10
6.4960001466
 20
2.9052729446
  0
LINE
  5
28F
100
AcDbEntity
  8
0
100
AcDbLine
 62
7
  6
CONTINUOUS
 10
6.1207238454
 20
12.2527010768
 11
6.1216778147
 21
12.2247754128
  0
LINE
  5
290
100
AcDbEntity
  8
0
100
AcDbLine
 62
7
  6
CONTINUOUS
 10
6.1596522535
 20
11.1131448798
 11
6.1606062228
 21
11.0852192158
  0
LINE
  5
291
100
AcDbEntity
  8
0
100
AcDbLine
 62
9
  6
CONTINUOUS
 10
5.5848497672
 20
1.8601796336
 11
5.5848497676
 21
10.6820416769
  0
LINE
  5
292
100
AcDbEntity
  8
0
100
AcDbLine
 62
7
  6
CONTINUOUS
 10
6.1606062228
 20
12.2147266381
 11
6.1596522535
 21
12.1868009741
  0
LINE
  5
293
100
AcDbEntity
  8
0
100
AcDbLine
 62
7
  6
CONTINUOUS
 10
6.1216778147
 20
11.075170441
 11
6.1207238454
 21
11.047244777
  0
LINE
  5
294
100
AcDbEntity
  8
0
100
AcDbLine
 62
7
  6
CONTINUOUS
 10
6.3911077124
 20
11.6302149821
 11
6.3905764689
 21
11.6146638235
  0
LINE
  5
295
100
AcDbEntity
  8
0
100
AcDbLine
 62
7
  6
CONTINUOUS
 10
6.1978041578
 20
12.1741190568
 11
6.1949466977
 21
12.1463235951
  0
LINE
  5
296
100
AcDbEntity
  8
0
100
AcDbLine
 62
7
  6
CONTINUOUS
 10
6.0812004358
 20
11.0398759968
 11
6.0783429757
 21
11.0120805351
  0
LINE
  5
297
100
AcDbEntity
  8
0
100
AcDbLine
 62
7
  6
CONTINUOUS
 10
6.3878798092
 20
11.5752400545
 11
6.3862885555
 21
11.5597614025
  0
LINE
  5
298
100
AcDbEntity
  8
0
100
AcDbLine
 62
7
  6
CONTINUOUS
 10
6.3809078093
 20
11.520613566
 11
6.3782639646
 21
11.5052795894
  0
LWPOLYLINE
  5
299
100
AcDbEntity
  8
0
100
AcDbPolyline
 62
7
  6
CONTINUOUS
 90
15
 70
0
 10
6.3877441849
 20
10.9644378433
 10
6.3911824539
 20
10.9760554377
 10
6.3958480874
 20
10.9912652883
 10
6.4002428408
 20
11.0050436809
 10
6.4043884664
 20
11.0175814359
 10
6.4083067977
 20
11.0290404605
 10
6.4120217481
 20
11.0395656128
 10
6.4155519293
 20
11.0492683896
 10
6.4189003936
 20
11.0582052995
 10
6.4220587218
 20
11.066396155
 10
6.4250075405
 20
11.0738304419
 10
6.4277203842
 20
11.080480884
 10
6.4301697235
 20
11.0863201624
 10
6.4323237341
 20
11.0913139858
 10
6.4330148023
 20
11.0928718998
  0
LINE
  5
29A
100
AcDbEntity
  8
0
100
AcDbLine
 62
7
  6
CONTINUOUS
 10
5.9868868838
 20
10.9508245827
 11
5.9733236466
 21
10.9431983551
  0
LINE
  5
29B
100
AcDbEntity
  8
0
100
AcDbLine
 62
7
  6
CONTINUOUS
 10
6.3322302533
 20
11.3468810933
 11
6.3062364562
 21
11.3366304697
  0
LINE
  5
29C
100
AcDbEntity
  8
0
100
AcDbLine
 62
7
  6
CONTINUOUS
 10
5.2715073104
 20
10.9285862383
 11
5.2455135133
 21
10.9183356147
  0
LINE
  5
29D
100
AcDbEntity
  8
0
100
AcDbLine
 62
7
  6
CONTINUOUS
 10
5.8879416012
 20
10.9025924412
 11
5.8734662548
 21
10.8968841052
  0
LINE
  5
29E
100
AcDbEntity
  8
0
100
AcDbLine
 62
7
  6
CONTINUOUS
 10
6.3098042187
 20
11.2965846223
 11
6.2831714918
 21
11.2881317747
  0
LINE
  5
29F
100
AcDbEntity
  8
0
100
AcDbLine
 62
7
  6
CONTINUOUS
 10
5.2230086154
 20
10.9516512026
 11
5.1963758886
 21
10.9431983551
  0
LINE
  5
2A0
100
AcDbEntity
  8
0
100
AcDbLine
 62
7
  6
CONTINUOUS
 10
5.8362319761
 20
10.8836510394
 11
5.8214008245
 21
10.8789438435
  0
LWPOLYLINE
  5
2A1
100
AcDbEntity
  8
0
100
AcDbPolyline
 62
7
  6
CONTINUOUS
 90
30
 70
0
 10
5.5848497672
 20
1.8601796336
 10
5.648849863
 20
1.8618002376
 10
5.7144203584
 20
1.8668239335
 10
5.7790108035
 20
1.8751533657
 10
5.8421507554
 20
1.886655322
 10
5.9033825424
 20
1.9011651824
 10
5.9622659339
 20
1.9184782007
 10
6.0184821963
 20
1.9383561278
 10
6.0717901317
 20
1.9605106646
 10
6.1219882226
 20
1.984648994
 10
6.1689755594
 20
2.0105124218
 10
6.2126914464
 20
2.0378623793
 10
6.2530864177
 20
2.0664685484
 10
6.290208282
 20
2.0961395814
 10
6.3241579161
 20
2.1267021102
 10
6.3550423799
 20
2.1580134836
 10
6.3829360224
 20
2.1899228602
 10
6.40782819
 20
2.2221819181
 10
6.4297534111
 20
2.2545692244
 10
6.448890545
 20
2.2870755018
 10
6.4654135712
 20
2.3197556923
 10
6.4794532065
 20
2.3526175577
 10
6.4911018675
 20
2.3856538512
 10
6.5004042211
 20
2.4187902296
 10
6.5073914908
 20
2.4519043724
 10
6.5121114073
 20
2.4849434754
 10
6.5146056047
 20
2.5179443263
 10
6.5148837281
 20
2.5509476585
 10
6.5129459642
 20
2.5839944339
 10
6.5098861995
 20
2.6088162351
  0
LINE
  5
2A2
100
AcDbEntity
  8
0
100
AcDbLine
 62
7
  6
CONTINUOUS
 10
4.8185278801
 20
11.3985907184
 11
4.8138206841
 21
11.41342187
  0
LWPOLYLINE
  5
2A3
100
AcDbEntity
  8
0
100
AcDbPolyline
 62
7
  6
CONTINUOUS
 90
41
 70
0
 10
4.7819509579
 20
10.9644529158
 10
4.7862917724
 20
10.9492541819
 10
4.792149778
 20
10.9277176766
 10
4.7981413626
 20
10.9043292144
 10
4.8041601189
 20
10.8792510196
 10
4.8101128092
 20
10.8526380578
 10
4.815932957
 20
10.8245730796
 10
4.8215699944
 20
10.7950985309
 10
4.8269793878
 20
10.764259962
 10
4.8321249933
 20
10.7320949094
 10
4.8369780693
 20
10.6986369553
 10
4.8415161589
 20
10.663922181
 10
4.8457194748
 20
10.6280212967
 10
4.8495711417
 20
10.5910549304
 10
4.853063293
 20
10.5531470538
 10
4.8561961735
 20
10.5144212522
 10
4.8589766865
 20
10.4750008805
 10
4.8614173775
 20
10.4350025339
 10
4.86353898
 20
10.394451244
 10
4.8653646837
 20
10.3533099665
 10
4.8669156552
 20
10.311540724
 10
4.8682111883
 20
10.2691044755
 10
4.8692688654
 20
10.2259602855
 10
4.8701046934
 20
10.1820643203
 10
4.8707332144
 20
10.1373686547
 10
4.8711675915
 20
10.0918198627
 10
4.8714196699
 20
10.0453573662
 10
4.871500016
 20
9.9979237037
 10
4.8714181067
 20
9.9494555962
 10
4.8711822822
 20
9.8998678285
 10
4.8707997383
 20
9.8490698991
 10
4.8702766403
 20
9.7969665553
 10
4.8696192984
 20
9.7435378536
 10
4.8688352912
 20
9.688855896
 10
4.8679326847
 20
9.6329942639
 10
4.8669197172
 20
9.5760215419
 10
4.8658045549
 20
9.5179997123
 10
4.8645950771
 20
9.458982579
 10
4.8632986905
 20
9.3990142728
 10
4.8619220921
 20
9.338124283
 10
4.8604702345
 20
9.2762888639
  0
LINE
  5
2A4
100
AcDbEntity
  8
0
100
AcDbLine
 62
7
  6
CONTINUOUS
 10
5.1828126513
 20
10.9508245827
 11
5.1761969909
 21
10.9779720652
  0
LINE
  5
2A5
100
AcDbEntity
  8
0
100
AcDbLine
 62
7
  6
CONTINUOUS
 10
4.9128489059
 20
12.0586257036
 11
4.9062332455
 21
12.0857731861
  0
LINE
  5
2A6
100
AcDbEntity
  8
0
100
AcDbLine
 62
7
  6
CONTINUOUS
 10
4.7914355705
 20
11.5052795894
 11
4.7887917259
 21
11.520613566
  0
LINE
  5
2A7
100
AcDbEntity
  8
0
100
AcDbLine
 62
7
  6
CONTINUOUS
 10
5.1360383223
 20
10.979890442
 11
5.1312906942
 21
11.0074261061
  0
LINE
  5
2A8
100
AcDbEntity
  8
0
100
AcDbLine
 62
7
  6
CONTINUOUS
 10
4.9423029467
 20
12.1035320003
 11
4.9375553186
 21
12.1310676643
  0
LWPOLYLINE
  5
2A9
100
AcDbEntity
  8
0
100
AcDbPolyline
 62
7
  6
CONTINUOUS
 90
4
 70
0
 10
6.5099844411
 20
2.6088283453
 10
6.5099782954
 20
2.6088831175
 10
6.5098391435
 20
2.6101993477
 10
6.5095722625
 20
2.6129519368
  0
LINE
  5
2AA
100
AcDbEntity
  8
0
100
AcDbLine
 62
7
  6
CONTINUOUS
 10
6.0783429757
 20
12.2878653187
 11
6.0812004358
 21
12.2600698571
  0
LINE
  5
2AB
100
AcDbEntity
  8
0
100
AcDbLine
 62
7
  6
CONTINUOUS
 10
6.1949466977
 20
11.1536222587
 11
6.1978041578
 21
11.125826797
  0
LINE
  5
2AC
100
AcDbEntity
  8
0
100
AcDbLine
 62
7
  6
CONTINUOUS
 10
6.3862885555
 20
11.7401844513
 11
6.3878798092
 21
11.7247057994
  0
LINE
  5
2AD
100
AcDbEntity
  8
0
100
AcDbLine
 62
7
  6
CONTINUOUS
 10
6.3905764689
 20
11.6852820304
 11
6.3911077124
 21
11.6697308718
  0
LINE
  5
2AE
100
AcDbEntity
  8
0
100
AcDbLine
 62
7
  6
CONTINUOUS
 10
6.4960001466
 20
2.9052729446
 11
6.4933605771
 21
2.9870048723
  0
LINE
  5
2AF
100
AcDbEntity
  8
0
100
AcDbLine
 62
7
  6
CONTINUOUS
 10
6.4315476153
 20
5.1657255259
 11
6.4024043091
 21
6.1258699264
  0
LINE
  5
2B0
100
AcDbEntity
  8
0
100
AcDbLine
 62
7
  6
CONTINUOUS
 10
6.4933605771
 20
2.9870048723
 11
6.4904936552
 21
3.0817847771
  0
LINE
  5
2B1
100
AcDbEntity
  8
0
100
AcDbLine
 62
7
  6
CONTINUOUS
 10
6.4024043091
 20
6.1258699264
 11
6.3321752982
 21
8.4326948922
  0
LINE
  5
2B2
100
AcDbEntity
  8
0
100
AcDbLine
 62
7
  6
CONTINUOUS
 10
6.3321752982
 20
8.4326948922
 11
6.3275467259
 21
8.5906640379
  0
LINE
  5
2B3
100
AcDbEntity
  8
0
100
AcDbLine
 62
7
  6
CONTINUOUS
 10
6.4904936552
 20
3.0817847771
 11
6.48748717
 21
3.1861750383
  0
LWPOLYLINE
  5
2B4
100
AcDbEntity
  8
0
100
AcDbPolyline
 62
7
  6
CONTINUOUS
 90
4
 70
0
 10
6.4458502818
 20
4.6747076212
 10
6.4411085021
 20
4.8410712453
 10
6.4363285221
 20
5.0054687238
 10
6.4315476108
 20
5.1657256742
  0
LINE
  5
2B5
100
AcDbEntity
  8
0
100
AcDbLine
 62
7
  6
CONTINUOUS
 10
6.3275467259
 20
8.5906640379
 11
6.3233387858
 21
8.7387104616
  0
LWPOLYLINE
  5
2B6
100
AcDbEntity
  8
0
100
AcDbPolyline
 62
7
  6
CONTINUOUS
 90
4
 70
0
 10
6.4697496512
 20
3.819003324
 10
6.4600625141
 20
4.1655102456
 10
6.4553067871
 20
4.3367414589
 10
6.4458502818
 20
4.6747076212
  0
LINE
  5
2B7
100
AcDbEntity
  8
0
100
AcDbLine
 62
7
  6
CONTINUOUS
 10
6.4796455878
 20
3.4692061824
 11
6.4697496512
 21
3.819003324
  0
LINE
  5
2B8
100
AcDbEntity
  8
0
100
AcDbLine
 62
7
  6
CONTINUOUS
 10
6.3233387858
 20
8.7387104616
 11
6.3194172221
 21
8.8806763108
  0
LINE
  5
2B9
100
AcDbEntity
  8
0
100
AcDbLine
 62
7
  6
CONTINUOUS
 10
6.48748717
 20
3.1861750383
 11
6.4796455878
 21
3.4692061824
  0
LINE
  5
2BA
100
AcDbEntity
  8
0
100
AcDbLine
 62
7
  6
CONTINUOUS
 10
6.3194172221
 20
8.8806763108
 11
6.3157656742
 21
9.0170094368
  0
LINE
  5
2BB
100
AcDbEntity
  8
0
100
AcDbLine
 62
7
  6
CONTINUOUS
 10
6.3157656742
 20
9.0170094368
 11
6.3123768736
 21
9.1483144799
  0
LWPOLYLINE
  5
2BC
100
AcDbEntity
  8
0
100
AcDbPolyline
 62
7
  6
CONTINUOUS
 90
42
 70
0
 10
6.3123768736
 20
9.1483144799
 10
6.3092563684
 20
9.2751556157
 10
6.307802155
 20
9.3370530366
 10
6.3064231555
 20
9.398006589
 10
6.3051242986
 20
9.4580416707
 10
6.3039123102
 20
9.5171284395
 10
6.3027946496
 20
9.5752214034
 10
6.3017792483
 20
9.6322653263
 10
6.3008743223
 20
9.6881967236
 10
6.3000881538
 20
9.7429454447
 10
6.2994288428
 20
9.7964362895
 10
6.2989039892
 20
9.8485952929
 10
6.2985198962
 20
9.8994411585
 10
6.2982826894
 20
9.9490710455
 10
6.2981995396
 20
9.9975776163
 10
6.2982787851
 20
10.0450482232
 10
6.2985299259
 20
10.0915475758
 10
6.2989635622
 20
10.137133356
 10
6.2995915767
 20
10.1818660786
 10
6.300427173
 20
10.2257990797
 10
6.3014849372
 20
10.2689801728
 10
6.3027809228
 20
10.3114530625
 10
6.3043327609
 20
10.3532585427
 10
6.3061597956
 20
10.394435504
 10
6.308283245
 20
10.4350217687
 10
6.3107263566
 20
10.4750543158
 10
6.3135099948
 20
10.5145089972
 10
6.3166467483
 20
10.55326865
 10
6.3201434974
 20
10.5912089492
 10
6.3240004093
 20
10.6282053387
 10
6.3282094725
 20
10.6641328728
 10
6.3327536226
 20
10.6988701921
 10
6.3376130823
 20
10.7323475939
 10
6.3427655377
 20
10.7645305705
 10
6.348182451
 20
10.7953870178
 10
6.353827706
 20
10.8248795943
 10
6.3596566255
 20
10.8529621481
 10
6.3656184484
 20
10.8795916265
 10
6.3716463912
 20
10.9046844462
 10
6.3776468825
 20
10.9280850132
 10
6.383513132
 20
10.9496304856
 10
6.3877486402
 20
10.9644531321
  0
LINE
  5
2BD
100
AcDbEntity
  8
0
100
AcDbLine
 62
7
  6
CONTINUOUS
 10
4.8598953165
 20
11.2965846223
 11
4.8532124554
 21
11.3106366727
  0
LWPOLYLINE
  5
2BE
100
AcDbEntity
  8
0
100
AcDbPolyline
 62
7
  6
CONTINUOUS
 90
15
 70
0
 10
4.7366951486
 20
11.0928499475
 10
4.7372587703
 20
11.0915812042
 10
4.7393807131
 20
11.0866702608
 10
4.7418193346
 20
11.0808668018
 10
4.7445378079
 20
11.0742133662
 10
4.7474951481
 20
11.0667682789
 10
4.750659186
 20
11.0585731885
 10
4.7540147193
 20
11.0496279966
 10
4.7575613702
 20
11.0398902059
 10
4.7613066302
 20
11.0292881188
 10
4.7652657143
 20
11.017716219
 10
4.7694586723
 20
11.0050375952
 10
4.7739030532
 20
10.9911004057
 10
4.7786154247
 20
10.9757280891
 10
4.7819552386
 20
10.9644382264
  0
LINE
  5
2BF
100
AcDbEntity
  8
0
100
AcDbLine
 62
7
  6
CONTINUOUS
 10
4.8374692819
 20
11.3468810933
 11
4.8317609459
 21
11.3613564397
  0
LINE
  5
2C0
100
AcDbEntity
  8
0
100
AcDbLine
 62
7
  6
CONTINUOUS
 10
5.281757934
 20
10.9025924412
 11
5.2715073104
 21
10.9285862383
  0
LINE
  5
2C1
100
AcDbEntity
  8
0
100
AcDbLine
 62
7
  6
CONTINUOUS
 10
4.8634630789
 20
11.9633153841
 11
4.8532124554
 21
11.9893091811
  0
LINE
  5
2C2
100
AcDbEntity
  8
0
100
AcDbLine
 62
7
  6
CONTINUOUS
 10
5.2314614629
 20
10.9250184758
 11
5.2230086154
 21
10.9516512026
  0
LINE
  5
2C3
100
AcDbEntity
  8
0
100
AcDbLine
 62
7
  6
CONTINUOUS
 10
4.8865280433
 20
12.0118140791
 11
4.8780751958
 21
12.0384468059
  0
LINE
  5
2C4
100
AcDbEntity
  8
0
100
AcDbLine
 62
7
  6
CONTINUOUS
 10
6.0336612128
 20
12.3200554118
 11
6.0384088409
 21
12.2925197478
  0
LINE
  5
2C5
100
AcDbEntity
  8
0
100
AcDbLine
 62
7
  6
CONTINUOUS
 10
6.2273965884
 20
11.1964138536
 11
6.2321442165
 21
11.1688781895
  0
LINE
  5
2C6
100
AcDbEntity
  8
0
100
AcDbLine
 62
7
  6
CONTINUOUS
 10
9.2889577546
 20
12.1624729269
 11
9.1066691379
 21
11.8467397811
  0
LINE
  5
2C7
100
AcDbEntity
  8
0
100
AcDbLine
 62
7
  6
CONTINUOUS
 10
4.8857014234
 20
11.2479358107
 11
4.8780751958
 21
11.2614990479
  0
LINE
  5
2C8
100
AcDbEntity
  8
0
100
AcDbLine
 62
7
  6
CONTINUOUS
 10
5.386349244
 20
10.868282584
 11
5.3726546071
 21
10.8926384804
  0
LINE
  5
2C9
100
AcDbEntity
  8
0
100
AcDbLine
 62
7
  6
CONTINUOUS
 10
4.8275153211
 20
11.8621680874
 11
4.8138206841
 21
11.8865239838
  0
LINE
  5
2CA
100
AcDbEntity
  8
0
100
AcDbLine
 62
7
  6
CONTINUOUS
 10
5.333467559
 20
10.8836510394
 11
5.3214669526
 21
10.9088847117
  0
LINE
  5
2CB
100
AcDbEntity
  8
0
100
AcDbLine
 62
7
  6
CONTINUOUS
 10
4.8437615523
 20
11.9133557419
 11
4.8317609459
 21
11.9385894141
  0
LINE
  5
2CC
100
AcDbEntity
  8
0
100
AcDbLine
 62
7
  6
CONTINUOUS
 10
5.9382380722
 20
12.374927378
 11
5.9466909197
 21
12.3482946512
  0
LINE
  5
2CD
100
AcDbEntity
  8
0
100
AcDbLine
 62
7
  6
CONTINUOUS
 10
6.2831714918
 20
11.2881317747
 11
6.2916243394
 21
11.2614990479
  0
LINE
  5
2CE
100
AcDbEntity
  8
0
100
AcDbLine
 62
7
  6
CONTINUOUS
 10
6.351171655
 20
11.9013551355
 11
6.355878851
 21
11.8865239838
  0
LINE
  5
2CF
100
AcDbEntity
  8
0
100
AcDbLine
 62
7
  6
CONTINUOUS
 10
5.9868868838
 20
12.3491212711
 11
5.9935025443
 21
12.3219737886
  0
LINE
  5
2D0
100
AcDbEntity
  8
0
100
AcDbLine
 62
7
  6
CONTINUOUS
 10
6.2568506292
 20
11.2413201502
 11
6.2634662897
 21
11.2141726677
  0
LINE
  5
2D1
100
AcDbEntity
  8
0
100
AcDbLine
 62
7
  6
CONTINUOUS
 10
6.3782639646
 20
11.7946662645
 11
6.3809078093
 21
11.7793322878
  0
LINE
  5
2D2
100
AcDbEntity
  8
0
100
AcDbLine
 62
9
  6
CONTINUOUS
 10
8.372229726
 20
11.3351173993
 11
8.372229726
 21
11.9648284546
  0
LINE
  5
2D3
100
AcDbEntity
  8
0
100
AcDbLine
 62
7
  6
CONTINUOUS
 10
8.4321371079
 20
11.3374729269
 11
8.4321371079
 21
11.9624729269
  0
LINE
  5
2D4
100
AcDbEntity
  8
0
100
AcDbLine
 62
7
  6
CONTINUOUS
 10
9.8807417805
 20
11.1374729269
 11
10.0630303973
 21
11.4532060727
  0
LINE
  5
2D5
100
AcDbEntity
  8
0
100
AcDbLine
 62
7
  6
CONTINUOUS
 10
5.4946382432
 20
10.8485341389
 11
5.4777546981
 21
10.8707984304
  0
LINE
  5
2D6
100
AcDbEntity
  8
0
100
AcDbLine
 62
7
  6
CONTINUOUS
 10
4.805675271
 20
11.7570679964
 11
4.7887917259
 21
11.7793322878
  0
LINE
  5
2D7
100
AcDbEntity
  8
0
100
AcDbLine
 62
7
  6
CONTINUOUS
 10
4.75967879
 20
11.0592873384
 11
4.7594707057
 21
11.0595780951
  0
LINE
  5
2D8
100
AcDbEntity
  8
0
100
AcDbLine
 62
7
  6
CONTINUOUS
 10
4.9147672826
 20
11.2011614817
 11
4.9062332455
 21
11.2141726677
  0
LINE
  5
2D9
100
AcDbEntity
  8
0
100
AcDbLine
 62
7
  6
CONTINUOUS
 10
5.44015643
 20
10.8565587299
 11
5.4248316133
 21
10.879923292
  0
LINE
  5
2DA
100
AcDbEntity
  8
0
100
AcDbLine
 62
7
  6
CONTINUOUS
 10
4.8148001326
 20
11.8099910812
 11
4.7994753159
 21
11.8333556433
  0
LINE
  5
2DB
100
AcDbEntity
  8
0
100
AcDbLine
 62
7
  6
CONTINUOUS
 10
5.8362319761
 20
12.4162948144
 11
5.8482325825
 21
12.3910611422
  0
LINE
  5
2DC
100
AcDbEntity
  8
0
100
AcDbLine
 62
7
  6
CONTINUOUS
 10
6.3259379828
 20
11.3865901119
 11
6.3379385892
 21
11.3613564397
  0
LINE
  5
2DD
100
AcDbEntity
  8
0
100
AcDbLine
 62
7
  6
CONTINUOUS
 10
6.3098042186
 20
12.0033612316
 11
6.3164870797
 21
11.9893091811
  0
LINE
  5
2DE
100
AcDbEntity
  8
0
100
AcDbLine
 62
7
  6
CONTINUOUS
 10
5.8879416012
 20
12.3973534126
 11
5.8981922247
 21
12.3713596155
  0
LINE
  5
2DF
100
AcDbEntity
  8
0
100
AcDbLine
 62
7
  6
CONTINUOUS
 10
6.3062364562
 20
11.3366304697
 11
6.3164870797
 21
11.3106366727
  0
LINE
  5
2E0
100
AcDbEntity
  8
0
100
AcDbLine
 62
7
  6
CONTINUOUS
 10
6.3322302533
 20
11.9530647605
 11
6.3379385892
 21
11.9385894141
  0
LINE
  5
2E1
100
AcDbEntity
  8
0
100
AcDbLine
 62
7
  6
CONTINUOUS
 10
9.2998497676
 20
10.4972602672
 11
9.3902310341
 21
11.1882144278
  0
LINE
  5
2E2
100
AcDbEntity
  8
0
100
AcDbLine
 62
7
  6
CONTINUOUS
 10
9.8698497676
 20
12.8026855866
 11
9.779468501
 21
12.111731426
  0
LINE
  5
2E3
100
AcDbEntity
  8
0
100
AcDbLine
 62
7
  6
CONTINUOUS
 10
5.0200960564
 20
11.0742164717
 11
5.0090933124
 21
11.0852192158
  0
LINE
  5
2E4
100
AcDbEntity
  8
0
100
AcDbLine
 62
7
  6
CONTINUOUS
 10
4.9821216176
 20
11.1140988491
 11
4.9718953773
 21
11.125826797
  0
LINE
  5
2E5
100
AcDbEntity
  8
0
100
AcDbLine
 62
7
  6
CONTINUOUS
 10
5.5495406641
 20
10.8442462256
 11
5.5311771095
 21
10.8653064399
  0
LINE
  5
2E6
100
AcDbEntity
  8
0
100
AcDbLine
 62
7
  6
CONTINUOUS
 10
4.8001832806
 20
11.703645585
 11
4.7818197259
 21
11.7247057994
  0
LINE
  5
2E7
100
AcDbEntity
  8
0
100
AcDbLine
 62
7
  6
CONTINUOUS
 10
5.7295431051
 20
12.443387124
 11
5.7448679218
 21
12.4200225619
  0
LINE
  5
2E8
100
AcDbEntity
  8
0
100
AcDbLine
 62
7
  6
CONTINUOUS
 10
6.3548994025
 20
11.4899547726
 11
6.3702242192
 21
11.4665902106
  0
LINE
  5
2E9
100
AcDbEntity
  8
0
100
AcDbLine
 62
7
  6
CONTINUOUS
 10
5.7833502912
 20
12.4316632698
 11
5.7970449281
 21
12.4073073734
  0
LINE
  5
2EA
100
AcDbEntity
  8
0
100
AcDbLine
 62
7
  6
CONTINUOUS
 10
6.3421842141
 20
11.4377777664
 11
6.355878851
 21
11.41342187
  0
LINE
  5
2EB
100
AcDbEntity
  8
0
100
AcDbLine
 62
7
  6
CONTINUOUS
 10
6.2839981117
 20
12.0520100432
 11
6.2916243394
 21
12.0384468059
  0
LINE
  5
2EC
100
AcDbEntity
  8
0
100
AcDbLine
 62
7
  6
CONTINUOUS
 10
5.1037550302
 20
11.002678478
 11
5.0913565595
 21
11.0120805351
  0
LINE
  5
2ED
100
AcDbEntity
  8
0
100
AcDbLine
 62
7
  6
CONTINUOUS
 10
5.0607036377
 20
11.0370185367
 11
5.0489756897
 21
11.047244777
  0
LINE
  5
2EE
100
AcDbEntity
  8
0
100
AcDbLine
 62
7
  6
CONTINUOUS
 10
5.65958264
 20
10.8469428853
 11
5.6385224257
 21
10.8653064399
  0
LINE
  5
2EF
100
AcDbEntity
  8
0
100
AcDbLine
 62
7
  6
CONTINUOUS
 10
4.8001832806
 20
11.5963002688
 11
4.7791230663
 21
11.6146638235
  0
LINE
  5
2F0
100
AcDbEntity
  8
0
100
AcDbLine
 62
7
  6
CONTINUOUS
 10
5.6046077124
 20
10.8437149821
 11
5.5848497676
 21
10.8634729269
  0
LINE
  5
2F1
100
AcDbEntity
  8
0
100
AcDbLine
 62
7
  6
CONTINUOUS
 10
4.7983497676
 20
11.6499729269
 11
4.7785918227
 21
11.6697308718
  0
LINE
  5
2F2
100
AcDbEntity
  8
0
100
AcDbLine
 62
7
  6
CONTINUOUS
 10
5.620158871
 20
12.4556996282
 11
5.6385224257
 21
12.4346394139
  0
LINE
  5
2F3
100
AcDbEntity
  8
0
100
AcDbLine
 62
7
  6
CONTINUOUS
 10
6.3695162545
 20
11.5963002688
 11
6.3878798092
 21
11.5752400545
  0
LINE
  5
2F4
100
AcDbEntity
  8
0
100
AcDbLine
 62
7
  6
CONTINUOUS
 10
5.675061292
 20
12.4514117149
 11
5.6919448371
 21
12.4291474235
  0
LINE
  5
2F5
100
AcDbEntity
  8
0
100
AcDbLine
 62
7
  6
CONTINUOUS
 10
6.3640242641
 20
11.5428778574
 11
6.3809078093
 21
11.520613566
  0
LINE
  5
2F6
100
AcDbEntity
  8
0
100
AcDbLine
 62
7
  6
CONTINUOUS
 10
6.2549322525
 20
12.0987843722
 11
6.2634662897
 21
12.0857731861
  0
LINE
  5
2F7
100
AcDbEntity
  8
0
100
AcDbLine
 62
7
  6
CONTINUOUS
 10
9.2998497676
 20
12.8026855866
 11
9.3902303223
 21
12.1117368681
  0
LINE
  5
2F8
100
AcDbEntity
  8
0
100
AcDbLine
 62
7
  6
CONTINUOUS
 10
9.8698497676
 20
10.4972602672
 11
9.7794692129
 21
11.1882089857
  0
LINE
  5
2F9
100
AcDbEntity
  8
0
100
AcDbLine
 62
7
  6
CONTINUOUS
 10
10.7375624273
 20
11.3374729269
 11
10.7375624273
 21
11.9624729269
  0
LINE
  5
2FA
100
AcDbEntity
  8
0
100
AcDbLine
 62
9
  6
CONTINUOUS
 10
10.7974698091
 20
11.3351173993
 11
10.7974698091
 21
11.9648284546
  0
LINE
  5
2FB
100
AcDbEntity
  8
0
100
AcDbLine
 62
7
  6
CONTINUOUS
 10
5.1490495084
 20
10.9713564048
 11
5.1360383223
 21
10.979890442
  0
LINE
  5
2FC
100
AcDbEntity
  8
0
100
AcDbLine
 62
7
  6
CONTINUOUS
 10
5.7682324839
 20
10.8645984752
 11
5.7448679218
 21
10.879923292
  0
LINE
  5
2FD
100
AcDbEntity
  8
0
100
AcDbLine
 62
7
  6
CONTINUOUS
 10
4.8148001326
 20
11.4899547726
 11
4.7914355705
 21
11.5052795894
  0
LINE
  5
2FE
100
AcDbEntity
  8
0
100
AcDbLine
 62
7
  6
CONTINUOUS
 10
5.7142091285
 20
10.8539148852
 11
5.6919448371
 21
10.8707984304
  0
LINE
  5
2FF
100
AcDbEntity
  8
0
100
AcDbLine
 62
7
  6
CONTINUOUS
 10
4.805675271
 20
11.5428778574
 11
4.7834109796
 21
11.5597614025
  0
LINE
  5
300
100
AcDbEntity
  8
0
100
AcDbLine
 62
7
  6
CONTINUOUS
 10
5.5101168951
 20
12.4530029686
 11
5.5311771095
 21
12.4346394139
  0
LINE
  5
301
100
AcDbEntity
  8
0
100
AcDbLine
 62
7
  6
CONTINUOUS
 10
6.3695162545
 20
11.703645585
 11
6.3905764689
 21
11.6852820304
  0
LINE
  5
302
100
AcDbEntity
  8
0
100
AcDbLine
 62
7
  6
CONTINUOUS
 10
5.5650918227
 20
12.4562308718
 11
5.5848497676
 21
12.4364729269
  0
LINE
  5
303
100
AcDbEntity
  8
0
100
AcDbLine
 62
7
  6
CONTINUOUS
 10
6.3713497676
 20
11.6499729269
 11
6.3911077124
 21
11.6302149821
  0
LINE
  5
304
100
AcDbEntity
  8
0
100
AcDbLine
 62
7
  6
CONTINUOUS
 10
6.1496034787
 20
12.2257293821
 11
6.1606062228
 21
12.2147266381
  0
LINE
  5
305
100
AcDbEntity
  8
0
100
AcDbLine
 62
7
  6
CONTINUOUS
 10
6.1875779175
 20
12.1858470047
 11
6.1978041578
 21
12.1741190568
  0
LINE
  5
306
100
AcDbEntity
  8
0
100
AcDbLine
 62
7
  6
CONTINUOUS
 10
14.2889577546
 20
12.1624729269
 11
14.1066691379
 21
11.8467397811
  0
LINE
  5
307
100
AcDbEntity
  8
0
100
AcDbLine
 62
7
  6
CONTINUOUS
 10
5.8734662548
 20
10.8968841052
 11
5.8482325825
 21
10.9088847117
  0
LINE
  5
308
100
AcDbEntity
  8
0
100
AcDbLine
 62
7
  6
CONTINUOUS
 10
4.8437615523
 20
11.3865901119
 11
4.8185278801
 21
11.3985907184
  0
LINE
  5
309
100
AcDbEntity
  8
0
100
AcDbLine
 62
7
  6
CONTINUOUS
 10
5.1963758886
 20
10.9431983551
 11
5.1828126513
 21
10.9508245827
  0
LINE
  5
30A
100
AcDbEntity
  8
0
100
AcDbLine
 62
7
  6
CONTINUOUS
 10
5.8214008245
 20
10.8789438435
 11
5.7970449281
 21
10.8926384804
  0
LINE
  5
30B
100
AcDbEntity
  8
0
100
AcDbLine
 62
7
  6
CONTINUOUS
 10
4.8275153211
 20
11.4377777664
 11
4.8031594247
 21
11.4514724033
  0
LINE
  5
30C
100
AcDbEntity
  8
0
100
AcDbLine
 62
7
  6
CONTINUOUS
 10
5.4554904066
 20
12.4460309686
 11
5.4777546981
 21
12.4291474235
  0
LINE
  5
30D
100
AcDbEntity
  8
0
100
AcDbLine
 62
7
  6
CONTINUOUS
 10
6.3640242641
 20
11.7570679964
 11
6.3862885555
 21
11.7401844513
  0
LINE
  5
30E
100
AcDbEntity
  8
0
100
AcDbLine
 62
7
  6
CONTINUOUS
 10
6.065944505
 20
12.2972673759
 11
6.0783429757
 21
12.2878653187
  0
LINE
  5
30F
100
AcDbEntity
  8
0
100
AcDbLine
 62
7
  6
CONTINUOUS
 10
6.1089958975
 20
12.2629273172
 11
6.1207238454
 21
12.2527010768
  0
LINE
  5
310
100
AcDbEntity
  8
0
100
AcDbLine
 62
7
  6
CONTINUOUS
 10
9.1066691379
 20
11.4532060727
 11
9.2889577546
 21
11.1374729269
  0
LINE
  5
311
100
AcDbEntity
  8
0
100
AcDbLine
 62
7
  6
CONTINUOUS
 10
14.8807417805
 20
11.1374729269
 11
15.0630303973
 21
11.4532060727
  0
LINE
  5
312
100
AcDbEntity
  8
0
100
AcDbLine
 62
7
  6
CONTINUOUS
 10
5.3482987107
 20
10.8789438435
 11
5.333467559
 21
10.8836510394
  0
LINE
  5
313
100
AcDbEntity
  8
0
100
AcDbLine
 62
7
  6
CONTINUOUS
 10
5.2962332804
 20
10.8968841052
 11
5.281757934
 21
10.9025924412
  0
LINE
  5
314
100
AcDbEntity
  8
0
100
AcDbLine
 62
7
  6
CONTINUOUS
 10
5.9241860218
 20
10.9183356147
 11
5.8981922247
 21
10.9285862383
  0
LINE
  5
315
100
AcDbEntity
  8
0
100
AcDbLine
 62
7
  6
CONTINUOUS
 10
4.8634630789
 20
11.3366304697
 11
4.8374692819
 21
11.3468810933
  0
LINE
  5
316
100
AcDbEntity
  8
0
100
AcDbLine
 62
7
  6
CONTINUOUS
 10
5.3482987107
 20
12.4210020103
 11
5.3726546071
 21
12.4073073734
  0
LINE
  5
317
100
AcDbEntity
  8
0
100
AcDbLine
 62
7
  6
CONTINUOUS
 10
6.3421842141
 20
11.8621680874
 11
6.3665401104
 21
11.8484734505
  0
LINE
  5
318
100
AcDbEntity
  8
0
100
AcDbLine
 62
7
  6
CONTINUOUS
 10
5.4014670512
 20
12.4353473786
 11
5.4248316133
 21
12.4200225619
  0
LINE
  5
319
100
AcDbEntity
  8
0
100
AcDbLine
 62
7
  6
CONTINUOUS
 10
6.3548994025
 20
11.8099910812
 11
6.3782639646
 21
11.7946662645
  0
LINE
  5
31A
100
AcDbEntity
  8
0
100
AcDbLine
 62
7
  6
CONTINUOUS
 10
6.0206500268
 20
12.328589449
 11
6.0336612128
 21
12.3200554118
  0
LINE
  5
31B
100
AcDbEntity
  8
0
100
AcDbLine
 62
7
  6
CONTINUOUS
 10
10.0630303973
 20
11.8467397811
 11
9.8807417805
 21
12.1624729269
  0
LINE
  5
31C
100
AcDbEntity
  8
0
100
AcDbLine
 62
9
  6
CONTINUOUS
 10
13.372229726
 20
11.3351173993
 11
13.372229726
 21
11.9648284546
  0
LINE
  5
31D
100
AcDbEntity
  8
0
100
AcDbLine
 62
7
  6
CONTINUOUS
 10
13.4321371079
 20
11.3374729269
 11
13.4321371079
 21
11.9624729269
  0
LINE
  5
31E
100
AcDbEntity
  8
0
100
AcDbLine
 62
7
  6
CONTINUOUS
 10
5.4554904066
 20
10.8539148852
 11
5.44015643
 21
10.8565587299
  0
LINE
  5
31F
100
AcDbEntity
  8
0
100
AcDbLine
 62
7
  6
CONTINUOUS
 10
5.4014670512
 20
10.8645984752
 11
5.386349244
 21
10.868282584
  0
LINE
  5
320
100
AcDbEntity
  8
0
100
AcDbLine
 62
7
  6
CONTINUOUS
 10
6.0206500268
 20
10.9713564048
 11
5.9935025443
 21
10.9779720652
  0
LINE
  5
321
100
AcDbEntity
  8
0
100
AcDbLine
 62
7
  6
CONTINUOUS
 10
4.9128489059
 20
11.2413201502
 11
4.8857014234
 21
11.2479358107
  0
LINE
  5
322
100
AcDbEntity
  8
0
100
AcDbLine
 62
7
  6
CONTINUOUS
 10
5.9733236466
 20
10.9431983551
 11
5.9466909197
 21
10.9516512026
  0
LINE
  5
323
100
AcDbEntity
  8
0
100
AcDbLine
 62
7
  6
CONTINUOUS
 10
4.8865280433
 20
11.2881317747
 11
4.8598953165
 21
11.2965846223
  0
LINE
  5
324
100
AcDbEntity
  8
0
100
AcDbLine
 62
7
  6
CONTINUOUS
 10
5.2455135133
 20
12.3816102391
 11
5.2715073104
 21
12.3713596155
  0
LINE
  5
325
100
AcDbEntity
  8
0
100
AcDbLine
 62
7
  6
CONTINUOUS
 10
6.3062364562
 20
11.9633153841
 11
6.3322302533
 21
11.9530647605
  0
LINE
  5
326
100
AcDbEntity
  8
0
100
AcDbLine
 62
7
  6
CONTINUOUS
 10
5.2962332804
 20
12.4030617486
 11
5.3214669526
 21
12.3910611422
  0
LINE
  5
327
100
AcDbEntity
  8
0
100
AcDbLine
 62
7
  6
CONTINUOUS
 10
6.3259379828
 20
11.9133557419
 11
6.351171655
 21
11.9013551355
  0
LINE
  5
328
100
AcDbEntity
  8
0
100
AcDbLine
 62
7
  6
CONTINUOUS
 10
5.9733236466
 20
12.3567474987
 11
5.9868868838
 21
12.3491212711
  0
LINE
  5
329
100
AcDbEntity
  8
0
100
AcDbLine
 62
7
  6
CONTINUOUS
 10
14.2998497676
 20
10.4972602672
 11
14.3902310341
 21
11.1882144278
  0
LINE
  5
32A
100
AcDbEntity
  8
0
100
AcDbLine
 62
7
  6
CONTINUOUS
 10
14.8698497676
 20
12.8026855866
 11
14.779468501
 21
12.111731426
  0
LINE
  5
32B
100
AcDbEntity
  8
0
100
AcDbLine
 62
9
  6
CONTINUOUS
 10
1.2699942399
 20
10.4373528853
 11
1.8997052952
 21
10.4373528853
  0
LINE
  5
32C
100
AcDbEntity
  8
0
100
AcDbLine
 62
9
  6
CONTINUOUS
 10
9.2699942399
 20
10.4373528853
 11
9.8997052952
 21
10.4373528853
  0
LINE
  5
32D
100
AcDbEntity
  8
0
100
AcDbLine
 62
9
  6
CONTINUOUS
 10
14.2699942399
 20
10.4373528853
 11
14.8997052952
 21
10.4373528853
  0
LINE
  5
32E
100
AcDbEntity
  8
0
100
AcDbLine
 62
7
  6
CONTINUOUS
 10
1.2723501492
 20
10.4972602672
 11
1.8973497676
 21
10.4972602672
  0
LINE
  5
32F
100
AcDbEntity
  8
0
100
AcDbLine
 62
7
  6
CONTINUOUS
 10
9.2723497676
 20
10.4972602672
 11
9.8973497676
 21
10.4972602672
  0
LINE
  5
330
100
AcDbEntity
  8
0
100
AcDbLine
 62
7
  6
CONTINUOUS
 10
14.2723497676
 20
10.4972602672
 11
14.8973497676
 21
10.4972602672
  0
LINE
  5
331
100
AcDbEntity
  8
0
100
AcDbLine
 62
7
  6
CONTINUOUS
 10
5.5650918227
 20
10.8437149821
 11
5.5495406641
 21
10.8442462256
  0
LINE
  5
332
100
AcDbEntity
  8
0
100
AcDbLine
 62
7
  6
CONTINUOUS
 10
5.5101168951
 20
10.8469428853
 11
5.4946382432
 21
10.8485341389
  0
LINE
  5
333
100
AcDbEntity
  8
0
100
AcDbLine
 62
7
  6
CONTINUOUS
 10
6.1089958975
 20
11.0370185367
 11
6.0812004358
 21
11.0398759968
  0
LINE
  5
334
100
AcDbEntity
  8
0
100
AcDbLine
 62
7
  6
CONTINUOUS
 10
4.9747528374
 20
11.1536222587
 11
4.9469573757
 21
11.1564797188
  0
LINE
  5
335
100
AcDbEntity
  8
0
100
AcDbLine
 62
7
  6
CONTINUOUS
 10
2.7375624273
 20
11.3649729269
 11
2.0465506836
 21
11.4553617257
  0
LINE
  5
336
100
AcDbEntity
  8
0
100
AcDbLine
 62
7
  6
CONTINUOUS
 10
0.4321371079
 20
11.9349729269
 11
1.1231488516
 21
11.8445841281
  0
LINE
  5
337
100
AcDbEntity
  8
0
100
AcDbLine
 62
7
  6
CONTINUOUS
 10
6.065944505
 20
11.002678478
 11
6.0384088409
 21
11.0074261061
  0
LINE
  5
338
100
AcDbEntity
  8
0
100
AcDbLine
 62
7
  6
CONTINUOUS
 10
4.9423029467
 20
11.1964138536
 11
4.9147672826
 21
11.2011614817
  0
LINE
  5
339
100
AcDbEntity
  8
0
100
AcDbLine
 62
7
  6
CONTINUOUS
 10
5.1490495084
 20
12.328589449
 11
5.1761969909
 21
12.3219737886
  0
LINE
  5
33A
100
AcDbEntity
  8
0
100
AcDbLine
 62
7
  6
CONTINUOUS
 10
6.2568506292
 20
12.0586257036
 11
6.2839981117
 21
12.0520100432
  0
LINE
  5
33B
100
AcDbEntity
  8
0
100
AcDbLine
 62
7
  6
CONTINUOUS
 10
5.1963758886
 20
12.3567474987
 11
5.2230086154
 21
12.3482946512
  0
LINE
  5
33C
100
AcDbEntity
  8
0
100
AcDbLine
 62
7
  6
CONTINUOUS
 10
6.2831714918
 20
12.0118140791
 11
6.3098042187
 21
12.0033612316
  0
LINE
  5
33D
100
AcDbEntity
  8
0
100
AcDbLine
 62
7
  6
CONTINUOUS
 10
5.8214008245
 20
12.4210020103
 11
5.8362319761
 21
12.4162948144
  0
LINE
  5
33E
100
AcDbEntity
  8
0
100
AcDbLine
 62
7
  6
CONTINUOUS
 10
5.8734662548
 20
12.4030617486
 11
5.8879416012
 21
12.3973534126
  0
LINE
  5
33F
100
AcDbEntity
  8
0
100
AcDbLine
 62
7
  6
CONTINUOUS
 10
13.4321371079
 20
11.3649729269
 11
14.1231442812
 21
11.4553611279
  0
LINE
  5
340
100
AcDbEntity
  8
0
100
AcDbLine
 62
7
  6
CONTINUOUS
 10
15.7375624273
 20
11.9349729269
 11
15.046555254
 21
11.844584726
  0
LINE
  5
341
100
AcDbEntity
  8
0
100
AcDbLine
 62
7
  6
CONTINUOUS
 10
5.675061292
 20
10.8485341389
 11
5.65958264
 21
10.8469428853
  0
LINE
  5
342
100
AcDbEntity
  8
0
100
AcDbLine
 62
7
  6
CONTINUOUS
 10
5.620158871
 20
10.8442462256
 11
5.6046077124
 21
10.8437149821
  0
LINE
  5
343
100
AcDbEntity
  8
0
100
AcDbLine
 62
7
  6
CONTINUOUS
 10
6.1875779175
 20
11.1140988491
 11
6.1596522535
 21
11.1131448798
  0
LINE
  5
344
100
AcDbEntity
  8
0
100
AcDbLine
 62
7
  6
CONTINUOUS
 10
5.0480217204
 20
11.075170441
 11
5.0200960564
 21
11.0742164717
  0
LINE
  5
345
100
AcDbEntity
  8
0
100
AcDbLine
 62
7
  6
CONTINUOUS
 10
1.2889577546
 20
11.1374729269
 11
1.3835937181
 21
11.1374729269
  0
LINE
  5
346
100
AcDbEntity
  8
0
100
AcDbLine
 62
7
  6
CONTINUOUS
 10
1.786105817
 20
11.1374729269
 11
1.8807417805
 21
11.1374729269
  0
LINE
  5
347
100
AcDbEntity
  8
0
100
AcDbLine
 62
7
  6
CONTINUOUS
 10
9.2889577546
 20
11.1374729269
 11
9.3835937181
 21
11.1374729269
  0
LINE
  5
348
100
AcDbEntity
  8
0
100
AcDbLine
 62
7
  6
CONTINUOUS
 10
9.786105817
 20
11.1374729269
 11
9.8807417805
 21
11.1374729269
  0
LINE
  5
349
100
AcDbEntity
  8
0
100
AcDbLine
 62
7
  6
CONTINUOUS
 10
14.2889577546
 20
11.1374729269
 11
14.3835937181
 21
11.1374729269
  0
LINE
  5
34A
100
AcDbEntity
  8
0
100
AcDbLine
 62
7
  6
CONTINUOUS
 10
14.786105817
 20
11.1374729269
 11
14.8807417805
 21
11.1374729269
  0
LINE
  5
34B
100
AcDbEntity
  8
0
100
AcDbLine
 62
7
  6
CONTINUOUS
 10
6.1496034787
 20
11.0742164717
 11
6.1216778147
 21
11.075170441
  0
LINE
  5
34C
100
AcDbEntity
  8
0
100
AcDbLine
 62
7
  6
CONTINUOUS
 10
5.0100472817
 20
11.1131448798
 11
4.9821216176
 21
11.1140988491
  0
LINE
  5
34D
100
AcDbEntity
  8
0
100
AcDbLine
 62
7
  6
CONTINUOUS
 10
10.7375624273
 20
11.3649729269
 11
10.0465506836
 21
11.4553617257
  0
LINE
  5
34E
100
AcDbEntity
  8
0
100
AcDbLine
 62
7
  6
CONTINUOUS
 10
8.4321371079
 20
11.9349729269
 11
9.1231488516
 21
11.8445841281
  0
LINE
  5
34F
100
AcDbEntity
  8
0
100
AcDbLine
 62
7
  6
CONTINUOUS
 10
5.1037550302
 20
12.2972673759
 11
5.1312906942
 21
12.2925197478
  0
LINE
  5
350
100
AcDbEntity
  8
0
100
AcDbLine
 62
7
  6
CONTINUOUS
 10
6.2273965884
 20
12.1035320003
 11
6.2549322525
 21
12.0987843722
  0
LINE
  5
351
100
AcDbEntity
  8
0
100
AcDbLine
 62
7
  6
CONTINUOUS
 10
5.7142091285
 20
12.4460309686
 11
5.7295431051
 21
12.443387124
  0
LINE
  5
352
100
AcDbEntity
  8
0
100
AcDbLine
 62
7
  6
CONTINUOUS
 10
5.7682324839
 20
12.4353473786
 11
5.7833502912
 21
12.4316632698
  0
LINE
  5
353
100
AcDbEntity
  8
0
100
AcDbLine
 62
7
  6
CONTINUOUS
 10
14.2998497676
 20
12.8026855866
 11
14.3902303223
 21
12.1117368681
  0
LINE
  5
354
100
AcDbEntity
  8
0
100
AcDbLine
 62
7
  6
CONTINUOUS
 10
15.7375624273
 20
11.3374729269
 11
15.7375624273
 21
11.9624729269
  0
LINE
  5
355
100
AcDbEntity
  8
0
100
AcDbLine
 62
9
  6
CONTINUOUS
 10
15.7974698091
 20
11.3351173993
 11
15.7974698091
 21
11.9648284546
  0
LINE
  5
356
100
AcDbEntity
  8
0
100
AcDbLine
 62
7
  6
CONTINUOUS
 10
5.7833502912
 20
10.868282584
 11
5.7682324839
 21
10.8645984752
  0
LINE
  5
357
100
AcDbEntity
  8
0
100
AcDbLine
 62
7
  6
CONTINUOUS
 10
6.2839981117
 20
11.2479358107
 11
6.2568506292
 21
11.2413201502
  0
LINE
  5
358
100
AcDbEntity
  8
0
100
AcDbLine
 62
7
  6
CONTINUOUS
 10
5.1761969909
 20
10.9779720652
 11
5.1490495084
 21
10.9713564048
  0
LINE
  5
359
100
AcDbEntity
  8
0
100
AcDbLine
 62
7
  6
CONTINUOUS
 10
5.7295431051
 20
10.8565587299
 11
5.7142091285
 21
10.8539148852
  0
LINE
  5
35A
100
AcDbEntity
  8
0
100
AcDbLine
 62
7
  6
CONTINUOUS
 10
6.2549322525
 20
11.2011614817
 11
6.2273965884
 21
11.1964138536
  0
LINE
  5
35B
100
AcDbEntity
  8
0
100
AcDbLine
 62
7
  6
CONTINUOUS
 10
5.1312906942
 20
11.0074261061
 11
5.1037550302
 21
11.002678478
  0
LINE
  5
35C
100
AcDbEntity
  8
0
100
AcDbLine
 62
7
  6
CONTINUOUS
 10
8.4321371079
 20
11.3649729269
 11
9.1231442812
 21
11.4553611279
  0
LINE
  5
35D
100
AcDbEntity
  8
0
100
AcDbLine
 62
7
  6
CONTINUOUS
 10
10.7375624273
 20
11.9349729269
 11
10.046555254
 21
11.844584726
  0
LINE
  5
35E
100
AcDbEntity
  8
0
100
AcDbLine
 62
7
  6
CONTINUOUS
 10
6.2227421594
 20
11.1564797188
 11
6.1949466977
 21
11.1536222587
  0
LINE
  5
35F
100
AcDbEntity
  8
0
100
AcDbLine
 62
7
  6
CONTINUOUS
 10
5.0884990994
 20
11.0398759968
 11
5.0607036377
 21
11.0370185367
  0
LINE
  5
360
100
AcDbEntity
  8
0
100
AcDbLine
 62
7
  6
CONTINUOUS
 10
4.9821216176
 20
12.1858470047
 11
5.0100472817
 21
12.1868009741
  0
LINE
  5
361
100
AcDbEntity
  8
0
100
AcDbLine
 62
7
  6
CONTINUOUS
 10
6.1216778147
 20
12.2247754128
 11
6.1496034787
 21
12.2257293821
  0
LINE
  5
362
100
AcDbEntity
  8
0
100
AcDbLine
 62
9
  6
CONTINUOUS
 10
1.0836738094
 20
11.6499729269
 11
1.2606842321
 21
11.6499729269
  0
LINE
  5
363
100
AcDbEntity
  8
0
100
AcDbLine
 62
9
  6
CONTINUOUS
 10
1.9090153031
 20
11.6499729269
 11
2.0860257257
 21
11.6499729269
  0
LINE
  5
364
100
AcDbEntity
  8
0
100
AcDbLine
 62
9
  6
CONTINUOUS
 10
5.1059357096
 20
11.6499729269
 11
5.2564041205
 21
11.6499729269
  0
LINE
  5
365
100
AcDbEntity
  8
0
100
AcDbLine
 62
9
  6
CONTINUOUS
 10
5.9132954146
 20
11.6499729269
 11
6.0637638256
 21
11.6499729269
  0
LINE
  5
366
100
AcDbEntity
  8
0
100
AcDbLine
 62
9
  6
CONTINUOUS
 10
9.0836738094
 20
11.6499729269
 11
9.2606842321
 21
11.6499729269
  0
LINE
  5
367
100
AcDbEntity
  8
0
100
AcDbLine
 62
9
  6
CONTINUOUS
 10
9.9090153031
 20
11.6499729269
 11
10.0860257257
 21
11.6499729269
  0
LINE
  5
368
100
AcDbEntity
  8
0
100
AcDbLine
 62
9
  6
CONTINUOUS
 10
14.0836738094
 20
11.6499729269
 11
14.2606842321
 21
11.6499729269
  0
LINE
  5
369
100
AcDbEntity
  8
0
100
AcDbLine
 62
9
  6
CONTINUOUS
 10
14.9090153031
 20
11.6499729269
 11
15.0860257257
 21
11.6499729269
  0
LINE
  5
36A
100
AcDbEntity
  8
0
100
AcDbLine
 62
7
  6
CONTINUOUS
 10
14.8807417805
 20
12.1624729269
 11
14.786105817
 21
12.1624729269
  0
LINE
  5
36B
100
AcDbEntity
  8
0
100
AcDbLine
 62
7
  6
CONTINUOUS
 10
14.3835937181
 20
12.1624729269
 11
14.2889577546
 21
12.1624729269
  0
LINE
  5
36C
100
AcDbEntity
  8
0
100
AcDbLine
 62
7
  6
CONTINUOUS
 10
9.8807417805
 20
12.1624729269
 11
9.786105817
 21
12.1624729269
  0
LINE
  5
36D
100
AcDbEntity
  8
0
100
AcDbLine
 62
7
  6
CONTINUOUS
 10
9.3835937181
 20
12.1624729269
 11
9.2889577546
 21
12.1624729269
  0
LINE
  5
36E
100
AcDbEntity
  8
0
100
AcDbLine
 62
7
  6
CONTINUOUS
 10
1.8807417805
 20
12.1624729269
 11
1.786105817
 21
12.1624729269
  0
LINE
  5
36F
100
AcDbEntity
  8
0
100
AcDbLine
 62
7
  6
CONTINUOUS
 10
1.3835937181
 20
12.1624729269
 11
1.2889577546
 21
12.1624729269
  0
LINE
  5
370
100
AcDbEntity
  8
0
100
AcDbLine
 62
7
  6
CONTINUOUS
 10
5.0200960564
 20
12.2257293821
 11
5.0480217204
 21
12.2247754128
  0
LINE
  5
371
100
AcDbEntity
  8
0
100
AcDbLine
 62
7
  6
CONTINUOUS
 10
6.1596522535
 20
12.1868009741
 11
6.1875779175
 21
12.1858470047
  0
LINE
  5
372
100
AcDbEntity
  8
0
100
AcDbLine
 62
7
  6
CONTINUOUS
 10
5.6046077124
 20
12.4562308718
 11
5.620158871
 21
12.4556996282
  0
LINE
  5
373
100
AcDbEntity
  8
0
100
AcDbLine
 62
7
  6
CONTINUOUS
 10
5.0607036377
 20
12.2629273172
 11
5.0884990994
 21
12.2600698571
  0
LINE
  5
374
100
AcDbEntity
  8
0
100
AcDbLine
 62
7
  6
CONTINUOUS
 10
6.1949466977
 20
12.1463235951
 11
6.2227421594
 21
12.143466135
  0
LINE
  5
375
100
AcDbEntity
  8
0
100
AcDbLine
 62
7
  6
CONTINUOUS
 10
5.65958264
 20
12.4530029686
 11
5.675061292
 21
12.4514117149
  0
LINE
  5
376
100
AcDbEntity
  8
0
100
AcDbLine
 62
7
  6
CONTINUOUS
 10
15.7375624273
 20
11.3649729269
 11
15.0465506836
 21
11.4553617257
  0
LINE
  5
377
100
AcDbEntity
  8
0
100
AcDbLine
 62
7
  6
CONTINUOUS
 10
13.4321371079
 20
11.9349729269
 11
14.1231488516
 21
11.8445841281
  0
LINE
  5
378
100
AcDbEntity
  8
0
100
AcDbLine
 62
7
  6
CONTINUOUS
 10
14.1066691379
 20
11.4532060727
 11
14.2889577546
 21
11.1374729269
  0
LINE
  5
379
100
AcDbEntity
  8
0
100
AcDbLine
 62
7
  6
CONTINUOUS
 10
14.8698497676
 20
10.4972602672
 11
14.7794692129
 21
11.1882089857
  0
LINE
  5
37A
100
AcDbEntity
  8
0
100
AcDbLine
 62
7
  6
CONTINUOUS
 10
4.9147672826
 20
12.0987843722
 11
4.9423029467
 21
12.1035320003
  0
LINE
  5
37B
100
AcDbEntity
  8
0
100
AcDbLine
 62
7
  6
CONTINUOUS
 10
6.0384088409
 20
12.2925197478
 11
6.065944505
 21
12.2972673759
  0
LINE
  5
37C
100
AcDbEntity
  8
0
100
AcDbLine
 62
7
  6
CONTINUOUS
 10
0.4321371079
 20
11.3649729269
 11
1.1231442812
 21
11.4553611279
  0
LINE
  5
37D
100
AcDbEntity
  8
0
100
AcDbLine
 62
7
  6
CONTINUOUS
 10
2.7375624273
 20
11.9349729269
 11
2.046555254
 21
11.844584726
  0
LINE
  5
37E
100
AcDbEntity
  8
0
100
AcDbLine
 62
7
  6
CONTINUOUS
 10
4.9469573757
 20
12.143466135
 11
4.9747528374
 21
12.1463235951
  0
LINE
  5
37F
100
AcDbEntity
  8
0
100
AcDbLine
 62
7
  6
CONTINUOUS
 10
6.0812004358
 20
12.2600698571
 11
6.1089958975
 21
12.2629273172
  0
LINE
  5
380
100
AcDbEntity
  8
0
100
AcDbLine
 62
7
  6
CONTINUOUS
 10
5.4946382432
 20
12.4514117149
 11
5.5101168951
 21
12.4530029686
  0
LINE
  5
381
100
AcDbEntity
  8
0
100
AcDbLine
 62
7
  6
CONTINUOUS
 10
5.5495406641
 20
12.4556996282
 11
5.5650918227
 21
12.4562308718
  0
LINE
  5
382
100
AcDbEntity
  8
0
100
AcDbLine
 62
7
  6
CONTINUOUS
 10
1.2723501492
 20
12.8026855866
 11
1.897349386
 21
12.8026855866
  0
LINE
  5
383
100
AcDbEntity
  8
0
100
AcDbLine
 62
7
  6
CONTINUOUS
 10
9.2723497676
 20
12.8026855866
 11
9.8973497676
 21
12.8026855866
  0
LINE
  5
384
100
AcDbEntity
  8
0
100
AcDbLine
 62
7
  6
CONTINUOUS
 10
14.2723497676
 20
12.8026855866
 11
14.8973497676
 21
12.8026855866
  0
LINE
  5
385
100
AcDbEntity
  8
0
100
AcDbLine
 62
9
  6
CONTINUOUS
 10
1.2699942399
 20
12.8625929685
 11
1.8997052952
 21
12.8625929685
  0
LINE
  5
386
100
AcDbEntity
  8
0
100
AcDbLine
 62
9
  6
CONTINUOUS
 10
9.2699942399
 20
12.8625929685
 11
9.8997052952
 21
12.8625929685
  0
LINE
  5
387
100
AcDbEntity
  8
0
100
AcDbLine
 62
9
  6
CONTINUOUS
 10
14.2699942399
 20
12.8625929685
 11
14.8997052952
 21
12.8625929685
  0
LINE
  5
388
100
AcDbEntity
  8
0
100
AcDbLine
 62
7
  6
CONTINUOUS
 10
15.0630303973
 20
11.8467397811
 11
14.8807417805
 21
12.1624729269
  0
LINE
  5
389
100
AcDbEntity
  8
0
100
AcDbLine
 62
7
  6
CONTINUOUS
 10
20.0805950385
 20
11.4176101519
 11
20.0816455055
 21
11.419864149
  0
LINE
  5
38A
100
AcDbEntity
  8
0
100
AcDbLine
 62
7
  6
CONTINUOUS
 10
4.8857014234
 20
12.0520100432
 11
4.9128489059
 21
12.0586257036
  0
LINE
  5
38B
100
AcDbEntity
  8
0
100
AcDbLine
 62
7
  6
CONTINUOUS
 10
5.9935025443
 20
12.3219737886
 11
6.0206500268
 21
12.328589449
  0
LINE
  5
38C
100
AcDbEntity
  8
0
100
AcDbLine
 62
7
  6
CONTINUOUS
 10
5.386349244
 20
12.4316632698
 11
5.4014670512
 21
12.4353473786
  0
LINE
  5
38D
100
AcDbEntity
  8
0
100
AcDbLine
 62
7
  6
CONTINUOUS
 10
5.44015643
 20
12.443387124
 11
5.4554904066
 21
12.4460309686
  0
LINE
  5
38E
100
AcDbEntity
  8
0
100
AcDbLine
 62
7
  6
CONTINUOUS
 10
17.6798497676
 20
4.7738625179
 11
17.6798497676
 21
4.6336389807
  0
LINE
  5
38F
100
AcDbEntity
  8
0
100
AcDbLine
 62
7
  6
CONTINUOUS
 10
17.9648497676
 20
4.9443628139
 11
17.9648497676
 21
4.918326164
  0
LWPOLYLINE
  5
390
100
AcDbEntity
  8
0
100
AcDbPolyline
 62
7
  6
CONTINUOUS
 90
9
 70
0
 10
20.1030976238
 20
11.4734073456
 10
20.1043683728
 20
11.4771815541
 10
20.1056334498
 20
11.481032322
 10
20.1068890768
 20
11.4849535667
 10
20.1081320122
 20
11.4889389589
 10
20.1093597607
 20
11.4929836138
 10
20.1105694524
 20
11.4970829857
 10
20.1117581843
 20
11.5012315904
 10
20.1123089976
 20
11.5031971118
  0
LWPOLYLINE
  5
391
100
AcDbEntity
  8
0
100
AcDbPolyline
 62
7
  6
CONTINUOUS
 90
12
 70
0
 10
20.0898443367
 20
11.438461089
 10
20.0909175903
 20
11.4410414875
 10
20.0920300264
 20
11.4437576283
 10
20.0931748126
 20
11.4465966723
 10
20.0943521572
 20
11.4495634666
 10
20.0955575337
 20
11.4526548619
 10
20.0967845852
 20
11.4558614553
 10
20.0980278978
 20
11.4591734297
 10
20.0992853741
 20
11.4625895905
 10
20.1005526909
 20
11.4661056875
 10
20.1018248511
 20
11.4697141876
 10
20.1030976238
 20
11.4734073456
  0
LINE
  5
392
100
AcDbEntity
  8
0
100
AcDbLine
 62
7
  6
CONTINUOUS
 10
20.088818272
 20
11.4360289363
 11
20.0898443367
 21
11.438461089
  0
LINE
  5
393
100
AcDbEntity
  8
0
100
AcDbLine
 62
7
  6
CONTINUOUS
 10
20.0869257866
 20
11.4316231787
 11
20.088818272
 21
11.4360289363
  0
LINE
  5
394
100
AcDbEntity
  8
0
100
AcDbLine
 62
7
  6
CONTINUOUS
 10
20.085266618
 20
11.4278484066
 11
20.0869257866
 21
11.4316231787
  0
LINE
  5
395
100
AcDbEntity
  8
0
100
AcDbLine
 62
7
  6
CONTINUOUS
 10
20.0838432262
 20
11.4246681764
 11
20.085266618
 21
11.4278484066
  0
LINE
  5
396
100
AcDbEntity
  8
0
100
AcDbLine
 62
7
  6
CONTINUOUS
 10
20.0826265133
 20
11.4219932624
 11
20.0838432262
 21
11.4246681764
  0
LINE
  5
397
100
AcDbEntity
  8
0
100
AcDbLine
 62
7
  6
CONTINUOUS
 10
20.0816455055
 20
11.419864149
 11
20.0826265133
 21
11.4219932624
  0
LINE
  5
398
100
AcDbEntity
  8
0
100
AcDbLine
 62
7
  6
CONTINUOUS
 10
18.9498497676
 20
11.028541882
 11
18.9498497676
 21
10.9835467493
  0
LINE
  5
399
100
AcDbEntity
  8
0
100
AcDbLine
 62
7
  6
CONTINUOUS
 10
18.9498497676
 20
8.5538095847
 11
18.9498497676
 21
8.508814452
  0
LINE
  5
39A
100
AcDbEntity
  8
0
100
AcDbLine
 62
7
  6
CONTINUOUS
 10
19.0948497676
 20
11.3443061976
 11
19.0948497676
 21
11.3531496249
  0
LINE
  5
39B
100
AcDbEntity
  8
0
100
AcDbLine
 62
7
  6
CONTINUOUS
 10
19.0973497676
 20
11.6499729269
 11
19.0973497676
 21
11.3894529736
  0
LINE
  5
39C
100
AcDbEntity
  8
0
100
AcDbLine
 62
7
  6
CONTINUOUS
 10
19.1008497676
 20
5.5235944808
 11
19.1008497676
 21
5.508273592
  0
LINE
  5
39D
100
AcDbEntity
  8
0
100
AcDbLine
 62
7
  6
CONTINUOUS
 10
19.1148497676
 20
11.3757334673
 11
19.1148497676
 21
11.3621116513
  0
LINE
  5
39E
100
AcDbEntity
  8
0
100
AcDbLine
 62
7
  6
CONTINUOUS
 10
19.2048138668
 20
5.7685915189
 11
19.1632227248
 21
5.6742492611
  0
LINE
  5
39F
100
AcDbEntity
  8
0
100
AcDbLine
 62
7
  6
CONTINUOUS
 10
19.9648856683
 20
5.7685915189
 11
20.0064768104
 21
5.6742492611
  0
LINE
  5
3A0
100
AcDbEntity
  8
0
100
AcDbLine
 62
7
  6
CONTINUOUS
 10
19.2098497676
 20
8.3290041311
 11
19.2098497676
 21
5.7336264884
  0
LINE
  5
3A1
100
AcDbEntity
  8
0
100
AcDbLine
 62
7
  6
CONTINUOUS
 10
19.9598497676
 20
8.3290041309
 11
19.9598497676
 21
5.7336264884
  0
LINE
  5
3A2
100
AcDbEntity
  8
0
100
AcDbLine
 62
7
  6
CONTINUOUS
 10
20.0548497676
 20
11.3757334673
 11
20.0548497676
 21
11.3621080296
  0
LINE
  5
3A3
100
AcDbEntity
  8
0
100
AcDbLine
 62
7
  6
CONTINUOUS
 10
20.0688497676
 20
5.5235944808
 11
20.0688497676
 21
5.508273592
  0
LINE
  5
3A4
100
AcDbEntity
  8
0
100
AcDbLine
 62
7
  6
CONTINUOUS
 10
20.0723497676
 20
11.6499729269
 11
20.0723497676
 21
11.3894510953
  0
LINE
  5
3A5
100
AcDbEntity
  8
0
100
AcDbLine
 62
7
  6
CONTINUOUS
 10
20.0748497676
 20
11.3443101402
 11
20.0748497676
 21
11.3531496249
  0
LINE
  5
3A6
100
AcDbEntity
  8
0
100
AcDbLine
 62
7
  6
CONTINUOUS
 10
20.2198497676
 20
11.028541882
 11
20.2198497676
 21
10.9835467493
  0
LINE
  5
3A7
100
AcDbEntity
  8
0
100
AcDbLine
 62
7
  6
CONTINUOUS
 10
20.2198497676
 20
8.5538095847
 11
20.2198497676
 21
8.508814452
  0
LINE
  5
3A8
100
AcDbEntity
  8
0
100
AcDbLine
 62
7
  6
CONTINUOUS
 10
21.2048497676
 20
4.9443628139
 11
21.2048497676
 21
4.918326164
  0
LINE
  5
3A9
100
AcDbEntity
  8
0
100
AcDbLine
 62
7
  6
CONTINUOUS
 10
21.4898497676
 20
4.7738625179
 11
21.4898497676
 21
4.6336389807
  0
ARC
  5
3AA
100
AcDbEntity
  8
0
100
AcDbCircle
 62
7
  6
CONTINUOUS
 10
9.5848497676
 20
8.8649729269
 40
4.01
100
AcDbArc
 50
85.4966382723
 51
94.5033617277
  0
ARC
  5
3AB
100
AcDbEntity
  8
0
100
AcDbCircle
 62
7
  6
CONTINUOUS
 10
1.5848497676
 20
8.8649729269
 40
4.01
100
AcDbArc
 50
85.4966382723
 51
94.5033617277
  0
ARC
  5
3AC
100
AcDbEntity
  8
0
100
AcDbCircle
 62
7
  6
CONTINUOUS
 10
-1.2001502324
 20
11.6499729269
 40
4.01
100
AcDbArc
 50
355.4966382723
 51
4.5033617277
  0
ARC
  5
3AD
100
AcDbEntity
  8
0
100
AcDbCircle
 62
7
  6
CONTINUOUS
 10
0.4021371079
 20
11.9624729269
 40
0.03
100
AcDbArc
 50
0.0
 51
175.4966382723
  0
ARC
  5
3AE
100
AcDbEntity
  8
0
100
AcDbCircle
 62
7
  6
CONTINUOUS
 10
0.4021371079
 20
11.3374729269
 40
0.03
100
AcDbArc
 50
184.5033617277
 51
360.0
  0
ARC
  5
3AF
100
AcDbEntity
  8
0
100
AcDbCircle
 62
7
  6
CONTINUOUS
 10
1.2723497676
 20
10.4672602672
 40
0.03
100
AcDbArc
 50
90.0
 51
265.4966382723
  0
ARC
  5
3B0
100
AcDbEntity
  8
0
100
AcDbCircle
 62
7
  6
CONTINUOUS
 10
1.8973497676
 20
10.4672602672
 40
0.03
100
AcDbArc
 50
274.5033617277
 51
90.0
  0
ARC
  5
3B1
100
AcDbEntity
  8
0
100
AcDbCircle
 62
7
  6
CONTINUOUS
 10
1.5848497676
 20
11.6499729269
 40
1.1355877937
100
AcDbArc
 50
104.1856919766
 51
165.8172204025
  0
ARC
  5
3B2
100
AcDbEntity
  8
0
100
AcDbCircle
 62
7
  6
CONTINUOUS
 10
1.5848497676
 20
11.6499729269
 40
1.1355877937
100
AcDbArc
 50
14.1827795975
 51
75.8143080234
  0
ARC
  5
3B3
100
AcDbEntity
  8
0
100
AcDbCircle
 62
7
  6
CONTINUOUS
 10
1.5848497676
 20
11.6499729269
 40
1.1355877937
100
AcDbArc
 50
194.1827795975
 51
255.8143080234
  0
ARC
  5
3B4
100
AcDbEntity
  8
0
100
AcDbCircle
 62
7
  6
CONTINUOUS
 10
1.5848497676
 20
11.6499729269
 40
1.1355877937
100
AcDbArc
 50
284.1856919766
 51
345.8172204025
  0
ARC
  5
3B5
100
AcDbEntity
  8
0
100
AcDbCircle
 62
9
  6
CONTINUOUS
 10
1.5848497676
 20
11.6499729269
 40
1.1018951051
100
AcDbArc
 50
104.3924588758
 51
165.6096062983
  0
ARC
  5
3B6
100
AcDbEntity
  8
0
100
AcDbCircle
 62
9
  6
CONTINUOUS
 10
1.5848497676
 20
11.6499729269
 40
1.1018951051
100
AcDbArc
 50
14.3903937017
 51
75.6075411243
  0
ARC
  5
3B7
100
AcDbEntity
  8
0
100
AcDbCircle
 62
9
  6
CONTINUOUS
 10
1.5848497676
 20
11.6499729269
 40
1.1018951051
100
AcDbArc
 50
194.3903937017
 51
255.6075411243
  0
ARC
  5
3B8
100
AcDbEntity
  8
0
100
AcDbCircle
 62
9
  6
CONTINUOUS
 10
1.5848497676
 20
11.6499729269
 40
1.1018951051
100
AcDbArc
 50
284.3924588757
 51
345.6096062983
  0
ARC
  5
3B9
100
AcDbEntity
  8
0
100
AcDbCircle
 62
9
  6
CONTINUOUS
 10
1.5848497676
 20
11.6499729269
 40
1.0686940646
100
AcDbArc
 50
104.6068180772
 51
165.3931819228
  0
ARC
  5
3BA
100
AcDbEntity
  8
0
100
AcDbCircle
 62
9
  6
CONTINUOUS
 10
1.5848497676
 20
11.6499729269
 40
1.0686940646
100
AcDbArc
 50
14.6068180772
 51
75.3931819228
  0
ARC
  5
3BB
100
AcDbEntity
  8
0
100
AcDbCircle
 62
9
  6
CONTINUOUS
 10
1.5848497676
 20
11.6499729269
 40
1.0686940646
100
AcDbArc
 50
194.6068180772
 51
255.3931819228
  0
ARC
  5
3BC
100
AcDbEntity
  8
0
100
AcDbCircle
 62
9
  6
CONTINUOUS
 10
1.5848497676
 20
11.6499729269
 40
1.0686940646
100
AcDbArc
 50
284.6068180772
 51
345.3931819228
  0
ARC
  5
3BD
100
AcDbEntity
  8
0
100
AcDbCircle
 62
9
  6
CONTINUOUS
 10
1.5848497676
 20
11.6499729269
 40
0.9981262705
100
AcDbArc
 50
105.1172867073
 51
164.8827132927
  0
ARC
  5
3BE
100
AcDbEntity
  8
0
100
AcDbCircle
 62
9
  6
CONTINUOUS
 10
1.5848497676
 20
11.6499729269
 40
0.9981262705
100
AcDbArc
 50
15.1172867073
 51
74.8827132927
  0
ARC
  5
3BF
100
AcDbEntity
  8
0
100
AcDbCircle
 62
9
  6
CONTINUOUS
 10
1.5848497676
 20
11.6499729269
 40
0.9981262705
100
AcDbArc
 50
195.1172867073
 51
254.8827132927
  0
ARC
  5
3C0
100
AcDbEntity
  8
0
100
AcDbCircle
 62
9
  6
CONTINUOUS
 10
1.5848497676
 20
11.6499729269
 40
0.9981262705
100
AcDbArc
 50
285.1172867073
 51
344.8827132927
  0
ARC
  5
3C1
100
AcDbEntity
  8
0
100
AcDbCircle
 62
9
  6
CONTINUOUS
 10
1.5848497676
 20
11.6499729269
 40
0.9302280237
100
AcDbArc
 50
105.6804363747
 51
164.318776377
  0
ARC
  5
3C2
100
AcDbEntity
  8
0
100
AcDbCircle
 62
9
  6
CONTINUOUS
 10
1.5848497676
 20
11.6499729269
 40
0.9302280237
100
AcDbArc
 50
15.681223623
 51
74.3195636253
  0
ARC
  5
3C3
100
AcDbEntity
  8
0
100
AcDbCircle
 62
9
  6
CONTINUOUS
 10
1.5848497676
 20
11.6499729269
 40
0.9302280237
100
AcDbArc
 50
195.681223623
 51
254.3195636253
  0
ARC
  5
3C4
100
AcDbEntity
  8
0
100
AcDbCircle
 62
9
  6
CONTINUOUS
 10
1.5848497676
 20
11.6499729269
 40
0.9302280237
100
AcDbArc
 50
285.6804363747
 51
344.318776377
  0
ARC
  5
3C5
100
AcDbEntity
  8
0
100
AcDbCircle
 62
9
  6
CONTINUOUS
 10
1.5848497676
 20
11.6499729269
 40
0.7616485311
100
AcDbArc
 50
107.521334539
 51
162.478665461
  0
ARC
  5
3C6
100
AcDbEntity
  8
0
100
AcDbCircle
 62
9
  6
CONTINUOUS
 10
1.5848497676
 20
11.6499729269
 40
0.7616485311
100
AcDbArc
 50
17.521334539
 51
72.478665461
  0
ARC
  5
3C7
100
AcDbEntity
  8
0
100
AcDbCircle
 62
9
  6
CONTINUOUS
 10
1.5848497676
 20
11.6499729269
 40
0.7616485311
100
AcDbArc
 50
197.521334539
 51
252.478665461
  0
ARC
  5
3C8
100
AcDbEntity
  8
0
100
AcDbCircle
 62
9
  6
CONTINUOUS
 10
1.5848497676
 20
11.6499729269
 40
0.7616485311
100
AcDbArc
 50
287.521334539
 51
342.478665461
  0
ARC
  5
3C9
100
AcDbEntity
  8
0
100
AcDbCircle
 62
7
  6
CONTINUOUS
 10
1.5848497676
 20
11.6499729269
 40
0.6917203626
100
AcDbArc
 50
108.5482937775
 51
161.4488004846
  0
ARC
  5
3CA
100
AcDbEntity
  8
0
100
AcDbCircle
 62
7
  6
CONTINUOUS
 10
1.5848497676
 20
11.6499729269
 40
0.6917203626
100
AcDbArc
 50
18.5511995154
 51
71.4517062225
  0
ARC
  5
3CB
100
AcDbEntity
  8
0
100
AcDbCircle
 62
7
  6
CONTINUOUS
 10
1.5848497676
 20
11.6499729269
 40
0.6917203626
100
AcDbArc
 50
198.551199889
 51
251.4517063644
  0
ARC
  5
3CC
100
AcDbEntity
  8
0
100
AcDbCircle
 62
7
  6
CONTINUOUS
 10
1.5848497676
 20
11.6499729269
 40
0.6917203626
100
AcDbArc
 50
288.5482936356
 51
341.448800111
  0
ARC
  5
3CD
100
AcDbEntity
  8
0
100
AcDbCircle
 62
9
  6
CONTINUOUS
 10
1.5848497676
 20
11.6499729269
 40
0.5085759512
100
AcDbArc
 50
202.6312309541
 51
247.3687690459
  0
ARC
  5
3CE
100
AcDbEntity
  8
0
100
AcDbCircle
 62
9
  6
CONTINUOUS
 10
1.5848497676
 20
11.6499729269
 40
0.5085759512
100
AcDbArc
 50
112.6312309541
 51
157.3687690459
  0
ARC
  5
3CF
100
AcDbEntity
  8
0
100
AcDbCircle
 62
9
  6
CONTINUOUS
 10
1.5848497676
 20
11.6499729269
 40
0.5085759512
100
AcDbArc
 50
292.6312309541
 51
337.3687690459
  0
ARC
  5
3D0
100
AcDbEntity
  8
0
100
AcDbCircle
 62
9
  6
CONTINUOUS
 10
1.5848497676
 20
11.6499729269
 40
0.5085759512
100
AcDbArc
 50
22.6312309541
 51
67.3687690459
  0
CIRCLE
  5
3D1
100
AcDbEntity
  8
0
100
AcDbCircle
 62
7
  6
CONTINUOUS
 10
1.5848497676
 20
11.6499729269
 40
0.5011759582
  0
CIRCLE
  5
3D2
100
AcDbEntity
  8
0
100
AcDbCircle
 62
9
  6
CONTINUOUS
 10
1.5848497676
 20
11.6499729269
 40
0.4694578863
  0
CIRCLE
  5
3D3
100
AcDbEntity
  8
0
100
AcDbCircle
 62
9
  6
CONTINUOUS
 10
1.5848497676
 20
11.6499729269
 40
0.3241653386
  0
ARC
  5
3D4
100
AcDbEntity
  8
0
100
AcDbCircle
 62
7
  6
CONTINUOUS
 10
2.7675624273
 20
11.3374729269
 40
0.03
100
AcDbArc
 50
180.0
 51
355.4966382723
  0
ARC
  5
3D5
100
AcDbEntity
  8
0
100
AcDbCircle
 62
7
  6
CONTINUOUS
 10
2.7675624273
 20
11.9624729269
 40
0.03
100
AcDbArc
 50
4.5033617277
 51
180.0
  0
ARC
  5
3D6
100
AcDbEntity
  8
0
100
AcDbCircle
 62
7
  6
CONTINUOUS
 10
1.5848497676
 20
14.4349729269
 40
4.01
100
AcDbArc
 50
265.4966382723
 51
274.5033617277
  0
ARC
  5
3D7
100
AcDbEntity
  8
0
100
AcDbCircle
 62
7
  6
CONTINUOUS
 10
1.8973497676
 20
12.8326855866
 40
0.03
100
AcDbArc
 50
270.0
 51
85.4966382723
  0
ARC
  5
3D8
100
AcDbEntity
  8
0
100
AcDbCircle
 62
7
  6
CONTINUOUS
 10
1.2723497676
 20
12.8326855866
 40
0.03
100
AcDbArc
 50
94.5033617277
 51
270.0
  0
ARC
  5
3D9
100
AcDbEntity
  8
0
100
AcDbCircle
 62
7
  6
CONTINUOUS
 10
6.7998497676
 20
11.6499729269
 40
4.01
100
AcDbArc
 50
355.4966382723
 51
4.5033617277
  0
ARC
  5
3DA
100
AcDbEntity
  8
0
100
AcDbCircle
 62
7
  6
CONTINUOUS
 10
4.3698497676
 20
11.6499729269
 40
4.01
100
AcDbArc
 50
175.4966382723
 51
184.5033617277
  0
ARC
  5
3DB
100
AcDbEntity
  8
0
100
AcDbCircle
 62
7
  6
CONTINUOUS
 10
5.5848497676
 20
11.6499729269
 40
1.4544334851
100
AcDbArc
 50
299.7248836692
 51
240.2751155425
  0
ARC
  5
3DC
100
AcDbEntity
  8
0
100
AcDbCircle
 62
9
  6
CONTINUOUS
 10
5.5848497676
 20
11.6499729269
 40
1.4530705181
100
AcDbArc
 50
299.7615679266
 51
240.2384308014
  0
ARC
  5
3DD
100
AcDbEntity
  8
0
100
AcDbCircle
 62
9
  6
CONTINUOUS
 10
5.5848497676
 20
11.6499729269
 40
1.4268779325
100
AcDbArc
 50
300.4380673021
 51
239.5619362483
  0
ARC
  5
3DE
100
AcDbEntity
  8
0
100
AcDbCircle
 62
9
  6
CONTINUOUS
 10
5.5848497676
 20
11.6499729269
 40
1.3248052694
100
AcDbArc
 50
303.5179400988
 51
236.4820849052
  0
ARC
  5
3DF
100
AcDbEntity
  8
0
100
AcDbCircle
 62
9
  6
CONTINUOUS
 10
5.5848497676
 20
11.6499729269
 40
1.0243078011
100
AcDbArc
 50
324.4125753625
 51
215.5873888597
  0
ARC
  5
3E0
100
AcDbEntity
  8
0
100
AcDbCircle
 62
7
  6
CONTINUOUS
 10
5.5848497676
 20
11.6499729269
 40
1.0147992336
100
AcDbArc
 50
324.4029053952
 51
215.5970948148
  0
CIRCLE
  5
3E1
100
AcDbEntity
  8
0
100
AcDbCircle
 62
7
  6
CONTINUOUS
 10
5.5848497676
 20
11.6499729269
 40
0.96793125
  0
CIRCLE
  5
3E2
100
AcDbEntity
  8
0
100
AcDbCircle
 62
9
  6
CONTINUOUS
 10
5.5848497676
 20
11.6499729269
 40
0.85060625
  0
ARC
  5
3E3
100
AcDbEntity
  8
0
100
AcDbCircle
 62
7
  6
CONTINUOUS
 10
5.5848497676
 20
11.6499729269
 40
0.8065
100
AcDbArc
 50
193.1429247542
 51
194.2483795936
  0
ARC
  5
3E4
100
AcDbEntity
  8
0
100
AcDbCircle
 62
7
  6
CONTINUOUS
 10
5.5848497676
 20
11.6499729269
 40
0.8065
100
AcDbArc
 50
216.6211856238
 51
217.7266404632
  0
ARC
  5
3E5
100
AcDbEntity
  8
0
100
AcDbCircle
 62
7
  6
CONTINUOUS
 10
5.5848497676
 20
11.6499729269
 40
0.8065
100
AcDbArc
 50
244.0124899716
 51
245.117944811
  0
ARC
  5
3E6
100
AcDbEntity
  8
0
100
AcDbCircle
 62
7
  6
CONTINUOUS
 10
5.5848497676
 20
11.6499729269
 40
0.8065
100
AcDbArc
 50
294.882055189
 51
295.9875100284
  0
ARC
  5
3E7
100
AcDbEntity
  8
0
100
AcDbCircle
 62
7
  6
CONTINUOUS
 10
5.5848497676
 20
11.6499729269
 40
0.8065
100
AcDbArc
 50
322.2733595368
 51
323.3788143762
  0
ARC
  5
3E8
100
AcDbEntity
  8
0
100
AcDbCircle
 62
7
  6
CONTINUOUS
 10
5.5848497676
 20
11.6499729269
 40
0.8065
100
AcDbArc
 50
345.7516204064
 51
346.8570752458
  0
ARC
  5
3E9
100
AcDbEntity
  8
0
100
AcDbCircle
 62
7
  6
CONTINUOUS
 10
5.5848497676
 20
11.6499729269
 40
0.8065
100
AcDbArc
 50
13.1429247542
 51
14.2483795936
  0
ARC
  5
3EA
100
AcDbEntity
  8
0
100
AcDbCircle
 62
7
  6
CONTINUOUS
 10
5.5848497676
 20
11.6499729269
 40
0.8065
100
AcDbArc
 50
36.6211856238
 51
37.7266404632
  0
ARC
  5
3EB
100
AcDbEntity
  8
0
100
AcDbCircle
 62
7
  6
CONTINUOUS
 10
5.5848497676
 20
11.6499729269
 40
0.8065
100
AcDbArc
 50
64.0124899716
 51
65.117944811
  0
ARC
  5
3EC
100
AcDbEntity
  8
0
100
AcDbCircle
 62
7
  6
CONTINUOUS
 10
5.5848497676
 20
11.6499729269
 40
0.8065
100
AcDbArc
 50
114.882055189
 51
115.9875100284
  0
ARC
  5
3ED
100
AcDbEntity
  8
0
100
AcDbCircle
 62
7
  6
CONTINUOUS
 10
5.5848497676
 20
11.6499729269
 40
0.8065
100
AcDbArc
 50
142.2733595368
 51
143.3788143762
  0
ARC
  5
3EE
100
AcDbEntity
  8
0
100
AcDbCircle
 62
7
  6
CONTINUOUS
 10
5.5848497676
 20
11.6499729269
 40
0.8065
100
AcDbArc
 50
165.7516204064
 51
166.8570752458
  0
CIRCLE
  5
3EF
100
AcDbEntity
  8
0
100
AcDbCircle
 62
9
  6
CONTINUOUS
 10
5.5848497676
 20
11.6499729269
 40
0.7565
  0
CIRCLE
  5
3F0
100
AcDbEntity
  8
0
100
AcDbCircle
 62
7
  6
CONTINUOUS
 10
5.5848497676
 20
11.6499729269
 40
0.625
  0
CIRCLE
  5
3F1
100
AcDbEntity
  8
0
100
AcDbCircle
 62
9
  6
CONTINUOUS
 10
5.5848497676
 20
11.6499729269
 40
0.6
  0
CIRCLE
  5
3F2
100
AcDbEntity
  8
0
100
AcDbCircle
 62
7
  6
CONTINUOUS
 10
5.5848497676
 20
11.6499729269
 40
0.478914058
  0
CIRCLE
  5
3F3
100
AcDbEntity
  8
0
100
AcDbCircle
 62
9
  6
CONTINUOUS
 10
5.5848497676
 20
11.6499729269
 40
0.4513477798
  0
CIRCLE
  5
3F4
100
AcDbEntity
  8
0
100
AcDbCircle
 62
9
  6
CONTINUOUS
 10
5.5848497676
 20
11.6499729269
 40
0.3284454015
  0
ARC
  5
3F5
100
AcDbEntity
  8
0
100
AcDbCircle
 62
7
  6
CONTINUOUS
 10
9.2723497676
 20
10.4672602672
 40
0.03
100
AcDbArc
 50
90.0
 51
265.4966382723
  0
ARC
  5
3F6
100
AcDbEntity
  8
0
100
AcDbCircle
 62
7
  6
CONTINUOUS
 10
8.4021371079
 20
11.3374729269
 40
0.03
100
AcDbArc
 50
184.5033617277
 51
360.0
  0
ARC
  5
3F7
100
AcDbEntity
  8
0
100
AcDbCircle
 62
7
  6
CONTINUOUS
 10
8.4021371079
 20
11.9624729269
 40
0.03
100
AcDbArc
 50
0.0
 51
175.4966382723
  0
ARC
  5
3F8
100
AcDbEntity
  8
0
100
AcDbCircle
 62
7
  6
CONTINUOUS
 10
9.5848497676
 20
11.6499729269
 40
1.1355877937
100
AcDbArc
 50
284.1850706257
 51
345.8156387348
  0
ARC
  5
3F9
100
AcDbEntity
  8
0
100
AcDbCircle
 62
7
  6
CONTINUOUS
 10
9.5848497676
 20
11.6499729269
 40
1.1355877937
100
AcDbArc
 50
194.1843612652
 51
255.8149293743
  0
ARC
  5
3FA
100
AcDbEntity
  8
0
100
AcDbCircle
 62
7
  6
CONTINUOUS
 10
9.5848497676
 20
11.6499729269
 40
1.1355877937
100
AcDbArc
 50
14.1843612652
 51
75.8149293743
  0
ARC
  5
3FB
100
AcDbEntity
  8
0
100
AcDbCircle
 62
7
  6
CONTINUOUS
 10
9.5848497676
 20
11.6499729269
 40
1.1355877937
100
AcDbArc
 50
104.1850706257
 51
165.8156387348
  0
ARC
  5
3FC
100
AcDbEntity
  8
0
100
AcDbCircle
 62
9
  6
CONTINUOUS
 10
9.5848497676
 20
11.6499729269
 40
1.1018951051
100
AcDbArc
 50
284.391195438
 51
345.608804562
  0
ARC
  5
3FD
100
AcDbEntity
  8
0
100
AcDbCircle
 62
9
  6
CONTINUOUS
 10
9.5848497676
 20
11.6499729269
 40
1.1018951051
100
AcDbArc
 50
194.391195438
 51
255.608804562
  0
ARC
  5
3FE
100
AcDbEntity
  8
0
100
AcDbCircle
 62
9
  6
CONTINUOUS
 10
9.5848497676
 20
11.6499729269
 40
1.1018951051
100
AcDbArc
 50
14.391195438
 51
75.608804562
  0
ARC
  5
3FF
100
AcDbEntity
  8
0
100
AcDbCircle
 62
9
  6
CONTINUOUS
 10
9.5848497676
 20
11.6499729269
 40
1.1018951051
100
AcDbArc
 50
104.391195438
 51
165.608804562
  0
ARC
  5
400
100
AcDbEntity
  8
0
100
AcDbCircle
 62
9
  6
CONTINUOUS
 10
9.5848497676
 20
11.6499729269
 40
1.0686940646
100
AcDbArc
 50
284.6083923247
 51
345.3916076753
  0
ARC
  5
401
100
AcDbEntity
  8
0
100
AcDbCircle
 62
9
  6
CONTINUOUS
 10
9.5848497676
 20
11.6499729269
 40
1.0686940646
100
AcDbArc
 50
194.6083923247
 51
255.3916076753
  0
ARC
  5
402
100
AcDbEntity
  8
0
100
AcDbCircle
 62
9
  6
CONTINUOUS
 10
9.5848497676
 20
11.6499729269
 40
1.0686940646
100
AcDbArc
 50
14.6083923247
 51
75.3916076753
  0
ARC
  5
403
100
AcDbEntity
  8
0
100
AcDbCircle
 62
9
  6
CONTINUOUS
 10
9.5848497676
 20
11.6499729269
 40
1.0686940646
100
AcDbArc
 50
104.6083923247
 51
165.3916076753
  0
ARC
  5
404
100
AcDbEntity
  8
0
100
AcDbCircle
 62
9
  6
CONTINUOUS
 10
9.5848497676
 20
11.6499729269
 40
0.9981262705
100
AcDbArc
 50
285.1169009967
 51
344.8822014849
  0
ARC
  5
405
100
AcDbEntity
  8
0
100
AcDbCircle
 62
9
  6
CONTINUOUS
 10
9.5848497676
 20
11.6499729269
 40
0.9981262705
100
AcDbArc
 50
195.1177985151
 51
254.8830990033
  0
ARC
  5
406
100
AcDbEntity
  8
0
100
AcDbCircle
 62
9
  6
CONTINUOUS
 10
9.5848497676
 20
11.6499729269
 40
0.9981262705
100
AcDbArc
 50
15.1177985151
 51
74.8830990033
  0
ARC
  5
407
100
AcDbEntity
  8
0
100
AcDbCircle
 62
9
  6
CONTINUOUS
 10
9.5848497676
 20
11.6499729269
 40
0.9981262705
100
AcDbArc
 50
105.1169009967
 51
164.8822014849
  0
ARC
  5
408
100
AcDbEntity
  8
0
100
AcDbCircle
 62
9
  6
CONTINUOUS
 10
9.5848497676
 20
11.6499729269
 40
0.9302280237
100
AcDbArc
 50
285.6815542315
 51
344.3184457685
  0
ARC
  5
409
100
AcDbEntity
  8
0
100
AcDbCircle
 62
9
  6
CONTINUOUS
 10
9.5848497676
 20
11.6499729269
 40
0.9302280237
100
AcDbArc
 50
195.6815542315
 51
254.3184457685
  0
ARC
  5
40A
100
AcDbEntity
  8
0
100
AcDbCircle
 62
9
  6
CONTINUOUS
 10
9.5848497676
 20
11.6499729269
 40
0.9302280237
100
AcDbArc
 50
15.6815542315
 51
74.3184457685
  0
ARC
  5
40B
100
AcDbEntity
  8
0
100
AcDbCircle
 62
9
  6
CONTINUOUS
 10
9.5848497676
 20
11.6499729269
 40
0.9302280237
100
AcDbArc
 50
105.6815542315
 51
164.3184457685
  0
ARC
  5
40C
100
AcDbEntity
  8
0
100
AcDbCircle
 62
9
  6
CONTINUOUS
 10
9.5848497676
 20
11.6499729269
 40
0.7616485311
100
AcDbArc
 50
287.5199802296
 51
342.4800197704
  0
ARC
  5
40D
100
AcDbEntity
  8
0
100
AcDbCircle
 62
9
  6
CONTINUOUS
 10
9.5848497676
 20
11.6499729269
 40
0.7616485311
100
AcDbArc
 50
197.5199802296
 51
252.4800197704
  0
ARC
  5
40E
100
AcDbEntity
  8
0
100
AcDbCircle
 62
9
  6
CONTINUOUS
 10
9.5848497676
 20
11.6499729269
 40
0.7616485311
100
AcDbArc
 50
17.5199802296
 51
72.4800197704
  0
ARC
  5
40F
100
AcDbEntity
  8
0
100
AcDbCircle
 62
9
  6
CONTINUOUS
 10
9.5848497676
 20
11.6499729269
 40
0.7616485311
100
AcDbArc
 50
107.5199802296
 51
162.4800197704
  0
ARC
  5
410
100
AcDbEntity
  8
0
100
AcDbCircle
 62
7
  6
CONTINUOUS
 10
9.5848497676
 20
11.6499729269
 40
0.6917203626
100
AcDbArc
 50
288.550687848
 51
341.4518452015
  0
ARC
  5
411
100
AcDbEntity
  8
0
100
AcDbCircle
 62
7
  6
CONTINUOUS
 10
9.5848497676
 20
11.6499729269
 40
0.6917203626
100
AcDbArc
 50
198.5481547985
 51
251.449312152
  0
ARC
  5
412
100
AcDbEntity
  8
0
100
AcDbCircle
 62
7
  6
CONTINUOUS
 10
9.5848497676
 20
11.6499729269
 40
0.6917203626
100
AcDbArc
 50
18.5481547081
 51
71.4493122272
  0
ARC
  5
413
100
AcDbEntity
  8
0
100
AcDbCircle
 62
7
  6
CONTINUOUS
 10
9.5848497676
 20
11.6499729269
 40
0.6917203626
100
AcDbArc
 50
108.5506877728
 51
161.4518452919
  0
ARC
  5
414
100
AcDbEntity
  8
0
100
AcDbCircle
 62
9
  6
CONTINUOUS
 10
9.5848497676
 20
11.6499729269
 40
0.5085759512
100
AcDbArc
 50
22.6254065577
 51
67.3677229307
  0
ARC
  5
415
100
AcDbEntity
  8
0
100
AcDbCircle
 62
9
  6
CONTINUOUS
 10
9.5848497676
 20
11.6499729269
 40
0.5085759512
100
AcDbArc
 50
292.6322770693
 51
337.3745934423
  0
ARC
  5
416
100
AcDbEntity
  8
0
100
AcDbCircle
 62
9
  6
CONTINUOUS
 10
9.5848497676
 20
11.6499729269
 40
0.5085759512
100
AcDbArc
 50
112.6322770693
 51
157.3745934423
  0
ARC
  5
417
100
AcDbEntity
  8
0
100
AcDbCircle
 62
9
  6
CONTINUOUS
 10
9.5848497676
 20
11.6499729269
 40
0.5085759512
100
AcDbArc
 50
202.6254065577
 51
247.3677229307
  0
CIRCLE
  5
418
100
AcDbEntity
  8
0
100
AcDbCircle
 62
7
  6
CONTINUOUS
 10
9.5848497676
 20
11.6499729269
 40
0.5011759582
  0
CIRCLE
  5
419
100
AcDbEntity
  8
0
100
AcDbCircle
 62
9
  6
CONTINUOUS
 10
9.5848497676
 20
11.6499729269
 40
0.4694578863
  0
CIRCLE
  5
41A
100
AcDbEntity
  8
0
100
AcDbCircle
 62
9
  6
CONTINUOUS
 10
9.5848497676
 20
11.6499729269
 40
0.3241653384
  0
ARC
  5
41B
100
AcDbEntity
  8
0
100
AcDbCircle
 62
7
  6
CONTINUOUS
 10
9.5848497676
 20
14.4349729269
 40
4.01
100
AcDbArc
 50
265.4966382723
 51
274.5033617277
  0
ARC
  5
41C
100
AcDbEntity
  8
0
100
AcDbCircle
 62
7
  6
CONTINUOUS
 10
9.2723497676
 20
12.8326855866
 40
0.03
100
AcDbArc
 50
94.5033617277
 51
270.0
  0
ARC
  5
41D
100
AcDbEntity
  8
0
100
AcDbCircle
 62
7
  6
CONTINUOUS
 10
14.5848497676
 20
8.8649729269
 40
4.01
100
AcDbArc
 50
85.4966382723
 51
94.5033617277
  0
ARC
  5
41E
100
AcDbEntity
  8
0
100
AcDbCircle
 62
9
  6
CONTINUOUS
 10
19.5981513251
 20
6.1105653978
 40
2.977236631
100
AcDbArc
 50
277.7272462588
 51
279.4182721027
  0
ARC
  5
41F
100
AcDbEntity
  8
0
100
AcDbCircle
 62
9
  6
CONTINUOUS
 10
19.570204393
 20
6.1016511587
 40
2.9682226556
100
AcDbArc
 50
260.5791600345
 51
262.275321604
  0
ARC
  5
420
100
AcDbEntity
  8
0
100
AcDbCircle
 62
9
  6
CONTINUOUS
 10
19.5843298602
 20
6.5029446785
 40
2.8725056974
100
AcDbArc
 50
263.6411415366
 51
270.0103702144
  0
ARC
  5
421
100
AcDbEntity
  8
0
100
AcDbCircle
 62
9
  6
CONTINUOUS
 10
19.5855428318
 20
6.4983213132
 40
2.8678823688
100
AcDbArc
 50
269.9861536661
 51
277.0057838645
  0
ARC
  5
422
100
AcDbEntity
  8
0
100
AcDbCircle
 62
9
  6
CONTINUOUS
 10
19.2637600973
 20
5.5335466308
 40
1.8440328645
100
AcDbArc
 50
238.9453376147
 51
241.1128816691
  0
ARC
  5
423
100
AcDbEntity
  8
0
100
AcDbCircle
 62
9
  6
CONTINUOUS
 10
19.9611342029
 20
5.2784795705
 40
1.7957123096
100
AcDbArc
 50
301.8331740163
 51
301.9850230034
  0
ARC
  5
424
100
AcDbEntity
  8
0
100
AcDbCircle
 62
9
  6
CONTINUOUS
 10
19.2085641259
 20
5.2784776311
 40
1.7957100256
100
AcDbArc
 50
238.0148893398
 51
238.1667961724
  0
ARC
  5
425
100
AcDbEntity
  8
0
100
AcDbCircle
 62
9
  6
CONTINUOUS
 10
19.9740415929
 20
5.2578862105
 40
1.7714082852
100
AcDbArc
 50
301.9837414283
 51
303.1527798186
  0
ARC
  5
426
100
AcDbEntity
  8
0
100
AcDbCircle
 62
9
  6
CONTINUOUS
 10
19.1956567728
 20
5.2578843855
 40
1.7714061178
100
AcDbArc
 50
236.847219572
 51
238.016170663
  0
ARC
  5
427
100
AcDbEntity
  8
0
100
AcDbCircle
 62
7
  6
CONTINUOUS
 10
20.8440073742
 20
4.3080170627
 40
0.8907773977
100
AcDbArc
 50
352.2912988362
 51
2.9595192678
  0
ARC
  5
428
100
AcDbEntity
  8
0
100
AcDbCircle
 62
7
  6
CONTINUOUS
 10
18.3256921608
 20
4.3080170627
 40
0.8907773975
100
AcDbArc
 50
177.0404807305
 51
187.708700955
  0
ARC
  5
429
100
AcDbEntity
  8
0
100
AcDbCircle
 62
9
  6
CONTINUOUS
 10
18.6345621016
 20
4.9443677013
 40
0.6697123341
100
AcDbArc
 50
180.0004181373
 51
182.2259125482
  0
ARC
  5
42A
100
AcDbEntity
  8
0
100
AcDbCircle
 62
9
  6
CONTINUOUS
 10
19.3234533885
 20
8.50878923
 40
0.3736036218
100
AcDbArc
 50
173.1324929338
 51
179.9961319539
  0
ARC
  5
42B
100
AcDbEntity
  8
0
100
AcDbCircle
 62
9
  6
CONTINUOUS
 10
19.8462461466
 20
8.50878923
 40
0.3736036218
100
AcDbArc
 50
0.0038680461
 51
6.8675070663
  0
ARC
  5
42C
100
AcDbEntity
  8
0
100
AcDbCircle
 62
9
  6
CONTINUOUS
 10
19.8684285777
 20
5.5236054504
 40
0.2004211902
100
AcDbArc
 50
355.6226376422
 51
359.9968640594
  0
ARC
  5
42D
100
AcDbEntity
  8
0
100
AcDbCircle
 62
9
  6
CONTINUOUS
 10
19.301067047
 20
5.5235976517
 40
0.2002172795
100
AcDbArc
 50
180.0009073974
 51
184.379590901
  0
ARC
  5
42E
100
AcDbEntity
  8
0
100
AcDbCircle
 62
7
  6
CONTINUOUS
 10
19.7868627998
 20
5.690041853
 40
0.1945820911
100
AcDbArc
 50
23.8086822618
 51
27.0970748253
  0
ARC
  5
42F
100
AcDbEntity
  8
0
100
AcDbCircle
 62
7
  6
CONTINUOUS
 10
19.3815250366
 20
5.6906661775
 40
0.1931299947
100
AcDbArc
 50
152.89055944
 51
156.2036834747
  0
ARC
  5
430
100
AcDbEntity
  8
0
100
AcDbCircle
 62
7
  6
CONTINUOUS
 10
9.8973497676
 20
10.4672602672
 40
0.03
100
AcDbArc
 50
274.5033617277
 51
90.0
  0
ARC
  5
431
100
AcDbEntity
  8
0
100
AcDbCircle
 62
7
  6
CONTINUOUS
 10
11.7998497676
 20
11.6499729269
 40
4.01
100
AcDbArc
 50
355.4966382723
 51
4.5033617277
  0
ARC
  5
432
100
AcDbEntity
  8
0
100
AcDbCircle
 62
7
  6
CONTINUOUS
 10
10.7675624273
 20
11.3374729269
 40
0.03
100
AcDbArc
 50
180.0
 51
355.4966382723
  0
ARC
  5
433
100
AcDbEntity
  8
0
100
AcDbCircle
 62
7
  6
CONTINUOUS
 10
10.7675624273
 20
11.9624729269
 40
0.03
100
AcDbArc
 50
4.5033617277
 51
180.0
  0
ARC
  5
434
100
AcDbEntity
  8
0
100
AcDbCircle
 62
7
  6
CONTINUOUS
 10
14.2723497676
 20
10.4672602672
 40
0.03
100
AcDbArc
 50
90.0
 51
265.4966382723
  0
ARC
  5
435
100
AcDbEntity
  8
0
100
AcDbCircle
 62
7
  6
CONTINUOUS
 10
13.4021371079
 20
11.3374729269
 40
0.03
100
AcDbArc
 50
184.5033617277
 51
360.0
  0
ARC
  5
436
100
AcDbEntity
  8
0
100
AcDbCircle
 62
7
  6
CONTINUOUS
 10
12.3698497676
 20
11.6499729269
 40
4.01
100
AcDbArc
 50
175.4966382723
 51
184.5033617277
  0
ARC
  5
437
100
AcDbEntity
  8
0
100
AcDbCircle
 62
7
  6
CONTINUOUS
 10
13.4021371079
 20
11.9624729269
 40
0.03
100
AcDbArc
 50
0.0
 51
175.4966382723
  0
ARC
  5
438
100
AcDbEntity
  8
0
100
AcDbCircle
 62
7
  6
CONTINUOUS
 10
14.5848497676
 20
11.6499729269
 40
1.1355877937
100
AcDbArc
 50
284.1839796855
 51
345.8149229909
  0
ARC
  5
439
100
AcDbEntity
  8
0
100
AcDbCircle
 62
7
  6
CONTINUOUS
 10
14.5848497676
 20
11.6499729269
 40
1.1355877937
100
AcDbArc
 50
194.1850770091
 51
255.8160203145
  0
ARC
  5
43A
100
AcDbEntity
  8
0
100
AcDbCircle
 62
7
  6
CONTINUOUS
 10
14.5848497676
 20
11.6499729269
 40
1.1355877937
100
AcDbArc
 50
14.1850770091
 51
75.8160203145
  0
ARC
  5
43B
100
AcDbEntity
  8
0
100
AcDbCircle
 62
7
  6
CONTINUOUS
 10
14.5848497676
 20
11.6499729269
 40
1.1355877937
100
AcDbArc
 50
104.1839796855
 51
165.8149229909
  0
ARC
  5
43C
100
AcDbEntity
  8
0
100
AcDbCircle
 62
9
  6
CONTINUOUS
 10
14.5848497676
 20
11.6499729269
 40
1.1018951051
100
AcDbArc
 50
284.3902361008
 51
345.6078718717
  0
ARC
  5
43D
100
AcDbEntity
  8
0
100
AcDbCircle
 62
9
  6
CONTINUOUS
 10
14.5848497676
 20
11.6499729269
 40
1.1018951051
100
AcDbArc
 50
194.3921281283
 51
255.6097638992
  0
ARC
  5
43E
100
AcDbEntity
  8
0
100
AcDbCircle
 62
9
  6
CONTINUOUS
 10
14.5848497676
 20
11.6499729269
 40
1.1018951051
100
AcDbArc
 50
14.3921281283
 51
75.6097638992
  0
ARC
  5
43F
100
AcDbEntity
  8
0
100
AcDbCircle
 62
9
  6
CONTINUOUS
 10
14.5848497676
 20
11.6499729269
 40
1.1018951051
100
AcDbArc
 50
104.3902361008
 51
165.6078718717
  0
ARC
  5
440
100
AcDbEntity
  8
0
100
AcDbCircle
 62
9
  6
CONTINUOUS
 10
14.5848497676
 20
11.6499729269
 40
1.0686940646
100
AcDbArc
 50
284.6089161093
 51
345.3910838907
  0
ARC
  5
441
100
AcDbEntity
  8
0
100
AcDbCircle
 62
9
  6
CONTINUOUS
 10
14.5848497676
 20
11.6499729269
 40
1.0686940646
100
AcDbArc
 50
194.6089161093
 51
255.3910838907
  0
ARC
  5
442
100
AcDbEntity
  8
0
100
AcDbCircle
 62
9
  6
CONTINUOUS
 10
14.5848497676
 20
11.6499729269
 40
1.0686940646
100
AcDbArc
 50
14.6089161093
 51
75.3910838907
  0
ARC
  5
443
100
AcDbEntity
  8
0
100
AcDbCircle
 62
9
  6
CONTINUOUS
 10
14.5848497676
 20
11.6499729269
 40
1.0686940646
100
AcDbArc
 50
104.6089161093
 51
165.3910838907
  0
ARC
  5
444
100
AcDbEntity
  8
0
100
AcDbCircle
 62
9
  6
CONTINUOUS
 10
14.5848497676
 20
11.6499729269
 40
0.9981262705
100
AcDbArc
 50
285.1151832367
 51
344.8819660319
  0
ARC
  5
445
100
AcDbEntity
  8
0
100
AcDbCircle
 62
9
  6
CONTINUOUS
 10
14.5848497676
 20
11.6499729269
 40
0.9981262705
100
AcDbArc
 50
195.1180339681
 51
254.8848167633
  0
ARC
  5
446
100
AcDbEntity
  8
0
100
AcDbCircle
 62
9
  6
CONTINUOUS
 10
14.5848497676
 20
11.6499729269
 40
0.9981262705
100
AcDbArc
 50
15.1180339681
 51
74.8848167633
  0
ARC
  5
447
100
AcDbEntity
  8
0
100
AcDbCircle
 62
9
  6
CONTINUOUS
 10
14.5848497676
 20
11.6499729269
 40
0.9981262705
100
AcDbArc
 50
105.1151832367
 51
164.8819660319
  0
ARC
  5
448
100
AcDbEntity
  8
0
100
AcDbCircle
 62
9
  6
CONTINUOUS
 10
14.5848497676
 20
11.6499729269
 40
0.9302280237
100
AcDbArc
 50
285.6793051563
 51
344.3190228873
  0
ARC
  5
449
100
AcDbEntity
  8
0
100
AcDbCircle
 62
9
  6
CONTINUOUS
 10
14.5848497676
 20
11.6499729269
 40
0.9302280237
100
AcDbArc
 50
195.6809771127
 51
254.3206948437
  0
ARC
  5
44A
100
AcDbEntity
  8
0
100
AcDbCircle
 62
9
  6
CONTINUOUS
 10
14.5848497676
 20
11.6499729269
 40
0.9302280237
100
AcDbArc
 50
15.6809771127
 51
74.3206948437
  0
ARC
  5
44B
100
AcDbEntity
  8
0
100
AcDbCircle
 62
9
  6
CONTINUOUS
 10
14.5848497676
 20
11.6499729269
 40
0.9302280237
100
AcDbArc
 50
105.6793051563
 51
164.3190228873
  0
ARC
  5
44C
100
AcDbEntity
  8
0
100
AcDbCircle
 62
9
  6
CONTINUOUS
 10
14.5848497676
 20
11.6499729269
 40
0.7616485311
100
AcDbArc
 50
287.5175095814
 51
342.4824904186
  0
ARC
  5
44D
100
AcDbEntity
  8
0
100
AcDbCircle
 62
9
  6
CONTINUOUS
 10
14.5848497676
 20
11.6499729269
 40
0.7616485311
100
AcDbArc
 50
197.5175095814
 51
252.4824904186
  0
ARC
  5
44E
100
AcDbEntity
  8
0
100
AcDbCircle
 62
9
  6
CONTINUOUS
 10
14.5848497676
 20
11.6499729269
 40
0.7616485311
100
AcDbArc
 50
17.5175095814
 51
72.4824904186
  0
ARC
  5
44F
100
AcDbEntity
  8
0
100
AcDbCircle
 62
9
  6
CONTINUOUS
 10
14.5848497676
 20
11.6499729269
 40
0.7616485311
100
AcDbArc
 50
107.5175095814
 51
162.4824904186
  0
ARC
  5
450
100
AcDbEntity
  8
0
100
AcDbCircle
 62
7
  6
CONTINUOUS
 10
14.5848497676
 20
11.6499729269
 40
0.6917203626
100
AcDbArc
 50
288.5507844512
 51
341.4540049733
  0
ARC
  5
451
100
AcDbEntity
  8
0
100
AcDbCircle
 62
7
  6
CONTINUOUS
 10
14.5848497676
 20
11.6499729269
 40
0.6917203626
100
AcDbArc
 50
198.5459950267
 51
251.4492155488
  0
ARC
  5
452
100
AcDbEntity
  8
0
100
AcDbCircle
 62
7
  6
CONTINUOUS
 10
14.5848497676
 20
11.6499729269
 40
0.6917203626
100
AcDbArc
 50
18.5459949494
 51
71.4492154657
  0
ARC
  5
453
100
AcDbEntity
  8
0
100
AcDbCircle
 62
7
  6
CONTINUOUS
 10
14.5848497676
 20
11.6499729269
 40
0.6917203626
100
AcDbArc
 50
108.5507845343
 51
161.4540050506
  0
ARC
  5
454
100
AcDbEntity
  8
0
100
AcDbCircle
 62
9
  6
CONTINUOUS
 10
14.5848497676
 20
11.6499729269
 40
0.5085759512
100
AcDbArc
 50
22.6274022462
 51
67.3696027229
  0
ARC
  5
455
100
AcDbEntity
  8
0
100
AcDbCircle
 62
9
  6
CONTINUOUS
 10
14.5848497676
 20
11.6499729269
 40
0.5085759512
100
AcDbArc
 50
292.6303972771
 51
337.3725977538
  0
ARC
  5
456
100
AcDbEntity
  8
0
100
AcDbCircle
 62
9
  6
CONTINUOUS
 10
14.5848497676
 20
11.6499729269
 40
0.5085759512
100
AcDbArc
 50
112.6303972771
 51
157.3725977538
  0
ARC
  5
457
100
AcDbEntity
  8
0
100
AcDbCircle
 62
9
  6
CONTINUOUS
 10
14.5848497676
 20
11.6499729269
 40
0.5085759512
100
AcDbArc
 50
202.6274022462
 51
247.3696027229
  0
CIRCLE
  5
458
100
AcDbEntity
  8
0
100
AcDbCircle
 62
7
  6
CONTINUOUS
 10
14.5848497676
 20
11.6499729269
 40
0.5011759582
  0
CIRCLE
  5
459
100
AcDbEntity
  8
0
100
AcDbCircle
 62
9
  6
CONTINUOUS
 10
14.5848497676
 20
11.6499729269
 40
0.4694578871
  0
CIRCLE
  5
45A
100
AcDbEntity
  8
0
100
AcDbCircle
 62
9
  6
CONTINUOUS
 10
14.5848497676
 20
11.6499729269
 40
0.3241653377
  0
ARC
  5
45B
100
AcDbEntity
  8
0
100
AcDbCircle
 62
7
  6
CONTINUOUS
 10
14.5848497676
 20
14.4349729269
 40
4.01
100
AcDbArc
 50
265.4966382723
 51
274.5033617277
  0
ARC
  5
45C
100
AcDbEntity
  8
0
100
AcDbCircle
 62
7
  6
CONTINUOUS
 10
14.2723497676
 20
12.8326855866
 40
0.03
100
AcDbArc
 50
94.5033617277
 51
270.0
  0
ARC
  5
45D
100
AcDbEntity
  8
0
100
AcDbCircle
 62
7
  6
CONTINUOUS
 10
9.8973497676
 20
12.8326855866
 40
0.03
100
AcDbArc
 50
270.0
 51
85.4966382723
  0
ARC
  5
45E
100
AcDbEntity
  8
0
100
AcDbCircle
 62
7
  6
CONTINUOUS
 10
14.8973497676
 20
10.4672602672
 40
0.03
100
AcDbArc
 50
274.5033617277
 51
90.0
  0
ARC
  5
45F
100
AcDbEntity
  8
0
100
AcDbCircle
 62
7
  6
CONTINUOUS
 10
17.3698497676
 20
11.6499729269
 40
4.01
100
AcDbArc
 50
175.4966382723
 51
184.5033617277
  0
ARC
  5
460
100
AcDbEntity
  8
0
100
AcDbCircle
 62
7
  6
CONTINUOUS
 10
15.7675624273
 20
11.3374729269
 40
0.03
100
AcDbArc
 50
180.0
 51
355.4966382723
  0
ARC
  5
461
100
AcDbEntity
  8
0
100
AcDbCircle
 62
7
  6
CONTINUOUS
 10
15.7675624273
 20
11.9624729269
 40
0.03
100
AcDbArc
 50
4.5033617277
 51
180.0
  0
ARC
  5
462
100
AcDbEntity
  8
0
100
AcDbCircle
 62
9
  6
CONTINUOUS
 10
19.3234533885
 20
10.9835215273
 40
0.3736036218
100
AcDbArc
 50
173.1324929338
 51
179.9961319539
  0
ARC
  5
463
100
AcDbEntity
  8
0
100
AcDbCircle
 62
9
  6
CONTINUOUS
 10
19.8462461466
 20
10.9835215273
 40
0.3736036218
100
AcDbArc
 50
0.0038680461
 51
6.8675070662
  0
ARC
  5
464
100
AcDbEntity
  8
0
100
AcDbCircle
 62
7
  6
CONTINUOUS
 10
19.4046016338
 20
11.2642157507
 40
0.3104711663
100
AcDbArc
 50
158.9496238775
 51
160.6519891692
  0
ARC
  5
465
100
AcDbEntity
  8
0
100
AcDbCircle
 62
7
  6
CONTINUOUS
 10
19.4007925513
 20
11.265559862
 40
0.3064318959
100
AcDbArc
 50
160.6531544608
 51
162.8158980504
  0
ARC
  5
466
100
AcDbEntity
  8
0
100
AcDbCircle
 62
7
  6
CONTINUOUS
 10
19.5848497676
 20
11.6499729269
 40
1.125
100
AcDbArc
 50
300.5470728842
 51
239.4522323958
  0
ARC
  5
467
100
AcDbEntity
  8
0
100
AcDbCircle
 62
9
  6
CONTINUOUS
 10
19.5848497676
 20
11.6499729269
 40
1.105
100
AcDbArc
 50
301.00421224
 51
238.9951357743
  0
ARC
  5
468
100
AcDbEntity
  8
0
100
AcDbCircle
 62
7
  6
CONTINUOUS
 10
19.5848497676
 20
11.6499729269
 40
0.5475
100
AcDbArc
 50
332.9644643063
 51
207.0355356937
  0
ARC
  5
469
100
AcDbEntity
  8
0
100
AcDbCircle
 62
9
  6
CONTINUOUS
 10
19.5848497676
 20
11.6499729269
 40
0.5175
100
AcDbArc
 50
340.4301071549
 51
199.5698928451
  0
ARC
  5
46A
100
AcDbEntity
  8
0
100
AcDbCircle
 62
7
  6
CONTINUOUS
 10
19.5848497676
 20
11.6499729269
 40
0.4875
100
AcDbArc
 50
0.0
 51
180.0
  0
ARC
  5
46B
100
AcDbEntity
  8
0
100
AcDbCircle
 62
7
  6
CONTINUOUS
 10
19.7656689904
 20
11.2644258614
 40
0.3098627197
100
AcDbArc
 50
19.3463393246
 51
21.0520476286
  0
ARC
  5
46C
100
AcDbEntity
  8
0
100
AcDbCircle
 62
7
  6
CONTINUOUS
 10
19.7696316315
 20
11.265799033
 40
0.3056689351
100
AcDbArc
 50
17.1811000718
 51
19.3495448158
  0
ARC
  5
46D
100
AcDbEntity
  8
0
100
AcDbCircle
 62
7
  6
CONTINUOUS
 10
14.8973497676
 20
12.8326855866
 40
0.03
100
AcDbArc
 50
270.0
 51
85.4966382723
  0
SPLINE
  5
46E
100
AcDbEntity
  8
0
100
AcDbSpline
 62
7
  6
CONTINUOUS
 70
0
 71
3
 72
38
 73
34
 74
0
 42
0.0000001
 43
0.0000001
 44
0.0000000001
 40
0.0
 40
0.0
 40
0.0
 40
0.0
 40
0.0728346984
 40
0.1091515532
 40
0.1453436174
 40
0.1813705556
 40
0.2171930835
 40
0.2527732352
 40
0.2880746027
 40
0.3230625661
 40
0.3577045066
 40
0.3919699966
 40
0.4258309647
 40
0.459261829
 40
0.4922395968
 40
0.5247439305
 40
0.5567571805
 40
0.5882643971
 40
0.6192533345
 40
0.6497144725
 40
0.6796410884
 40
0.709029411
 40
0.7378788916
 40
0.7661926159
 40
0.7939778571
 40
0.8212467434
 40
0.8480169863
 40
0.8743125782
 40
0.9001643616
 40
0.9256103613
 40
0.950695837
 40
0.975472847
 40
1.0
 40
1.0
 40
1.0
 40
1.0
 10
19.5848497676
 20
2.8991596272
 30
0.0
 10
19.6504868942
 20
2.8991596401
 30
0.0
 10
19.7488865805
 20
2.9021188087
 30
0.0
 10
19.8795078582
 20
2.911995753
 30
0.0
 10
19.9767863982
 20
2.9223386647
 30
0.0
 10
20.0732585895
 20
2.9356038935
 30
0.0
 10
20.168729216
 20
2.9517673882
 30
0.0
 10
20.2630028282
 20
2.9707998145
 30
0.0
 10
20.3558875096
 20
2.9926669648
 30
0.0
 10
20.4471942835
 20
3.017329856
 30
0.0
 10
20.5367375791
 20
3.0447449078
 30
0.0
 10
20.6243353022
 20
3.074864076
 30
0.0
 10
20.7098088835
 20
3.1076349482
 30
0.0
 10
20.7929831965
 20
3.1430007684
 30
0.0
 10
20.8736863763
 20
3.1809003657
 30
0.0
 10
20.9517495457
 20
3.2212679561
 30
0.0
 10
21.0270064826
 20
3.2640327924
 30
0.0
 10
21.0992932812
 20
3.3091186478
 30
0.0
 10
21.1684480787
 20
3.356443132
 30
0.0
 10
21.2343109452
 20
3.4059168701
 30
0.0
 10
21.2967240389
 20
3.4574426041
 30
0.0
 10
21.3555321293
 20
3.5109143131
 30
0.0
 10
21.4105835651
 20
3.5662164844
 30
0.0
 10
21.4617317116
 20
3.6232236799
 30
0.0
 10
21.508836814
 20
3.6818005416
 30
0.0
 10
21.5517681592
 20
3.7418023327
 30
0.0
 10
21.5904063412
 20
3.8030760671
 30
0.0
 10
21.6246453867
 20
3.8654621092
 30
0.0
 10
21.6543945166
 20
3.9287963431
 30
0.0
 10
21.6795793119
 20
3.9929118549
 30
0.0
 10
21.7001424092
 20
4.0576429933
 30
0.0
 10
21.7160427473
 20
4.1228204703
 30
0.0
 10
21.7235510735
 20
4.1666571649
 30
0.0
 10
21.7265084561
 20
4.1885617897
 30
0.0
  0
SPLINE
  5
46F
100
AcDbEntity
  8
0
100
AcDbSpline
 62
7
  6
CONTINUOUS
 70
0
 71
3
 72
38
 73
34
 74
0
 42
0.0000001
 43
0.0000001
 44
0.0000000001
 40
0.0
 40
0.0
 40
0.0
 40
0.0
 40
0.0245271529
 40
0.0493041628
 40
0.0743896384
 40
0.0998356379
 40
0.1256874212
 40
0.151983013
 40
0.1787532557
 40
0.2060221419
 40
0.2338073829
 40
0.262121107
 40
0.2909705875
 40
0.3203589099
 40
0.3502855256
 40
0.3807466635
 40
0.4117356006
 40
0.443242817
 40
0.4752560669
 40
0.5077604003
 40
0.540738168
 40
0.574169032
 40
0.60803
 40
0.6422954898
 40
0.67693743
 40
0.7119253932
 40
0.7472267605
 40
0.7828069121
 40
0.8186294398
 40
0.8546563778
 40
0.8908484417
 40
0.9271652968
 40
1.0
 40
1.0
 40
1.0
 40
1.0
 10
17.4431910786
 20
4.188561793
 30
0.0
 10
17.4461484612
 20
4.1666571682
 30
0.0
 10
17.4536567872
 20
4.1228204737
 30
0.0
 10
17.469557125
 20
4.0576429968
 30
0.0
 10
17.4901202219
 20
3.9929118586
 30
0.0
 10
17.5153050169
 20
3.9287963469
 30
0.0
 10
17.5450541465
 20
3.8654621132
 30
0.0
 10
17.5792931916
 20
3.8030760712
 30
0.0
 10
17.6179313732
 20
3.7418023369
 30
0.0
 10
17.660862718
 20
3.6818005459
 30
0.0
 10
17.7079678198
 20
3.6232236843
 30
0.0
 10
17.7591159659
 20
3.5662164889
 30
0.0
 10
17.8141674012
 20
3.5109143176
 30
0.0
 10
17.8729754911
 20
3.4574426086
 30
0.0
 10
17.9353885843
 20
3.4059168746
 30
0.0
 10
18.0012514502
 20
3.3564431365
 30
0.0
 10
18.0704062473
 20
3.3091186522
 30
0.0
 10
18.1426930453
 20
3.2640327967
 30
0.0
 10
18.2179499817
 20
3.2212679603
 30
0.0
 10
18.2960131505
 20
3.1809003698
 30
0.0
 10
18.3767163298
 20
3.1430007724
 30
0.0
 10
18.4598906422
 20
3.107634952
 30
0.0
 10
18.5453642229
 20
3.0748640797
 30
0.0
 10
18.6329619455
 20
3.0447449112
 30
0.0
 10
18.7225052406
 20
3.0173298592
 30
0.0
 10
18.813812014
 20
2.9926669677
 30
0.0
 10
18.906696695
 20
2.9707998171
 30
0.0
 10
19.0009703066
 20
2.9517673905
 30
0.0
 10
19.0964409327
 20
2.9356038955
 30
0.0
 10
19.1929131235
 20
2.9223386664
 30
0.0
 10
19.2901916633
 20
2.9119957542
 30
0.0
 10
19.4208129455
 20
2.902118809
 30
0.0
 10
19.5192126365
 20
2.8991596412
 30
0.0
 10
19.5848497676
 20
2.8991596272
 30
0.0
  0
SPLINE
  5
470
100
AcDbEntity
  8
0
100
AcDbSpline
 62
7
  6
CONTINUOUS
 70
0
 71
3
 72
36
 73
32
 74
0
 42
0.0000001
 43
0.0000001
 44
0.0000000001
 40
0.0
 40
0.0
 40
0.0
 40
0.0
 40
0.0757123944
 40
0.113161037
 40
0.1502900343
 40
0.2234530208
 40
0.259435645
 40
0.294979639
 40
0.3300602094
 40
0.3646549291
 40
0.3987439354
 40
0.4323101369
 40
0.465339432
 40
0.4978209149
 40
0.5297470851
 40
0.5611140578
 40
0.6221596151
 40
0.6518648792
 40
0.6810355019
 40
0.7096884768
 40
0.7378453648
 40
0.76553233
 40
0.7927801157
 40
0.819623952
 40
0.8461033852
 40
0.8722620077
 40
0.8981470941
 40
0.923809212
 40
0.9493015212
 40
0.9746796213
 40
1.0
 40
1.0
 40
1.0
 40
1.0
 10
19.9599319825
 20
5.9644005882
 30
0.0
 10
20.0034244737
 20
5.9577167654
 30
0.0
 10
20.0681739819
 20
5.9459308729
 30
0.0
 10
20.153367667
 20
5.9266152267
 30
0.0
 10
20.2365309087
 20
5.9052074101
 30
0.0
 10
20.3179058975
 20
5.880392621
 30
0.0
 10
20.397125921
 20
5.8521540327
 30
0.0
 10
20.4548125128
 20
5.8295151666
 30
0.0
 10
20.5109946209
 20
5.8053392475
 30
0.0
 10
20.5655762897
 20
5.7796663059
 30
0.0
 10
20.6184632882
 20
5.7525391653
 30
0.0
 10
20.6695644981
 20
5.7240028419
 30
0.0
 10
20.7187919137
 20
5.6941044249
 30
0.0
 10
20.7660600323
 20
5.6628936229
 30
0.0
 10
20.8112888342
 20
5.6304202388
 30
0.0
 10
20.8682441112
 20
5.5859212847
 30
0.0
 10
20.9214147555
 20
5.538745927
 30
0.0
 10
20.9702695849
 20
5.4890099966
 30
0.0
 10
21.0041826796
 20
5.4510652358
 30
0.0
 10
21.0356333314
 20
5.4122068074
 30
0.0
 10
21.0645644526
 20
5.3724980245
 30
0.0
 10
21.0909212455
 20
5.3320054751
 30
0.0
 10
21.1146529517
 20
5.2907975491
 30
0.0
 10
21.1357126044
 20
5.2489449755
 30
0.0
 10
21.1540573877
 20
5.2065208213
 30
0.0
 10
21.1696489341
 20
5.1636006248
 30
0.0
 10
21.1824537364
 20
5.1202622839
 30
0.0
 10
21.1924434521
 20
5.0765862881
 30
0.0
 10
21.1995956003
 20
5.0326542771
 30
0.0
 10
21.2038935307
 20
4.9885528891
 30
0.0
 10
21.2048497676
 20
4.9590786927
 30
0.0
 10
21.2048497676
 20
4.9443628139
 30
0.0
  0
SPLINE
  5
471
100
AcDbEntity
  8
0
100
AcDbSpline
 62
7
  6
CONTINUOUS
 70
0
 71
3
 72
36
 73
32
 74
0
 42
0.0000001
 43
0.0000001
 44
0.0000000001
 40
0.0
 40
0.0
 40
0.0
 40
0.0
 40
0.0253203752
 40
0.0506984716
 40
0.0761907785
 40
0.1018528943
 40
0.1277379793
 40
0.1538966009
 40
0.1803760337
 40
0.2072198701
 40
0.2344676563
 40
0.2621546223
 40
0.2903115115
 40
0.3189644878
 40
0.3481351121
 40
0.3778403781
 40
0.4388859393
 40
0.4702529139
 40
0.5021790861
 40
0.5346605708
 40
0.5676898676
 40
0.6012560706
 40
0.6353450782
 40
0.6699397989
 40
0.70502037
 40
0.7405643644
 40
0.7765469885
 40
0.8497099738
 40
0.8868389698
 40
0.9242876107
 40
1.0
 40
1.0
 40
1.0
 40
1.0
 10
17.9648497676
 20
4.9443628139
 30
0.0
 10
17.9648497676
 20
4.9590786948
 30
0.0
 10
17.9658060046
 20
4.9885528952
 30
0.0
 10
17.9701039364
 20
5.0326542899
 30
0.0
 10
17.9772560867
 20
5.0765863084
 30
0.0
 10
17.9872458062
 20
5.1202623127
 30
0.0
 10
18.0000506134
 20
5.1636006627
 30
0.0
 10
18.0156421662
 20
5.2065208688
 30
0.0
 10
18.0339869573
 20
5.2489450328
 30
0.0
 10
18.0550466195
 20
5.2907976164
 30
0.0
 10
18.0787783366
 20
5.3320055523
 30
0.0
 10
18.1051351422
 20
5.3724981114
 30
0.0
 10
18.1340662773
 20
5.4122069035
 30
0.0
 10
18.1655169445
 20
5.4510653407
 30
0.0
 10
18.1994300557
 20
5.4890101095
 30
0.0
 10
18.2482849091
 20
5.5387460496
 30
0.0
 10
18.301455579
 20
5.5859214151
 30
0.0
 10
18.3584108827
 20
5.6304203751
 30
0.0
 10
18.4036397054
 20
5.6628937627
 30
0.0
 10
18.4509078452
 20
5.694104567
 30
0.0
 10
18.5001352823
 20
5.7240029851
 30
0.0
 10
18.5512365141
 20
5.7525393084
 30
0.0
 10
18.6041235342
 20
5.7796664478
 30
0.0
 10
18.6587052246
 20
5.8053393872
 30
0.0
 10
18.7148873539
 20
5.8295153031
 30
0.0
 10
18.7725739666
 20
5.8521541649
 30
0.0
 10
18.8517940171
 20
5.8803927457
 30
0.0
 10
18.9331690322
 20
5.9052075253
 30
0.0
 10
19.0163322989
 20
5.926615331
 30
0.0
 10
19.1015260069
 20
5.9459309646
 30
0.0
 10
19.1662755316
 20
5.9577168469
 30
0.0
 10
19.2097680333
 20
5.9644006621
 30
0.0
  0
SPLINE
  5
472
100
AcDbEntity
  8
0
100
AcDbSpline
 62
7
  6
CONTINUOUS
 70
0
 71
3
 72
38
 73
34
 74
0
 42
0.0000001
 43
0.0000001
 44
0.0000000001
 40
0.0
 40
0.0
 40
0.0
 40
0.0
 40
0.0747483089
 40
0.1117649567
 40
0.1484943243
 40
0.1849034264
 40
0.2209609556
 40
0.2566374834
 40
0.2919056652
 40
0.3267404576
 40
0.3611193376
 40
0.3950224971
 40
0.4284330629
 40
0.4613373197
 40
0.4937249141
 40
0.5255890509
 40
0.5569266688
 40
0.5877386359
 40
0.6180299012
 40
0.6478095923
 40
0.6770911071
 40
0.7058921504
 40
0.7342347344
 40
0.7621450736
 40
0.7896534397
 40
0.8167939647
 40
0.8436043617
 40
0.8701255712
 40
0.8964013678
 40
0.922477908
 40
0.948403342
 40
0.9742271568
 40
1.0
 40
1.0
 40
1.0
 40
1.0
 10
19.9599078408
 20
6.0008519729
 30
0.0
 10
20.0125456137
 20
5.9939587936
 30
0.0
 10
20.0909859649
 20
5.9814296144
 30
0.0
 10
20.194312653
 20
5.9602602806
 30
0.0
 10
20.2704699158
 20
5.9423016425
 30
0.0
 10
20.345395124
 20
5.9222419977
 30
0.0
 10
20.4189561156
 20
5.9001145227
 30
0.0
 10
20.4910215647
 20
5.8759559729
 30
0.0
 10
20.5614635057
 20
5.8498060733
 30
0.0
 10
20.6301569194
 20
5.8217074941
 30
0.0
 10
20.6969800559
 20
5.7917056733
 30
0.0
 10
20.7618145205
 20
5.7598486692
 30
0.0
 10
20.8245453859
 20
5.7261870139
 30
0.0
 10
20.885061263
 20
5.6907735707
 30
0.0
 10
20.943254321
 20
5.6536634
 30
0.0
 10
20.9990202527
 20
5.6149136686
 30
0.0
 10
21.0522582167
 20
5.5745835956
 30
0.0
 10
21.1028707351
 20
5.5327344362
 30
0.0
 10
21.1507635647
 20
5.4894295565
 30
0.0
 10
21.1958455287
 20
5.4447345855
 30
0.0
 10
21.2380283609
 20
5.3987176859
 30
0.0
 10
21.277226594
 20
5.3514499097
 30
0.0
 10
21.3133575068
 20
5.3030056979
 30
0.0
 10
21.3463411777
 20
5.2534634787
 30
0.0
 10
21.37610071
 20
5.2029063526
 30
0.0
 10
21.4025626825
 20
5.1514227915
 30
0.0
 10
21.4256578407
 20
5.0991072861
 30
0.0
 10
21.4453220611
 20
5.0460609011
 30
0.0
 10
21.4614975248
 20
4.9923914535
 30
0.0
 10
21.4741341591
 20
4.9382137689
 30
0.0
 10
21.4831909696
 20
4.8836478434
 30
0.0
 10
21.4886376064
 20
4.8288228182
 30
0.0
 10
21.4898497676
 20
4.7921667198
 30
0.0
 10
21.4898497676
 20
4.7738625179
 30
0.0
  0
SPLINE
  5
473
100
AcDbEntity
  8
0
100
AcDbSpline
 62
7
  6
CONTINUOUS
 70
0
 71
3
 72
38
 73
34
 74
0
 42
0.0000001
 43
0.0000001
 44
0.0000000001
 40
0.0
 40
0.0
 40
0.0
 40
0.0
 40
0.0257728375
 40
0.0515966498
 40
0.0775220825
 40
0.1035986233
 40
0.1298744218
 40
0.1563956343
 40
0.1832060351
 40
0.2103465648
 40
0.2378549362
 40
0.2657652809
 40
0.2941078706
 40
0.3229089194
 40
0.3521904396
 40
0.3819701356
 40
0.4122614054
 40
0.4430733763
 40
0.4744109973
 40
0.5062751364
 40
0.5386627323
 40
0.5715669898
 40
0.6049775556
 40
0.6388807142
 40
0.6732595923
 40
0.7080943819
 40
0.7433625601
 40
0.7790390835
 40
0.8150966076
 40
0.851505704
 40
0.8882350652
 40
0.9252517062
 40
1.0
 40
1.0
 40
1.0
 40
1.0
 10
17.6798497676
 20
4.7738625179
 30
0.0
 10
17.6798497676
 20
4.792166703
 30
0.0
 10
17.6810619266
 20
4.8288227701
 30
0.0
 10
17.6865085537
 20
4.8836477507
 30
0.0
 10
17.6955653502
 20
4.9382136369
 30
0.0
 10
17.7082019662
 20
4.9923912867
 30
0.0
 10
17.7243774083
 20
5.0460607038
 30
0.0
 10
17.7440416043
 20
5.0991070623
 30
0.0
 10
17.7671367356
 20
5.1514225449
 30
0.0
 10
17.7935986792
 20
5.2029060864
 30
0.0
 10
17.8233581808
 20
5.2534631957
 30
0.0
 10
17.8563418191
 20
5.3030054006
 30
0.0
 10
17.8924726979
 20
5.3514496
 30
0.0
 10
17.9316708952
 20
5.3987173654
 30
0.0
 10
17.9738536899
 20
5.4447342556
 30
0.0
 10
18.0189356142
 20
5.4894292184
 30
0.0
 10
18.066828402
 20
5.5327340912
 30
0.0
 10
18.1174408761
 20
5.5745832449
 30
0.0
 10
18.1706787933
 20
5.6149133133
 30
0.0
 10
18.2264446755
 20
5.6536630412
 30
0.0
 10
18.2846376815
 20
5.6907732098
 30
0.0
 10
18.3451535041
 20
5.7261866523
 30
0.0
 10
18.4078843125
 20
5.7598483082
 30
0.0
 10
18.4727187175
 20
5.7917053145
 30
0.0
 10
18.5395417915
 20
5.8217071397
 30
0.0
 10
18.6082351401
 20
5.8498057255
 30
0.0
 10
18.6786770136
 20
5.8759556343
 30
0.0
 10
18.7507423929
 20
5.9001141959
 30
0.0
 10
18.8243033128
 20
5.9222416854
 30
0.0
 10
18.8992284477
 20
5.9423013476
 30
0.0
 10
18.9753856358
 20
5.9602600059
 30
0.0
 10
19.0787122218
 20
5.9814293709
 30
0.0
 10
19.1571524964
 20
5.9939585783
 30
0.0
 10
19.2097902182
 20
6.0008517793
 30
0.0
  0
SPLINE
  5
474
100
AcDbEntity
  8
0
100
AcDbSpline
 62
7
  6
CONTINUOUS
 70
0
 71
3
 72
21
 73
17
 74
0
 42
0.0000001
 43
0.0000001
 44
0.0000000001
 40
0.0
 40
0.0
 40
0.0
 40
0.0
 40
0.1328287199
 40
0.2627881041
 40
0.3267826251
 40
0.3901611129
 40
0.452963379
 40
0.5152319714
 40
0.5770118803
 40
0.6383504682
 40
0.6992972131
 40
0.7599033521
 40
0.8202219119
 40
0.8803072554
 40
0.9402141696
 40
1.0
 40
1.0
 40
1.0
 40
1.0
 10
21.4592786125
 20
4.998965807
 30
0.0
 10
21.4798263098
 20
4.9749582288
 30
0.0
 10
21.5188748987
 20
4.9260595152
 30
0.0
 10
21.5628980918
 20
4.8618908809
 30
0.0
 10
21.5945834221
 20
4.8094930587
 30
0.0
 10
21.6164735715
 20
4.7698843736
 30
0.0
 10
21.6365832349
 20
4.7298016116
 30
0.0
 10
21.6548879624
 20
4.6892794534
 30
0.0
 10
21.6713644022
 20
4.6483548752
 30
0.0
 10
21.6859907331
 20
4.6070662637
 30
0.0
 10
21.6987466733
 20
4.5654536646
 30
0.0
 10
21.7096142143
 20
4.5235587745
 30
0.0
 10
21.7185773763
 20
4.481424857
 30
0.0
 10
21.7256224354
 20
4.4390962792
 30
0.0
 10
21.7307387131
 20
4.3966199265
 30
0.0
 10
21.7328598941
 20
4.3682123021
 30
0.0
 10
21.7335957773
 20
4.354008198
 30
0.0
  0
SPLINE
  5
475
100
AcDbEntity
  8
0
100
AcDbSpline
 62
7
  6
CONTINUOUS
 70
0
 71
3
 72
21
 73
17
 74
0
 42
0.0000001
 43
0.0000001
 44
0.0000000001
 40
0.0
 40
0.0
 40
0.0
 40
0.0
 40
0.0597857189
 40
0.1196924394
 40
0.1797776498
 40
0.2400961037
 40
0.3007021442
 40
0.3616488052
 40
0.42298733
 40
0.4847672194
 40
0.5470357949
 40
0.6098380804
 40
0.673216635
 40
0.7372112275
 40
0.867170885
 40
1.0
 40
1.0
 40
1.0
 40
1.0
 10
17.4361037578
 20
4.354008198
 30
0.0
 10
17.4368396644
 20
4.3682127529
 30
0.0
 10
17.4389609394
 20
4.396621258
 30
0.0
 10
17.4440774579
 20
4.4390989252
 30
0.0
 10
17.4511228853
 20
4.4814288004
 30
0.0
 10
17.4600865529
 20
4.5235640085
 30
0.0
 10
17.4709546699
 20
4.5654601815
 30
0.0
 10
17.4837113508
 20
4.6070740237
 30
0.0
 10
17.4983385303
 20
4.6483638538
 30
0.0
 10
17.5148158758
 20
4.689289641
 30
0.0
 10
17.533121697
 20
4.7298129415
 30
0.0
 10
17.5532325212
 20
4.7698968248
 30
0.0
 10
17.5751239006
 20
4.809506612
 30
0.0
 10
17.6068111306
 20
4.8619058053
 30
0.0
 10
17.6508368249
 20
4.9260761083
 30
0.0
 10
17.6898876327
 20
4.9749759519
 30
0.0
 10
17.71043652
 20
4.9989840329
 30
0.0
  0
SPLINE
  5
476
100
AcDbEntity
  8
0
100
AcDbSpline
 62
7
  6
CONTINUOUS
 70
0
 71
3
 72
49
 73
45
 74
0
 42
0.0000001
 43
0.0000001
 44
0.0000000001
 40
0.0
 40
0.0
 40
0.0
 40
0.0
 40
0.0134126057
 40
0.0268419508
 40
0.0403081089
 40
0.0538279884
 40
0.0674206608
 40
0.0811047409
 40
0.0948990991
 40
0.1088223801
 40
0.1228925397
 40
0.1371265424
 40
0.1661360386
 40
0.1959666991
 40
0.2266861243
 40
0.2583217874
 40
0.2908604175
 40
0.3242499362
 40
0.3584035101
 40
0.3932045049
 40
0.4285122676
 40
0.4641679593
 40
0.5000006446
 40
0.5358333208
 40
0.5714889858
 40
0.6067966997
 40
0.6415976357
 40
0.6757511245
 40
0.7091405565
 40
0.7416790806
 40
0.7733146281
 40
0.8040339352
 40
0.8338644724
 40
0.8628738379
 40
0.8771077841
 40
0.8911778892
 40
0.9051011116
 40
0.9188954173
 40
0.9325794532
 40
0.9461720879
 40
0.9596919356
 40
0.9731580612
 40
0.9865874079
 40
1.0
 40
1.0
 40
1.0
 40
1.0
 10
20.0688497676
 20
5.508273592
 30
0.0
 10
20.0688497676
 20
5.502482633
 30
0.0
 10
20.068421161
 20
5.4908889361
 30
0.0
 10
20.0664969975
 20
5.4735774348
 30
0.0
 10
20.0633060626
 20
5.4564063254
 30
0.0
 10
20.0588695031
 20
5.4394419664
 30
0.0
 10
20.0532165707
 20
5.4227444266
 30
0.0
 10
20.0463811196
 20
5.4063673545
 30
0.0
 10
20.038400973
 20
5.3903576162
 30
0.0
 10
20.0293160997
 20
5.3747556932
 30
0.0
 10
20.019166863
 20
5.3595956135
 30
0.0
 10
20.0041788609
 20
5.3398898707
 30
0.0
 10
19.9829089997
 20
5.3164896728
 30
0.0
 10
19.953950106
 20
5.290767755
 30
0.0
 10
19.9216969157
 20
5.267344648
 30
0.0
 10
19.8864598376
 20
5.2463401054
 30
0.0
 10
19.8485534394
 20
5.2278630365
 30
0.0
 10
19.8083076242
 20
5.2120184448
 30
0.0
 10
19.76607106
 20
5.1989036265
 30
0.0
 10
19.7222124507
 20
5.1886051013
 30
0.0
 10
19.6771190587
 20
5.1811947472
 30
0.0
 10
19.6311934432
 20
5.1767262638
 30
0.0
 10
19.5848489352
 20
5.175233097
 30
0.0
 10
19.5385044432
 20
5.176726378
 30
0.0
 10
19.4925788721
 20
5.181194946
 30
0.0
 10
19.447485559
 20
5.1886054206
 30
0.0
 10
19.4036270485
 20
5.1989040022
 30
0.0
 10
19.3613906164
 20
5.2120189109
 30
0.0
 10
19.3211449448
 20
5.2278635382
 30
0.0
 10
19.2832387108
 20
5.2463406412
 30
0.0
 10
19.2480018076
 20
5.2673451893
 30
0.0
 10
19.2157487889
 20
5.2907682701
 30
0.0
 10
19.1867900712
 20
5.3164901434
 30
0.0
 10
19.1655203364
 20
5.3398902736
 30
0.0
 10
19.1505324266
 20
5.3595959556
 30
0.0
 10
19.1403832558
 20
5.374755991
 30
0.0
 10
19.1312984315
 20
5.3903578596
 30
0.0
 10
19.1233183267
 20
5.4063675437
 30
0.0
 10
19.11648291
 20
5.4227445673
 30
0.0
 10
19.110830006
 20
5.4394420647
 30
0.0
 10
19.1063934617
 20
5.4564063818
 30
0.0
 10
19.1032025295
 20
5.4735774643
 30
0.0
 10
19.101278376
 20
5.4908889474
 30
0.0
 10
19.1008497676
 20
5.5024826389
 30
0.0
 10
19.1008497676
 20
5.508273592
 30
0.0
  0
SPLINE
  5
477
100
AcDbEntity
  8
0
100
AcDbSpline
 62
7
  6
CONTINUOUS
 70
0
 71
3
 72
23
 73
19
 74
0
 42
0.0000001
 43
0.0000001
 44
0.0000000001
 40
0.0
 40
0.0
 40
0.0
 40
0.0
 40
0.068125519
 40
0.1354091693
 40
0.2018327292
 40
0.2673896907
 40
0.3320855812
 40
0.3959380745
 40
0.4589770403
 40
0.5212443391
 40
0.5827932892
 40
0.6436879673
 40
0.7040023721
 40
0.7638192825
 40
0.8232289729
 40
0.8823277404
 40
0.9412167787
 40
1.0
 40
1.0
 40
1.0
 40
1.0
 10
19.9598636468
 20
8.1083993905
 30
0.0
 10
19.9697359555
 20
8.1140269861
 30
0.0
 10
19.9890702055
 20
8.1257283977
 30
0.0
 10
20.016901687
 20
8.1447003204
 30
0.0
 10
20.0432965268
 20
8.1649308545
 30
0.0
 10
20.0681627533
 20
8.1863586066
 30
0.0
 10
20.0914135426
 20
8.20891898
 30
0.0
 10
20.1129656449
 20
8.2325430905
 30
0.0
 10
20.132739987
 20
8.2571578336
 30
0.0
 10
20.1506618022
 20
8.2826855733
 30
0.0
 10
20.1666610159
 20
8.3090438754
 30
0.0
 10
20.180672743
 20
8.3361452483
 30
0.0
 10
20.1926379552
 20
8.3638969481
 30
0.0
 10
20.2025043161
 20
8.3922010152
 30
0.0
 10
20.2102270775
 20
8.4209541927
 30
0.0
 10
20.2157701292
 20
8.4500493847
 30
0.0
 10
20.2191068291
 20
8.479372832
 30
0.0
 10
20.2198497676
 20
8.4990091489
 30
0.0
 10
20.2198497676
 20
8.508814452
 30
0.0
  0
SPLINE
  5
478
100
AcDbEntity
  8
0
100
AcDbSpline
 62
7
  6
CONTINUOUS
 70
0
 71
3
 72
30
 73
26
 74
0
 42
0.0000001
 43
0.0000001
 44
0.0000000001
 40
0.0
 40
0.0
 40
0.0
 40
0.0
 40
0.0277216734
 40
0.0554788581
 40
0.083305857
 40
0.1112371639
 40
0.1393056677
 40
0.1675429579
 40
0.195978815
 40
0.224640921
 40
0.2535545383
 40
0.2827422222
 40
0.3122236151
 40
0.3420152777
 40
0.4025593419
 40
0.464461674
 40
0.5277336
 40
0.5923334165
 40
0.6581700704
 40
0.7251081763
 40
0.7929743859
 40
0.8271991393
 40
0.8615771441
 40
0.9306623898
 40
1.0
 40
1.0
 40
1.0
 40
1.0
 10
20.2198497676
 20
8.5538095847
 30
0.0
 10
20.2198497676
 20
8.5620478831
 30
0.0
 10
20.2193256541
 20
8.5785398172
 30
0.0
 10
20.2169705078
 20
8.6032000933
 30
0.0
 10
20.2130542249
 20
8.6277250138
 30
0.0
 10
20.2075902363
 20
8.6520464433
 30
0.0
 10
20.2005966741
 20
8.676099695
 30
0.0
 10
20.1920963449
 20
8.6998215777
 30
0.0
 10
20.1821162582
 20
8.7231514246
 30
0.0
 10
20.1706871739
 20
8.7460310321
 30
0.0
 10
20.1578431667
 20
8.7684048448
 30
0.0
 10
20.1436215128
 20
8.7902197025
 30
0.0
 10
20.1280615047
 20
8.8114256864
 30
0.0
 10
20.1054705095
 20
8.8389672246
 30
0.0
 10
20.0740353812
 20
8.8716260174
 30
0.0
 10
20.0319187508
 20
8.9074261179
 30
0.0
 10
19.9856115977
 20
8.9397595244
 30
0.0
 10
19.9355628564
 20
8.9683530163
 30
0.0
 10
19.8822448402
 20
8.9929693321
 30
0.0
 10
19.8261593192
 20
9.0134013097
 30
0.0
 10
19.7776776243
 20
9.0267619327
 30
0.0
 10
19.7380069993
 20
9.0352296695
 30
0.0
 10
19.6976801667
 20
9.04221428
 30
0.0
 10
19.6466077732
 20
9.0480494262
 30
0.0
 10
19.6054554473
 20
9.0496060283
 30
0.0
 10
19.5848497676
 20
9.0496060283
 30
0.0
  0
SPLINE
  5
479
100
AcDbEntity
  8
0
100
AcDbSpline
 62
7
  6
CONTINUOUS
 70
0
 71
3
 72
23
 73
19
 74
0
 42
0.0000001
 43
0.0000001
 44
0.0000000001
 40
0.0
 40
0.0
 40
0.0
 40
0.0
 40
0.0587832359
 40
0.1176722927
 40
0.176771089
 40
0.2361808091
 40
0.29599775
 40
0.3563121829
 40
0.4172068847
 40
0.4787558523
 40
0.541023161
 40
0.6040621274
 40
0.6679146115
 40
0.7326104824
 40
0.7981674142
 40
0.8645909346
 40
0.9318745366
 40
1.0
 40
1.0
 40
1.0
 40
1.0
 10
18.9498497676
 20
8.508814452
 30
0.0
 10
18.9498497676
 20
8.4990092511
 30
0.0
 10
18.9505926903
 20
8.4793731382
 30
0.0
 10
18.9539293215
 20
8.45004999
 30
0.0
 10
18.9594722599
 20
8.4209550853
 30
0.0
 10
18.9671948671
 20
8.3922021803
 30
0.0
 10
18.9770610337
 20
8.3638983689
 30
0.0
 10
18.9890260145
 20
8.3361469057
 30
0.0
 10
19.0030374751
 20
8.3090457488
 30
0.0
 10
19.0190363895
 20
8.2826876401
 30
0.0
 10
19.0369578749
 20
8.25716007
 30
0.0
 10
19.0567318589
 20
8.2325454711
 30
0.0
 10
19.0782835772
 20
8.2089214785
 30
0.0
 10
19.1015339587
 20
8.1863611955
 30
0.0
 10
19.1263997561
 20
8.1649335046
 30
0.0
 10
19.1527941483
 20
8.1447030021
 30
0.0
 10
19.1806251658
 20
8.1257310791
 30
0.0
 10
19.1999591014
 20
8.1140296474
 30
0.0
 10
19.2098312501
 20
8.1084020346
 30
0.0
  0
SPLINE
  5
47A
100
AcDbEntity
  8
0
100
AcDbSpline
 62
7
  6
CONTINUOUS
 70
0
 71
3
 72
30
 73
26
 74
0
 42
0.0000001
 43
0.0000001
 44
0.0000000001
 40
0.0
 40
0.0
 40
0.0
 40
0.0
 40
0.0693376524
 40
0.1384229248
 40
0.1728009414
 40
0.2070257031
 40
0.2748919235
 40
0.3418300304
 40
0.4076666776
 40
0.4722664797
 40
0.5355383861
 40
0.5974406949
 40
0.6579847346
 40
0.6877763853
 40
0.717257767
 40
0.7464454408
 40
0.7753590496
 40
0.804021149
 40
0.8324570018
 40
0.8606942902
 40
0.8887627951
 40
0.9166941067
 40
0.9445211125
 40
0.9722783124
 40
1.0
 40
1.0
 40
1.0
 40
1.0
 10
19.5848497676
 20
9.0496060283
 30
0.0
 10
19.5642440753
 20
9.0496060283
 30
0.0
 10
19.5230917289
 20
9.0480494244
 30
0.0
 10
19.4720193117
 20
9.0422142729
 30
0.0
 10
19.4316924662
 20
9.0352296559
 30
0.0
 10
19.392021833
 20
9.0267619132
 30
0.0
 10
19.3435401334
 20
9.0134012847
 30
0.0
 10
19.2874546143
 20
8.9929692976
 30
0.0
 10
19.2341366057
 20
8.9683529797
 30
0.0
 10
19.1840878792
 20
8.939759486
 30
0.0
 10
19.1377807426
 20
8.9074260859
 30
0.0
 10
19.095664131
 20
8.8716259943
 30
0.0
 10
19.0642290161
 20
8.8389672135
 30
0.0
 10
19.0416380302
 20
8.8114256859
 30
0.0
 10
19.0260780279
 20
8.79021971
 30
0.0
 10
19.0118563779
 20
8.7684048604
 30
0.0
 10
18.9990123733
 20
8.7460310549
 30
0.0
 10
18.9875832902
 20
8.7231514532
 30
0.0
 10
18.9776032035
 20
8.6998216104
 30
0.0
 10
18.9691028725
 20
8.6760997299
 30
0.0
 10
18.9621093072
 20
8.6520464779
 30
0.0
 10
18.9566453161
 20
8.627725045
 30
0.0
 10
18.9527290302
 20
8.6032001169
 30
0.0
 10
18.9503738822
 20
8.5785398301
 30
0.0
 10
18.9498497676
 20
8.5620478873
 30
0.0
 10
18.9498497676
 20
8.5538095847
 30
0.0
  0
SPLINE
  5
47B
100
AcDbEntity
  8
0
100
AcDbSpline
 62
7
  6
CONTINUOUS
 70
0
 71
3
 72
14
 73
10
 74
0
 42
0.0000001
 43
0.0000001
 44
0.0000000001
 40
0.0
 40
0.0
 40
0.0
 40
0.0
 40
0.2497579979
 40
0.3750295447
 40
0.5003801605
 40
0.6256819726
 40
0.7508061756
 40
0.8756233192
 40
1.0
 40
1.0
 40
1.0
 40
1.0
 10
20.1487420695
 20
8.7831083013
 30
0.0
 10
20.1693993266
 20
8.9636255724
 30
0.0
 10
20.1918433668
 20
9.2357691352
 30
0.0
 10
20.204639315
 20
9.599603243
 30
0.0
 10
20.2056556154
 20
9.8731298723
 30
0.0
 10
20.1980755897
 20
10.1464407172
 30
0.0
 10
20.1819260781
 20
10.4189926819
 30
0.0
 10
20.1572638137
 20
10.6902275693
 30
0.0
 10
20.135157222
 20
10.8701955432
 30
0.0
 10
20.1227039177
 20
10.9598167114
 30
0.0
  0
SPLINE
  5
47C
100
AcDbEntity
  8
0
100
AcDbSpline
 62
7
  6
CONTINUOUS
 70
0
 71
3
 72
15
 73
11
 74
0
 42
0.0000001
 43
0.0000001
 44
0.0000000001
 40
0.0
 40
0.0
 40
0.0
 40
0.0
 40
0.1286789776
 40
0.2559480981
 40
0.3819651177
 40
0.5069074745
 40
0.6309693779
 40
0.7543586329
 40
0.877293822
 40
1.0
 40
1.0
 40
1.0
 40
1.0
 10
20.14791112
 20
10.7538768605
 30
0.0
 10
20.1537243562
 20
10.7625881526
 30
0.0
 10
20.1647095841
 20
10.7803096555
 30
0.0
 10
20.1792275762
 20
10.8078261896
 30
0.0
 10
20.1916298628
 20
10.8360296526
 30
0.0
 10
20.2018593186
 20
10.8648155716
 30
0.0
 10
20.2098682058
 20
10.8940756718
 30
0.0
 10
20.2156176447
 20
10.9236969597
 30
0.0
 10
20.2190790163
 20
10.9535594142
 30
0.0
 10
20.2198497676
 20
10.973560022
 30
0.0
 10
20.2198497676
 20
10.9835467493
 30
0.0
  0
SPLINE
  5
47D
100
AcDbEntity
  8
0
100
AcDbSpline
 62
7
  6
CONTINUOUS
 70
0
 71
3
 72
30
 73
26
 74
0
 42
0.0000001
 43
0.0000001
 44
0.0000000001
 40
0.0
 40
0.0
 40
0.0
 40
0.0
 40
0.0277216734
 40
0.0554788581
 40
0.083305857
 40
0.1112371639
 40
0.1393056677
 40
0.1675429579
 40
0.195978815
 40
0.224640921
 40
0.2535545383
 40
0.2827422222
 40
0.3122236151
 40
0.3420152777
 40
0.4025593419
 40
0.464461674
 40
0.5277336
 40
0.5923334165
 40
0.6581700704
 40
0.7251081763
 40
0.7929743859
 40
0.8271991393
 40
0.8615771441
 40
0.9306623898
 40
1.0
 40
1.0
 40
1.0
 40
1.0
 10
20.2198497676
 20
11.028541882
 30
0.0
 10
20.2198497676
 20
11.0367801804
 30
0.0
 10
20.2193256541
 20
11.0532721145
 30
0.0
 10
20.2169705078
 20
11.0779323906
 30
0.0
 10
20.2130542249
 20
11.1024573111
 30
0.0
 10
20.2075902363
 20
11.1267787406
 30
0.0
 10
20.2005966741
 20
11.1508319923
 30
0.0
 10
20.1920963449
 20
11.174553875
 30
0.0
 10
20.1821162582
 20
11.1978837219
 30
0.0
 10
20.1706871739
 20
11.2207633294
 30
0.0
 10
20.1578431667
 20
11.2431371421
 30
0.0
 10
20.1436215128
 20
11.2649519998
 30
0.0
 10
20.1280615047
 20
11.2861579837
 30
0.0
 10
20.1054705095
 20
11.3136995219
 30
0.0
 10
20.0740353812
 20
11.3463583147
 30
0.0
 10
20.0319187508
 20
11.3821584152
 30
0.0
 10
19.9856115977
 20
11.4144918217
 30
0.0
 10
19.9355628564
 20
11.4430853136
 30
0.0
 10
19.8822448402
 20
11.4677016294
 30
0.0
 10
19.8261593192
 20
11.488133607
 30
0.0
 10
19.7776776243
 20
11.50149423
 30
0.0
 10
19.7380069993
 20
11.5099619668
 30
0.0
 10
19.6976801667
 20
11.5169465773
 30
0.0
 10
19.6466077732
 20
11.5227817235
 30
0.0
 10
19.6054554473
 20
11.5243383256
 30
0.0
 10
19.5848497676
 20
11.5243383256
 30
0.0
  0
SPLINE
  5
47E
100
AcDbEntity
  8
0
100
AcDbSpline
 62
7
  6
CONTINUOUS
 70
0
 71
3
 72
14
 73
10
 74
0
 42
0.0000001
 43
0.0000001
 44
0.0000000001
 40
0.0
 40
0.0
 40
0.0
 40
0.0
 40
0.124376669
 40
0.2491937766
 40
0.3743179631
 40
0.4996197625
 40
0.6249703786
 40
0.7502419376
 40
1.0
 40
1.0
 40
1.0
 40
1.0
 10
19.0469956174
 20
10.9598167114
 30
0.0
 10
19.0345423708
 20
10.8701959583
 30
0.0
 10
19.0124358697
 20
10.6902288375
 30
0.0
 10
18.9877736597
 20
10.4189952334
 30
0.0
 10
18.9716241214
 20
10.146444559
 30
0.0
 10
18.9640439913
 20
9.8731349794
 30
0.0
 10
18.9650601088
 20
9.599609591
 30
0.0
 10
18.9778557131
 20
9.2357770682
 30
0.0
 10
19.0002993801
 20
8.9636346637
 30
0.0
 10
19.020956341
 20
8.7831181413
 30
0.0
  0
SPLINE
  5
47F
100
AcDbEntity
  8
0
100
AcDbSpline
 62
7
  6
CONTINUOUS
 70
0
 71
3
 72
15
 73
11
 74
0
 42
0.0000001
 43
0.0000001
 44
0.0000000001
 40
0.0
 40
0.0
 40
0.0
 40
0.0
 40
0.1227063592
 40
0.2456417182
 40
0.3690311217
 40
0.4930931158
 40
0.6180354865
 40
0.7440524223
 40
0.8713213454
 40
1.0
 40
1.0
 40
1.0
 40
1.0
 10
18.9498497676
 20
10.9835467493
 30
0.0
 10
18.9498497676
 20
10.9735605922
 30
0.0
 10
18.9506204305
 20
10.9535611282
 30
0.0
 10
18.9540814075
 20
10.9237003629
 30
0.0
 10
18.9598301939
 20
10.8940807181
 30
0.0
 10
18.9678381795
 20
10.8648221951
 30
0.0
 10
18.9780664931
 20
10.8360377705
 30
0.0
 10
18.9904674082
 20
10.8078357024
 30
0.0
 10
19.0049838118
 20
10.7803204488
 30
0.0
 10
19.0159678572
 20
10.7625997017
 30
0.0
 10
19.0217804719
 20
10.753888764
 30
0.0
  0
SPLINE
  5
480
100
AcDbEntity
  8
0
100
AcDbSpline
 62
7
  6
CONTINUOUS
 70
0
 71
3
 72
30
 73
26
 74
0
 42
0.0000001
 43
0.0000001
 44
0.0000000001
 40
0.0
 40
0.0
 40
0.0
 40
0.0
 40
0.0693376524
 40
0.1384229248
 40
0.1728009414
 40
0.2070257031
 40
0.2748919235
 40
0.3418300304
 40
0.4076666776
 40
0.4722664797
 40
0.5355383861
 40
0.5974406949
 40
0.6579847346
 40
0.6877763853
 40
0.717257767
 40
0.7464454408
 40
0.7753590496
 40
0.804021149
 40
0.8324570018
 40
0.8606942902
 40
0.8887627951
 40
0.9166941067
 40
0.9445211125
 40
0.9722783124
 40
1.0
 40
1.0
 40
1.0
 40
1.0
 10
19.5848497676
 20
11.5243383256
 30
0.0
 10
19.5642440753
 20
11.5243383256
 30
0.0
 10
19.5230917289
 20
11.5227817217
 30
0.0
 10
19.4720193117
 20
11.5169465702
 30
0.0
 10
19.4316924662
 20
11.5099619531
 30
0.0
 10
19.392021833
 20
11.5014942105
 30
0.0
 10
19.3435401334
 20
11.488133582
 30
0.0
 10
19.2874546143
 20
11.4677015949
 30
0.0
 10
19.2341366057
 20
11.443085277
 30
0.0
 10
19.1840878792
 20
11.4144917833
 30
0.0
 10
19.1377807426
 20
11.3821583832
 30
0.0
 10
19.095664131
 20
11.3463582916
 30
0.0
 10
19.0642290161
 20
11.3136995108
 30
0.0
 10
19.0416380302
 20
11.2861579832
 30
0.0
 10
19.0260780279
 20
11.2649520073
 30
0.0
 10
19.0118563779
 20
11.2431371577
 30
0.0
 10
18.9990123733
 20
11.2207633521
 30
0.0
 10
18.9875832902
 20
11.1978837505
 30
0.0
 10
18.9776032035
 20
11.1745539077
 30
0.0
 10
18.9691028725
 20
11.1508320272
 30
0.0
 10
18.9621093072
 20
11.1267787752
 30
0.0
 10
18.9566453161
 20
11.1024573423
 30
0.0
 10
18.9527290302
 20
11.0779324142
 30
0.0
 10
18.9503738822
 20
11.0532721274
 30
0.0
 10
18.9498497676
 20
11.0367801846
 30
0.0
 10
18.9498497676
 20
11.028541882
 30
0.0
  0
SPLINE
  5
481
100
AcDbEntity
  8
0
100
AcDbSpline
 62
7
  6
CONTINUOUS
 70
0
 71
3
 72
15
 73
11
 74
0
 42
0.0000001
 43
0.0000001
 44
0.0000000001
 40
0.0
 40
0.0
 40
0.0
 40
0.0
 40
0.1284474283
 40
0.2554222457
 40
0.3811814665
 40
0.5059799308
 40
0.6300590873
 40
0.7536330787
 40
0.8768940812
 40
1.0
 40
1.0
 40
1.0
 40
1.0
 10
19.9867118006
 20
5.7193762577
 30
0.0
 10
19.9930783954
 20
5.7125846238
 30
0.0
 10
20.0052160081
 20
5.6985762287
 30
0.0
 10
20.0215266439
 20
5.6762394601
 30
0.0
 10
20.0356853275
 20
5.6527829157
 30
0.0
 10
20.047541551
 20
5.628312534
 30
0.0
 10
20.0569501285
 20
5.6029667008
 30
0.0
 10
20.0637795587
 20
5.5769196446
 30
0.0
 10
20.0679232788
 20
5.5503854298
 30
0.0
 10
20.0688497676
 20
5.5325164849
 30
0.0
 10
20.0688497676
 20
5.5235944808
 30
0.0
  0
SPLINE
  5
482
100
AcDbEntity
  8
0
100
AcDbSpline
 62
7
  6
CONTINUOUS
 70
0
 71
3
 72
15
 73
11
 74
0
 42
0.0000001
 43
0.0000001
 44
0.0000000001
 40
0.0
 40
0.0
 40
0.0
 40
0.0
 40
0.1230998614
 40
0.2463555891
 40
0.369925258
 40
0.4940017462
 40
0.6187997087
 40
0.7445614169
 40
0.8715423253
 40
1.0
 40
1.0
 40
1.0
 40
1.0
 10
19.1008497676
 20
5.5235944808
 30
0.0
 10
19.1008497676
 20
5.5325280412
 30
0.0
 10
19.1017786712
 20
5.5504202234
 30
0.0
 10
19.1059331132
 20
5.5769882731
 30
0.0
 10
19.1127800597
 20
5.6030673581
 30
0.0
 10
19.1222124123
 20
5.6284426607
 30
0.0
 10
19.1340980841
 20
5.6529394341
 30
0.0
 10
19.148291268
 20
5.6764189448
 30
0.0
 10
19.1646408633
 20
5.6987750657
 30
0.0
 10
19.1768067142
 20
5.7127935792
 30
0.0
 10
19.1831879472
 20
5.719589662
 30
0.0
  0
SPLINE
  5
483
100
AcDbEntity
  8
0
100
AcDbSpline
 62
7
  6
CONTINUOUS
 70
0
 71
3
 72
51
 73
47
 74
0
 42
0.0000001
 43
0.0000001
 44
0.0000000001
 40
0.0
 40
0.0
 40
0.0
 40
0.0
 40
0.0137385575
 40
0.0274968538
 40
0.0412933088
 40
0.0551470242
 40
0.069075852
 40
0.0830968869
 40
0.0972261485
 40
0.1114783716
 40
0.1258668877
 40
0.1404034692
 40
0.1550982326
 40
0.1699595663
 40
0.200196584
 40
0.2311561351
 40
0.2628402858
 40
0.2952235775
 40
0.3282553615
 40
0.3618626585
 40
0.3959535252
 40
0.4304206453
 40
0.4651450823
 40
0.5000001268
 40
0.5348551692
 40
0.5695795997
 40
0.6040467092
 40
0.638137562
 40
0.6717448409
 40
0.704776605
 40
0.7371598734
 40
0.7688440004
 40
0.7998035264
 40
0.8300405198
 40
0.8449018416
 40
0.8595965935
 40
0.8741331642
 40
0.8885216703
 40
0.9027738843
 40
0.9169031375
 40
0.9309241652
 40
0.9448529869
 40
0.9587066975
 40
0.9725031488
 40
0.9862614432
 40
1.0
 40
1.0
 40
1.0
 40
1.0
 10
20.0748497676
 20
11.3531496249
 30
0.0
 10
20.0748497676
 20
11.3594328988
 30
0.0
 10
20.074448608
 20
11.3720121459
 30
0.0
 10
20.0726459812
 20
11.3908233837
 30
0.0
 10
20.0696477633
 20
11.4095354417
 30
0.0
 10
20.0654634458
 20
11.4280980066
 30
0.0
 10
20.0601056539
 20
11.446463293
 30
0.0
 10
20.0535905984
 20
11.4645842649
 30
0.0
 10
20.0459374642
 20
11.4824154434
 30
0.0
 10
20.0371682223
 20
11.4999128235
 30
0.0
 10
20.0273074482
 20
11.5170340459
 30
0.0
 10
20.0163823698
 20
11.5337383044
 30
0.0
 10
20.0044218404
 20
11.5499869258
 30
0.0
 10
19.9870393401
 20
11.571111882
 30
0.0
 10
19.9628303212
 20
11.5961835901
 30
0.0
 10
19.9303731137
 20
11.6236879468
 30
0.0
 10
19.8946531173
 20
11.6485539138
 30
0.0
 10
19.8560164271
 20
11.670562645
 30
0.0
 10
19.8148296919
 20
11.6895233918
 30
0.0
 10
19.7714817318
 20
11.705270221
 30
0.0
 10
19.7263802201
 20
11.7176648999
 30
0.0
 10
19.679948823
 20
11.7265977262
 30
0.0
 10
19.6326237237
 20
11.7319895454
 30
0.0
 10
19.5848495943
 20
11.7337921027
 30
0.0
 10
19.537075469
 20
11.7319895179
 30
0.0
 10
19.4897503808
 20
11.7265976777
 30
0.0
 10
19.4433190036
 20
11.7176648234
 30
0.0
 10
19.3982175153
 20
11.7052701327
 30
0.0
 10
19.3548695883
 20
11.6895232823
 30
0.0
 10
19.3136828848
 20
11.6705625339
 30
0.0
 10
19.2750462349
 20
11.6485537938
 30
0.0
 10
19.2393262729
 20
11.6236878353
 30
0.0
 10
19.2068691049
 20
11.5961834837
 30
0.0
 10
19.1826601111
 20
11.5711117907
 30
0.0
 10
19.1652776331
 20
11.5499868443
 30
0.0
 10
19.1533171163
 20
11.5337382332
 30
0.0
 10
19.1423920489
 20
11.5170339851
 30
0.0
 10
19.1325312853
 20
11.4999127724
 30
0.0
 10
19.1237620525
 20
11.4824154019
 30
0.0
 10
19.1161089243
 20
11.4645842332
 30
0.0
 10
19.1095938736
 20
11.4464632701
 30
0.0
 10
19.1042360855
 20
11.4280979913
 30
0.0
 10
19.1000517703
 20
11.4095354326
 30
0.0
 10
19.0970535533
 20
11.3908233793
 30
0.0
 10
19.0952509271
 20
11.3720121443
 30
0.0
 10
19.0948497676
 20
11.3594328984
 30
0.0
 10
19.0948497676
 20
11.3531496249
 30
0.0
  0
SPLINE
  5
484
100
AcDbEntity
  8
0
100
AcDbSpline
 62
9
  6
CONTINUOUS
 70
0
 71
3
 72
47
 73
43
 74
0
 42
0.0000001
 43
0.0000001
 44
0.0000000001
 40
0.0
 40
0.0
 40
0.0
 40
0.0
 40
0.0463346276
 40
0.0925695267
 40
0.1386060118
 40
0.1843438603
 40
0.2745141139
 40
0.3622569065
 40
0.4049594441
 40
0.4467563063
 40
0.4875589733
 40
0.5272788945
 40
0.5658276026
 40
0.6031168481
 40
0.6390587595
 40
0.6735660432
 40
0.7065566894
 40
0.7379713615
 40
0.7677588887
 40
0.7958703673
 40
0.8222599238
 40
0.8468857996
 40
0.8585263241
 40
0.8697130295
 40
0.8804426903
 40
0.890712793
 40
0.9005221139
 40
0.9098734598
 40
0.9187720696
 40
0.9272245355
 40
0.9352390877
 40
0.9428259524
 40
0.9499977938
 40
0.9567702531
 40
0.963162595
 40
0.9691984626
 40
0.9749067146
 40
0.9803222825
 40
0.9854869189
 40
0.9904496344
 40
0.9952665616
 40
1.0
 40
1.0
 40
1.0
 40
1.0
 10
5.5848497676
 20
5.3578132924
 30
0.0
 10
5.5986450808
 20
5.3578132924
 30
0.0
 10
5.6262065128
 20
5.3575828267
 30
0.0
 10
5.6674633845
 20
5.3565810303
 30
0.0
 10
5.7085227596
 20
5.3549590688
 30
0.0
 10
5.7626159139
 20
5.3520310015
 30
0.0
 10
5.829025454
 20
5.3470383191
 30
0.0
 10
5.8943797106
 20
5.3403841786
 30
0.0
 10
5.9452893207
 20
5.3342050489
 30
0.0
 10
5.9822638624
 20
5.3292313196
 30
0.0
 10
6.0182912013
 20
5.32390105
 30
0.0
 10
6.0532885579
 20
5.3182385696
 30
0.0
 10
6.087173088
 20
5.3122682904
 30
0.0
 10
6.1198619936
 20
5.3060146368
 30
0.0
 10
6.1512725074
 20
5.2995020708
 30
0.0
 10
6.1813232036
 20
5.2927548065
 30
0.0
 10
6.2099402173
 20
5.2857951772
 30
0.0
 10
6.237058603
 20
5.2786410578
 30
0.0
 10
6.2626215851
 20
5.2713086476
 30
0.0
 10
6.286574553
 20
5.2638137755
 30
0.0
 10
6.3088626906
 20
5.2561722126
 30
0.0
 10
6.3263170064
 20
5.2495774073
 30
0.0
 10
6.3393913477
 20
5.2442208715
 30
0.0
 10
6.3485608275
 20
5.2402516927
 30
0.0
 10
6.3572723661
 20
5.236257037
 30
0.0
 10
6.3655192896
 20
5.2322387612
 30
0.0
 10
6.3732957387
 20
5.2281981219
 30
0.0
 10
6.3805977154
 20
5.2241368957
 30
0.0
 10
6.3874226031
 20
5.2200565946
 30
0.0
 10
6.3937681173
 20
5.2159584427
 30
0.0
 10
6.399632003
 20
5.2118436324
 30
0.0
 10
6.4050120159
 20
5.2077132841
 30
0.0
 10
6.4099059112
 20
5.2035684278
 30
0.0
 10
6.4143114165
 20
5.199409975
 30
0.0
 10
6.4182261834
 20
5.1952386927
 30
0.0
 10
6.4216477107
 20
5.1910551868
 30
0.0
 10
6.4245732339
 20
5.1868599304
 30
0.0
 10
6.4269995915
 20
5.1826533194
 30
0.0
 10
6.4289231067
 20
5.1784359758
 30
0.0
 10
6.4303395867
 20
5.1742086683
 30
0.0
 10
6.4312445006
 20
5.1699740417
 30
0.0
 10
6.4315049544
 20
5.1671343258
 30
0.0
 10
6.4315476108
 20
5.1657256742
 30
0.0
  0
SPLINE
  5
485
100
AcDbEntity
  8
0
100
AcDbSpline
 62
9
  6
CONTINUOUS
 70
0
 71
3
 72
42
 73
38
 74
0
 42
0.0000001
 43
0.0000001
 44
0.0000000001
 40
0.0
 40
0.0
 40
0.0
 40
0.0
 40
0.0908425773
 40
0.1808788297
 40
0.2693130485
 40
0.3126825663
 40
0.355354942
 40
0.3972344556
 40
0.4382356301
 40
0.4782761494
 40
0.5172742742
 40
0.5551490474
 40
0.5918205471
 40
0.6272102022
 40
0.6612411967
 40
0.6938425289
 40
0.7249637288
 40
0.7545626097
 40
0.7826002883
 40
0.8090422595
 40
0.8338598765
 40
0.8570324184
 40
0.8785500253
 40
0.8984213996
 40
0.907755113
 40
0.916698037
 40
0.9252607717
 40
0.933455856
 40
0.9412980841
 40
0.9488048575
 40
0.9559965654
 40
0.9628969737
 40
0.9759285003
 40
0.9821364373
 40
0.9881878873
 40
0.9941267018
 40
1.0
 40
1.0
 40
1.0
 40
1.0
 10
5.5848497676
 20
8.5362438572
 30
0.0
 10
5.6092339263
 20
8.5362438572
 30
0.0
 10
5.6577880877
 20
8.5356280063
 30
0.0
 10
5.7300328375
 20
8.5328874043
 30
0.0
 10
5.7894666037
 20
8.5290971817
 30
0.0
 10
5.8361353307
 20
8.5251600415
 30
0.0
 10
5.8703078791
 20
8.5217915156
 30
0.0
 10
5.9037955197
 20
8.517992271
 30
0.0
 10
5.9365209828
 20
8.5137749091
 30
0.0
 10
5.9684104256
 20
8.5091522921
 30
0.0
 10
5.9993907654
 20
8.5041370805
 30
0.0
 10
6.0293889504
 20
8.4987419849
 30
0.0
 10
6.0583319798
 20
8.4929797528
 30
0.0
 10
6.0861468863
 20
8.4868630814
 30
0.0
 10
6.1127617991
 20
8.4804047495
 30
0.0
 10
6.1381100782
 20
8.4736150279
 30
0.0
 10
6.162135096
 20
8.4665137794
 30
0.0
 10
6.1847871256
 20
8.459120624
 30
0.0
 10
6.2060180181
 20
8.4514544904
 30
0.0
 10
6.2257799026
 20
8.4435343055
 30
0.0
 10
6.2440251761
 20
8.4353789507
 30
0.0
 10
6.2607068687
 20
8.4270067848
 30
0.0
 10
6.2757787903
 20
8.4184362028
 30
0.0
 10
6.2871909683
 20
8.4109903581
 30
0.0
 10
6.2954488704
 20
8.4049319359
 30
0.0
 10
6.3010885796
 20
8.4004459107
 30
0.0
 10
6.3063025254
 20
8.3959251858
 30
0.0
 10
6.3110886165
 20
8.3913722655
 30
0.0
 10
6.3154447504
 20
8.3867896274
 30
0.0
 10
6.319368638
 20
8.382179966
 30
0.0
 10
6.3228583829
 20
8.3775449094
 30
0.0
 10
6.3268518369
 20
8.3714535003
 30
0.0
 10
6.3300830854
 20
8.3651883966
 30
0.0
 10
6.3324219642
 20
8.3588079779
 30
0.0
 10
6.33370064
 20
8.3540864911
 30
0.0
 10
6.3345283058
 20
8.349356884
 30
0.0
 10
6.3347783512
 20
8.3461904063
 30
0.0
 10
6.3348266742
 20
8.3446146238
 30
0.0
  0
SPLINE
  5
486
100
AcDbEntity
  8
0
100
AcDbSpline
 62
9
  6
CONTINUOUS
 70
0
 71
3
 72
47
 73
43
 74
0
 42
0.0000001
 43
0.0000001
 44
0.0000000001
 40
0.0
 40
0.0
 40
0.0
 40
0.0
 40
0.0960412727
 40
0.1437719369
 40
0.1911571535
 40
0.2844361373
 40
0.3301034939
 40
0.3749723389
 40
0.4189334501
 40
0.4618888974
 40
0.5037436263
 40
0.5444029507
 40
0.5837726391
 40
0.6217590247
 40
0.6582691513
 40
0.6932109654
 40
0.7264992193
 40
0.7580699949
 40
0.7878648328
 40
0.8158265024
 40
0.8418994735
 40
0.866030608
 40
0.877352596
 40
0.8881708801
 40
0.8984800621
 40
0.908275218
 40
0.91755308
 40
0.9263141177
 40
0.9345600872
 40
0.9422936707
 40
0.9495187439
 40
0.9562407391
 40
0.9624671442
 40
0.9682081967
 40
0.9734778556
 40
0.9782951659
 40
0.9826861568
 40
0.9866864024
 40
0.9903442385
 40
0.9937241929
 40
0.9969093049
 40
1.0
 40
1.0
 40
1.0
 40
1.0
 10
5.5848497676
 20
3.5486569646
 30
0.0
 10
5.6139889415
 20
3.5486569646
 30
0.0
 10
5.6576098079
 20
3.548706699
 30
0.0
 10
5.7156068676
 20
3.5489701066
 30
0.0
 10
5.7727648247
 20
3.5493936097
 30
0.0
 10
5.8292946272
 20
3.550105067
 30
0.0
 10
5.8850537901
 20
3.5512167701
 30
0.0
 10
5.9258474951
 20
3.5522622527
 30
0.0
 10
5.965811132
 20
3.5535489773
 30
0.0
 10
6.00485101
 20
3.5550800278
 30
0.0
 10
6.0428776047
 20
3.5568585888
 30
0.0
 10
6.0798021796
 20
3.5588878378
 30
0.0
 10
6.1155360178
 20
3.5611709254
 30
0.0
 10
6.1499904289
 20
3.5637109675
 30
0.0
 10
6.1830767523
 20
3.5665110263
 30
0.0
 10
6.2147081025
 20
3.5695742949
 30
0.0
 10
6.2448052622
 20
3.5729047514
 30
0.0
 10
6.2733001595
 20
3.5764887182
 30
0.0
 10
6.3001324519
 20
3.5803132169
 30
0.0
 10
6.3252433609
 20
3.5843652396
 30
0.0
 10
6.3485739927
 20
3.5886318579
 30
0.0
 10
6.3668528901
 20
3.5924312769
 30
0.0
 10
6.3805330648
 20
3.5955865686
 30
0.0
 10
6.3900911895
 20
3.5979487627
 30
0.0
 10
6.3991597549
 20
3.6003555398
 30
0.0
 10
6.407731756
 20
3.6028054684
 30
0.0
 10
6.4158014129
 20
3.6052972753
 30
0.0
 10
6.4233650061
 20
3.6078278687
 30
0.0
 10
6.4304199204
 20
3.6103945561
 30
0.0
 10
6.4369637535
 20
3.6129946811
 30
0.0
 10
6.4429941634
 20
3.6156256164
 30
0.0
 10
6.4485088895
 20
3.6182847774
 30
0.0
 10
6.4535057751
 20
3.6209696621
 30
0.0
 10
6.457982791
 20
3.6236779162
 30
0.0
 10
6.4619380442
 20
3.626407442
 30
0.0
 10
6.4653697378
 20
3.6291565827
 30
0.0
 10
6.4682760022
 20
3.631924359
 30
0.0
 10
6.4706544378
 20
3.6347108172
 30
0.0
 10
6.4725011745
 20
3.6375168509
 30
0.0
 10
6.4738094629
 20
3.6403440145
 30
0.0
 10
6.4745690134
 20
3.6431894744
 30
0.0
 10
6.4747023775
 20
3.6451031371
 30
0.0
 10
6.4746754308
 20
3.6460404749
 30
0.0
  0
SPLINE
  5
487
100
AcDbEntity
  8
0
100
AcDbSpline
 62
9
  6
CONTINUOUS
 70
0
 71
3
 72
40
 73
36
 74
0
 42
0.0000001
 43
0.0000001
 44
0.0000000001
 40
0.0
 40
0.0
 40
0.0
 40
0.0
 40
0.0626579075
 40
0.1253121403
 40
0.1566414827
 40
0.1879688776
 40
0.2192935811
 40
0.2506154061
 40
0.2819335722
 40
0.3132477836
 40
0.344557427
 40
0.3758619217
 40
0.4384394562
 40
0.4697249267
 40
0.501002678
 40
0.5322716071
 40
0.5635313083
 40
0.5947810105
 40
0.6260198809
 40
0.6572472349
 40
0.6884624173
 40
0.71966485
 40
0.7352635826
 40
0.750858893
 40
0.7820348578
 40
0.813198006
 40
0.8443490911
 40
0.859923627
 40
0.8754956158
 40
0.9066264696
 40
0.9221924728
 40
0.9377569081
 40
0.9533202455
 40
0.968882723
 40
1.0
 40
1.0
 40
1.0
 40
1.0
 10
5.5848497676
 20
1.860270645
 30
0.0
 10
5.5568102793
 20
1.860270708
 30
0.0
 10
5.5007167471
 20
1.8621412733
 30
0.0
 10
5.4309127552
 20
1.8691093854
 30
0.0
 10
5.3754540023
 20
1.8774733624
 30
0.0
 10
5.3340958374
 20
1.8851540161
 30
0.0
 10
5.2930310655
 20
1.8942584792
 30
0.0
 10
5.2523180576
 20
1.9048109561
 30
0.0
 10
5.2120197019
 20
1.9168359922
 30
0.0
 10
5.1722047526
 20
1.9303594644
 30
0.0
 10
5.1329394347
 20
1.945391681
 30
0.0
 10
5.0814328811
 20
1.9674558035
 30
0.0
 10
5.0313018824
 20
1.9926175176
 30
0.0
 10
4.9829840894
 20
2.0209568742
 30
0.0
 10
4.9477582771
 20
2.0438403517
 30
0.0
 10
4.9136822283
 20
2.0683848727
 30
0.0
 10
4.8809004726
 20
2.0946158527
 30
0.0
 10
4.8495526092
 20
2.1225267247
 30
0.0
 10
4.8197978063
 20
2.1521123437
 30
0.0
 10
4.791811932
 20
2.1833592873
 30
0.0
 10
4.76579055
 20
2.2162416433
 30
0.0
 10
4.745917919
 20
2.2449804502
 30
0.0
 10
4.7312318835
 20
2.2687347576
 30
0.0
 10
4.7173950554
 20
2.2929797737
 30
0.0
 10
4.7017585159
 20
2.3241919929
 30
0.0
 10
4.6858487972
 20
2.3629273753
 30
0.0
 10
4.6751232593
 20
2.3961327074
 30
0.0
 10
4.6681526349
 20
2.423132365
 30
0.0
 10
4.662279084
 20
2.4503816649
 30
0.0
 10
4.6580845864
 20
2.4779680207
 30
0.0
 10
4.6556309991
 20
2.5057281275
 30
0.0
 10
4.6546715307
 20
2.5266081335
 30
0.0
 10
4.654600985
 20
2.5475086926
 30
0.0
 10
4.6556904329
 20
2.5753469916
 30
0.0
 10
4.657832322
 20
2.5961585545
 30
0.0
 10
4.6598293113
 20
2.6099396348
 30
0.0
  0
SPLINE
  5
488
100
AcDbEntity
  8
0
100
AcDbSpline
 62
9
  6
CONTINUOUS
 70
0
 71
3
 72
22
 73
18
 74
0
 42
0.0000001
 43
0.0000001
 44
0.0000000001
 40
0.0
 40
0.0
 40
0.0
 40
0.0
 40
0.0878521773
 40
0.171041656
 40
0.2498650653
 40
0.3246531779
 40
0.3957442063
 40
0.4634565175
 40
0.5280795838
 40
0.5898680012
 40
0.6490375987
 40
0.7057664048
 40
0.7601888207
 40
0.8123872231
 40
0.8624261442
 40
0.9103591013
 40
1.0
 40
1.0
 40
1.0
 40
1.0
 10
5.2442440748
 20
10.7441504605
 30
0.0
 10
5.2275765793
 20
10.7486474694
 30
0.0
 10
5.195315128
 20
10.7581249054
 30
0.0
 10
5.1488764088
 20
10.7741206694
 30
0.0
 10
5.1056019227
 20
10.7912715326
 30
0.0
 10
5.0653268274
 20
10.8094092431
 30
0.0
 10
5.0278690271
 20
10.8283771989
 30
0.0
 10
4.9930514504
 20
10.8480443283
 30
0.0
 10
4.9607063778
 20
10.8682909939
 30
0.0
 10
4.9306773691
 20
10.8890042204
 30
0.0
 10
4.9028315806
 20
10.9100887937
 30
0.0
 10
4.877034408
 20
10.931427651
 30
0.0
 10
4.8531608666
 20
10.9528984336
 30
0.0
 10
4.8311236394
 20
10.9744055732
 30
0.0
 10
4.8108404512
 20
10.9958507582
 30
0.0
 10
4.7865710689
 20
11.0236105362
 30
0.0
 10
4.7699353715
 20
11.0449647635
 30
0.0
 10
4.7596807543
 20
11.0592871563
 30
0.0
  0
SPLINE
  5
489
100
AcDbEntity
  8
0
100
AcDbSpline
 62
9
  6
CONTINUOUS
 70
0
 71
3
 72
28
 73
24
 74
0
 42
0.0000001
 43
0.0000001
 44
0.0000000001
 40
0.0
 40
0.0
 40
0.0
 40
0.0
 40
0.0704265042
 40
0.1405729153
 40
0.2101693332
 40
0.278958489
 40
0.3467063606
 40
0.413208946
 40
0.4782999188
 40
0.541858043
 40
0.6038142224
 40
0.6641579781
 40
0.7229424087
 40
0.7517960153
 40
0.7803103438
 40
0.8085107631
 40
0.8364265383
 40
0.8640906226
 40
0.8915393535
 40
0.9188120062
 40
0.9459503243
 40
0.9729979908
 40
1.0
 40
1.0
 40
1.0
 40
1.0
 10
19.5848497676
 20
8.6162708023
 30
0.0
 10
19.5971106689
 20
8.6162708023
 30
0.0
 10
19.6215937564
 20
8.6153514146
 30
0.0
 10
19.657983246
 20
8.6112244732
 30
0.0
 10
19.6936754336
 20
8.6043898116
 30
0.0
 10
19.7283264175
 20
8.5949119164
 30
0.0
 10
19.7616054297
 20
8.5828805572
 30
0.0
 10
19.7931938088
 20
8.5684091967
 30
0.0
 10
19.8227891005
 20
8.5516342381
 30
0.0
 10
19.850107222
 20
8.5327138115
 30
0.0
 10
19.8748854508
 20
8.5118250438
 30
0.0
 10
19.8968824735
 20
8.4891669715
 30
0.0
 10
19.9128200827
 20
8.4688550774
 30
0.0
 10
19.9239351823
 20
8.4519514872
 30
0.0
 10
19.9314047787
 20
8.4390526637
 30
0.0
 10
19.9380391714
 20
8.425887724
 30
0.0
 10
19.9438224027
 20
8.412487975
 30
0.0
 10
19.9487401788
 20
8.3988858439
 30
0.0
 10
19.9527805254
 20
8.3851141912
 30
0.0
 10
19.955933435
 20
8.37120639
 30
0.0
 10
19.9581910505
 20
8.3571959338
 30
0.0
 10
19.9595478907
 20
8.3431176023
 30
0.0
 10
19.9598497676
 20
8.3337050454
 30
0.0
 10
19.9598497676
 20
8.329004131
 30
0.0
  0
SPLINE
  5
48A
100
AcDbEntity
  8
0
100
AcDbSpline
 62
9
  6
CONTINUOUS
 70
0
 71
3
 72
28
 73
24
 74
0
 42
0.0000001
 43
0.0000001
 44
0.0000000001
 40
0.0
 40
0.0
 40
0.0
 40
0.0
 40
0.0704265038
 40
0.1405729151
 40
0.210169333
 40
0.2789584888
 40
0.3467063605
 40
0.4132089458
 40
0.4782999187
 40
0.5418580429
 40
0.6038142223
 40
0.664157978
 40
0.7229424086
 40
0.7517960152
 40
0.7803103438
 40
0.8085107631
 40
0.8364265382
 40
0.8640906226
 40
0.8915393534
 40
0.9188120062
 40
0.9459503243
 40
0.9729979908
 40
1.0
 40
1.0
 40
1.0
 40
1.0
 10
19.5848497676
 20
7.2501769169
 30
0.0
 10
19.5725888663
 20
7.2501769169
 30
0.0
 10
19.5481057785
 20
7.2492575381
 30
0.0
 10
19.5117162892
 20
7.2451305918
 30
0.0
 10
19.4760241015
 20
7.2382959317
 30
0.0
 10
19.4413731177
 20
7.2288180361
 30
0.0
 10
19.4080941054
 20
7.216786677
 30
0.0
 10
19.3765057263
 20
7.2023153165
 30
0.0
 10
19.3469104346
 20
7.1855403579
 30
0.0
 10
19.3195923131
 20
7.1666199313
 30
0.0
 10
19.2948140843
 20
7.1457311636
 30
0.0
 10
19.2728170617
 20
7.1230730912
 30
0.0
 10
19.2568794525
 20
7.1027611972
 30
0.0
 10
19.2457643528
 20
7.0858576069
 30
0.0
 10
19.2382947565
 20
7.0729587835
 30
0.0
 10
19.2316603637
 20
7.0597938438
 30
0.0
 10
19.2258771324
 20
7.0463940948
 30
0.0
 10
19.2209593563
 20
7.0327919636
 30
0.0
 10
19.2169190098
 20
7.019020311
 30
0.0
 10
19.2137661001
 20
7.0051125098
 30
0.0
 10
19.2115084846
 20
6.9911020535
 30
0.0
 10
19.2101516445
 20
6.977023722
 30
0.0
 10
19.2098497676
 20
6.9676111651
 30
0.0
 10
19.2098497676
 20
6.9629102507
 30
0.0
  0
SPLINE
  5
48B
100
AcDbEntity
  8
0
100
AcDbSpline
 62
9
  6
CONTINUOUS
 70
0
 71
3
 72
30
 73
26
 74
0
 42
0.0000001
 43
0.0000001
 44
0.0000000001
 40
0.0
 40
0.0
 40
0.0
 40
0.0
 40
0.0751314398
 40
0.1498384392
 40
0.2237086687
 40
0.2963458972
 40
0.3673829585
 40
0.4364910163
 40
0.5033904933
 40
0.567862632
 40
0.6297619005
 40
0.6597338059
 40
0.6890485074
 40
0.7177144404
 40
0.7457470891
 40
0.7731692545
 40
0.8000114088
 40
0.8263118378
 40
0.8521165426
 40
0.8774791238
 40
0.9024605749
 40
0.9271281208
 40
0.9515545518
 40
0.9758194162
 40
1.0
 40
1.0
 40
1.0
 40
1.0
 10
19.5848497676
 20
5.4925811915
 30
0.0
 10
19.5725914329
 20
5.4925811915
 30
0.0
 10
19.5481369245
 20
5.4933510393
 30
0.0
 10
19.5117773757
 20
5.4968081693
 30
0.0
 10
19.4761150654
 20
5.5025332678
 30
0.0
 10
19.441492534
 20
5.5104721879
 30
0.0
 10
19.4082399189
 20
5.520549519
 30
0.0
 10
19.3766747764
 20
5.532670037
 30
0.0
 10
19.3470974628
 20
5.546720071
 30
0.0
 10
19.3197917679
 20
5.5625666993
 30
0.0
 10
19.2989222589
 20
5.577305999
 30
0.0
 10
19.283647795
 20
5.5898727472
 30
0.0
 10
19.2730380063
 20
5.5995449424
 30
0.0
 10
19.2631782405
 20
5.6095411646
 30
0.0
 10
19.254092119
 20
5.619837821
 30
0.0
 10
19.2458018601
 20
5.6304104042
 30
0.0
 10
19.2383276955
 20
5.6412337213
 30
0.0
 10
19.2316879484
 20
5.6522818952
 30
0.0
 10
19.2258991307
 20
5.663528512
 30
0.0
 10
19.2209757162
 20
5.6749465448
 30
0.0
 10
19.2169300942
 20
5.6865084067
 30
0.0
 10
19.2137726016
 20
5.6981859067
 30
0.0
 10
19.2115112904
 20
5.709951016
 30
0.0
 10
19.2101523115
 20
5.7217736882
 30
0.0
 10
19.2098497676
 20
5.7296812768
 30
0.0
 10
19.2098497676
 20
5.7336265451
 30
0.0
  0
SPLINE
  5
48C
100
AcDbEntity
  8
0
100
AcDbSpline
 62
9
  6
CONTINUOUS
 70
0
 71
3
 72
30
 73
26
 74
0
 42
0.0000001
 43
0.0000001
 44
0.0000000001
 40
0.0
 40
0.0
 40
0.0
 40
0.0
 40
0.0751314523
 40
0.1498384583
 40
0.2237086963
 40
0.2963459329
 40
0.3673830021
 40
0.4364910676
 40
0.5033905521
 40
0.5678626979
 40
0.6297619733
 40
0.659733882
 40
0.6890485867
 40
0.717714523
 40
0.7457471747
 40
0.7731693429
 40
0.800011502
 40
0.8263119303
 40
0.8521166366
 40
0.8774792473
 40
0.9024606327
 40
0.9271281969
 40
0.9515550109
 40
0.9758186928
 40
1.0
 40
1.0
 40
1.0
 40
1.0
 10
19.5848497676
 20
5.8413448641
 30
0.0
 10
19.5725914322
 20
5.8413448641
 30
0.0
 10
19.5481369268
 20
5.8421148096
 30
0.0
 10
19.5117773748
 20
5.8455718863
 30
0.0
 10
19.4761150656
 20
5.8512970002
 30
0.0
 10
19.441492534
 20
5.8592359164
 30
0.0
 10
19.4082399189
 20
5.8693132485
 30
0.0
 10
19.3766747764
 20
5.8814337663
 30
0.0
 10
19.3470974628
 20
5.8954838003
 30
0.0
 10
19.3197917679
 20
5.9113304285
 30
0.0
 10
19.2989222589
 20
5.9260697283
 30
0.0
 10
19.2836477951
 20
5.9386364765
 30
0.0
 10
19.2730380063
 20
5.9483086716
 30
0.0
 10
19.2631782405
 20
5.9583048939
 30
0.0
 10
19.2540921191
 20
5.9686015503
 30
0.0
 10
19.2458018597
 20
5.9791741334
 30
0.0
 10
19.2383276963
 20
5.9899974509
 30
0.0
 10
19.2316879487
 20
6.0010456237
 30
0.0
 10
19.2258991259
 20
6.0122922423
 30
0.0
 10
19.2209757268
 20
6.0237102741
 30
0.0
 10
19.2169300898
 20
6.0352721248
 30
0.0
 10
19.2137725705
 20
6.046949676
 30
0.0
 10
19.2115113692
 20
6.0587146725
 30
0.0
 10
19.2101522518
 20
6.070537314
 30
0.0
 10
19.2098497676
 20
6.0784448318
 30
0.0
 10
19.2098497676
 20
6.0823902177
 30
0.0
  0
SPLINE
  5
48D
100
AcDbEntity
  8
0
100
AcDbSpline
 62
9
  6
CONTINUOUS
 70
0
 71
3
 72
11
 73
7
 74
0
 42
0.0000001
 43
0.0000001
 44
0.0000000001
 40
0.0
 40
0.0
 40
0.0
 40
0.0
 40
0.2459688394
 40
0.4935872697
 40
0.7444424103
 40
1.0
 40
1.0
 40
1.0
 40
1.0
 10
20.0230786188
 20
5.5974498249
 30
0.0
 10
20.0230786188
 20
5.6039360364
 30
0.0
 10
20.0223767189
 20
5.6169625789
 30
0.0
 10
20.0192272331
 20
5.6363751411
 30
0.0
 10
20.0139983012
 20
5.6555947338
 30
0.0
 10
20.009195313
 20
5.6680828384
 30
0.0
 10
20.0064768094
 20
5.6742492609
 30
0.0
  0
SPLINE
  5
48E
100
AcDbEntity
  8
0
100
AcDbSpline
 62
9
  6
CONTINUOUS
 70
0
 71
3
 72
15
 73
11
 74
0
 42
0.0000001
 43
0.0000001
 44
0.0000000001
 40
0.0
 40
0.0
 40
0.0
 40
0.0
 40
0.1197083085
 40
0.2399633521
 40
0.3612862122
 40
0.4841832824
 40
0.6091151384
 40
0.7364974496
 40
0.8666912603
 40
1.0
 40
1.0
 40
1.0
 40
1.0
 10
20.0384074189
 20
5.578631099
 30
0.0
 10
20.0384074189
 20
5.5841410065
 30
0.0
 10
20.0379190562
 20
5.5951921275
 30
0.0
 10
20.0357260181
 20
5.6116964179
 30
0.0
 10
20.032079398
 20
5.6280926689
 30
0.0
 10
20.0269924298
 20
5.6443252529
 30
0.0
 10
20.0204826092
 20
5.6603418301
 30
0.0
 10
20.0125721946
 20
5.6760907504
 30
0.0
 10
20.0032885271
 20
5.6915207027
 30
0.0
 10
19.9962898749
 20
5.7014408105
 30
0.0
 10
19.9925833061
 20
5.7063306653
 30
0.0
  0
SPLINE
  5
48F
100
AcDbEntity
  8
0
100
AcDbSpline
 62
7
  6
CONTINUOUS
 70
0
 71
3
 72
51
 73
47
 74
0
 42
0.0000001
 43
0.0000001
 44
0.0000000001
 40
0.0
 40
0.0
 40
0.0
 40
0.0
 40
0.0134433752
 40
0.0269586783
 40
0.0405625898
 40
0.0542709542
 40
0.0680983593
 40
0.082058069
 40
0.0961619293
 40
0.110420262
 40
0.1248418406
 40
0.1394338528
 40
0.1542018538
 40
0.169149822
 40
0.1995860307
 40
0.230751808
 40
0.2626253407
 40
0.2951640776
 40
0.3283071226
 40
0.3619778305
 40
0.39608639
 40
0.430532503
 40
0.4652080014
 40
0.499999508
 40
0.5347910218
 40
0.5694665416
 40
0.6039126897
 40
0.638021297
 40
0.6716920646
 40
0.7048351795
 40
0.737373995
 40
0.7692476125
 40
0.8004134788
 40
0.8308497777
 40
0.8457977906
 40
0.8605658355
 40
0.8751578904
 40
0.8895795102
 40
0.903837882
 40
0.9179417792
 40
0.9319015229
 40
0.945728959
 40
0.959437351
 40
0.9730412863
 40
0.9865566092
 40
1.0
 40
1.0
 40
1.0
 40
1.0
 10
20.0682070307
 20
11.414587383
 30
0.0
 10
20.0672535196
 20
11.420154412
 30
0.0
 10
20.0650158371
 20
11.4312652103
 30
0.0
 10
20.0606935858
 20
11.4477590769
 30
0.0
 10
20.0554064659
 20
11.4640869386
 30
0.0
 10
20.0491654875
 20
11.4802148105
 30
0.0
 10
20.0419835559
 20
11.4961102146
 30
0.0
 10
20.0338754177
 20
11.5117408688
 30
0.0
 10
20.0248576075
 20
11.5270750842
 30
0.0
 10
20.0149486817
 20
11.5420818859
 30
0.0
 10
20.0041688495
 20
11.556730973
 30
0.0
 10
19.9925400947
 20
11.5709926221
 30
0.0
 10
19.9800858514
 20
11.5848383958
 30
0.0
 10
19.9623094386
 20
11.6028129719
 30
0.0
 10
19.9381207617
 20
11.6240820945
 30
0.0
 10
19.9064252893
 20
11.6473507568
 30
0.0
 10
19.8721376281
 20
11.6683396496
 30
0.0
 10
19.8355365339
 20
11.6868802743
 30
0.0
 10
19.7969168075
 20
11.7028258507
 30
0.0
 10
19.7565897226
 20
11.716049288
 30
0.0
 10
19.7148799915
 20
11.7264452276
 30
0.0
 10
19.6721234648
 20
11.7339308522
 30
0.0
 10
19.6286643316
 20
11.7384463389
 30
0.0
 10
19.5848524679
 20
11.7399556131
 30
0.0
 10
19.5410405825
 20
11.7384467102
 30
0.0
 10
19.4975813842
 20
11.7339315918
 30
0.0
 10
19.4548247497
 20
11.7264463297
 30
0.0
 10
19.4131148688
 20
11.7160507437
 30
0.0
 10
19.3727875935
 20
11.7028276484
 30
0.0
 10
19.3341676375
 20
11.6868823998
 30
0.0
 10
19.2975662762
 20
11.6683420859
 30
0.0
 10
19.2632783127
 20
11.6473534846
 30
0.0
 10
19.2315825051
 20
11.624085092
 30
0.0
 10
19.207393522
 20
11.6028161759
 30
0.0
 10
19.1896168496
 20
11.5848417511
 30
0.0
 10
19.1771624061
 20
11.5709960833
 30
0.0
 10
19.1655334452
 20
11.5567345332
 30
0.0
 10
19.1547534012
 20
11.5420855378
 30
0.0
 10
19.1448442584
 20
11.5270788205
 30
0.0
 10
19.1358262264
 20
11.511744682
 30
0.0
 10
19.1277178622
 20
11.4961140968
 30
0.0
 10
19.1205357006
 20
11.480218754
 30
0.0
 10
19.1142944889
 20
11.4640909353
 30
0.0
 10
19.1090071327
 20
11.4477631188
 30
0.0
 10
19.1046846427
 20
11.431269289
 30
0.0
 10
19.1024467991
 20
11.4201585081
 30
0.0
 10
19.1014932073
 20
11.4145914862
 30
0.0
  0
SPLINE
  5
490
100
AcDbEntity
  8
0
100
AcDbSpline
 62
7
  6
CONTINUOUS
 70
0
 71
3
 72
30
 73
26
 74
0
 42
0.0000001
 43
0.0000001
 44
0.0000000001
 40
0.0
 40
0.0
 40
0.0
 40
0.0
 40
0.0241806026
 40
0.0484454837
 40
0.0728719204
 40
0.0975394651
 40
0.1225209052
 40
0.1478834799
 40
0.1736881941
 40
0.1999886306
 40
0.2268307781
 40
0.2542529286
 40
0.2822855801
 40
0.3109515255
 40
0.3402662296
 40
0.3702381182
 40
0.432137389
 40
0.4966095297
 40
0.5635089912
 40
0.6326170673
 40
0.7036541005
 40
0.7762913523
 40
0.8501615555
 40
0.924868569
 40
1.0
 40
1.0
 40
1.0
 40
1.0
 10
19.9798497676
 20
5.6993679961
 30
0.0
 10
19.9798497676
 20
5.6952123098
 30
0.0
 10
19.9795311141
 20
5.6868829757
 30
0.0
 10
19.9780996741
 20
5.674429749
 30
0.0
 10
19.9757177458
 20
5.6620371645
 30
0.0
 10
19.9723918554
 20
5.6497368639
 30
0.0
 10
19.9681304692
 20
5.6375583703
 30
0.0
 10
19.962944471
 20
5.6255313762
 30
0.0
 10
19.9568469153
 20
5.6136849365
 30
0.0
 10
19.9498530464
 20
5.6020475239
 30
0.0
 10
19.9419802602
 20
5.5906469639
 30
0.0
 10
19.9332478552
 20
5.5795105108
 30
0.0
 10
19.9236771391
 20
5.5686646983
 30
0.0
 10
19.9132915161
 20
5.5581353405
 30
0.0
 10
19.9021158704
 20
5.5479472944
 30
0.0
 10
19.8860267686
 20
5.5347103186
 30
0.0
 10
19.8640442177
 20
5.5191849231
 30
0.0
 10
19.8352822177
 20
5.5024931395
 30
0.0
 10
19.8041274427
 20
5.487693769
 30
0.0
 10
19.7708788261
 20
5.4749268228
 30
0.0
 10
19.7358527318
 20
5.4643120331
 30
0.0
 10
19.6993836664
 20
5.4559497013
 30
0.0
 10
19.6618193591
 20
5.4499192745
 30
0.0
 10
19.6235206354
 20
5.4462777247
 30
0.0
 10
19.5977618802
 20
5.4454668903
 30
0.0
 10
19.5848497676
 20
5.4454668903
 30
0.0
  0
SPLINE
  5
491
100
AcDbEntity
  8
0
100
AcDbSpline
 62
9
  6
CONTINUOUS
 70
0
 71
3
 72
53
 73
49
 74
0
 42
0.0000001
 43
0.0000001
 44
0.0000000001
 40
0.0
 40
0.0
 40
0.0
 40
0.0
 40
0.0120903409
 40
0.0242226385
 40
0.0364358753
 40
0.0487696726
 40
0.0612603838
 40
0.0739416819
 40
0.086844032
 40
0.0999942462
 40
0.1134153331
 40
0.1271264133
 40
0.1411427314
 40
0.1554757099
 40
0.1701330649
 40
0.1851190058
 40
0.2160686592
 40
0.2483047178
 40
0.2817544676
 40
0.3163085011
 40
0.3518270321
 40
0.3881456515
 40
0.4250807358
 40
0.4624345379
 40
0.5
 40
0.5375654621
 40
0.5749192642
 40
0.6118543485
 40
0.6481729679
 40
0.6836914989
 40
0.7182455324
 40
0.7516952822
 40
0.7839313408
 40
0.8148809942
 40
0.8298669351
 40
0.8445242901
 40
0.8588572686
 40
0.8728735867
 40
0.8865846669
 40
0.9000057538
 40
0.913155968
 40
0.9260583181
 40
0.9387396162
 40
0.9512303274
 40
0.9635641247
 40
0.9757773615
 40
0.9879096591
 40
1.0
 40
1.0
 40
1.0
 40
1.0
 10
19.1466209164
 20
5.5974498249
 30
0.0
 10
19.1466209164
 20
5.5928393256
 30
0.0
 10
19.1469744505
 20
5.5835984688
 30
0.0
 10
19.148562602
 20
5.5697824019
 30
0.0
 10
19.1512051941
 20
5.5560336124
 30
0.0
 10
19.1548950314
 20
5.5423871438
 30
0.0
 10
19.1596228118
 20
5.528875835
 30
0.0
 10
19.1653763876
 20
5.5155326214
 30
0.0
 10
19.1721412233
 20
5.5023896913
 30
0.0
 10
19.1799004966
 20
5.4894786768
 30
0.0
 10
19.1886349189
 20
5.4768304616
 30
0.0
 10
19.1983229878
 20
5.4644752259
 30
0.0
 10
19.2089410888
 20
5.4524424171
 30
0.0
 10
19.2204633476
 20
5.4407607594
 30
0.0
 10
19.2328620675
 20
5.4294577488
 30
0.0
 10
19.2507119112
 20
5.4147720502
 30
0.0
 10
19.2751002982
 20
5.3975476502
 30
0.0
 10
19.3070099602
 20
5.3790290247
 30
0.0
 10
19.3415743398
 20
5.3626100674
 30
0.0
 10
19.3784616904
 20
5.3484458953
 30
0.0
 10
19.4173210063
 20
5.3366693946
 30
0.0
 10
19.4577813448
 20
5.3273919468
 30
0.0
 10
19.4994564075
 20
5.3207014407
 30
0.0
 10
19.5419479604
 20
5.3166615503
 30
0.0
 10
19.5848497676
 20
5.3153105775
 30
0.0
 10
19.6277515747
 20
5.3166615503
 30
0.0
 10
19.6702431277
 20
5.3207014407
 30
0.0
 10
19.7119181903
 20
5.3273919468
 30
0.0
 10
19.7523785288
 20
5.3366693946
 30
0.0
 10
19.7912378447
 20
5.3484458953
 30
0.0
 10
19.8281251954
 20
5.3626100674
 30
0.0
 10
19.8626895749
 20
5.3790290247
 30
0.0
 10
19.8945992369
 20
5.3975476502
 30
0.0
 10
19.9189876239
 20
5.4147720502
 30
0.0
 10
19.9368374676
 20
5.4294577488
 30
0.0
 10
19.9492361875
 20
5.4407607594
 30
0.0
 10
19.9607584463
 20
5.4524424171
 30
0.0
 10
19.9713765474
 20
5.4644752259
 30
0.0
 10
19.9810646163
 20
5.4768304616
 30
0.0
 10
19.9897990386
 20
5.4894786768
 30
0.0
 10
19.9975583118
 20
5.5023896913
 30
0.0
 10
20.0043231476
 20
5.5155326214
 30
0.0
 10
20.0100767233
 20
5.528875835
 30
0.0
 10
20.0148045037
 20
5.5423871438
 30
0.0
 10
20.0184943411
 20
5.5560336124
 30
0.0
 10
20.0211369331
 20
5.5697824019
 30
0.0
 10
20.0227250846
 20
5.5835984688
 30
0.0
 10
20.0230786188
 20
5.5928393256
 30
0.0
 10
20.0230786188
 20
5.5974498249
 30
0.0
  0
SPLINE
  5
492
100
AcDbEntity
  8
0
100
AcDbSpline
 62
7
  6
CONTINUOUS
 70
0
 71
3
 72
30
 73
26
 74
0
 42
0.0000001
 43
0.0000001
 44
0.0000000001
 40
0.0
 40
0.0
 40
0.0
 40
0.0
 40
0.075131431
 40
0.1498384445
 40
0.2237086477
 40
0.2963458995
 40
0.3673829327
 40
0.4364910088
 40
0.5033904703
 40
0.567862611
 40
0.6297618818
 40
0.6597337704
 40
0.6890484745
 40
0.7177144199
 40
0.7457470714
 40
0.7731692219
 40
0.8000113694
 40
0.8263118059
 40
0.8521165201
 40
0.8774790948
 40
0.9024605349
 40
0.9271280796
 40
0.9515545163
 40
0.9758193974
 40
1.0
 40
1.0
 40
1.0
 40
1.0
 10
19.5848497676
 20
5.4454668903
 30
0.0
 10
19.571937655
 20
5.4454668903
 30
0.0
 10
19.5461788998
 20
5.4462777247
 30
0.0
 10
19.5078801761
 20
5.4499192745
 30
0.0
 10
19.4703158688
 20
5.4559497013
 30
0.0
 10
19.4338468034
 20
5.4643120331
 30
0.0
 10
19.398820709
 20
5.4749268228
 30
0.0
 10
19.3655720925
 20
5.487693769
 30
0.0
 10
19.3344173174
 20
5.5024931395
 30
0.0
 10
19.3056553175
 20
5.5191849231
 30
0.0
 10
19.2836727665
 20
5.5347103186
 30
0.0
 10
19.2675836647
 20
5.5479472944
 30
0.0
 10
19.2564080191
 20
5.5581353405
 30
0.0
 10
19.246022396
 20
5.5686646983
 30
0.0
 10
19.2364516799
 20
5.5795105108
 30
0.0
 10
19.2277192749
 20
5.5906469639
 30
0.0
 10
19.2198464887
 20
5.6020475239
 30
0.0
 10
19.2128526198
 20
5.6136849365
 30
0.0
 10
19.2067550642
 20
5.6255313762
 30
0.0
 10
19.201569066
 20
5.6375583703
 30
0.0
 10
19.1973076798
 20
5.6497368639
 30
0.0
 10
19.1939817894
 20
5.6620371645
 30
0.0
 10
19.191599861
 20
5.674429749
 30
0.0
 10
19.1901684211
 20
5.6868829757
 30
0.0
 10
19.1898497676
 20
5.6952123098
 30
0.0
 10
19.1898497676
 20
5.6993679961
 30
0.0
  0
SPLINE
  5
493
100
AcDbEntity
  8
0
100
AcDbSpline
 62
9
  6
CONTINUOUS
 70
0
 71
3
 72
53
 73
49
 74
0
 42
0.0000001
 43
0.0000001
 44
0.0000000001
 40
0.0
 40
0.0
 40
0.0
 40
0.0
 40
0.0120903409
 40
0.0242226385
 40
0.0364358753
 40
0.0487696726
 40
0.0612603838
 40
0.0739416819
 40
0.086844032
 40
0.0999942462
 40
0.1134153331
 40
0.1271264133
 40
0.1411427314
 40
0.1554757099
 40
0.1701330649
 40
0.1851190058
 40
0.2160686592
 40
0.2483047178
 40
0.2817544676
 40
0.3163085011
 40
0.3518270321
 40
0.3881456515
 40
0.4250807358
 40
0.4624345379
 40
0.5
 40
0.5375654621
 40
0.5749192642
 40
0.6118543485
 40
0.6481729679
 40
0.6836914989
 40
0.7182455324
 40
0.7516952822
 40
0.7839313408
 40
0.8148809942
 40
0.8298669351
 40
0.8445242901
 40
0.8588572686
 40
0.8728735867
 40
0.8865846669
 40
0.9000057538
 40
0.913155968
 40
0.9260583181
 40
0.9387396162
 40
0.9512303274
 40
0.9635641247
 40
0.9757773615
 40
0.9879096591
 40
1.0
 40
1.0
 40
1.0
 40
1.0
 10
19.1312921162
 20
5.578631099
 30
0.0
 10
19.1312921162
 20
5.5738593292
 30
0.0
 10
19.1316580166
 20
5.5642952366
 30
0.0
 10
19.1333017201
 20
5.5499958977
 30
0.0
 10
19.1360367473
 20
5.5357661895
 30
0.0
 10
19.1398556514
 20
5.5216423812
 30
0.0
 10
19.1447488048
 20
5.5076584606
 30
0.0
 10
19.1507036347
 20
5.493848515
 30
0.0
 10
19.1577050976
 20
5.4802458585
 30
0.0
 10
19.1657357823
 20
5.4668832298
 30
0.0
 10
19.1747757258
 20
5.4537925929
 30
0.0
 10
19.1848026736
 20
5.4410051836
 30
0.0
 10
19.195792185
 20
5.4285514794
 30
0.0
 10
19.2077174807
 20
5.4164612092
 30
0.0
 10
19.2205498953
 20
5.4047628308
 30
0.0
 10
19.2390241083
 20
5.3895634413
 30
0.0
 10
19.2642655763
 20
5.3717365493
 30
0.0
 10
19.2972914059
 20
5.3525701611
 30
0.0
 10
19.3330648124
 20
5.3355768853
 30
0.0
 10
19.3712424451
 20
5.3209172649
 30
0.0
 10
19.4114610204
 20
5.3087288341
 30
0.0
 10
19.4533366204
 20
5.2991268706
 30
0.0
 10
19.4964694345
 20
5.2922023374
 30
0.0
 10
19.5404472988
 20
5.2880211358
 30
0.0
 10
19.5848497676
 20
5.2866229073
 30
0.0
 10
19.6292522363
 20
5.2880211358
 30
0.0
 10
19.6732301007
 20
5.2922023374
 30
0.0
 10
19.7163629147
 20
5.2991268706
 30
0.0
 10
19.7582385148
 20
5.3087288341
 30
0.0
 10
19.7984570901
 20
5.3209172649
 30
0.0
 10
19.8366347228
 20
5.3355768853
 30
0.0
 10
19.8724081292
 20
5.3525701611
 30
0.0
 10
19.9054339588
 20
5.3717365493
 30
0.0
 10
19.9306754268
 20
5.3895634413
 30
0.0
 10
19.9491496399
 20
5.4047628308
 30
0.0
 10
19.9619820544
 20
5.4164612092
 30
0.0
 10
19.9739073501
 20
5.4285514794
 30
0.0
 10
19.9848968616
 20
5.4410051836
 30
0.0
 10
19.9949238093
 20
5.4537925929
 30
0.0
 10
20.0039637528
 20
5.4668832298
 30
0.0
 10
20.0119944376
 20
5.4802458585
 30
0.0
 10
20.0189959004
 20
5.493848515
 30
0.0
 10
20.0249507304
 20
5.5076584606
 30
0.0
 10
20.0298438837
 20
5.5216423812
 30
0.0
 10
20.0336627879
 20
5.5357661895
 30
0.0
 10
20.0363978151
 20
5.5499958977
 30
0.0
 10
20.0380415185
 20
5.5642952366
 30
0.0
 10
20.0384074189
 20
5.5738593292
 30
0.0
 10
20.0384074189
 20
5.578631099
 30
0.0
  0
SPLINE
  5
494
100
AcDbEntity
  8
0
100
AcDbSpline
 62
9
  6
CONTINUOUS
 70
0
 71
3
 72
53
 73
49
 74
0
 42
0.0000001
 43
0.0000001
 44
0.0000000001
 40
0.0
 40
0.0
 40
0.0
 40
0.0
 40
0.0120903774
 40
0.0242226267
 40
0.0364358729
 40
0.0487696771
 40
0.0612603815
 40
0.0739416832
 40
0.0868440335
 40
0.0999942438
 40
0.1134153329
 40
0.1271264165
 40
0.141142731
 40
0.1554757064
 40
0.1701330666
 40
0.1851190102
 40
0.2160686561
 40
0.2483047202
 40
0.281754467
 40
0.3163084999
 40
0.351827034
 40
0.3881456487
 40
0.425080738
 40
0.4624345366
 40
0.5
 40
0.5375654634
 40
0.574919262
 40
0.6118543513
 40
0.648172966
 40
0.6836915001
 40
0.718245533
 40
0.7516952798
 40
0.7839313439
 40
0.8148809898
 40
0.8298669334
 40
0.8445242936
 40
0.858857269
 40
0.8728735835
 40
0.8865846671
 40
0.9000057562
 40
0.9131559665
 40
0.9260583168
 40
0.9387396185
 40
0.9512303229
 40
0.9635641271
 40
0.9757773733
 40
0.9879096226
 40
1.0
 40
1.0
 40
1.0
 40
1.0
 10
20.0688497676
 20
5.508273592
 30
0.0
 10
20.0688497676
 20
5.5031815302
 30
0.0
 10
20.0684593184
 20
5.4929755093
 30
0.0
 10
20.0667052769
 20
5.477716415
 30
0.0
 10
20.0637866757
 20
5.4625316373
 30
0.0
 10
20.0597114649
 20
5.4474598446
 30
0.0
 10
20.0544898841
 20
5.432537336
 30
0.0
 10
20.0481353638
 20
5.4178004849
 30
0.0
 10
20.0406639637
 20
5.403284835
 30
0.0
 10
20.0320942897
 20
5.3890253069
 30
0.0
 10
20.022447585
 20
5.3750560434
 30
0.0
 10
20.0117476217
 20
5.3614103681
 30
0.0
 10
20.0000205179
 20
5.3481207745
 30
0.0
 10
19.9872948214
 20
5.3352190039
 30
0.0
 10
19.9736010902
 20
5.3227354571
 30
0.0
 10
19.9538868956
 20
5.306515913
 30
0.0
 10
19.9269512724
 20
5.2874924568
 30
0.0
 10
19.8917087572
 20
5.2670396825
 30
0.0
 10
19.8535342889
 20
5.2489058063
 30
0.0
 10
19.8127942068
 20
5.2332622516
 30
0.0
 10
19.7698761966
 20
5.2202557645
 30
0.0
 10
19.7251899542
 20
5.2100092814
 30
0.0
 10
19.6791620991
 20
5.2026200481
 30
0.0
 10
19.6322324893
 20
5.1981581238
 30
0.0
 10
19.5848497676
 20
5.1966661419
 30
0.0
 10
19.5374670458
 20
5.1981581238
 30
0.0
 10
19.490537436
 20
5.2026200481
 30
0.0
 10
19.4445095809
 20
5.2100092814
 30
0.0
 10
19.3998233386
 20
5.2202557645
 30
0.0
 10
19.3569053284
 20
5.2332622516
 30
0.0
 10
19.3161652463
 20
5.2489058063
 30
0.0
 10
19.2779907779
 20
5.2670396825
 30
0.0
 10
19.2427482628
 20
5.2874924568
 30
0.0
 10
19.2158126395
 20
5.306515913
 30
0.0
 10
19.196098445
 20
5.3227354571
 30
0.0
 10
19.1824047137
 20
5.3352190039
 30
0.0
 10
19.1696790173
 20
5.3481207745
 30
0.0
 10
19.1579519135
 20
5.3614103681
 30
0.0
 10
19.1472519502
 20
5.3750560434
 30
0.0
 10
19.1376052454
 20
5.3890253069
 30
0.0
 10
19.1290355714
 20
5.403284835
 30
0.0
 10
19.1215641713
 20
5.4178004849
 30
0.0
 10
19.115209651
 20
5.432537336
 30
0.0
 10
19.1099880702
 20
5.4474598446
 30
0.0
 10
19.1059128595
 20
5.4625316373
 30
0.0
 10
19.1029942582
 20
5.477716415
 30
0.0
 10
19.1012402168
 20
5.4929755093
 30
0.0
 10
19.1008497676
 20
5.5031815302
 30
0.0
 10
19.1008497676
 20
5.508273592
 30
0.0
  0
SPLINE
  5
495
100
AcDbEntity
  8
0
100
AcDbSpline
 62
9
  6
CONTINUOUS
 70
0
 71
3
 72
38
 73
34
 74
0
 42
0.0000001
 43
0.0000001
 44
0.0000000001
 40
0.0
 40
0.0
 40
0.0
 40
0.0
 40
0.031117478
 40
0.062236555
 40
0.0933604081
 40
0.1244916605
 40
0.1556322656
 40
0.1712095864
 40
0.1867897803
 40
0.2179533891
 40
0.2491298139
 40
0.2647253471
 40
0.2803242999
 40
0.3115271714
 40
0.3427427644
 40
0.3739705069
 40
0.4052097457
 40
0.4364597977
 40
0.46771983
 40
0.4989890698
 40
0.5302671087
 40
0.5615528592
 40
0.5928455053
 40
0.6241446143
 40
0.655449352
 40
0.6867592226
 40
0.7180736532
 40
0.7493920329
 40
0.7807140603
 40
0.8120389633
 40
0.8746870719
 40
0.9373417016
 40
1.0
 40
1.0
 40
1.0
 40
1.0
 10
6.5100290745
 20
2.6088348178
 30
0.0
 10
6.5119939745
 20
2.5950608581
 30
0.0
 10
6.514786456
 20
2.5673352526
 30
0.0
 10
6.5154451936
 20
2.5255485201
 30
0.0
 10
6.5125500417
 20
2.4838483636
 30
0.0
 10
6.5061840223
 20
2.4425299129
 30
0.0
 10
6.498082695
 20
2.4086353712
 30
0.0
 10
6.490001447
 20
2.3819720012
 30
0.0
 10
6.4808790897
 20
2.3556355027
 30
0.0
 10
6.4675768551
 20
2.3233960936
 30
0.0
 10
6.4519067757
 20
2.2922343497
 30
0.0
 10
6.4380471014
 20
2.2680288102
 30
0.0
 10
6.423341346
 20
2.2443139247
 30
0.0
 10
6.4034494635
 20
2.2156236987
 30
0.0
 10
6.3774128108
 20
2.1827978349
 30
0.0
 10
6.3494185076
 20
2.151605213
 30
0.0
 10
6.3196613186
 20
2.1220714476
 30
0.0
 10
6.2883163582
 20
2.0942097574
 30
0.0
 10
6.2555421714
 20
2.0680252813
 30
0.0
 10
6.2214776071
 20
2.0435242658
 30
0.0
 10
6.1862679386
 20
2.0206815036
 30
0.0
 10
6.1500459347
 20
1.999462729
 30
0.0
 10
6.1129283266
 20
1.9798350167
 30
0.0
 10
6.0750165886
 20
1.9617712403
 30
0.0
 10
6.0364014489
 20
1.9452469187
 30
0.0
 10
5.997164667
 20
1.9302408445
 30
0.0
 10
5.9573786138
 20
1.9167404859
 30
0.0
 10
5.9171108922
 20
1.9047360802
 30
0.0
 10
5.8764291183
 20
1.8942014076
 30
0.0
 10
5.8217231614
 20
1.8820836469
 30
0.0
 10
5.7525977495
 20
1.8704850098
 30
0.0
 10
5.6689142532
 20
1.8621383175
 30
0.0
 10
5.6128658617
 20
1.8602706833
 30
0.0
 10
5.5848497676
 20
1.860270645
 30
0.0
  0
SPLINE
  5
496
100
AcDbEntity
  8
0
100
AcDbSpline
 62
9
  6
CONTINUOUS
 70
0
 71
3
 72
49
 73
45
 74
0
 42
0.0000001
 43
0.0000001
 44
0.0000000001
 40
0.0
 40
0.0
 40
0.0
 40
0.0
 40
0.0135006962
 40
0.0270249862
 40
0.0405939641
 40
0.0542303172
 40
0.0679546955
 40
0.0817867305
 40
0.0957446176
 40
0.1098448255
 40
0.1241019954
 40
0.1385287978
 40
0.1679210104
 40
0.1980928868
 40
0.2290709819
 40
0.2608500383
 40
0.2933955278
 40
0.3266468205
 40
0.3605207565
 40
0.3949153308
 40
0.4297135118
 40
0.4647869946
 40
0.5
 40
0.5352130054
 40
0.5702864882
 40
0.6050846692
 40
0.6394792435
 40
0.6733531795
 40
0.7066044722
 40
0.7391499617
 40
0.7709290181
 40
0.8019071132
 40
0.8320789896
 40
0.8614712022
 40
0.8758980046
 40
0.8901551745
 40
0.9042553824
 40
0.9182132695
 40
0.9320453045
 40
0.9457696828
 40
0.9594060359
 40
0.9729750138
 40
0.9864993038
 40
1.0
 40
1.0
 40
1.0
 40
1.0
 10
20.0723497676
 20
11.4979018149
 30
0.0
 10
20.0723497676
 20
11.5040128641
 30
0.0
 10
20.0719572841
 20
11.5162492514
 30
0.0
 10
20.0701935199
 20
11.5345510822
 30
0.0
 10
20.0672584731
 20
11.552764791
 30
0.0
 10
20.0631597864
 20
11.5708448857
 30
0.0
 10
20.0579073248
 20
11.5887480497
 30
0.0
 10
20.0515141595
 20
11.6064308012
 30
0.0
 10
20.0439960008
 20
11.6238504866
 30
0.0
 10
20.0353713213
 20
11.6409649279
 30
0.0
 10
20.0256607869
 20
11.6577333661
 30
0.0
 10
20.0112111683
 20
11.67970804
 30
0.0
 10
19.9904922942
 20
11.7061135141
 30
0.0
 10
19.9618961701
 20
11.7355690174
 30
0.0
 10
19.9296844405
 20
11.7627243738
 30
0.0
 10
19.8941709172
 20
11.7873209808
 30
0.0
 10
19.8556970204
 20
11.8091283932
 30
0.0
 10
19.8146321197
 20
11.8279411674
 30
0.0
 10
19.7713694494
 20
11.843581947
 30
0.0
 10
19.7263230269
 20
11.8559031977
 30
0.0
 10
19.6799236599
 20
11.8647882793
 30
0.0
 10
19.6326151098
 20
11.8701532983
 30
0.0
 10
19.5848497676
 20
11.8719472294
 30
0.0
 10
19.5370844253
 20
11.8701532983
 30
0.0
 10
19.4897758752
 20
11.8647882793
 30
0.0
 10
19.4433765083
 20
11.8559031977
 30
0.0
 10
19.3983300857
 20
11.843581947
 30
0.0
 10
19.3550674154
 20
11.8279411674
 30
0.0
 10
19.3140025148
 20
11.8091283932
 30
0.0
 10
19.275528618
 20
11.7873209808
 30
0.0
 10
19.2400150946
 20
11.7627243738
 30
0.0
 10
19.2078033651
 20
11.7355690174
 30
0.0
 10
19.1792072409
 20
11.7061135141
 30
0.0
 10
19.1584883668
 20
11.67970804
 30
0.0
 10
19.1440387483
 20
11.6577333661
 30
0.0
 10
19.1343282139
 20
11.6409649279
 30
0.0
 10
19.1257035344
 20
11.6238504866
 30
0.0
 10
19.1181853756
 20
11.6064308012
 30
0.0
 10
19.1117922103
 20
11.5887480497
 30
0.0
 10
19.1065397487
 20
11.5708448857
 30
0.0
 10
19.102441062
 20
11.552764791
 30
0.0
 10
19.0995060152
 20
11.5345510822
 30
0.0
 10
19.0977422511
 20
11.5162492514
 30
0.0
 10
19.0973497676
 20
11.5040128641
 30
0.0
 10
19.0973497676
 20
11.4979018149
 30
0.0
  0
SPLINE
  5
497
100
AcDbEntity
  8
0
100
AcDbSpline
 62
9
  6
CONTINUOUS
 70
0
 71
3
 72
47
 73
43
 74
0
 42
0.0000001
 43
0.0000001
 44
0.0000000001
 40
0.0
 40
0.0
 40
0.0
 40
0.0
 40
0.0120439519
 40
0.0241646261
 40
0.0363990234
 40
0.0487811926
 40
0.0613428119
 40
0.0741127154
 40
0.0871164717
 40
0.10037624
 40
0.1277238821
 40
0.1562755377
 40
0.1860848739
 40
0.2171564793
 40
0.249451539
 40
0.2828936752
 40
0.3173747505
 40
0.3527601587
 40
0.3888938963
 40
0.4256032029
 40
0.4627029755
 40
0.5
 40
0.5372970245
 40
0.5743967971
 40
0.6111061037
 40
0.6472398413
 40
0.6826252495
 40
0.7171063248
 40
0.750548461
 40
0.7828435207
 40
0.8139151261
 40
0.8437244623
 40
0.8722761179
 40
0.89962376
 40
0.9128835283
 40
0.9258872846
 40
0.9386571881
 40
0.9512188074
 40
0.9636009766
 40
0.9758353739
 40
0.9879560481
 40
1.0
 40
1.0
 40
1.0
 40
1.0
 10
19.1014343986
 20
5.5083082859
 30
0.0
 10
19.1018120542
 20
5.5033732376
 30
0.0
 10
19.1029364366
 20
5.4934959604
 30
0.0
 10
19.1057117783
 20
5.4787847647
 30
0.0
 10
19.1095729171
 20
5.4641762566
 30
0.0
 10
19.1145106299
 20
5.4497047733
 30
0.0
 10
19.1205130884
 20
5.4354030247
 30
0.0
 10
19.1275659916
 20
5.4213036118
 30
0.0
 10
19.1356532397
 20
5.4074379763
 30
0.0
 10
19.1479135857
 20
5.3891187846
 30
0.0
 10
19.1658210899
 20
5.3669612601
 30
0.0
 10
19.1908528818
 20
5.3420948681
 30
0.0
 10
19.2194217929
 20
5.3188845032
 30
0.0
 10
19.25126694
 20
5.2975340986
 30
0.0
 10
19.2861027818
 20
5.2782284488
 30
0.0
 10
19.3236170465
 20
5.2611366634
 30
0.0
 10
19.3634740828
 20
5.2464093283
 30
0.0
 10
19.4053169737
 20
5.2341766407
 30
0.0
 10
19.448770855
 20
5.2245473503
 30
0.0
 10
19.4934460894
 20
5.2176072149
 30
0.0
 10
19.5389418476
 20
5.2134181271
 30
0.0
 10
19.5848497676
 20
5.2120176407
 30
0.0
 10
19.6307576875
 20
5.2134181271
 30
0.0
 10
19.6762534458
 20
5.2176072149
 30
0.0
 10
19.7209286801
 20
5.2245473503
 30
0.0
 10
19.7643825614
 20
5.2341766407
 30
0.0
 10
19.8062254523
 20
5.2464093283
 30
0.0
 10
19.8460824887
 20
5.2611366634
 30
0.0
 10
19.8835967533
 20
5.2782284488
 30
0.0
 10
19.9184325952
 20
5.2975340986
 30
0.0
 10
19.9502777423
 20
5.3188845032
 30
0.0
 10
19.9788466533
 20
5.3420948681
 30
0.0
 10
20.0038784452
 20
5.3669612601
 30
0.0
 10
20.0217859494
 20
5.3891187846
 30
0.0
 10
20.0340462954
 20
5.4074379763
 30
0.0
 10
20.0421335436
 20
5.4213036118
 30
0.0
 10
20.0491864468
 20
5.4354030247
 30
0.0
 10
20.0551889053
 20
5.4497047733
 30
0.0
 10
20.0601266181
 20
5.4641762566
 30
0.0
 10
20.0639877568
 20
5.4787847647
 30
0.0
 10
20.0667630986
 20
5.4934959604
 30
0.0
 10
20.0678874809
 20
5.5033732376
 30
0.0
 10
20.0682651365
 20
5.5083082859
 30
0.0
  0
SPLINE
  5
498
100
AcDbEntity
  8
0
100
AcDbSpline
 62
9
  6
CONTINUOUS
 70
0
 71
3
 72
22
 73
18
 74
0
 42
0.0000001
 43
0.0000001
 44
0.0000000001
 40
0.0
 40
0.0
 40
0.0
 40
0.0
 40
0.0896409194
 40
0.1375738723
 40
0.1876127878
 40
0.2398111857
 40
0.2942335964
 40
0.350962395
 40
0.4101319948
 40
0.4719204261
 40
0.5365434929
 40
0.6042557953
 40
0.6753468193
 40
0.7501349339
 40
0.8289583451
 40
0.912147823
 40
1.0
 40
1.0
 40
1.0
 40
1.0
 10
6.4100187733
 20
11.0592871662
 30
0.0
 10
6.3997641527
 20
11.0449647707
 30
0.0
 10
6.3831284585
 20
11.0236105369
 30
0.0
 10
6.3588590764
 20
10.9958507556
 30
0.0
 10
6.3385758883
 20
10.9744055742
 30
0.0
 10
6.3165386616
 20
10.9528984382
 30
0.0
 10
6.2926651223
 20
10.9314276582
 30
0.0
 10
6.2668679525
 20
10.9100888007
 30
0.0
 10
6.2390221645
 20
10.8890042237
 30
0.0
 10
6.2089931559
 20
10.8682909911
 30
0.0
 10
6.1766480829
 20
10.8480443237
 30
0.0
 10
6.1418305072
 20
10.8283771972
 30
0.0
 10
6.104372708
 20
10.8094092438
 30
0.0
 10
6.0640976128
 20
10.7912715331
 30
0.0
 10
6.020823126
 20
10.7741206696
 30
0.0
 10
5.9743844065
 20
10.7581249057
 30
0.0
 10
5.9421229554
 20
10.7486474692
 30
0.0
 10
5.9254554599
 20
10.7441504603
 30
0.0
  0
SPLINE
  5
499
100
AcDbEntity
  8
0
100
AcDbSpline
 62
9
  6
CONTINUOUS
 70
0
 71
3
 72
42
 73
38
 74
0
 42
0.0000001
 43
0.0000001
 44
0.0000000001
 40
0.0
 40
0.0
 40
0.0
 40
0.0
 40
0.0058732982
 40
0.0118121127
 40
0.0178635626
 40
0.0240714997
 40
0.0371030262
 40
0.0440034345
 40
0.0511951423
 40
0.0587019158
 40
0.0665441438
 40
0.0747392281
 40
0.0833019628
 40
0.0922448867
 40
0.1015786001
 40
0.1214499743
 40
0.1429675812
 40
0.166140123
 40
0.19095774
 40
0.2173997111
 40
0.2454373897
 40
0.2750362706
 40
0.3061574705
 40
0.3387588027
 40
0.3727897971
 40
0.4081794523
 40
0.4448509519
 40
0.4827257252
 40
0.52172385
 40
0.5617643694
 40
0.6027655439
 40
0.6446450575
 40
0.6873174333
 40
0.7306869511
 40
0.8191211701
 40
0.9091574226
 40
1.0
 40
1.0
 40
1.0
 40
1.0
 10
4.8348728609
 20
8.3446146231
 30
0.0
 10
4.8349211839
 20
8.3461904056
 30
0.0
 10
4.8351712293
 20
8.3493568833
 30
0.0
 10
4.835998895
 20
8.3540864904
 30
0.0
 10
4.8372775707
 20
8.3588079772
 30
0.0
 10
4.8396164494
 20
8.365188396
 30
0.0
 10
4.8428476979
 20
8.3714534997
 30
0.0
 10
4.8468411518
 20
8.3775449088
 30
0.0
 10
4.8503308967
 20
8.3821799654
 30
0.0
 10
4.8542547842
 20
8.3867896268
 30
0.0
 10
4.8586109181
 20
8.391372265
 30
0.0
 10
4.8633970091
 20
8.3959251852
 30
0.0
 10
4.8686109549
 20
8.4004459102
 30
0.0
 10
4.8742506641
 20
8.4049319353
 30
0.0
 10
4.8825085661
 20
8.4109903576
 30
0.0
 10
4.8939207441
 20
8.4184362023
 30
0.0
 10
4.9089926656
 20
8.4270067844
 30
0.0
 10
4.9256743581
 20
8.4353789503
 30
0.0
 10
4.9439196316
 20
8.4435343051
 30
0.0
 10
4.9636815161
 20
8.4514544901
 30
0.0
 10
4.9849124086
 20
8.4591206237
 30
0.0
 10
5.0075644382
 20
8.4665137791
 30
0.0
 10
5.031589456
 20
8.4736150276
 30
0.0
 10
5.0569377351
 20
8.4804047493
 30
0.0
 10
5.0835526479
 20
8.4868630811
 30
0.0
 10
5.1113675545
 20
8.4929797526
 30
0.0
 10
5.1403105839
 20
8.4987419847
 30
0.0
 10
5.1703087689
 20
8.5041370803
 30
0.0
 10
5.2012891088
 20
8.509152292
 30
0.0
 10
5.2331785516
 20
8.513774909
 30
0.0
 10
5.2659040148
 20
8.5179922709
 30
0.0
 10
5.2993916554
 20
8.5217915155
 30
0.0
 10
5.3335642039
 20
8.5251600415
 30
0.0
 10
5.3802329309
 20
8.5290971816
 30
0.0
 10
5.4396666973
 20
8.5328874043
 30
0.0
 10
5.5119114473
 20
8.5356280063
 30
0.0
 10
5.5604656088
 20
8.5362438572
 30
0.0
 10
5.5848497676
 20
8.5362438572
 30
0.0
  0
SPLINE
  5
49A
100
AcDbEntity
  8
0
100
AcDbSpline
 62
9
  6
CONTINUOUS
 70
0
 71
3
 72
39
 73
35
 74
0
 42
0.0000001
 43
0.0000001
 44
0.0000000001
 40
0.0
 40
0.0
 40
0.0
 40
0.0
 40
0.0554940286
 40
0.108797385
 40
0.1599718385
 40
0.2090791586
 40
0.2561811228
 40
0.301339528
 40
0.3446162026
 40
0.3860730216
 40
0.4257719253
 40
0.4637749398
 40
0.5001442025
 40
0.5349419912
 40
0.5682307574
 40
0.600073165
 40
0.6305321339
 40
0.6596708893
 40
0.6875530153
 40
0.7142425147
 40
0.7398038716
 40
0.7643021181
 40
0.7878029001
 40
0.8103725427
 40
0.8320781084
 40
0.8529874458
 40
0.873169222
 40
0.8926929329
 40
0.9116288854
 40
0.9300481457
 40
0.9480224491
 40
0.9656240696
 40
0.9829256505
 40
1.0
 40
1.0
 40
1.0
 40
1.0
 10
4.838252354
 20
8.4571987722
 30
0.0
 10
4.839630665
 20
8.5037096024
 30
0.0
 10
4.8423511863
 20
8.5948946672
 30
0.0
 10
4.8463815134
 20
8.7289690649
 30
0.0
 10
4.8502529923
 20
8.8576906203
 30
0.0
 10
4.8539409341
 20
8.9812155318
 30
0.0
 10
4.8574206508
 20
9.0997000007
 30
0.0
 10
4.8606674518
 20
9.2133002317
 30
0.0
 10
4.8636566445
 20
9.3221724336
 30
0.0
 10
4.8663635325
 20
9.4264728197
 30
0.0
 10
4.8687634149
 20
9.5263576089
 30
0.0
 10
4.8708315849
 20
9.6219830261
 30
0.0
 10
4.8725433282
 20
9.7135053031
 30
0.0
 10
4.8738739206
 20
9.8010806793
 30
0.0
 10
4.8747986263
 20
9.8848654027
 30
0.0
 10
4.8752926943
 20
9.9650157297
 30
0.0
 10
4.8753313557
 20
10.041687926
 30
0.0
 10
4.8748898199
 20
10.1150382657
 30
0.0
 10
4.8739432704
 20
10.1852230309
 30
0.0
 10
4.8724668602
 20
10.2523985097
 30
0.0
 10
4.8704357074
 20
10.3167209932
 30
0.0
 10
4.867824891
 20
10.3783467711
 30
0.0
 10
4.8646094467
 20
10.4374321255
 30
0.0
 10
4.8607643649
 20
10.4941333229
 30
0.0
 10
4.8562645903
 20
10.5486066044
 30
0.0
 10
4.8510850245
 20
10.6010081739
 30
0.0
 10
4.8452005332
 20
10.6514941853
 30
0.0
 10
4.8385859578
 20
10.7002207313
 30
0.0
 10
4.8312161338
 20
10.7473438296
 30
0.0
 10
4.8230659105
 20
10.7930194279
 30
0.0
 10
4.8141101901
 20
10.8374033622
 30
0.0
 10
4.8043239124
 20
10.8806515146
 30
0.0
 10
4.7936822446
 20
10.9229192865
 30
0.0
 10
4.7859606094
 20
10.9506932413
 30
0.0
 10
4.7819552386
 20
10.9644382264
 30
0.0
  0
SPLINE
  5
49B
100
AcDbEntity
  8
0
100
AcDbSpline
 62
9
  6
CONTINUOUS
 70
0
 71
3
 72
47
 73
43
 74
0
 42
0.0000001
 43
0.0000001
 44
0.0000000001
 40
0.0
 40
0.0
 40
0.0
 40
0.0
 40
0.0030906951
 40
0.0062758071
 40
0.0096557615
 40
0.0133135976
 40
0.0173138432
 40
0.0217048341
 40
0.0265221444
 40
0.0317918033
 40
0.0375328558
 40
0.0437592609
 40
0.0504812561
 40
0.0577063293
 40
0.0654399128
 40
0.0736858823
 40
0.08244692
 40
0.091724782
 40
0.1015199379
 40
0.1118291199
 40
0.122647404
 40
0.133969392
 40
0.1581005265
 40
0.1841734976
 40
0.2121351672
 40
0.2419300051
 40
0.2735007807
 40
0.3067890346
 40
0.3417308487
 40
0.3782409753
 40
0.4162273609
 40
0.4555970493
 40
0.4962563737
 40
0.5381111026
 40
0.5810665499
 40
0.6250276611
 40
0.6698965061
 40
0.7155638627
 40
0.8088428465
 40
0.8562280631
 40
0.9039587273
 40
1.0
 40
1.0
 40
1.0
 40
1.0
 10
4.6950241044
 20
3.6460404749
 30
0.0
 10
4.6949971576
 20
3.6451031371
 30
0.0
 10
4.6951305218
 20
3.6431894744
 30
0.0
 10
4.6958900722
 20
3.6403440145
 30
0.0
 10
4.6971983607
 20
3.6375168509
 30
0.0
 10
4.6990450973
 20
3.6347108172
 30
0.0
 10
4.7014235329
 20
3.631924359
 30
0.0
 10
4.7043297973
 20
3.6291565827
 30
0.0
 10
4.707761491
 20
3.626407442
 30
0.0
 10
4.7117167441
 20
3.6236779162
 30
0.0
 10
4.71619376
 20
3.6209696621
 30
0.0
 10
4.7211906457
 20
3.6182847774
 30
0.0
 10
4.7267053717
 20
3.6156256164
 30
0.0
 10
4.7327357817
 20
3.6129946811
 30
0.0
 10
4.7392796148
 20
3.6103945561
 30
0.0
 10
4.746334529
 20
3.6078278687
 30
0.0
 10
4.7538981222
 20
3.6052972753
 30
0.0
 10
4.7619677792
 20
3.6028054684
 30
0.0
 10
4.7705397803
 20
3.6003555398
 30
0.0
 10
4.7796083456
 20
3.5979487627
 30
0.0
 10
4.7891664703
 20
3.5955865686
 30
0.0
 10
4.8028466451
 20
3.5924312769
 30
0.0
 10
4.8211255424
 20
3.5886318579
 30
0.0
 10
4.8444561743
 20
3.5843652396
 30
0.0
 10
4.8695670832
 20
3.5803132169
 30
0.0
 10
4.8963993757
 20
3.5764887182
 30
0.0
 10
4.924894273
 20
3.5729047514
 30
0.0
 10
4.9549914326
 20
3.5695742949
 30
0.0
 10
4.9866227828
 20
3.5665110263
 30
0.0
 10
5.0197091063
 20
3.5637109675
 30
0.0
 10
5.0541635173
 20
3.5611709254
 30
0.0
 10
5.0898973555
 20
3.5588878378
 30
0.0
 10
5.1268219304
 20
3.5568585888
 30
0.0
 10
5.1648485251
 20
3.5550800278
 30
0.0
 10
5.2038884032
 20
3.5535489773
 30
0.0
 10
5.2438520401
 20
3.5522622527
 30
0.0
 10
5.2846457451
 20
3.5512167701
 30
0.0
 10
5.340404908
 20
3.550105067
 30
0.0
 10
5.3969347104
 20
3.5493936097
 30
0.0
 10
5.4540926676
 20
3.5489701066
 30
0.0
 10
5.5120897273
 20
3.548706699
 30
0.0
 10
5.5557105936
 20
3.5486569646
 30
0.0
 10
5.5848497676
 20
3.5486569646
 30
0.0
  0
SPLINE
  5
49C
100
AcDbEntity
  8
0
100
AcDbSpline
 62
9
  6
CONTINUOUS
 70
0
 71
3
 72
47
 73
43
 74
0
 42
0.0000001
 43
0.0000001
 44
0.0000000001
 40
0.0
 40
0.0
 40
0.0
 40
0.0
 40
0.0047334384
 40
0.0095503656
 40
0.0145130811
 40
0.0196777175
 40
0.0250932854
 40
0.0308015374
 40
0.036837405
 40
0.0432297469
 40
0.0500022062
 40
0.0571740476
 40
0.0647609123
 40
0.0727754645
 40
0.0812279304
 40
0.0901265402
 40
0.0994778861
 40
0.109287207
 40
0.1195573097
 40
0.1302869705
 40
0.1414736759
 40
0.1531142004
 40
0.1777400762
 40
0.2041296327
 40
0.2322411113
 40
0.2620286385
 40
0.2934433106
 40
0.3264339568
 40
0.3609412405
 40
0.3968831519
 40
0.4341723974
 40
0.4727211055
 40
0.5124410267
 40
0.5532436937
 40
0.5950405559
 40
0.6377430935
 40
0.7254858861
 40
0.8156561397
 40
0.8613939882
 40
0.9074304733
 40
0.9536653724
 40
1.0
 40
1.0
 40
1.0
 40
1.0
 10
4.7381519243
 20
5.1657256742
 30
0.0
 10
4.7381945807
 20
5.1671343258
 30
0.0
 10
4.7384550345
 20
5.1699740417
 30
0.0
 10
4.7393599484
 20
5.1742086683
 30
0.0
 10
4.7407764284
 20
5.1784359758
 30
0.0
 10
4.7426999436
 20
5.1826533194
 30
0.0
 10
4.7451263012
 20
5.1868599304
 30
0.0
 10
4.7480518244
 20
5.1910551868
 30
0.0
 10
4.7514733517
 20
5.1952386927
 30
0.0
 10
4.7553881186
 20
5.199409975
 30
0.0
 10
4.7597936239
 20
5.2035684278
 30
0.0
 10
4.7646875193
 20
5.2077132841
 30
0.0
 10
4.7700675321
 20
5.2118436324
 30
0.0
 10
4.7759314178
 20
5.2159584427
 30
0.0
 10
4.7822769321
 20
5.2200565946
 30
0.0
 10
4.7891018198
 20
5.2241368957
 30
0.0
 10
4.7964037964
 20
5.2281981219
 30
0.0
 10
4.8041802455
 20
5.2322387612
 30
0.0
 10
4.8124271691
 20
5.236257037
 30
0.0
 10
4.8211387077
 20
5.2402516927
 30
0.0
 10
4.8303081875
 20
5.2442208715
 30
0.0
 10
4.8433825287
 20
5.2495774073
 30
0.0
 10
4.8608368446
 20
5.2561722126
 30
0.0
 10
4.8831249822
 20
5.2638137755
 30
0.0
 10
4.9070779501
 20
5.2713086476
 30
0.0
 10
4.9326409322
 20
5.2786410578
 30
0.0
 10
4.9597593179
 20
5.2857951772
 30
0.0
 10
4.9883763315
 20
5.2927548065
 30
0.0
 10
5.0184270278
 20
5.2995020708
 30
0.0
 10
5.0498375415
 20
5.3060146368
 30
0.0
 10
5.0825264472
 20
5.3122682904
 30
0.0
 10
5.1164109772
 20
5.3182385696
 30
0.0
 10
5.1514083338
 20
5.32390105
 30
0.0
 10
5.1874356728
 20
5.3292313196
 30
0.0
 10
5.2244102144
 20
5.3342050489
 30
0.0
 10
5.2753198246
 20
5.3403841786
 30
0.0
 10
5.3406740811
 20
5.3470383191
 30
0.0
 10
5.4070836213
 20
5.3520310015
 30
0.0
 10
5.4611767755
 20
5.3549590688
 30
0.0
 10
5.5022361507
 20
5.3565810303
 30
0.0
 10
5.5434930224
 20
5.3575828267
 30
0.0
 10
5.5710544543
 20
5.3578132924
 30
0.0
 10
5.5848497676
 20
5.3578132924
 30
0.0
  0
SPLINE
  5
49D
100
AcDbEntity
  8
0
100
AcDbSpline
 62
9
  6
CONTINUOUS
 70
0
 71
3
 72
30
 73
26
 74
0
 42
0.0000001
 43
0.0000001
 44
0.0000000001
 40
0.0
 40
0.0
 40
0.0
 40
0.0
 40
0.0704238756
 40
0.1405681606
 40
0.1754568506
 40
0.2101750353
 40
0.2789618262
 40
0.3467073667
 40
0.4132076662
 40
0.4782964096
 40
0.5418523328
 40
0.6038063987
 40
0.6641480707
 40
0.6937387954
 40
0.7229519311
 40
0.7518045486
 40
0.7803179014
 40
0.8085173442
 40
0.8364321566
 40
0.8640952981
 40
0.8915430854
 40
0.9188147952
 40
0.9459521814
 40
0.9729989197
 40
1.0
 40
1.0
 40
1.0
 40
1.0
 10
19.5848497676
 20
11.5149801033
 30
0.0
 10
19.5640880355
 20
11.5149801033
 30
0.0
 10
19.5226311459
 20
11.5134234504
 30
0.0
 10
19.4711828504
 20
11.5075885645
 30
0.0
 10
19.4305694004
 20
11.5006057595
 30
0.0
 10
19.3906472385
 20
11.4921468867
 30
0.0
 10
19.3418948546
 20
11.4788121875
 30
0.0
 10
19.2855438121
 20
11.4584393664
 30
0.0
 10
19.2320537524
 20
11.4339343832
 30
0.0
 10
19.1819392741
 20
11.4055290958
 30
0.0
 10
19.13568005
 20
11.3734895952
 30
0.0
 10
19.0937242873
 20
11.3381209153
 30
0.0
 10
19.0624744831
 20
11.3059298513
 30
0.0
 10
19.0400766273
 20
11.2788534901
 30
0.0
 10
19.0246960595
 20
11.258070249
 30
0.0
 10
19.0106648605
 20
11.2367324526
 30
0.0
 10
18.9980166456
 20
11.2148908253
 30
0.0
 10
18.9867823745
 20
11.1925980707
 30
0.0
 10
18.9769894674
 20
11.1699078538
 30
0.0
 10
18.9686619484
 20
11.146874931
 30
0.0
 10
18.9618203272
 20
11.1235549213
 30
0.0
 10
18.9564814625
 20
11.1000043661
 30
0.0
 10
18.9526585067
 20
11.0762800049
 30
0.0
 10
18.9503609182
 20
11.0524406944
 30
0.0
 10
18.9498497676
 20
11.036502097
 30
0.0
 10
18.9498497676
 20
11.028541882
 30
0.0
  0
SPLINE
  5
49E
100
AcDbEntity
  8
0
100
AcDbSpline
 62
9
  6
CONTINUOUS
 70
0
 71
3
 72
39
 73
35
 74
0
 42
0.0000001
 43
0.0000001
 44
0.0000000001
 40
0.0
 40
0.0
 40
0.0
 40
0.0
 40
0.0554940128
 40
0.1087973551
 40
0.1599717962
 40
0.2090791054
 40
0.2561810603
 40
0.3013394576
 40
0.3446161257
 40
0.3860729396
 40
0.4257718393
 40
0.463774851
 40
0.5001441121
 40
0.5349419001
 40
0.5682306666
 40
0.6000730754
 40
0.6305320464
 40
0.6596708045
 40
0.687552934
 40
0.7142424374
 40
0.739803799
 40
0.7643020505
 40
0.787802838
 40
0.8103724863
 40
0.8320780579
 40
0.8529874015
 40
0.8731691839
 40
0.8926929009
 40
0.9116288595
 40
0.9300481257
 40
0.9480224347
 40
0.9656240605
 40
0.9829256462
 40
1.0
 40
1.0
 40
1.0
 40
1.0
 10
6.3314471338
 20
8.4572003698
 30
0.0
 10
6.3300688241
 20
8.5037111498
 30
0.0
 10
6.3273483053
 20
8.5948961171
 30
0.0
 10
6.3233179823
 20
8.7289703728
 30
0.0
 10
6.3194465075
 20
8.8576917947
 30
0.0
 10
6.3157585698
 20
8.9812165808
 30
0.0
 10
6.3122788571
 20
9.0997009321
 30
0.0
 10
6.30903206
 20
9.2133010531
 30
0.0
 10
6.3060428712
 20
9.3221731522
 30
0.0
 10
6.3033359868
 20
9.4264734425
 30
0.0
 10
6.3009361078
 20
9.5263581424
 30
0.0
 10
6.2988679408
 20
9.6219834767
 30
0.0
 10
6.2971562003
 20
9.7135056767
 30
0.0
 10
6.2958256103
 20
9.8010809819
 30
0.0
 10
6.2949009066
 20
9.8848656395
 30
0.0
 10
6.2944068401
 20
9.9650159058
 30
0.0
 10
6.2943681796
 20
10.0416880462
 30
0.0
 10
6.2948097157
 20
10.1150383346
 30
0.0
 10
6.295756265
 20
10.1852230528
 30
0.0
 10
6.2972326743
 20
10.2523984884
 30
0.0
 10
6.2992638254
 20
10.3167209324
 30
0.0
 10
6.3018746394
 20
10.378346674
 30
0.0
 10
6.3050900804
 20
10.4374319951
 30
0.0
 10
6.3089351581
 20
10.494133162
 30
0.0
 10
6.3134349277
 20
10.5486064154
 30
0.0
 10
6.3186144875
 20
10.6010079588
 30
0.0
 10
6.3244989718
 20
10.651493946
 30
0.0
 10
6.3311135392
 20
10.7002204693
 30
0.0
 10
6.338483354
 20
10.7473435461
 30
0.0
 10
6.346633567
 20
10.7930191238
 30
0.0
 10
6.3555892759
 20
10.8374030381
 30
0.0
 10
6.3653755408
 20
10.8806511707
 30
0.0
 10
6.3760171944
 20
10.922918923
 30
0.0
 10
6.3837388194
 20
10.9506928648
 30
0.0
 10
6.3877441849
 20
10.9644378433
 30
0.0
  0
SPLINE
  5
49F
100
AcDbEntity
  8
0
100
AcDbSpline
 62
9
  6
CONTINUOUS
 70
0
 71
3
 72
35
 73
31
 74
0
 42
0.0000001
 43
0.0000001
 44
0.0000000001
 40
0.0
 40
0.0
 40
0.0
 40
0.0
 40
0.0286635267
 40
0.0570014431
 40
0.0850697855
 40
0.1129302039
 40
0.1406488014
 40
0.1682947811
 40
0.1959389541
 40
0.2236521715
 40
0.2515037553
 40
0.2795599999
 40
0.3078828117
 40
0.3365285368
 40
0.3655470097
 40
0.394980838
 40
0.4248649183
 40
0.4552261693
 40
0.4860834561
 40
0.5174476765
 40
0.5493219802
 40
0.5817020913
 40
0.6479029451
 40
0.6817069188
 40
0.7159341353
 40
0.7854944241
 40
0.8207673768
 40
0.8563012787
 40
0.9279344632
 40
1.0
 40
1.0
 40
1.0
 40
1.0
 10
19.0268008002
 20
10.7948251697
 30
0.0
 10
19.0225378497
 20
10.8033869418
 30
0.0
 10
19.0146705737
 20
10.8207257564
 30
0.0
 10
19.0048845349
 20
10.8473984945
 30
0.0
 10
18.9972213285
 20
10.874480802
 30
0.0
 10
18.9917108012
 20
10.9018711862
 30
0.0
 10
18.9883736798
 20
10.9294689707
 30
0.0
 10
18.9872227453
 20
10.9571719338
 30
0.0
 10
18.9882623771
 20
10.9848775134
 30
0.0
 10
18.9914886094
 20
11.0124830935
 30
0.0
 10
18.9968891398
 20
11.0398865406
 30
0.0
 10
19.0044434363
 20
11.0669866561
 30
0.0
 10
19.0141228913
 20
11.0936836143
 30
0.0
 10
19.0258910196
 20
11.1198793583
 30
0.0
 10
19.0397036829
 20
11.1454779563
 30
0.0
 10
19.055509326
 20
11.1703859229
 30
0.0
 10
19.0732492321
 20
11.1945125194
 30
0.0
 10
19.0928577368
 20
11.2177700102
 30
0.0
 10
19.1142626208
 20
11.2400740128
 30
0.0
 10
19.1373848541
 20
11.2613434346
 30
0.0
 10
19.1621408655
 20
11.2815019581
 30
0.0
 10
19.1974571497
 20
11.3069830033
 30
0.0
 10
19.2354469835
 20
11.3297320094
 30
0.0
 10
19.2755948825
 20
11.3496233629
 30
0.0
 10
19.3177542943
 20
11.367844884
 30
0.0
 10
19.3617177778
 20
11.3829696055
 30
0.0
 10
19.4070120678
 20
11.3949458483
 30
0.0
 10
19.4535089241
 20
11.4048778228
 30
0.0
 10
19.5128263963
 20
11.4131887262
 30
0.0
 10
19.5608031929
 20
11.4154064061
 30
0.0
 10
19.5848497676
 20
11.4154064061
 30
0.0
  0
SPLINE
  5
4A0
100
AcDbEntity
  8
0
100
AcDbSpline
 62
9
  6
CONTINUOUS
 70
0
 71
3
 72
30
 73
26
 74
0
 42
0.0000001
 43
0.0000001
 44
0.0000000001
 40
0.0
 40
0.0
 40
0.0
 40
0.0
 40
0.0698409267
 40
0.1394357388
 40
0.1740716654
 40
0.2085571824
 40
0.2769543486
 40
0.3444281181
 40
0.4107915361
 40
0.4758869456
 40
0.5395918946
 40
0.6018247465
 40
0.6625499755
 40
0.6923586864
 40
0.7218006544
 40
0.7508862259
 40
0.7796292318
 40
0.8080469962
 40
0.836160259
 40
0.8639930703
 40
0.8915726499
 40
0.9189291716
 40
0.9460954709
 40
0.97310671
 40
1.0
 40
1.0
 40
1.0
 40
1.0
 10
19.5848497676
 20
11.4699849707
 30
0.0
 10
19.5653008925
 20
11.4699849707
 30
0.0
 10
19.5262588017
 20
11.4686045402
 30
0.0
 10
19.4777675494
 20
11.4634299781
 30
0.0
 10
19.43942967
 20
11.457235442
 30
0.0
 10
19.40167022
 20
11.4497239749
 30
0.0
 10
19.3554347552
 20
11.4378707706
 30
0.0
 10
19.3017538936
 20
11.4197411821
 30
0.0
 10
19.2504736284
 20
11.397895053
 30
0.0
 10
19.2020314795
 20
11.3725159311
 30
0.0
 10
19.1568382182
 20
11.3438154814
 30
0.0
 10
19.1152815432
 20
11.3120362699
 30
0.0
 10
19.0837764655
 20
11.2830227426
 30
0.0
 10
19.0607786168
 20
11.2585359371
 30
0.0
 10
19.0447522809
 20
11.2396931996
 30
0.0
 10
19.0298789667
 20
11.2203023964
 30
0.0
 10
19.016190201
 20
11.2004043683
 30
0.0
 10
19.0037155218
 20
11.1800416345
 30
0.0
 10
18.9924817965
 20
11.159257569
 30
0.0
 10
18.982513369
 20
11.1380965115
 30
0.0
 10
18.9738318273
 20
11.1166036586
 30
0.0
 10
18.9664559762
 20
11.0948250906
 30
0.0
 10
18.9604018355
 20
11.0728071671
 30
0.0
 10
18.9556827978
 20
11.0505981686
 30
0.0
 10
18.9534295329
 20
11.0356684158
 30
0.0
 10
18.9525302558
 20
11.0281947388
 30
0.0
  0
SPLINE
  5
4A1
100
AcDbEntity
  8
0
100
AcDbSpline
 62
9
  6
CONTINUOUS
 70
0
 71
3
 72
30
 73
26
 74
0
 42
0.0000001
 43
0.0000001
 44
0.0000000001
 40
0.0
 40
0.0
 40
0.0
 40
0.0
 40
0.0704238756
 40
0.1405681606
 40
0.1754568506
 40
0.2101750353
 40
0.2789618262
 40
0.3467073667
 40
0.4132076662
 40
0.4782964096
 40
0.5418523328
 40
0.6038063987
 40
0.6641480707
 40
0.6937387954
 40
0.7229519311
 40
0.7518045486
 40
0.7803179014
 40
0.8085173442
 40
0.8364321566
 40
0.8640952981
 40
0.8915430854
 40
0.9188147952
 40
0.9459521814
 40
0.9729989197
 40
1.0
 40
1.0
 40
1.0
 40
1.0
 10
19.5848497676
 20
11.5149801033
 30
0.0
 10
19.6056114996
 20
11.5149801033
 30
0.0
 10
19.6470683893
 20
11.5134234504
 30
0.0
 10
19.6985166847
 20
11.5075885645
 30
0.0
 10
19.7391301348
 20
11.5006057595
 30
0.0
 10
19.7790522967
 20
11.4921468867
 30
0.0
 10
19.8278046805
 20
11.4788121875
 30
0.0
 10
19.8841557231
 20
11.4584393664
 30
0.0
 10
19.9376457828
 20
11.4339343832
 30
0.0
 10
19.987760261
 20
11.4055290958
 30
0.0
 10
20.0340194851
 20
11.3734895952
 30
0.0
 10
20.0759752478
 20
11.3381209153
 30
0.0
 10
20.107225052
 20
11.3059298513
 30
0.0
 10
20.1296229079
 20
11.2788534901
 30
0.0
 10
20.1450034756
 20
11.258070249
 30
0.0
 10
20.1590346746
 20
11.2367324526
 30
0.0
 10
20.1716828895
 20
11.2148908253
 30
0.0
 10
20.1829171606
 20
11.1925980707
 30
0.0
 10
20.1927100677
 20
11.1699078538
 30
0.0
 10
20.2010375867
 20
11.146874931
 30
0.0
 10
20.2078792079
 20
11.1235549213
 30
0.0
 10
20.2132180727
 20
11.1000043661
 30
0.0
 10
20.2170410285
 20
11.0762800049
 30
0.0
 10
20.2193386169
 20
11.0524406944
 30
0.0
 10
20.2198497676
 20
11.036502097
 30
0.0
 10
20.2198497676
 20
11.028541882
 30
0.0
  0
SPLINE
  5
4A2
100
AcDbEntity
  8
0
100
AcDbSpline
 62
9
  6
CONTINUOUS
 70
0
 71
3
 72
35
 73
31
 74
0
 42
0.0000001
 43
0.0000001
 44
0.0000000001
 40
0.0
 40
0.0
 40
0.0
 40
0.0
 40
0.0720656116
 40
0.1436988586
 40
0.1792327838
 40
0.2145057526
 40
0.2840660472
 40
0.3182932525
 40
0.3520972046
 40
0.4182979831
 40
0.450678042
 40
0.4825522846
 40
0.5139164361
 40
0.5447736479
 40
0.5751348199
 40
0.6050188193
 40
0.6344525678
 40
0.6634709649
 40
0.6921166215
 40
0.7204393755
 40
0.7484955764
 40
0.7763471339
 40
0.8040603457
 40
0.8317045364
 40
0.8593505595
 40
0.8870692277
 40
0.9149297455
 40
0.9429982159
 40
0.9713362891
 40
1.0
 40
1.0
 40
1.0
 40
1.0
 10
19.5848497676
 20
11.4154064061
 30
0.0
 10
19.6088966748
 20
11.4154064061
 30
0.0
 10
19.6568741317
 20
11.4131886651
 30
0.0
 10
19.7161924023
 20
11.4048775327
 30
0.0
 10
19.7626898575
 20
11.3949452857
 30
0.0
 10
19.8079846978
 20
11.3829687187
 30
0.0
 10
19.8519486771
 20
11.367843591
 30
0.0
 10
19.8941085102
 20
11.3496215849
 30
0.0
 10
19.9342567529
 20
11.3297297143
 30
0.0
 10
19.9722468438
 20
11.3069801247
 30
0.0
 10
20.0075632758
 20
11.2814984384
 30
0.0
 10
20.0323193336
 20
11.2613394204
 30
0.0
 10
20.0554415511
 20
11.2400694878
 30
0.0
 10
20.0768463548
 20
11.2177649621
 30
0.0
 10
20.0964547126
 20
11.1945069399
 30
0.0
 10
20.1141944038
 20
11.1703798081
 30
0.0
 10
20.1299997628
 20
11.1454713067
 30
0.0
 10
20.1438120723
 20
11.1198721787
 30
0.0
 10
20.1555797767
 20
11.0936759145
 30
0.0
 10
20.165258738
 20
11.0669784501
 30
0.0
 10
20.1728124718
 20
11.0398778475
 30
0.0
 10
20.1782123719
 20
11.0124739366
 30
0.0
 10
20.1814379079
 20
10.9848679211
 30
0.0
 10
20.1824767798
 20
10.9571619388
 30
0.0
 10
20.1813250245
 20
10.92945861
 30
0.0
 10
20.1779870247
 20
10.9018605011
 30
0.0
 10
20.1724755651
 20
10.8744698378
 30
0.0
 10
20.1648113767
 20
10.8473873004
 30
0.0
 10
20.1550243106
 20
10.8207143849
 30
0.0
 10
20.1471563305
 20
10.8033754973
 30
0.0
 10
20.1428930227
 20
10.7948136976
 30
0.0
  0
SPLINE
  5
4A3
100
AcDbEntity
  8
0
100
AcDbSpline
 62
9
  6
CONTINUOUS
 70
0
 71
3
 72
30
 73
26
 74
0
 42
0.0000001
 43
0.0000001
 44
0.0000000001
 40
0.0
 40
0.0
 40
0.0
 40
0.0
 40
0.0698409267
 40
0.1394357388
 40
0.1740716654
 40
0.2085571824
 40
0.2769543486
 40
0.3444281181
 40
0.4107915361
 40
0.4758869456
 40
0.5395918946
 40
0.6018247465
 40
0.6625499755
 40
0.6923586864
 40
0.7218006544
 40
0.7508862259
 40
0.7796292318
 40
0.8080469962
 40
0.836160259
 40
0.8639930703
 40
0.8915726499
 40
0.9189291716
 40
0.9460954709
 40
0.97310671
 40
1.0
 40
1.0
 40
1.0
 40
1.0
 10
19.5848497676
 20
11.4699849707
 30
0.0
 10
19.6043986426
 20
11.4699849707
 30
0.0
 10
19.6434407334
 20
11.4686045402
 30
0.0
 10
19.6919319858
 20
11.4634299781
 30
0.0
 10
19.7302698652
 20
11.457235442
 30
0.0
 10
19.7680293152
 20
11.4497239749
 30
0.0
 10
19.8142647799
 20
11.4378707706
 30
0.0
 10
19.8679456415
 20
11.4197411821
 30
0.0
 10
19.9192259067
 20
11.397895053
 30
0.0
 10
19.9676680556
 20
11.3725159311
 30
0.0
 10
20.0128613169
 20
11.3438154814
 30
0.0
 10
20.054417992
 20
11.3120362699
 30
0.0
 10
20.0859230697
 20
11.2830227426
 30
0.0
 10
20.1089209184
 20
11.2585359371
 30
0.0
 10
20.1249472542
 20
11.2396931996
 30
0.0
 10
20.1398205685
 20
11.2203023964
 30
0.0
 10
20.1535093341
 20
11.2004043683
 30
0.0
 10
20.1659840133
 20
11.1800416345
 30
0.0
 10
20.1772177386
 20
11.159257569
 30
0.0
 10
20.1871861662
 20
11.1380965115
 30
0.0
 10
20.1958677079
 20
11.1166036586
 30
0.0
 10
20.2032435589
 20
11.0948250906
 30
0.0
 10
20.2092976997
 20
11.0728071671
 30
0.0
 10
20.2140167373
 20
11.0505981686
 30
0.0
 10
20.2162700023
 20
11.0356684158
 30
0.0
 10
20.2171692793
 20
11.0281947388
 30
0.0
  0
SPLINE
  5
4A4
100
AcDbEntity
  8
0
100
AcDbSpline
 62
9
  6
CONTINUOUS
 70
0
 71
3
 72
29
 73
25
 74
0
 42
0.0000001
 43
0.0000001
 44
0.0000000001
 40
0.0
 40
0.0
 40
0.0
 40
0.0
 40
0.0697479114
 40
0.1392545169
 40
0.2082862799
 40
0.2766190366
 40
0.3440460066
 40
0.410382892
 40
0.4754736135
 40
0.5391958686
 40
0.6014666372
 40
0.6622472744
 40
0.6920885152
 40
0.7215653573
 40
0.7506872525
 40
0.7794670051
 40
0.8079208195
 40
0.836068245
 40
0.8639320611
 40
0.8915381627
 40
0.9189153804
 40
0.9460951992
 40
0.9731114559
 40
1.0
 40
1.0
 40
1.0
 40
1.0
 10
19.5848497676
 20
11.3303067925
 30
0.0
 10
19.6013426395
 20
11.3303067925
 30
0.0
 10
19.6342830695
 20
11.3291531252
 30
0.0
 10
19.683301252
 20
11.3239728789
 30
0.0
 10
19.7315023592
 20
11.3153867672
 30
0.0
 10
19.7784821642
 20
11.3034654735
 30
0.0
 10
19.8238503263
 20
11.2883074268
 30
0.0
 10
19.8672288421
 20
11.270037232
 30
0.0
 10
19.908256253
 20
11.248805463
 30
0.0
 10
19.9465908205
 20
11.2247858459
 30
0.0
 10
19.9819100961
 20
11.1981776006
 30
0.0
 10
20.0087529165
 20
11.1738742221
 30
0.0
 10
20.0283970191
 20
11.1533525205
 30
0.0
 10
20.0421138241
 20
11.137554961
 30
0.0
 10
20.0548730731
 20
11.1212923687
 30
0.0
 10
20.0666481872
 20
11.1045982982
 30
0.0
 10
20.0774142435
 20
11.0875077382
 30
0.0
 10
20.0871485543
 20
11.0700564211
 30
0.0
 10
20.0958304292
 20
11.0522808463
 30
0.0
 10
20.1034414122
 20
11.0342182348
 30
0.0
 10
20.1099653805
 20
11.0159065795
 30
0.0
 10
20.1153884351
 20
10.997384094
 30
0.0
 10
20.1196987675
 20
10.9786905958
 30
0.0
 10
20.121828814
 20
10.966114376
 30
0.0
 10
20.1227038949
 20
10.9598167096
 30
0.0
  0
SPLINE
  5
4A5
100
AcDbEntity
  8
0
100
AcDbSpline
 62
9
  6
CONTINUOUS
 70
0
 71
3
 72
30
 73
26
 74
0
 42
0.0000001
 43
0.0000001
 44
0.0000000001
 40
0.0
 40
0.0
 40
0.0
 40
0.0
 40
0.0704238756
 40
0.1405681606
 40
0.1754568506
 40
0.2101750353
 40
0.2789618262
 40
0.3467073667
 40
0.4132076662
 40
0.4782964096
 40
0.5418523328
 40
0.6038063987
 40
0.6641480707
 40
0.6937387954
 40
0.7229519311
 40
0.7518045486
 40
0.7803179014
 40
0.8085173442
 40
0.8364321566
 40
0.8640952981
 40
0.8915430854
 40
0.9188147952
 40
0.9459521814
 40
0.9729989197
 40
1.0
 40
1.0
 40
1.0
 40
1.0
 10
19.5848497676
 20
9.0402478061
 30
0.0
 10
19.5640880355
 20
9.0402478061
 30
0.0
 10
19.5226311459
 20
9.0386911531
 30
0.0
 10
19.4711828504
 20
9.0328562672
 30
0.0
 10
19.4305694004
 20
9.0258734622
 30
0.0
 10
19.3906472385
 20
9.0174145894
 30
0.0
 10
19.3418948546
 20
9.0040798902
 30
0.0
 10
19.2855438121
 20
8.9837070691
 30
0.0
 10
19.2320537524
 20
8.9592020859
 30
0.0
 10
19.1819392741
 20
8.9307967986
 30
0.0
 10
19.13568005
 20
8.8987572979
 30
0.0
 10
19.0937242873
 20
8.863388618
 30
0.0
 10
19.0624744831
 20
8.831197554
 30
0.0
 10
19.0400766273
 20
8.8041211928
 30
0.0
 10
19.0246960595
 20
8.7833379517
 30
0.0
 10
19.0106648605
 20
8.7620001553
 30
0.0
 10
18.9980166456
 20
8.740158528
 30
0.0
 10
18.9867823745
 20
8.7178657734
 30
0.0
 10
18.9769894674
 20
8.6951755565
 30
0.0
 10
18.9686619484
 20
8.6721426337
 30
0.0
 10
18.9618203272
 20
8.648822624
 30
0.0
 10
18.9564814625
 20
8.6252720688
 30
0.0
 10
18.9526585067
 20
8.6015477077
 30
0.0
 10
18.9503609182
 20
8.5777083971
 30
0.0
 10
18.9498497676
 20
8.5617697997
 30
0.0
 10
18.9498497676
 20
8.5538095847
 30
0.0
  0
SPLINE
  5
4A6
100
AcDbEntity
  8
0
100
AcDbSpline
 62
9
  6
CONTINUOUS
 70
0
 71
3
 72
38
 73
34
 74
0
 42
0.0000001
 43
0.0000001
 44
0.0000000001
 40
0.0
 40
0.0
 40
0.0
 40
0.0
 40
0.0722133279
 40
0.1081173914
 40
0.1437632008
 40
0.1790715013
 40
0.2139687107
 40
0.2483885383
 40
0.2822734203
 40
0.315575951
 40
0.3482602936
 40
0.3803035435
 40
0.4116969897
 40
0.4424471816
 40
0.4725767319
 40
0.5021247557
 40
0.5311468206
 40
0.5597142869
 40
0.5879129157
 40
0.6158407051
 40
0.6436049774
 40
0.6713188299
 40
0.6990971639
 40
0.7270525753
 40
0.7552914221
 40
0.7839103439
 40
0.8129934356
 40
0.8426101753
 40
0.8728141331
 40
0.9036423917
 40
0.9351155619
 40
0.9672382713
 40
1.0
 40
1.0
 40
1.0
 40
1.0
 10
19.5848497676
 20
8.9388993913
 30
0.0
 10
19.5544314668
 20
8.9388993913
 30
0.0
 10
19.508827612
 20
8.9362228818
 30
0.0
 10
19.4489062395
 20
8.9273034964
 30
0.0
 10
19.4048342227
 20
8.9180085594
 30
0.0
 10
19.3618233122
 20
8.9061515551
 30
0.0
 10
19.3201226948
 20
8.8918013739
 30
0.0
 10
19.2799785397
 20
8.8750418308
 30
0.0
 10
19.2416267088
 20
8.8559706049
 30
0.0
 10
19.205292994
 20
8.8346987811
 30
0.0
 10
19.1711914682
 20
8.8113501689
 30
0.0
 10
19.139523426
 20
8.7860606046
 30
0.0
 10
19.1104762294
 20
8.7589772565
 30
0.0
 10
19.0842223548
 20
8.7302578118
 30
0.0
 10
19.060918475
 20
8.7000697222
 30
0.0
 10
19.0407045757
 20
8.6685894567
 30
0.0
 10
19.0237030808
 20
8.6360017433
 30
0.0
 10
19.0100178752
 20
8.6024988025
 30
0.0
 10
18.9997334176
 20
8.5682794006
 30
0.0
 10
18.9929138059
 20
8.5335477697
 30
0.0
 10
18.9896019027
 20
8.4985122883
 30
0.0
 10
18.9898186647
 20
8.4633839121
 30
0.0
 10
18.9935626945
 20
8.4283744059
 30
0.0
 10
19.0008103314
 20
8.3936944978
 30
0.0
 10
19.0115160746
 20
8.3595521383
 30
0.0
 10
19.0256132849
 20
8.3261509569
 30
0.0
 10
19.0430150818
 20
8.2936889785
 30
0.0
 10
19.0636152073
 20
8.2623575388
 30
0.0
 10
19.0872890816
 20
8.2323403714
 30
0.0
 10
19.1138944835
 20
8.2038129777
 30
0.0
 10
19.1432733307
 20
8.176941292
 30
0.0
 10
19.1752490739
 20
8.1518831602
 30
0.0
 10
19.1979591122
 20
8.136626794
 30
0.0
 10
19.2096756669
 20
8.129335223
 30
0.0
  0
SPLINE
  5
4A7
100
AcDbEntity
  8
0
100
AcDbSpline
 62
9
  6
CONTINUOUS
 70
0
 71
3
 72
38
 73
34
 74
0
 42
0.0000001
 43
0.0000001
 44
0.0000000001
 40
0.0
 40
0.0
 40
0.0
 40
0.0
 40
0.0722133279
 40
0.1081173914
 40
0.1437632008
 40
0.1790715013
 40
0.2139687107
 40
0.2483885383
 40
0.2822734203
 40
0.315575951
 40
0.3482602936
 40
0.3803035435
 40
0.4116969897
 40
0.4424471816
 40
0.4725767319
 40
0.5021247557
 40
0.5311468206
 40
0.5597142869
 40
0.5879129157
 40
0.6158407051
 40
0.6436049774
 40
0.6713188299
 40
0.6990971639
 40
0.7270525753
 40
0.7552914221
 40
0.7839103439
 40
0.8129934356
 40
0.8426101753
 40
0.8728141331
 40
0.9036423917
 40
0.9351155619
 40
0.9672382713
 40
1.0
 40
1.0
 40
1.0
 40
1.0
 10
19.5848497676
 20
8.9388993913
 30
0.0
 10
19.6152680684
 20
8.9388993913
 30
0.0
 10
19.6608719232
 20
8.9362228818
 30
0.0
 10
19.7207932956
 20
8.9273034964
 30
0.0
 10
19.7648653124
 20
8.9180085594
 30
0.0
 10
19.8078762229
 20
8.9061515551
 30
0.0
 10
19.8495768403
 20
8.8918013739
 30
0.0
 10
19.8897209955
 20
8.8750418308
 30
0.0
 10
19.9280728263
 20
8.8559706049
 30
0.0
 10
19.9644065411
 20
8.8346987811
 30
0.0
 10
19.998508067
 20
8.8113501689
 30
0.0
 10
20.0301761091
 20
8.7860606046
 30
0.0
 10
20.0592233058
 20
8.7589772565
 30
0.0
 10
20.0854771804
 20
8.7302578118
 30
0.0
 10
20.1087810601
 20
8.7000697222
 30
0.0
 10
20.1289949595
 20
8.6685894567
 30
0.0
 10
20.1459964543
 20
8.6360017433
 30
0.0
 10
20.1596816599
 20
8.6024988025
 30
0.0
 10
20.1699661175
 20
8.5682794006
 30
0.0
 10
20.1767857292
 20
8.5335477697
 30
0.0
 10
20.1800976324
 20
8.4985122883
 30
0.0
 10
20.1798808705
 20
8.4633839121
 30
0.0
 10
20.1761368407
 20
8.4283744059
 30
0.0
 10
20.1688892037
 20
8.3936944978
 30
0.0
 10
20.1581834606
 20
8.3595521383
 30
0.0
 10
20.1440862503
 20
8.3261509569
 30
0.0
 10
20.1266844533
 20
8.2936889785
 30
0.0
 10
20.1060843278
 20
8.2623575388
 30
0.0
 10
20.0824104535
 20
8.2323403714
 30
0.0
 10
20.0558050516
 20
8.2038129777
 30
0.0
 10
20.0264262045
 20
8.176941292
 30
0.0
 10
19.9944504612
 20
8.1518831602
 30
0.0
 10
19.9717404229
 20
8.136626794
 30
0.0
 10
19.9600238683
 20
8.129335223
 30
0.0
  0
SPLINE
  5
4A8
100
AcDbEntity
  8
0
100
AcDbSpline
 62
9
  6
CONTINUOUS
 70
0
 71
3
 72
38
 73
34
 74
0
 42
0.0000001
 43
0.0000001
 44
0.0000000001
 40
0.0
 40
0.0
 40
0.0
 40
0.0
 40
0.0326150301
 40
0.0645919423
 40
0.095923985
 40
0.1266194117
 40
0.1567022267
 40
0.1862125659
 40
0.2152065995
 40
0.2437558256
 40
0.2719456599
 40
0.2998732867
 40
0.3276447898
 40
0.355371685
 40
0.3831670585
 40
0.4111415881
 40
0.4393997462
 40
0.4680364438
 40
0.4971343061
 40
0.5267616755
 40
0.5569713627
 40
0.5878000815
 40
0.6192684589
 40
0.6513815018
 40
0.6841294005
 40
0.717488582
 40
0.7514229389
 40
0.7858851566
 40
0.8208180859
 40
0.8561561333
 40
0.8918266374
 40
0.9277514541
 40
1.0
 40
1.0
 40
1.0
 40
1.0
 10
19.2098236824
 20
8.1435513701
 30
0.0
 10
19.1986699789
 20
8.1507804353
 30
0.0
 10
19.1770721776
 20
8.1658748119
 30
0.0
 10
19.1467291442
 20
8.1905767058
 30
0.0
 10
19.1189214882
 20
8.2169839502
 30
0.0
 10
19.0938138342
 20
8.2449438541
 30
0.0
 10
19.0715531187
 20
8.274296321
 30
0.0
 10
19.052271115
 20
8.3048723693
 30
0.0
 10
19.0360827014
 20
8.3364953943
 30
0.0
 10
19.023085229
 20
8.3689817893
 30
0.0
 10
19.0133576266
 20
8.4021418678
 30
0.0
 10
19.0069595322
 20
8.4357808763
 30
0.0
 10
19.0039304943
 20
8.4697002505
 30
0.0
 10
19.004289343
 20
8.5036990907
 30
0.0
 10
19.0080338167
 20
8.5375758233
 30
0.0
 10
19.0151406707
 20
8.5711299142
 30
0.0
 10
19.0255660605
 20
8.6041634878
 30
0.0
 10
19.0392462058
 20
8.6364827636
 30
0.0
 10
19.0560982182
 20
8.6678992517
 30
0.0
 10
19.0760209259
 20
8.698230775
 30
0.0
 10
19.098895798
 20
8.7273022898
 30
0.0
 10
19.124587796
 20
8.7549466251
 30
0.0
 10
19.1529461927
 20
8.7810051976
 30
0.0
 10
19.1838054065
 20
8.8053287092
 30
0.0
 10
19.2169858447
 20
8.8277778906
 30
0.0
 10
19.2522948463
 20
8.8482242132
 30
0.0
 10
19.289527751
 20
8.8665505561
 30
0.0
 10
19.3284688956
 20
8.882651867
 30
0.0
 10
19.3688931764
 20
8.8964357932
 30
0.0
 10
19.410565801
 20
8.9078231196
 30
0.0
 10
19.4532492257
 20
8.9167487456
 30
0.0
 10
19.5112641121
 20
8.9253127045
 30
0.0
 10
19.5554065035
 20
8.9278825476
 30
0.0
 10
19.5848497676
 20
8.9278825476
 30
0.0
  0
SPLINE
  5
4A9
100
AcDbEntity
  8
0
100
AcDbSpline
 62
9
  6
CONTINUOUS
 70
0
 71
3
 72
38
 73
34
 74
0
 42
0.0000001
 43
0.0000001
 44
0.0000000001
 40
0.0
 40
0.0
 40
0.0
 40
0.0
 40
0.0722485459
 40
0.1081733626
 40
0.1438438667
 40
0.1791819141
 40
0.2141148434
 40
0.2485770611
 40
0.282511418
 40
0.3158705995
 40
0.3486184982
 40
0.3807315411
 40
0.4121999186
 40
0.4430286373
 40
0.4732383245
 40
0.5028656939
 40
0.5319635562
 40
0.5606002538
 40
0.5888584119
 40
0.6168329415
 40
0.644628315
 40
0.6723552102
 40
0.7001267133
 40
0.7280543401
 40
0.7562441744
 40
0.7847934005
 40
0.8137874341
 40
0.8432977733
 40
0.8733805883
 40
0.904076015
 40
0.9354080577
 40
0.9673849699
 40
1.0
 40
1.0
 40
1.0
 40
1.0
 10
19.5848497676
 20
8.9278825476
 30
0.0
 10
19.6142930316
 20
8.9278825476
 30
0.0
 10
19.658435423
 20
8.9253127045
 30
0.0
 10
19.7164503094
 20
8.9167487456
 30
0.0
 10
19.7591337341
 20
8.9078231197
 30
0.0
 10
19.8008063587
 20
8.8964357932
 30
0.0
 10
19.8412306395
 20
8.882651867
 30
0.0
 10
19.8801717841
 20
8.8665505562
 30
0.0
 10
19.9174046888
 20
8.8482242132
 30
0.0
 10
19.9527136904
 20
8.8277778907
 30
0.0
 10
19.9858941286
 20
8.8053287092
 30
0.0
 10
20.0167533423
 20
8.7810051977
 30
0.0
 10
20.045111739
 20
8.7549466251
 30
0.0
 10
20.0708037371
 20
8.7273022899
 30
0.0
 10
20.0936786092
 20
8.698230775
 30
0.0
 10
20.1136013168
 20
8.6678992518
 30
0.0
 10
20.1304533293
 20
8.6364827637
 30
0.0
 10
20.1441334746
 20
8.6041634879
 30
0.0
 10
20.1545588644
 20
8.5711299143
 30
0.0
 10
20.1616657184
 20
8.5375758234
 30
0.0
 10
20.1654101921
 20
8.5036990908
 30
0.0
 10
20.1657690408
 20
8.4697002506
 30
0.0
 10
20.162740003
 20
8.4357808765
 30
0.0
 10
20.1563419086
 20
8.402141868
 30
0.0
 10
20.1466143062
 20
8.3689817894
 30
0.0
 10
20.1336168338
 20
8.3364953945
 30
0.0
 10
20.1174284203
 20
8.3048723694
 30
0.0
 10
20.0981464165
 20
8.2742963211
 30
0.0
 10
20.0758857011
 20
8.2449438542
 30
0.0
 10
20.050778047
 20
8.2169839504
 30
0.0
 10
20.0229703911
 20
8.190576706
 30
0.0
 10
19.9926273577
 20
8.1658748121
 30
0.0
 10
19.9710295564
 20
8.1507804354
 30
0.0
 10
19.959875853
 20
8.1435513702
 30
0.0
  0
SPLINE
  5
4AA
100
AcDbEntity
  8
0
100
AcDbSpline
 62
9
  6
CONTINUOUS
 70
0
 71
3
 72
30
 73
26
 74
0
 42
0.0000001
 43
0.0000001
 44
0.0000000001
 40
0.0
 40
0.0
 40
0.0
 40
0.0
 40
0.0704238756
 40
0.1405681606
 40
0.1754568506
 40
0.2101750353
 40
0.2789618262
 40
0.3467073667
 40
0.4132076662
 40
0.4782964096
 40
0.5418523328
 40
0.6038063987
 40
0.6641480707
 40
0.6937387954
 40
0.7229519311
 40
0.7518045486
 40
0.7803179014
 40
0.8085173442
 40
0.8364321566
 40
0.8640952981
 40
0.8915430854
 40
0.9188147952
 40
0.9459521814
 40
0.9729989197
 40
1.0
 40
1.0
 40
1.0
 40
1.0
 10
19.5848497676
 20
9.0402478061
 30
0.0
 10
19.6056114996
 20
9.0402478061
 30
0.0
 10
19.6470683893
 20
9.0386911531
 30
0.0
 10
19.6985166847
 20
9.0328562672
 30
0.0
 10
19.7391301348
 20
9.0258734622
 30
0.0
 10
19.7790522967
 20
9.0174145894
 30
0.0
 10
19.8278046805
 20
9.0040798902
 30
0.0
 10
19.8841557231
 20
8.9837070691
 30
0.0
 10
19.9376457828
 20
8.9592020859
 30
0.0
 10
19.987760261
 20
8.9307967986
 30
0.0
 10
20.0340194851
 20
8.8987572979
 30
0.0
 10
20.0759752478
 20
8.863388618
 30
0.0
 10
20.107225052
 20
8.831197554
 30
0.0
 10
20.1296229079
 20
8.8041211928
 30
0.0
 10
20.1450034756
 20
8.7833379517
 30
0.0
 10
20.1590346746
 20
8.7620001553
 30
0.0
 10
20.1716828895
 20
8.740158528
 30
0.0
 10
20.1829171606
 20
8.7178657734
 30
0.0
 10
20.1927100677
 20
8.6951755565
 30
0.0
 10
20.2010375867
 20
8.6721426337
 30
0.0
 10
20.2078792079
 20
8.648822624
 30
0.0
 10
20.2132180727
 20
8.6252720688
 30
0.0
 10
20.2170410285
 20
8.6015477077
 30
0.0
 10
20.2193386169
 20
8.5777083971
 30
0.0
 10
20.2198497676
 20
8.5617697997
 30
0.0
 10
20.2198497676
 20
8.5538095847
 30
0.0
  0
SPLINE
  5
4AB
100
AcDbEntity
  8
0
100
AcDbSpline
 62
7
  6
CONTINUOUS
 70
0
 71
3
 72
32
 73
28
 74
0
 42
0.0000001
 43
0.0000001
 44
0.0000000001
 40
0.0
 40
0.0
 40
0.0
 40
0.0
 40
0.0717914127
 40
0.143189019
 40
0.1786303903
 40
0.2138336926
 40
0.2833388914
 40
0.3514179848
 40
0.4178246632
 40
0.4823862109
 40
0.5450171678
 40
0.5756231375
 40
0.6057607079
 40
0.635448587
 40
0.6647125038
 40
0.6935851122
 40
0.7221056874
 40
0.7503197435
 40
0.7782784777
 40
0.8060379486
 40
0.8336580774
 40
0.8612015486
 40
0.8887326305
 40
0.9163158497
 40
0.9440146483
 40
0.9718901433
 40
1.0
 40
1.0
 40
1.0
 40
1.0
 10
19.5848497676
 20
8.6533358465
 30
0.0
 10
19.599852375
 20
8.6533358465
 30
0.0
 10
19.6297911505
 20
8.6520134409
 30
0.0
 10
19.6668424035
 20
8.6470581667
 30
0.0
 10
19.6959381063
 20
8.6411342262
 30
0.0
 10
19.7243480836
 20
8.6339822724
 30
0.0
 10
19.7587245846
 20
8.6227458091
 30
0.0
 10
19.7978457835
 20
8.6056432509
 30
0.0
 10
19.8341555497
 20
8.5851962509
 30
0.0
 10
19.8671672005
 20
8.5616728685
 30
0.0
 10
19.8917590603
 20
8.539580031
 30
0.0
 10
19.9093075891
 20
8.5206729175
 30
0.0
 10
19.9212896684
 20
8.5060425305
 30
0.0
 10
19.9321498284
 20
8.490904894
 30
0.0
 10
19.941851946
 20
8.4753098086
 30
0.0
 10
19.9503630107
 20
8.459309257
 30
0.0
 10
19.9576540837
 20
8.4429565348
 30
0.0
 10
19.9637002778
 20
8.4263063133
 30
0.0
 10
19.9684808668
 20
8.4094143715
 30
0.0
 10
19.9719793878
 20
8.392337438
 30
0.0
 10
19.9741837358
 20
8.3751329941
 30
0.0
 10
19.975086239
 20
8.3578590611
 30
0.0
 10
19.9746837792
 20
8.3405739278
 30
0.0
 10
19.9729778014
 20
8.3233360189
 30
0.0
 10
19.9699741167
 20
8.3062031979
 30
0.0
 10
19.9656835299
 20
8.2892342709
 30
0.0
 10
19.9619917859
 20
8.2781197716
 30
0.0
 10
19.9599426321
 20
8.2726145147
 30
0.0
  0
SPLINE
  5
4AC
100
AcDbEntity
  8
0
100
AcDbSpline
 62
9
  6
CONTINUOUS
 70
0
 71
3
 72
39
 73
35
 74
0
 42
0.0000001
 43
0.0000001
 44
0.0000000001
 40
0.0
 40
0.0
 40
0.0
 40
0.0
 40
0.0723589018
 40
0.1083507589
 40
0.1441032554
 40
0.179542522
 40
0.2145994624
 40
0.2492112097
 40
0.2833223227
 40
0.3168860398
 40
0.3498655006
 40
0.3822349237
 40
0.413980712
 40
0.4451024369
 40
0.4756136423
 40
0.5055423883
 40
0.5349314448
 40
0.563838036
 40
0.5923330413
 40
0.6204995785
 40
0.6484309522
 40
0.6762280009
 40
0.7039959614
 40
0.7318410323
 40
0.7598668707
 40
0.7881712643
 40
0.8168431946
 40
0.8459604473
 40
0.8755878496
 40
0.9057761404
 40
0.9365614277
 40
0.9521880408
 40
0.9679707194
 40
1.0
 40
1.0
 40
1.0
 40
1.0
 10
19.5848497676
 20
8.8778667513
 30
0.0
 10
19.6110823249
 20
8.8778667513
 30
0.0
 10
19.6504122228
 20
8.8756485057
 30
0.0
 10
19.7021484602
 20
8.8682561136
 30
0.0
 10
19.740258127
 20
8.8605480246
 30
0.0
 10
19.7775218908
 20
8.8507093733
 30
0.0
 10
19.813740427
 20
8.8387929737
 30
0.0
 10
19.8487163166
 20
8.8248631261
 30
0.0
 10
19.8822598183
 20
8.808994845
 30
0.0
 10
19.9141886213
 20
8.7912735572
 30
0.0
 10
19.9443291225
 20
8.7717946119
 30
0.0
 10
19.9725172168
 20
8.7506627643
 30
0.0
 10
19.9985991399
 20
8.7279916355
 30
0.0
 10
20.0224322221
 20
8.7039031543
 30
0.0
 10
20.0438855958
 20
8.6785269913
 30
0.0
 10
20.0628408611
 20
8.6519999927
 30
0.0
 10
20.0791927297
 20
8.6244656103
 30
0.0
 10
20.0928496798
 20
8.5960733254
 30
0.0
 10
20.1037346253
 20
8.5669780198
 30
0.0
 10
20.1117855753
 20
8.5373392532
 30
0.0
 10
20.1169562955
 20
8.5073204158
 30
0.0
 10
20.1192168902
 20
8.4770877154
 30
0.0
 10
20.1185542323
 20
8.446809004
 30
0.0
 10
20.1149721679
 20
8.4166524945
 30
0.0
 10
20.1084914513
 20
8.3867854501
 30
0.0
 10
20.0991494548
 20
8.3573729444
 30
0.0
 10
20.0869996315
 20
8.3285767316
 30
0.0
 10
20.0721109591
 20
8.3005543957
 30
0.0
 10
20.0545669566
 20
8.2734582491
 30
0.0
 10
20.0344662159
 20
8.2474358826
 30
0.0
 10
20.0157682852
 20
8.2268623492
 30
0.0
 10
19.9996686106
 20
8.2110697207
 30
0.0
 10
19.9826526536
 20
8.1955913084
 30
0.0
 10
19.9691858745
 20
8.1846464792
 30
0.0
 10
19.9599229882
 20
8.1776442983
 30
0.0
  0
SPLINE
  5
4AD
100
AcDbEntity
  8
0
100
AcDbSpline
 62
9
  6
CONTINUOUS
 70
0
 71
3
 72
30
 73
26
 74
0
 42
0.0000001
 43
0.0000001
 44
0.0000000001
 40
0.0
 40
0.0
 40
0.0
 40
0.0
 40
0.0698409267
 40
0.1394357388
 40
0.1740716654
 40
0.2085571824
 40
0.2769543486
 40
0.3444281181
 40
0.4107915361
 40
0.4758869456
 40
0.5395918946
 40
0.6018247465
 40
0.6625499755
 40
0.6923586864
 40
0.7218006544
 40
0.7508862259
 40
0.7796292318
 40
0.8080469962
 40
0.836160259
 40
0.8639930703
 40
0.8915726499
 40
0.9189291716
 40
0.9460954709
 40
0.97310671
 40
1.0
 40
1.0
 40
1.0
 40
1.0
 10
19.5848497676
 20
8.9952526734
 30
0.0
 10
19.5653008925
 20
8.9952526734
 30
0.0
 10
19.5262588017
 20
8.9938722429
 30
0.0
 10
19.4777675494
 20
8.9886976809
 30
0.0
 10
19.43942967
 20
8.9825031447
 30
0.0
 10
19.40167022
 20
8.9749916776
 30
0.0
 10
19.3554347552
 20
8.9631384733
 30
0.0
 10
19.3017538936
 20
8.9450088848
 30
0.0
 10
19.2504736284
 20
8.9231627557
 30
0.0
 10
19.2020314795
 20
8.8977836338
 30
0.0
 10
19.1568382182
 20
8.8690831841
 30
0.0
 10
19.1152815432
 20
8.8373039726
 30
0.0
 10
19.0837764655
 20
8.8082904453
 30
0.0
 10
19.0607786168
 20
8.7838036398
 30
0.0
 10
19.0447522809
 20
8.7649609023
 30
0.0
 10
19.0298789667
 20
8.7455700991
 30
0.0
 10
19.016190201
 20
8.725672071
 30
0.0
 10
19.0037155218
 20
8.7053093372
 30
0.0
 10
18.9924817965
 20
8.6845252717
 30
0.0
 10
18.982513369
 20
8.6633642142
 30
0.0
 10
18.9738318273
 20
8.6418713613
 30
0.0
 10
18.9664559762
 20
8.6200927933
 30
0.0
 10
18.9604018355
 20
8.5980748698
 30
0.0
 10
18.9556827978
 20
8.5758658713
 30
0.0
 10
18.9534295329
 20
8.5609361185
 30
0.0
 10
18.9525302558
 20
8.5534624415
 30
0.0
  0
SPLINE
  5
4AE
100
AcDbEntity
  8
0
100
AcDbSpline
 62
7
  6
CONTINUOUS
 70
0
 71
3
 72
38
 73
34
 74
0
 42
0.0000001
 43
0.0000001
 44
0.0000000001
 40
0.0
 40
0.0
 40
0.0
 40
0.0
 40
0.0240574536
 40
0.0483187048
 40
0.0728495522
 40
0.0977113795
 40
0.1229603731
 40
0.148646932
 40
0.1748152658
 40
0.2015031659
 40
0.2287419271
 40
0.2565563935
 40
0.284965103
 40
0.3139805041
 40
0.3436092257
 40
0.3738523805
 40
0.404705889
 40
0.4361608121
 40
0.4682036862
 40
0.5008168543
 40
0.5339787901
 40
0.5676644122
 40
0.6018453888
 40
0.6364904316
 40
0.6715655788
 40
0.7070344694
 40
0.7428586075
 40
0.7789976196
 40
0.8154095038
 40
0.8520508742
 40
0.8888771965
 40
0.9258430309
 40
1.0
 40
1.0
 40
1.0
 40
1.0
 10
21.7267363329
 20
4.1885309168
 30
0.0
 10
21.7238536433
 20
4.1671792898
 30
0.0
 10
21.7165237051
 20
4.1244876964
 30
0.0
 10
21.7009702076
 20
4.0610744132
 30
0.0
 10
21.6808556555
 20
3.9981985703
 30
0.0
 10
21.6562263222
 20
3.936000967
 30
0.0
 10
21.6271374979
 20
3.8746147721
 30
0.0
 10
21.5936541676
 20
3.8141723391
 30
0.0
 10
21.5558504799
 20
3.7548030966
 30
0.0
 10
21.5138095801
 20
3.696633914
 30
0.0
 10
21.4676233749
 20
3.6397888013
 30
0.0
 10
21.4173923395
 20
3.5843887886
 30
0.0
 10
21.3632253226
 20
3.5305517426
 30
0.0
 10
21.3052393509
 20
3.4783921827
 30
0.0
 10
21.2435594224
 20
3.4280210812
 30
0.0
 10
21.1783182827
 20
3.3795456545
 30
0.0
 10
21.1096561826
 20
3.333069149
 30
0.0
 10
21.0377206139
 20
3.2886906251
 30
0.0
 10
20.9626660244
 20
3.2465047427
 30
0.0
 10
20.8846535112
 20
3.2066015523
 30
0.0
 10
20.8038504953
 20
3.1690662925
 30
0.0
 10
20.7204303771
 20
3.1339791974
 30
0.0
 10
20.6345721751
 20
3.1014153132
 30
0.0
 10
20.5464601498
 20
3.0714443276
 30
0.0
 10
20.4562834118
 20
3.0441304103
 30
0.0
 10
20.3642355233
 20
3.0195320672
 30
0.0
 10
20.2705140676
 20
2.9977020057
 30
0.0
 10
20.1753202874
 20
2.9786870201
 30
0.0
 10
20.0788584163
 20
2.9625278669
 30
0.0
 10
19.9813361283
 20
2.9492592425
 30
0.0
 10
19.8829607408
 20
2.9389094436
 30
0.0
 10
19.7508166539
 20
2.9290220454
 30
0.0
 10
19.6512631744
 20
2.9260597672
 30
0.0
 10
19.5848497676
 20
2.9260597672
 30
0.0
  0
SPLINE
  5
4AF
100
AcDbEntity
  8
0
100
AcDbSpline
 62
9
  6
CONTINUOUS
 70
0
 71
3
 72
24
 73
20
 74
0
 42
0.0000001
 43
0.0000001
 44
0.0000000001
 40
0.0
 40
0.0
 40
0.0
 40
0.0
 40
0.0560445998
 40
0.1122765458
 40
0.1688795679
 40
0.2260303567
 40
0.2838954978
 40
0.3426288908
 40
0.4023697203
 40
0.4632409985
 40
0.5253486509
 40
0.5887810862
 40
0.6210202106
 40
0.6536156397
 40
0.7198930167
 40
0.7876566295
 40
0.8569274614
 40
0.927711371
 40
1.0
 40
1.0
 40
1.0
 40
1.0
 10
21.4898497676
 20
4.7738625179
 30
0.0
 10
21.4898497676
 20
4.7540096948
 30
0.0
 10
21.488342322
 20
4.7142213594
 30
0.0
 10
21.4815683936
 20
4.6547295286
 30
0.0
 10
21.4702977892
 20
4.5955222366
 30
0.0
 10
21.4545591873
 20
4.5367464806
 30
0.0
 10
21.434392316
 20
4.4785418394
 30
0.0
 10
21.4098475851
 20
4.4210473104
 30
0.0
 10
21.3809858185
 20
4.3643991416
 30
0.0
 10
21.3478775881
 20
4.3087307406
 30
0.0
 10
21.3106041919
 20
4.2541738887
 30
0.0
 10
21.276331447
 20
4.209980694
 30
0.0
 10
21.246963662
 20
4.175304252
 30
0.0
 10
21.2159554717
 20
4.1407202272
 30
0.0
 10
21.1747321156
 20
4.0984276014
 30
0.0
 10
21.1217862816
 20
4.0495599848
 30
0.0
 10
21.0652132883
 20
4.0024079306
 30
0.0
 10
21.0051496102
 20
3.957083778
 30
0.0
 10
20.9633061879
 20
3.9284522184
 30
0.0
 10
20.9418598279
 20
3.9144603834
 30
0.0
  0
SPLINE
  5
4B0
100
AcDbEntity
  8
0
100
AcDbSpline
 62
9
  6
CONTINUOUS
 70
0
 71
3
 72
22
 73
18
 74
0
 42
0.0000001
 43
0.0000001
 44
0.0000000001
 40
0.0
 40
0.0
 40
0.0
 40
0.0
 40
0.0561126673
 40
0.1133478143
 40
0.1716693834
 40
0.2310329198
 40
0.2913863028
 40
0.3526704496
 40
0.4148199936
 40
0.4777639379
 40
0.541426284
 40
0.6057266411
 40
0.6705808109
 40
0.7359013746
 40
0.8015982066
 40
0.8675791591
 40
1.0
 40
1.0
 40
1.0
 40
1.0
 10
20.9418598279
 20
3.9144603834
 30
0.0
 10
20.9195512458
 20
3.8999060255
 30
0.0
 10
20.8738086815
 20
3.8715344149
 30
0.0
 10
20.8027331939
 20
3.8316240238
 30
0.0
 10
20.7286729842
 20
3.794025096
 30
0.0
 10
20.6518112696
 20
3.7588304577
 30
0.0
 10
20.5723357223
 20
3.7261255613
 30
0.0
 10
20.4904410787
 20
3.6959902848
 30
0.0
 10
20.4063278301
 20
3.6684981648
 30
0.0
 10
20.3202019743
 20
3.6437163576
 30
0.0
 10
20.2322744325
 20
3.6217054182
 30
0.0
 10
20.1427606193
 20
3.6025191619
 30
0.0
 10
20.0518796531
 20
3.5862044929
 30
0.0
 10
19.9598547886
 20
3.5728013789
 30
0.0
 10
19.86690922
 20
3.562342412
 30
0.0
 10
19.7419271563
 20
3.5523463889
 30
0.0
 10
19.6477094659
 20
3.5493521214
 30
0.0
 10
19.5848497676
 20
3.5493521214
 30
0.0
  0
SPLINE
  5
4B1
100
AcDbEntity
  8
0
100
AcDbSpline
 62
9
  6
CONTINUOUS
 70
0
 71
3
 72
39
 73
35
 74
0
 42
0.0000001
 43
0.0000001
 44
0.0000000001
 40
0.0
 40
0.0
 40
0.0
 40
0.0
 40
0.0241788715
 40
0.0484401125
 40
0.0728644724
 40
0.0975295484
 40
0.1225084168
 40
0.1478684843
 40
0.1736705892
 40
0.1999683622
 40
0.2268078307
 40
0.25422724
 40
0.2681656832
 40
0.2822598805
 40
0.3109229406
 40
0.3402347024
 40
0.3702035789
 40
0.4008313177
 40
0.4321134112
 40
0.4640395193
 40
0.4965938948
 40
0.5297558036
 40
0.5634999345
 40
0.5977967964
 40
0.6326131016
 40
0.6679121348
 40
0.7036541086
 40
0.7397965059
 40
0.7762944117
 40
0.8131008342
 40
0.8501670166
 40
0.887442743
 40
0.9248766367
 40
1.0
 40
1.0
 40
1.0
 40
1.0
 10
21.2048497676
 20
4.9443628139
 30
0.0
 10
21.2048497676
 20
4.9273187474
 30
0.0
 10
21.2035431385
 20
4.8931582678
 30
0.0
 10
21.1976717751
 20
4.8420844418
 30
0.0
 10
21.1879032217
 20
4.7912596886
 30
0.0
 10
21.1742628419
 20
4.7408126452
 30
0.0
 10
21.1567857596
 20
4.6908654195
 30
0.0
 10
21.1355165272
 20
4.6415395685
 30
0.0
 10
21.1105088801
 20
4.5929541993
 30
0.0
 10
21.0818251511
 20
4.5452258916
 30
0.0
 10
21.0495371051
 20
4.4984697563
 30
0.0
 10
21.0198546515
 20
4.4606157827
 30
0.0
 10
20.9944232816
 20
4.4309250196
 30
0.0
 10
20.9675704263
 20
4.4013182678
 30
0.0
 10
20.9318760673
 20
4.3651299321
 30
0.0
 10
20.8860428949
 20
4.3233472869
 30
0.0
 10
20.8370804229
 20
4.283063891
 30
0.0
 10
20.7851075961
 20
4.2443766033
 30
0.0
 10
20.7302492977
 20
4.2073773391
 30
0.0
 10
20.6726375566
 20
4.1721544026
 30
0.0
 10
20.6124108586
 20
4.1387918447
 30
0.0
 10
20.5497139539
 20
4.1073693715
 30
0.0
 10
20.4846974996
 20
4.0779621108
 30
0.0
 10
20.4175177217
 20
4.050640428
 30
0.0
 10
20.3483360492
 20
4.0254697437
 30
0.0
 10
20.2773187327
 20
4.0025103654
 30
0.0
 10
20.2046364537
 20
3.9818173327
 30
0.0
 10
20.130463902
 20
3.9634402743
 30
0.0
 10
20.0549794118
 20
3.947423286
 30
0.0
 10
19.9783643238
 20
3.9338048002
 30
0.0
 10
19.9008033377
 20
3.9226175525
 30
0.0
 10
19.8224810874
 20
3.9138882562
 30
0.0
 10
19.7171794252
 20
3.9055458743
 30
0.0
 10
19.6378054067
 20
3.9030468862
 30
0.0
 10
19.5848497676
 20
3.9030468862
 30
0.0
  0
SPLINE
  5
4B2
100
AcDbEntity
  8
0
100
AcDbSpline
 62
9
  6
CONTINUOUS
 70
0
 71
3
 72
40
 73
36
 74
0
 42
0.0000001
 43
0.0000001
 44
0.0000000001
 40
0.0
 40
0.0
 40
0.0
 40
0.0
 40
0.0274681122
 40
0.0544833688
 40
0.0811215434
 40
0.1074656611
 40
0.1336046519
 40
0.159631701
 40
0.1856423653
 40
0.2117325516
 40
0.2379964748
 40
0.2645247144
 40
0.2914024767
 40
0.318708139
 40
0.3465121219
 40
0.3748760967
 40
0.4038525121
 40
0.4334843976
 40
0.4485586625
 40
0.4638086324
 40
0.4948432316
 40
0.5266070844
 40
0.5591074622
 40
0.5923437424
 40
0.6263079319
 40
0.6609852003
 40
0.6963544132
 40
0.7323886541
 40
0.769055732
 40
0.80631867
 40
0.8441361775
 40
0.8824631028
 40
0.9212508691
 40
0.9604478952
 40
1.0
 40
1.0
 40
1.0
 40
1.0
 10
17.6810678912
 20
4.818227945
 30
0.0
 10
17.6706160513
 20
4.7976029704
 30
0.0
 10
17.6512941117
 20
4.7559585514
 30
0.0
 10
17.6270928251
 20
4.6920414654
 30
0.0
 10
17.6079974741
 20
4.627397443
 30
0.0
 10
17.5940632042
 20
4.5622008094
 30
0.0
 10
17.5853287533
 20
4.4966234621
 30
0.0
 10
17.581819038
 20
4.4308404008
 30
0.0
 10
17.583544026
 20
4.3650273159
 30
0.0
 10
17.5904988054
 20
4.2993601414
 30
0.0
 10
17.6026635989
 20
4.2340140491
 30
0.0
 10
17.6200040507
 20
4.1691626523
 30
0.0
 10
17.6424716333
 20
4.1049773104
 30
0.0
 10
17.6700041718
 20
4.041626559
 30
0.0
 10
17.7025262453
 20
3.9792758364
 30
0.0
 10
17.7399500558
 20
3.9180867333
 30
0.0
 10
17.7821742967
 20
3.8582185706
 30
0.0
 10
17.8210467588
 20
3.8098333637
 30
0.0
 10
17.854381541
 20
3.7719308599
 30
0.0
 10
17.8896142341
 20
3.7341537495
 30
0.0
 10
17.9364764962
 20
3.6880532246
 30
0.0
 10
17.9966677452
 20
3.6349661097
 30
0.0
 10
18.0609863438
 20
3.5839260998
 30
0.0
 10
18.129263543
 20
3.5350657392
 30
0.0
 10
18.2013221022
 20
3.4885104261
 30
0.0
 10
18.2769746657
 20
3.4443802027
 30
0.0
 10
18.3560247573
 20
3.4027888515
 30
0.0
 10
18.438267095
 20
3.3638437474
 30
0.0
 10
18.5234881398
 20
3.3276455158
 30
0.0
 10
18.6114666038
 20
3.2942877624
 30
0.0
 10
18.7019740588
 20
3.2638568044
 30
0.0
 10
18.7947753567
 20
3.236431457
 30
0.0
 10
18.8896298571
 20
3.2120827133
 30
0.0
 10
18.9862896896
 20
3.1908739238
 30
0.0
 10
19.051506523
 20
3.1789123283
 30
0.0
 10
19.0843514809
 20
3.1734618409
 30
0.0
  0
SPLINE
  5
4B3
100
AcDbEntity
  8
0
100
AcDbSpline
 62
9
  6
CONTINUOUS
 70
0
 71
3
 72
11
 73
7
 74
0
 42
0.0000001
 43
0.0000001
 44
0.0000000001
 40
0.0
 40
0.0
 40
0.0
 40
0.0
 40
0.2486149554
 40
0.4984149636
 40
0.7490078146
 40
1.0
 40
1.0
 40
1.0
 40
1.0
 10
19.1712366559
 20
3.1603639442
 30
0.0
 10
19.2053026572
 20
3.1557407906
 30
0.0
 10
19.2737619092
 20
3.1476458703
 30
0.0
 10
19.3769895026
 20
3.1389749324
 30
0.0
 10
19.4807784388
 20
3.1337628288
 30
0.0
 10
19.5501427681
 20
3.1326038851
 30
0.0
 10
19.5848497676
 20
3.1326038851
 30
0.0
  0
SPLINE
  5
4B4
100
AcDbEntity
  8
0
100
AcDbSpline
 62
9
  6
CONTINUOUS
 70
0
 71
3
 72
39
 73
35
 74
0
 42
0.0000001
 43
0.0000001
 44
0.0000000001
 40
0.0
 40
0.0
 40
0.0
 40
0.0
 40
0.0241788715
 40
0.0484401125
 40
0.0728644724
 40
0.0975295484
 40
0.1225084168
 40
0.1478684843
 40
0.1736705892
 40
0.1999683622
 40
0.2268078307
 40
0.25422724
 40
0.2681656832
 40
0.2822598805
 40
0.3109229406
 40
0.3402347024
 40
0.3702035789
 40
0.4008313177
 40
0.4321134112
 40
0.4640395193
 40
0.4965938948
 40
0.5297558036
 40
0.5634999345
 40
0.5977967964
 40
0.6326131016
 40
0.6679121348
 40
0.7036541086
 40
0.7397965059
 40
0.7762944117
 40
0.8131008342
 40
0.8501670166
 40
0.887442743
 40
0.9248766367
 40
1.0
 40
1.0
 40
1.0
 40
1.0
 10
17.9648497676
 20
4.918326164
 30
0.0
 10
17.9648497676
 20
4.9012820975
 30
0.0
 10
17.9661563967
 20
4.8671216179
 30
0.0
 10
17.9720277601
 20
4.8160477919
 30
0.0
 10
17.9817963134
 20
4.7652230387
 30
0.0
 10
17.9954366933
 20
4.7147759953
 30
0.0
 10
18.0129137755
 20
4.6648287696
 30
0.0
 10
18.034183008
 20
4.6155029186
 30
0.0
 10
18.059190655
 20
4.5669175494
 30
0.0
 10
18.087874384
 20
4.5191892417
 30
0.0
 10
18.1201624301
 20
4.4724331064
 30
0.0
 10
18.1498448836
 20
4.4345791328
 30
0.0
 10
18.1752762535
 20
4.4048883697
 30
0.0
 10
18.2021291089
 20
4.3752816178
 30
0.0
 10
18.2378234679
 20
4.3390932822
 30
0.0
 10
18.2836566402
 20
4.297310637
 30
0.0
 10
18.3326191123
 20
4.2570272411
 30
0.0
 10
18.3845919391
 20
4.2183399534
 30
0.0
 10
18.4394502374
 20
4.1813406892
 30
0.0
 10
18.4970619785
 20
4.1461177527
 30
0.0
 10
18.5572886766
 20
4.1127551948
 30
0.0
 10
18.6199855813
 20
4.0813327216
 30
0.0
 10
18.6850020356
 20
4.0519254609
 30
0.0
 10
18.7521818134
 20
4.0246037781
 30
0.0
 10
18.821363486
 20
3.9994330938
 30
0.0
 10
18.8923808024
 20
3.9764737155
 30
0.0
 10
18.9650630815
 20
3.9557806828
 30
0.0
 10
19.0392356332
 20
3.9374036244
 30
0.0
 10
19.1147201233
 20
3.9213866361
 30
0.0
 10
19.1913352113
 20
3.9077681503
 30
0.0
 10
19.2688961975
 20
3.8965809026
 30
0.0
 10
19.3472184478
 20
3.8878516063
 30
0.0
 10
19.45252011
 20
3.8795092244
 30
0.0
 10
19.5318941284
 20
3.8770102363
 30
0.0
 10
19.5848497676
 20
3.8770102363
 30
0.0
  0
SPLINE
  5
4B5
100
AcDbEntity
  8
0
100
AcDbSpline
 62
9
  6
CONTINUOUS
 70
0
 71
3
 72
30
 73
26
 74
0
 42
0.0000001
 43
0.0000001
 44
0.0000000001
 40
0.0
 40
0.0
 40
0.0
 40
0.0
 40
0.0698409267
 40
0.1394357388
 40
0.1740716654
 40
0.2085571824
 40
0.2769543486
 40
0.3444281181
 40
0.4107915361
 40
0.4758869456
 40
0.5395918946
 40
0.6018247465
 40
0.6625499755
 40
0.6923586864
 40
0.7218006544
 40
0.7508862259
 40
0.7796292318
 40
0.8080469962
 40
0.836160259
 40
0.8639930703
 40
0.8915726499
 40
0.9189291716
 40
0.9460954709
 40
0.97310671
 40
1.0
 40
1.0
 40
1.0
 40
1.0
 10
19.5848497676
 20
8.9952526734
 30
0.0
 10
19.6043986426
 20
8.9952526734
 30
0.0
 10
19.6434407334
 20
8.9938722429
 30
0.0
 10
19.6919319858
 20
8.9886976809
 30
0.0
 10
19.7302698652
 20
8.9825031447
 30
0.0
 10
19.7680293152
 20
8.9749916776
 30
0.0
 10
19.8142647799
 20
8.9631384733
 30
0.0
 10
19.8679456415
 20
8.9450088848
 30
0.0
 10
19.9192259067
 20
8.9231627557
 30
0.0
 10
19.9676680556
 20
8.8977836338
 30
0.0
 10
20.0128613169
 20
8.8690831841
 30
0.0
 10
20.054417992
 20
8.8373039726
 30
0.0
 10
20.0859230697
 20
8.8082904453
 30
0.0
 10
20.1089209184
 20
8.7838036398
 30
0.0
 10
20.1249472542
 20
8.7649609023
 30
0.0
 10
20.1398205685
 20
8.7455700991
 30
0.0
 10
20.1535093341
 20
8.725672071
 30
0.0
 10
20.1659840133
 20
8.7053093372
 30
0.0
 10
20.1772177386
 20
8.6845252717
 30
0.0
 10
20.1871861662
 20
8.6633642142
 30
0.0
 10
20.1958677079
 20
8.6418713613
 30
0.0
 10
20.2032435589
 20
8.6200927933
 30
0.0
 10
20.2092976997
 20
8.5980748698
 30
0.0
 10
20.2140167373
 20
8.5758658713
 30
0.0
 10
20.2162700023
 20
8.5609361185
 30
0.0
 10
20.2171692793
 20
8.5534624415
 30
0.0
  0
SPLINE
  5
4B6
100
AcDbEntity
  8
0
100
AcDbSpline
 62
7
  6
CONTINUOUS
 70
0
 71
3
 72
32
 73
28
 74
0
 42
0.0000001
 43
0.0000001
 44
0.0000000001
 40
0.0
 40
0.0
 40
0.0
 40
0.0
 40
0.0281098568
 40
0.0559853519
 40
0.0836841505
 40
0.1112673698
 40
0.1387984518
 40
0.1663419229
 40
0.1939620518
 40
0.2217215226
 40
0.2496802569
 40
0.2778943129
 40
0.3064148881
 40
0.3352874964
 40
0.3645514132
 40
0.3942392922
 40
0.4243768626
 40
0.4549828322
 40
0.517613789
 40
0.5821753367
 40
0.6485820151
 40
0.7166611085
 40
0.7861663072
 40
0.8213696096
 40
0.8568109809
 40
0.9282085874
 40
1.0
 40
1.0
 40
1.0
 40
1.0
 10
19.2097569032
 20
8.2726145106
 30
0.0
 10
19.2077077492
 20
8.2781197676
 30
0.0
 10
19.204016005
 20
8.2892342669
 30
0.0
 10
19.1997254177
 20
8.3062031941
 30
0.0
 10
19.1967217326
 20
8.3233360153
 30
0.0
 10
19.1950157544
 20
8.3405739244
 30
0.0
 10
19.1946132943
 20
8.357859058
 30
0.0
 10
19.1955157972
 20
8.3751329912
 30
0.0
 10
19.1977201448
 20
8.3923374355
 30
0.0
 10
19.2012186655
 20
8.4094143692
 30
0.0
 10
19.2059992544
 20
8.4263063113
 30
0.0
 10
19.2120454482
 20
8.4429565331
 30
0.0
 10
19.2193365211
 20
8.4593092556
 30
0.0
 10
19.2278475857
 20
8.4753098075
 30
0.0
 10
19.2375497032
 20
8.4909048932
 30
0.0
 10
19.2484098631
 20
8.5060425301
 30
0.0
 10
19.2603919424
 20
8.5206729173
 30
0.0
 10
19.2779404713
 20
8.5395800312
 30
0.0
 10
19.3025323312
 20
8.5616728692
 30
0.0
 10
19.3355439822
 20
8.5851962521
 30
0.0
 10
19.3718537487
 20
8.6056432526
 30
0.0
 10
19.4109749482
 20
8.6227458111
 30
0.0
 10
19.4453514496
 20
8.6339822747
 30
0.0
 10
19.4737614272
 20
8.6411342287
 30
0.0
 10
19.5028571305
 20
8.6470581692
 30
0.0
 10
19.5399083839
 20
8.6520134456
 30
0.0
 10
19.5698471599
 20
8.6533358465
 30
0.0
 10
19.5848497676
 20
8.6533358465
 30
0.0
  0
SPLINE
  5
4B7
100
AcDbEntity
  8
0
100
AcDbSpline
 62
9
  6
CONTINUOUS
 70
0
 71
3
 72
39
 73
35
 74
0
 42
0.0000001
 43
0.0000001
 44
0.0000000001
 40
0.0
 40
0.0
 40
0.0
 40
0.0
 40
0.0320292806
 40
0.0478119592
 40
0.0634385723
 40
0.0942238596
 40
0.1244121504
 40
0.1540395527
 40
0.1831568054
 40
0.2118287357
 40
0.2401331293
 40
0.2681589677
 40
0.2960040386
 40
0.3237719991
 40
0.3515690478
 40
0.3795004215
 40
0.4076669587
 40
0.436161964
 40
0.4650685552
 40
0.4944576117
 40
0.5243863577
 40
0.5548975631
 40
0.586019288
 40
0.6177650763
 40
0.6501344994
 40
0.6831139602
 40
0.7166776773
 40
0.7507887903
 40
0.7854005376
 40
0.820457478
 40
0.8558967446
 40
0.8916492411
 40
0.9276410982
 40
1.0
 40
1.0
 40
1.0
 40
1.0
 10
19.209776547
 20
8.1776442983
 30
0.0
 10
19.2005136606
 20
8.1846464792
 30
0.0
 10
19.1870468815
 20
8.1955913084
 30
0.0
 10
19.1700309246
 20
8.2110697207
 30
0.0
 10
19.15393125
 20
8.2268623492
 30
0.0
 10
19.1352333192
 20
8.2474358826
 30
0.0
 10
19.1151325786
 20
8.2734582491
 30
0.0
 10
19.097588576
 20
8.3005543957
 30
0.0
 10
19.0826999037
 20
8.3285767316
 30
0.0
 10
19.0705500804
 20
8.3573729444
 30
0.0
 10
19.0612080838
 20
8.3867854501
 30
0.0
 10
19.0547273672
 20
8.4166524945
 30
0.0
 10
19.0511453028
 20
8.446809004
 30
0.0
 10
19.0504826449
 20
8.4770877154
 30
0.0
 10
19.0527432397
 20
8.5073204158
 30
0.0
 10
19.0579139598
 20
8.5373392532
 30
0.0
 10
19.0659649098
 20
8.5669780198
 30
0.0
 10
19.0768498553
 20
8.5960733254
 30
0.0
 10
19.0905068054
 20
8.6244656103
 30
0.0
 10
19.106858674
 20
8.6519999927
 30
0.0
 10
19.1258139394
 20
8.6785269913
 30
0.0
 10
19.147267313
 20
8.7039031543
 30
0.0
 10
19.1711003953
 20
8.7279916355
 30
0.0
 10
19.1971823184
 20
8.7506627643
 30
0.0
 10
19.2253704126
 20
8.7717946119
 30
0.0
 10
19.2555109138
 20
8.7912735572
 30
0.0
 10
19.2874397169
 20
8.808994845
 30
0.0
 10
19.3209832186
 20
8.8248631261
 30
0.0
 10
19.3559591082
 20
8.8387929737
 30
0.0
 10
19.3921776443
 20
8.8507093733
 30
0.0
 10
19.4294414081
 20
8.8605480246
 30
0.0
 10
19.4675510749
 20
8.8682561136
 30
0.0
 10
19.5192873123
 20
8.8756485057
 30
0.0
 10
19.5586172102
 20
8.8778667513
 30
0.0
 10
19.5848497676
 20
8.8778667513
 30
0.0
  0
SPLINE
  5
4B8
100
AcDbEntity
  8
0
100
AcDbSpline
 62
9
  6
CONTINUOUS
 70
0
 71
3
 72
29
 73
25
 74
0
 42
0.0000001
 43
0.0000001
 44
0.0000000001
 40
0.0
 40
0.0
 40
0.0
 40
0.0
 40
0.0268885441
 40
0.0539048008
 40
0.0810846196
 40
0.1084618373
 40
0.1360679389
 40
0.163931755
 40
0.1920791805
 40
0.2205329949
 40
0.2493127475
 40
0.2784346427
 40
0.3079114848
 40
0.3377527256
 40
0.3985333628
 40
0.4608041314
 40
0.5245263865
 40
0.589617108
 40
0.6559539934
 40
0.7233809634
 40
0.7917137201
 40
0.8607454831
 40
0.9302520886
 40
1.0
 40
1.0
 40
1.0
 40
1.0
 10
19.0469956403
 20
10.9598167096
 30
0.0
 10
19.0478707211
 20
10.966114376
 30
0.0
 10
19.0500007677
 20
10.9786905958
 30
0.0
 10
19.0543111001
 20
10.997384094
 30
0.0
 10
19.0597341546
 20
11.0159065795
 30
0.0
 10
19.0662581229
 20
11.0342182348
 30
0.0
 10
19.073869106
 20
11.0522808463
 30
0.0
 10
19.0825509808
 20
11.0700564211
 30
0.0
 10
19.0922852916
 20
11.0875077382
 30
0.0
 10
19.103051348
 20
11.1045982982
 30
0.0
 10
19.114826462
 20
11.1212923687
 30
0.0
 10
19.127585711
 20
11.137554961
 30
0.0
 10
19.141302516
 20
11.1533525205
 30
0.0
 10
19.1609466187
 20
11.1738742221
 30
0.0
 10
19.187789439
 20
11.1981776006
 30
0.0
 10
19.2231087147
 20
11.2247858459
 30
0.0
 10
19.2614432821
 20
11.248805463
 30
0.0
 10
19.302470693
 20
11.270037232
 30
0.0
 10
19.3458492088
 20
11.2883074268
 30
0.0
 10
19.3912173709
 20
11.3034654735
 30
0.0
 10
19.4381971759
 20
11.3153867672
 30
0.0
 10
19.4863982831
 20
11.3239728789
 30
0.0
 10
19.5354164657
 20
11.3291531252
 30
0.0
 10
19.5683568957
 20
11.3303067925
 30
0.0
 10
19.5848497676
 20
11.3303067925
 30
0.0
  0
SPLINE
  5
4B9
100
AcDbEntity
  8
0
100
AcDbSpline
 62
9
  6
CONTINUOUS
 70
0
 71
3
 72
15
 73
11
 74
0
 42
0.0000001
 43
0.0000001
 44
0.0000000001
 40
0.0
 40
0.0
 40
0.0
 40
0.0
 40
0.1333087397
 40
0.2635025504
 40
0.3908848616
 40
0.5158167176
 40
0.6387137878
 40
0.7600366479
 40
0.8802916915
 40
1.0
 40
1.0
 40
1.0
 40
1.0
 10
19.1771162291
 20
5.7063306653
 30
0.0
 10
19.1734096603
 20
5.7014408105
 30
0.0
 10
19.166411008
 20
5.6915207027
 30
0.0
 10
19.1571273405
 20
5.6760907504
 30
0.0
 10
19.1492169259
 20
5.6603418301
 30
0.0
 10
19.1427071054
 20
5.6443252529
 30
0.0
 10
19.1376201371
 20
5.6280926689
 30
0.0
 10
19.133973517
 20
5.6116964179
 30
0.0
 10
19.1317804789
 20
5.5951921275
 30
0.0
 10
19.1312921162
 20
5.5841410065
 30
0.0
 10
19.1312921162
 20
5.578631099
 30
0.0
  0
SPLINE
  5
4BA
100
AcDbEntity
  8
0
100
AcDbSpline
 62
9
  6
CONTINUOUS
 70
0
 71
3
 72
11
 73
7
 74
0
 42
0.0000001
 43
0.0000001
 44
0.0000000001
 40
0.0
 40
0.0
 40
0.0
 40
0.0
 40
0.2555575897
 40
0.5064127303
 40
0.7540311606
 40
1.0
 40
1.0
 40
1.0
 40
1.0
 10
19.1632227258
 20
5.6742492609
 30
0.0
 10
19.1605042221
 20
5.6680828384
 30
0.0
 10
19.155701234
 20
5.6555947338
 30
0.0
 10
19.1504723021
 20
5.6363751411
 30
0.0
 10
19.1473228162
 20
5.6169625789
 30
0.0
 10
19.1466209164
 20
5.6039360364
 30
0.0
 10
19.1466209164
 20
5.5974498249
 30
0.0
  0
SPLINE
  5
4BB
100
AcDbEntity
  8
0
100
AcDbSpline
 62
7
  6
CONTINUOUS
 70
0
 71
3
 72
11
 73
7
 74
0
 42
0.0000001
 43
0.0000001
 44
0.0000000001
 40
0.0
 40
0.0
 40
0.0
 40
0.0
 40
0.2555579584
 40
0.5064129315
 40
0.7540326672
 40
1.0
 40
1.0
 40
1.0
 40
1.0
 10
19.9648856644
 20
5.768591518
 30
0.0
 10
19.967335977
 20
5.7630333651
 30
0.0
 10
19.9716652041
 20
5.7517771646
 30
0.0
 10
19.9763783411
 20
5.7344534619
 30
0.0
 10
19.9792171388
 20
5.7169558667
 30
0.0
 10
19.9798497676
 20
5.7052143367
 30
0.0
 10
19.9798497676
 20
5.6993679961
 30
0.0
  0
SPLINE
  5
4BC
100
AcDbEntity
  8
0
100
AcDbSpline
 62
9
  6
CONTINUOUS
 70
0
 71
3
 72
30
 73
26
 74
0
 42
0.0000001
 43
0.0000001
 44
0.0000000001
 40
0.0
 40
0.0
 40
0.0
 40
0.0
 40
0.0241813072
 40
0.0484449891
 40
0.0728718031
 40
0.0975393673
 40
0.1225207527
 40
0.1478833634
 40
0.1736880697
 40
0.199988498
 40
0.2268306571
 40
0.2542528253
 40
0.282285477
 40
0.3109514133
 40
0.340266118
 40
0.3702380267
 40
0.4321373021
 40
0.4966094479
 40
0.5635089324
 40
0.6326169979
 40
0.7036540671
 40
0.7762913037
 40
0.8501615417
 40
0.9248685477
 40
1.0
 40
1.0
 40
1.0
 40
1.0
 10
19.9598497676
 20
6.0823902177
 30
0.0
 10
19.9598497676
 20
6.0784448318
 30
0.0
 10
19.9595472834
 20
6.070537314
 30
0.0
 10
19.9581881659
 20
6.0587146725
 30
0.0
 10
19.9559269647
 20
6.046949676
 30
0.0
 10
19.9527694453
 20
6.0352721248
 30
0.0
 10
19.9487238084
 20
6.0237102741
 30
0.0
 10
19.9438004092
 20
6.0122922423
 30
0.0
 10
19.9380115864
 20
6.0010456237
 30
0.0
 10
19.9313718389
 20
5.9899974509
 30
0.0
 10
19.9238976754
 20
5.9791741334
 30
0.0
 10
19.915607416
 20
5.9686015503
 30
0.0
 10
19.9065212946
 20
5.9583048939
 30
0.0
 10
19.8966615289
 20
5.9483086716
 30
0.0
 10
19.8860517401
 20
5.9386364765
 30
0.0
 10
19.8707772762
 20
5.9260697283
 30
0.0
 10
19.8499077672
 20
5.9113304285
 30
0.0
 10
19.8226020723
 20
5.8954838003
 30
0.0
 10
19.7930247587
 20
5.8814337663
 30
0.0
 10
19.7614596162
 20
5.8693132485
 30
0.0
 10
19.7282070012
 20
5.8592359164
 30
0.0
 10
19.6935844695
 20
5.8512970002
 30
0.0
 10
19.6579221603
 20
5.8455718863
 30
0.0
 10
19.6215626084
 20
5.8421148096
 30
0.0
 10
19.5971081029
 20
5.8413448641
 30
0.0
 10
19.5848497676
 20
5.8413448641
 30
0.0
  0
SPLINE
  5
4BD
100
AcDbEntity
  8
0
100
AcDbSpline
 62
9
  6
CONTINUOUS
 70
0
 71
3
 72
28
 73
24
 74
0
 42
0.0000001
 43
0.0000001
 44
0.0000000001
 40
0.0
 40
0.0
 40
0.0
 40
0.0
 40
0.0270020092
 40
0.0540496757
 40
0.0811879938
 40
0.1084606465
 40
0.1359093774
 40
0.1635734617
 40
0.1914892369
 40
0.2196896562
 40
0.2482039847
 40
0.2770575913
 40
0.3358420219
 40
0.3961857776
 40
0.458141957
 40
0.5217000812
 40
0.586791054
 40
0.6532936394
 40
0.721041511
 40
0.7898306668
 40
0.8594270847
 40
0.9295734958
 40
1.0
 40
1.0
 40
1.0
 40
1.0
 10
19.2098497676
 20
8.3290041311
 30
0.0
 10
19.2098497676
 20
8.3337050455
 30
0.0
 10
19.2101516445
 20
8.3431176024
 30
0.0
 10
19.2115084846
 20
8.3571959339
 30
0.0
 10
19.2137661001
 20
8.3712063901
 30
0.0
 10
19.2169190098
 20
8.3851141913
 30
0.0
 10
19.2209593563
 20
8.398885844
 30
0.0
 10
19.2258771324
 20
8.4124879752
 30
0.0
 10
19.2316603637
 20
8.4258877241
 30
0.0
 10
19.2382947565
 20
8.4390526638
 30
0.0
 10
19.2457643528
 20
8.4519514873
 30
0.0
 10
19.2568794525
 20
8.4688550775
 30
0.0
 10
19.2728170617
 20
8.4891669716
 30
0.0
 10
19.2948140843
 20
8.5118250439
 30
0.0
 10
19.3195923131
 20
8.5327138117
 30
0.0
 10
19.3469104346
 20
8.5516342382
 30
0.0
 10
19.3765057263
 20
8.5684091968
 30
0.0
 10
19.4080941054
 20
8.5828805573
 30
0.0
 10
19.4413731177
 20
8.5949119165
 30
0.0
 10
19.4760241015
 20
8.6043898117
 30
0.0
 10
19.5117162891
 20
8.6112244733
 30
0.0
 10
19.5481057788
 20
8.6153514148
 30
0.0
 10
19.5725888663
 20
8.6162708023
 30
0.0
 10
19.5848497676
 20
8.6162708023
 30
0.0
  0
SPLINE
  5
4BE
100
AcDbEntity
  8
0
100
AcDbSpline
 62
7
  6
CONTINUOUS
 70
0
 71
3
 72
11
 73
7
 74
0
 42
0.0000001
 43
0.0000001
 44
0.0000000001
 40
0.0
 40
0.0
 40
0.0
 40
0.0
 40
0.2459673328
 40
0.4935870685
 40
0.7444420416
 40
1.0
 40
1.0
 40
1.0
 40
1.0
 10
19.1898497676
 20
5.6993679961
 30
0.0
 10
19.1898497676
 20
5.7052143367
 30
0.0
 10
19.1904823964
 20
5.7169558667
 30
0.0
 10
19.193321194
 20
5.7344534619
 30
0.0
 10
19.198034331
 20
5.7517771646
 30
0.0
 10
19.2023635581
 20
5.7630333651
 30
0.0
 10
19.2048138708
 20
5.768591518
 30
0.0
  0
SPLINE
  5
4BF
100
AcDbEntity
  8
0
100
AcDbSpline
 62
9
  6
CONTINUOUS
 70
0
 71
3
 72
28
 73
24
 74
0
 42
0.0000001
 43
0.0000001
 44
0.0000000001
 40
0.0
 40
0.0
 40
0.0
 40
0.0
 40
0.0270020092
 40
0.0540496757
 40
0.0811879938
 40
0.1084606466
 40
0.1359093774
 40
0.1635734618
 40
0.1914892369
 40
0.2196896562
 40
0.2482039848
 40
0.2770575914
 40
0.335842022
 40
0.3961857777
 40
0.4581419571
 40
0.5217000813
 40
0.5867910542
 40
0.6532936395
 40
0.7210415112
 40
0.789830667
 40
0.8594270849
 40
0.9295734962
 40
1.0
 40
1.0
 40
1.0
 40
1.0
 10
19.9598497676
 20
6.9629102507
 30
0.0
 10
19.9598497676
 20
6.9676111651
 30
0.0
 10
19.9595478907
 20
6.977023722
 30
0.0
 10
19.9581910505
 20
6.9911020535
 30
0.0
 10
19.955933435
 20
7.0051125098
 30
0.0
 10
19.9527805254
 20
7.019020311
 30
0.0
 10
19.9487401789
 20
7.0327919636
 30
0.0
 10
19.9438224028
 20
7.0463940948
 30
0.0
 10
19.9380391714
 20
7.0597938438
 30
0.0
 10
19.9314047787
 20
7.0729587835
 30
0.0
 10
19.9239351823
 20
7.0858576069
 30
0.0
 10
19.9128200827
 20
7.1027611972
 30
0.0
 10
19.8968824735
 20
7.1230730912
 30
0.0
 10
19.8748854508
 20
7.1457311636
 30
0.0
 10
19.850107222
 20
7.1666199313
 30
0.0
 10
19.8227891005
 20
7.1855403579
 30
0.0
 10
19.7931938088
 20
7.2023153165
 30
0.0
 10
19.7616054297
 20
7.216786677
 30
0.0
 10
19.7283264175
 20
7.2288180361
 30
0.0
 10
19.6936754337
 20
7.2382959317
 30
0.0
 10
19.6579832459
 20
7.2451305918
 30
0.0
 10
19.6215937566
 20
7.2492575381
 30
0.0
 10
19.5971106688
 20
7.2501769169
 30
0.0
 10
19.5848497676
 20
7.2501769169
 30
0.0
  0
SPLINE
  5
4C0
100
AcDbEntity
  8
0
100
AcDbSpline
 62
9
  6
CONTINUOUS
 70
0
 71
3
 72
30
 73
26
 74
0
 42
0.0000001
 43
0.0000001
 44
0.0000000001
 40
0.0
 40
0.0
 40
0.0
 40
0.0
 40
0.0751314483
 40
0.1498384563
 40
0.2237086942
 40
0.2963459309
 40
0.3673830004
 40
0.436491066
 40
0.5033905507
 40
0.5678626967
 40
0.6297619722
 40
0.6597338811
 40
0.6890485858
 40
0.7177145222
 40
0.745747174
 40
0.7731693423
 40
0.8000115014
 40
0.8263119298
 40
0.8521166362
 40
0.877479247
 40
0.9024606324
 40
0.9271281967
 40
0.9515550108
 40
0.9758186928
 40
1.0
 40
1.0
 40
1.0
 40
1.0
 10
19.5848497676
 20
5.4925811915
 30
0.0
 10
19.5971081023
 20
5.4925811915
 30
0.0
 10
19.6215626106
 20
5.4933510393
 30
0.0
 10
19.6579221594
 20
5.4968081693
 30
0.0
 10
19.6935844698
 20
5.5025332678
 30
0.0
 10
19.7282070012
 20
5.5104721879
 30
0.0
 10
19.7614596162
 20
5.520549519
 30
0.0
 10
19.7930247587
 20
5.532670037
 30
0.0
 10
19.8226020723
 20
5.546720071
 30
0.0
 10
19.8499077672
 20
5.5625666992
 30
0.0
 10
19.8707772762
 20
5.5773059989
 30
0.0
 10
19.8860517401
 20
5.5898727472
 30
0.0
 10
19.8966615289
 20
5.5995449423
 30
0.0
 10
19.9065212946
 20
5.6095411646
 30
0.0
 10
19.915607416
 20
5.619837821
 30
0.0
 10
19.9238976754
 20
5.6304104041
 30
0.0
 10
19.9313718389
 20
5.6412337216
 30
0.0
 10
19.9380115864
 20
5.6522818944
 30
0.0
 10
19.9438004092
 20
5.663528513
 30
0.0
 10
19.9487238083
 20
5.6749465447
 30
0.0
 10
19.9527694453
 20
5.6865083955
 30
0.0
 10
19.9559269647
 20
5.6981859466
 30
0.0
 10
19.9581881659
 20
5.7099509431
 30
0.0
 10
19.9595472834
 20
5.7217735847
 30
0.0
 10
19.9598497676
 20
5.7296811025
 30
0.0
 10
19.9598497676
 20
5.7336264884
 30
0.0
  0
SPLINE
  5
4C1
100
AcDbEntity
  8
0
100
AcDbSpline
 62
7
  6
CONTINUOUS
 70
0
 71
3
 72
39
 73
35
 74
0
 42
0.0000001
 43
0.0000001
 44
0.0000000001
 40
0.0
 40
0.0
 40
0.0
 40
0.0
 40
0.0787269604
 40
0.1178378316
 40
0.1566373193
 40
0.195026793
 40
0.2329118885
 40
0.2702038832
 40
0.3068207921
 40
0.3426886344
 40
0.3777428278
 40
0.4119295115
 40
0.4452070207
 40
0.4775474784
 40
0.5089383055
 40
0.5393838296
 40
0.5542611816
 40
0.5689123826
 40
0.5975554485
 40
0.6253818898
 40
0.6524762853
 40
0.6789440272
 40
0.7049099149
 40
0.7305154633
 40
0.755914838
 40
0.7812697539
 40
0.806743595
 40
0.8324953143
 40
0.8586738768
 40
0.8854135879
 40
0.9128306247
 40
0.9410209833
 40
0.9700595324
 40
1.0
 40
1.0
 40
1.0
 40
1.0
 10
19.5848497676
 20
5.1152056161
 30
0.0
 10
19.5606011593
 20
5.1152056161
 30
0.0
 10
19.5242791979
 20
5.1167749995
 30
0.0
 10
19.4763089078
 20
5.1220210457
 30
0.0
 10
19.4408948937
 20
5.1274935923
 30
0.0
 10
19.4061354901
 20
5.1344869707
 30
0.0
 10
19.3721867968
 20
5.1429697431
 30
0.0
 10
19.3392032112
 20
5.1529035194
 30
0.0
 10
19.3073341806
 20
5.1642434698
 30
0.0
 10
19.2767241988
 20
5.1769384696
 30
0.0
 10
19.2475119969
 20
5.190931375
 30
0.0
 10
19.2198299546
 20
5.206159342
 30
0.0
 10
19.1938036353
 20
5.2225540435
 30
0.0
 10
19.1695509215
 20
5.2400423913
 30
0.0
 10
19.1471828671
 20
5.2585455085
 30
0.0
 10
19.1300664416
 20
5.2748678473
 30
0.0
 10
19.1174391626
 20
5.2883563207
 30
0.0
 10
19.1057070337
 20
5.3019033755
 30
0.0
 10
19.0923583211
 20
5.3193056627
 30
0.0
 10
19.0784600844
 20
5.341007164
 30
0.0
 10
19.0668675998
 20
5.3632741949
 30
0.0
 10
19.0576379387
 20
5.3860051415
 30
0.0
 10
19.0508170312
 20
5.4090958416
 30
0.0
 10
19.0464398209
 20
5.4324387514
 30
0.0
 10
19.0445291683
 20
5.4559238078
 30
0.0
 10
19.0450951957
 20
5.4794393133
 30
0.0
 10
19.048134896
 20
5.5028732083
 30
0.0
 10
19.0536322517
 20
5.5261143983
 30
0.0
 10
19.0615587853
 20
5.549053884
 30
0.0
 10
19.0718744038
 20
5.571585582
 30
0.0
 10
19.0845280989
 20
5.5936066104
 30
0.0
 10
19.0994591895
 20
5.6150179659
 30
0.0
 10
19.1165957576
 20
5.6357225453
 30
0.0
 10
19.1292425027
 20
5.6487914709
 30
0.0
 10
19.135889206
 20
5.6551840731
 30
0.0
  0
SPLINE
  5
4C2
100
AcDbEntity
  8
0
100
AcDbSpline
 62
9
  6
CONTINUOUS
 70
0
 71
3
 72
11
 73
7
 74
0
 42
0.0000001
 43
0.0000001
 44
0.0000000001
 40
0.0
 40
0.0
 40
0.0
 40
0.0
 40
0.2528102994
 40
0.5044841648
 40
0.7539063101
 40
1.0
 40
1.0
 40
1.0
 40
1.0
 10
19.5848497676
 20
3.9280895637
 30
0.0
 10
19.5380280954
 20
3.9280895637
 30
0.0
 10
19.4445739368
 20
3.9307170784
 30
0.0
 10
19.3053737956
 20
3.9425203455
 30
0.0
 10
19.1683069269
 20
3.9620912742
 30
0.0
 10
19.0783082967
 20
3.9803694319
 30
0.0
 10
19.0339394485
 20
3.9907970028
 30
0.0
  0
SPLINE
  5
4C3
100
AcDbEntity
  8
0
100
AcDbSpline
 62
9
  6
CONTINUOUS
 70
0
 71
3
 72
16
 73
12
 74
0
 42
0.0000001
 43
0.0000001
 44
0.0000000001
 40
0.0
 40
0.0
 40
0.0
 40
0.0
 40
0.1355088029
 40
0.2685849816
 40
0.3988854021
 40
0.5261074719
 40
0.6499960503
 40
0.7703510526
 40
0.8291666056
 40
0.8870530603
 40
1.0
 40
1.0
 40
1.0
 40
1.0
 10
19.0339394485
 20
3.9907970028
 30
0.0
 10
18.997042387
 20
3.9994685537
 30
0.0
 10
18.9243311511
 20
4.0185135372
 30
0.0
 10
18.817995263
 20
4.0524547084
 30
0.0
 10
18.7158421559
 20
4.0913568722
 30
0.0
 10
18.6184315716
 20
4.1350089066
 30
0.0
 10
18.5262963659
 20
4.1831739025
 30
0.0
 10
18.4537766004
 20
4.227192837
 30
0.0
 10
18.3989226196
 20
4.2644645886
 30
0.0
 10
18.347082905
 20
4.3024080418
 30
0.0
 10
18.3100529426
 20
4.332699389
 30
0.0
 10
18.2864043241
 20
4.3536464503
 30
0.0
  0
LINE
  5
4C4
100
AcDbEntity
  8
0
100
AcDbLine
 62
9
  6
CONTINUOUS
 10
18.2864043241
 20
4.3536464503
 11
18.2861387386
 21
4.3538817658
  0
SPLINE
  5
4C5
100
AcDbEntity
  8
0
100
AcDbSpline
 62
9
  6
CONTINUOUS
 70
0
 71
3
 72
51
 73
47
 74
0
 42
0.0000001
 43
0.0000001
 44
0.0000000001
 40
0.0
 40
0.0
 40
0.0
 40
0.0
 40
0.0314865299
 40
0.0621046431
 40
0.0918877833
 40
0.1208853473
 40
0.1491631155
 40
0.1630602191
 40
0.1768095271
 40
0.1904237469
 40
0.203916478
 40
0.2173021636
 40
0.2305959922
 40
0.2438138225
 40
0.256972077
 40
0.2700876223
 40
0.2831776559
 40
0.2962595701
 40
0.3093508195
 40
0.3224687868
 40
0.335630651
 40
0.3488532517
 40
0.3621529746
 40
0.3755456368
 40
0.3890463759
 40
0.4026695791
 40
0.4164287868
 40
0.43033664
 40
0.444404839
 40
0.4730584007
 40
0.5024689908
 40
0.5174790856
 40
0.5326984274
 40
0.5637778412
 40
0.5957372555
 40
0.6285871664
 40
0.6623243949
 40
0.6969331785
 40
0.7323862986
 40
0.7686461895
 40
0.8056660067
 40
0.8433906455
 40
0.8817577227
 40
0.9206985166
 40
0.9601388609
 40
1.0
 40
1.0
 40
1.0
 40
1.0
 10
18.2861387386
 20
4.3538817658
 30
0.0
 10
18.2671553211
 20
4.3707065437
 30
0.0
 10
18.2307466307
 20
4.4050858113
 30
0.0
 10
18.1804451984
 20
4.4594748935
 30
0.0
 10
18.1354093443
 20
4.5157634817
 30
0.0
 10
18.0958162662
 20
4.5737377931
 30
0.0
 10
18.0673169165
 20
4.6235724931
 30
0.0
 10
18.0474555857
 20
4.6640247654
 30
0.0
 10
18.0340893613
 20
4.6944711347
 30
0.0
 10
18.0221817887
 20
4.72516766
 30
0.0
 10
18.0117440569
 20
4.7560859989
 30
0.0
 10
18.0027861218
 20
4.787196786
 30
0.0
 10
17.9953167563
 20
4.8184707262
 30
0.0
 10
17.9893431287
 20
4.8498782095
 30
0.0
 10
17.9848709478
 20
4.8813894938
 30
0.0
 10
17.9819047347
 20
4.9129747345
 30
0.0
 10
17.9804471771
 20
4.9446039512
 30
0.0
 10
17.9804998007
 20
4.9762471421
 30
0.0
 10
17.9820625813
 20
5.0078742655
 30
0.0
 10
17.9851338518
 20
5.0394553231
 30
0.0
 10
17.9897108272
 20
5.0709603407
 30
0.0
 10
17.9957889153
 20
5.1023594767
 30
0.0
 10
18.0033622555
 20
5.1336230063
 30
0.0
 10
18.0124236351
 20
5.164721333
 30
0.0
 10
18.0229641317
 20
5.195625135
 30
0.0
 10
18.0349737912
 20
5.2263052435
 30
0.0
 10
18.0484409338
 20
5.2567326625
 30
0.0
 10
18.0633529436
 20
5.2868792596
 30
0.0
 10
18.0852742877
 20
5.32690221
 30
0.0
 10
18.1163057536
 20
5.3761129268
 30
0.0
 10
18.1515040256
 20
5.4233742509
 30
0.0
 10
18.1822726139
 20
5.4602886218
 30
0.0
 10
18.2152376083
 20
5.4970821077
 30
0.0
 10
18.2597502783
 20
5.5418048002
 30
0.0
 10
18.3177599274
 20
5.5928958414
 30
0.0
 10
18.3805192872
 20
5.6415985503
 30
0.0
 10
18.4477907114
 20
5.6877311105
 30
0.0
 10
18.5193223323
 20
5.7311234478
 30
0.0
 10
18.5948459807
 20
5.7716146432
 30
0.0
 10
18.6740788835
 20
5.8090544478
 30
0.0
 10
18.7567243857
 20
5.843303636
 30
0.0
 10
18.8424730888
 20
5.8742347157
 30
0.0
 10
18.9310037414
 20
5.9017323992
 30
0.0
 10
19.0219852991
 20
5.9256941741
 30
0.0
 10
19.1150749095
 20
5.9460302132
 30
0.0
 10
19.1780222896
 20
5.9570696456
 30
0.0
 10
19.2097583575
 20
5.9619750306
 30
0.0
  0
SPLINE
  5
4C6
100
AcDbEntity
  8
0
100
AcDbSpline
 62
9
  6
CONTINUOUS
 70
0
 71
3
 72
38
 73
34
 74
0
 42
0.0000001
 43
0.0000001
 44
0.0000000001
 40
0.0
 40
0.0
 40
0.0
 40
0.0
 40
0.0748518822
 40
0.112154487
 40
0.1493044504
 40
0.1862521184
 40
0.2229489555
 40
0.2593477767
 40
0.2954030489
 40
0.3310711764
 40
0.3663108019
 40
0.4010831139
 40
0.4353521658
 40
0.4690852056
 40
0.5022530188
 40
0.5348302833
 40
0.5667959385
 40
0.5981335651
 40
0.6288317762
 40
0.658884614
 40
0.6882919463
 40
0.7170598547
 40
0.7452010009
 40
0.7727349529
 40
0.7996884513
 40
0.8260955867
 40
0.8519978564
 40
0.8774440694
 40
0.9024900616
 40
0.9271981976
 40
0.9516366367
 40
0.9758783636
 40
1.0
 40
1.0
 40
1.0
 40
1.0
 10
19.5848497676
 20
3.9030468862
 30
0.0
 10
19.5327343494
 20
3.9030468862
 30
0.0
 10
19.4546179053
 20
3.9054673392
 30
0.0
 10
19.3509681313
 20
3.9135471818
 30
0.0
 10
19.2738542198
 20
3.9220026732
 30
0.0
 10
19.1974660245
 20
3.9328401282
 30
0.0
 10
19.1219796757
 20
3.9460344731
 30
0.0
 10
19.0475714195
 20
3.9615549929
 30
0.0
 10
18.9744143869
 20
3.9793656135
 30
0.0
 10
18.9026789358
 20
3.9994249404
 30
0.0
 10
18.8325320561
 20
4.0216863724
 30
0.0
 10
18.7641370344
 20
4.0460982149
 30
0.0
 10
18.6976530612
 20
4.0726038082
 30
0.0
 10
18.6332348684
 20
4.1011416689
 30
0.0
 10
18.571032374
 20
4.1316456423
 30
0.0
 10
18.511190343
 20
4.1640450674
 30
0.0
 10
18.4538480633
 20
4.1982649511
 30
0.0
 10
18.3991390395
 20
4.2342261531
 30
0.0
 10
18.3471907055
 20
4.2718455767
 30
0.0
 10
18.2981241573
 20
4.3110363657
 30
0.0
 10
18.2520539064
 20
4.3517081033
 30
0.0
 10
18.2090876548
 20
4.3937670093
 30
0.0
 10
18.1693260891
 20
4.4371161316
 30
0.0
 10
18.1328626902
 20
4.4816555282
 30
0.0
 10
18.0997835552
 20
4.5272824359
 30
0.0
 10
18.0701672204
 20
4.5738914212
 30
0.0
 10
18.0440844774
 20
4.6213745301
 30
0.0
 10
18.0215981719
 20
4.6696213873
 30
0.0
 10
18.0027629702
 20
4.7185194615
 30
0.0
 10
17.987625116
 20
4.7679537815
 30
0.0
 10
17.9762220844
 20
4.8178088039
 30
0.0
 10
17.9685825252
 20
4.8679626276
 30
0.0
 10
17.9660073411
 20
4.9015743013
 30
0.0
 10
17.965355097
 20
4.9183562544
 30
0.0
  0
SPLINE
  5
4C7
100
AcDbEntity
  8
0
100
AcDbSpline
 62
9
  6
CONTINUOUS
 70
0
 71
3
 72
39
 73
35
 74
0
 42
0.0000001
 43
0.0000001
 44
0.0000000001
 40
0.0
 40
0.0
 40
0.0
 40
0.0
 40
0.0751233499
 40
0.1125572627
 40
0.1498329822
 40
0.1868991669
 40
0.2237055885
 40
0.2602034944
 40
0.2963458914
 40
0.3320878649
 40
0.3673868978
 40
0.4022032027
 40
0.4365000642
 40
0.4702441948
 40
0.5034061032
 40
0.5359604785
 40
0.5678865863
 40
0.5991686797
 40
0.6297964184
 40
0.6597652948
 40
0.6890770567
 40
0.7177401169
 40
0.7318343197
 40
0.7457727579
 40
0.7731921674
 40
0.8000316361
 40
0.8263294094
 40
0.8521315146
 40
0.8774915823
 40
0.902470451
 40
0.9271355272
 40
0.9515598872
 40
0.9758211283
 40
1.0
 40
1.0
 40
1.0
 40
1.0
 10
19.5848497676
 20
3.5493521214
 30
0.0
 10
19.5225778701
 20
3.5493521214
 30
0.0
 10
19.4292399002
 20
3.5522907522
 30
0.0
 10
19.3054129467
 20
3.5621007671
 30
0.0
 10
19.2133117713
 20
3.5723657807
 30
0.0
 10
19.1221058017
 20
3.5855211532
 30
0.0
 10
19.0320121332
 20
3.6015354867
 30
0.0
 10
18.9432479659
 20
3.6203702792
 30
0.0
 10
18.8560265407
 20
3.6419803401
 30
0.0
 10
18.7705575661
 20
3.6663138149
 30
0.0
 10
18.6870464641
 20
3.693312344
 30
0.0
 10
18.6056939435
 20
3.7229112051
 30
0.0
 10
18.5266955028
 20
3.7550394807
 30
0.0
 10
18.4502409702
 20
3.7896202414
 30
0.0
 10
18.3765140559
 20
3.8265707423
 30
0.0
 10
18.3056919216
 20
3.865802639
 30
0.0
 10
18.2379447825
 20
3.9072222026
 30
0.0
 10
18.1734354881
 20
3.9507305962
 30
0.0
 10
18.1123192931
 20
3.9962239793
 30
0.0
 10
18.0547430559
 20
4.0435942708
 30
0.0
 10
18.0008466285
 20
4.0927275553
 30
0.0
 10
17.9588727366
 20
4.1352823903
 30
0.0
 10
17.927295699
 20
4.170097676
 30
0.0
 10
17.8973903589
 20
4.2050118727
 30
0.0
 10
17.8624859608
 20
4.2495253091
 30
0.0
 10
17.8245176188
 20
4.3045070685
 30
0.0
 10
17.7907876736
 20
4.3606320198
 30
0.0
 10
17.7613805316
 20
4.4177648147
 30
0.0
 10
17.7363694874
 20
4.4757683609
 30
0.0
 10
17.7158177312
 20
4.534502598
 30
0.0
 10
17.699777653
 20
4.5938245838
 30
0.0
 10
17.6882905563
 20
4.6535907286
 30
0.0
 10
17.6813862669
 20
4.7136497646
 30
0.0
 10
17.6798497676
 20
4.7538199583
 30
0.0
 10
17.6798497676
 20
4.7738625179
 30
0.0
  0
SPLINE
  5
4C8
100
AcDbEntity
  8
0
100
AcDbSpline
 62
9
  6
CONTINUOUS
 70
0
 71
3
 72
15
 73
11
 74
0
 42
0.0000001
 43
0.0000001
 44
0.0000000001
 40
0.0
 40
0.0
 40
0.0
 40
0.0
 40
0.129063241
 40
0.2577243248
 40
0.3855874698
 40
0.5122653287
 40
0.6373853729
 40
0.7605947577
 40
0.8815655037
 40
1.0
 40
1.0
 40
1.0
 40
1.0
 10
19.5848497676
 20
3.4091285843
 30
0.0
 10
19.5385943591
 20
3.4091285843
 30
0.0
 10
19.4462129733
 20
3.4112901194
 30
0.0
 10
19.3083140798
 20
3.4210049275
 30
0.0
 10
19.1718749034
 20
3.4371393216
 30
0.0
 10
19.037620631
 20
3.4596081682
 30
0.0
 10
18.9062605686
 20
3.4882929992
 30
0.0
 10
18.7784878711
 20
3.5230432421
 30
0.0
 10
18.6549828835
 20
3.563674022
 30
0.0
 10
18.5750081198
 20
3.5948980768
 30
0.0
 10
18.5359294162
 20
3.6114670075
 30
0.0
  0
SPLINE
  5
4C9
100
AcDbEntity
  8
0
100
AcDbSpline
 62
9
  6
CONTINUOUS
 70
0
 71
3
 72
11
 73
7
 74
0
 42
0.0000001
 43
0.0000001
 44
0.0000000001
 40
0.0
 40
0.0
 40
0.0
 40
0.0
 40
0.2563486022
 40
0.5085775583
 40
0.7565106435
 40
1.0
 40
1.0
 40
1.0
 40
1.0
 10
18.5359294162
 20
3.6114670075
 30
0.0
 10
18.5116144402
 20
3.6217762837
 30
0.0
 10
18.4637369553
 20
3.6430960293
 30
0.0
 10
18.3937526085
 20
3.6774404028
 30
0.0
 10
18.3263089021
 20
3.713827033
 30
0.0
 10
18.2827322671
 20
3.7396341764
 30
0.0
 10
18.261420045
 20
3.7528654306
 30
0.0
  0
SPLINE
  5
4CA
100
AcDbEntity
  8
0
100
AcDbSpline
 62
9
  6
CONTINUOUS
 70
0
 71
3
 72
24
 73
20
 74
0
 42
0.0000001
 43
0.0000001
 44
0.0000000001
 40
0.0
 40
0.0
 40
0.0
 40
0.0
 40
0.0722789037
 40
0.1430539925
 40
0.212317097
 40
0.2800742411
 40
0.3463465456
 40
0.3789399928
 40
0.411177522
 40
0.4746079594
 40
0.5367152178
 40
0.5975876948
 40
0.6573312597
 40
0.7160688215
 40
0.7739394157
 40
0.8310967479
 40
0.8877071704
 40
0.9439471075
 40
1.0
 40
1.0
 40
1.0
 40
1.0
 10
18.2269218347
 20
3.7748360876
 30
0.0
 10
18.2055092627
 20
3.788825081
 30
0.0
 10
18.1637322163
 20
3.8174493995
 30
0.0
 10
18.1037654055
 20
3.8627576167
 30
0.0
 10
18.047284835
 20
3.9098891685
 30
0.0
 10
17.9944265214
 20
3.9587319589
 30
0.0
 10
17.9532722553
 20
4.0010001494
 30
0.0
 10
17.9223164198
 20
4.0355626597
 30
0.0
 10
17.8929981084
 20
4.0702169992
 30
0.0
 10
17.8587834899
 20
4.114380455
 30
0.0
 10
17.8215740311
 20
4.1688978981
 30
0.0
 10
17.7885229921
 20
4.2245239947
 30
0.0
 10
17.7597113878
 20
4.2811272902
 30
0.0
 10
17.7352095425
 20
4.3385747145
 30
0.0
 10
17.7150780645
 20
4.3967303686
 30
0.0
 10
17.6993671837
 20
4.4554556163
 30
0.0
 10
17.6881164847
 20
4.5146112456
 30
0.0
 10
17.681354542
 20
4.5740506499
 30
0.0
 10
17.6798497676
 20
4.6138036941
 30
0.0
 10
17.6798497676
 20
4.6336389807
 30
0.0
  0
SPLINE
  5
4CB
100
AcDbEntity
  8
0
100
AcDbSpline
 62
7
  6
CONTINUOUS
 70
0
 71
3
 72
39
 73
35
 74
0
 42
0.0000001
 43
0.0000001
 44
0.0000000001
 40
0.0
 40
0.0
 40
0.0
 40
0.0
 40
0.0787265596
 40
0.1178373404
 40
0.1566368729
 40
0.1950265666
 40
0.2329120939
 40
0.2702047638
 40
0.3068226171
 40
0.3426916912
 40
0.3777474137
 40
0.4119359239
 40
0.4452155456
 40
0.4775583778
 40
0.5089518032
 40
0.5394000957
 40
0.5542788723
 40
0.5689315126
 40
0.5975774592
 40
0.6254066903
 40
0.652503667
 40
0.6789736538
 40
0.7049413179
 40
0.7305480459
 40
0.7559478879
 40
0.7813024646
 40
0.8067750958
 40
0.8325247037
 40
0.8587002567
 40
0.885436097
 40
0.9128484662
 40
0.9410334467
 40
0.9700660106
 40
1.0
 40
1.0
 40
1.0
 40
1.0
 10
19.5848497676
 20
5.1152056161
 30
0.0
 10
19.6090931361
 20
5.1152056161
 30
0.0
 10
19.6454072704
 20
5.1167743237
 30
0.0
 10
19.6933674225
 20
5.1220181043
 30
0.0
 10
19.7287741972
 20
5.1274883029
 30
0.0
 10
19.7635267827
 20
5.1344786994
 30
0.0
 10
19.7974691772
 20
5.1429578827
 30
0.0
 10
19.8304470786
 20
5.1528874954
 30
0.0
 10
19.8623111297
 20
5.1642227458
 30
0.0
 10
19.8929169218
 20
5.1769125523
 30
0.0
 10
19.9221258027
 20
5.1908998186
 30
0.0
 10
19.9498054647
 20
5.2061217527
 30
0.0
 10
19.9758304095
 20
5.2225100833
 30
0.0
 10
20.0000828125
 20
5.2399917813
 30
0.0
 10
20.0224516699
 20
5.2584880332
 30
0.0
 10
20.0395697112
 20
5.2748044515
 30
0.0
 10
20.0521989089
 20
5.2882881593
 30
0.0
 10
20.063933355
 20
5.3018305408
 30
0.0
 10
20.0772856842
 20
5.3192269544
 30
0.0
 10
20.0911895165
 20
5.3409214018
 30
0.0
 10
20.1027888373
 20
5.3631815142
 30
0.0
 10
20.1120265737
 20
5.3859057578
 30
0.0
 10
20.1188567816
 20
5.4089900528
 30
0.0
 10
20.1232444904
 20
5.4323269394
 30
0.0
 10
20.1251667978
 20
5.455806438
 30
0.0
 10
20.1246135254
 20
5.4793169312
 30
0.0
 10
20.1215876109
 20
5.502746433
 30
0.0
 10
20.1161049927
 20
5.5259839146
 30
0.0
 10
20.1081940611
 20
5.5489204353
 30
0.0
 10
20.0978948171
 20
5.5714499633
 30
0.0
 10
20.0852581717
 20
5.5934696636
 30
0.0
 10
20.070344704
 20
5.6148805753
 30
0.0
 10
20.0532262252
 20
5.6355856347
 30
0.0
 10
20.0405915391
 20
5.6486555513
 30
0.0
 10
20.0339509176
 20
5.6550487906
 30
0.0
  0
SPLINE
  5
4CC
100
AcDbEntity
  8
0
100
AcDbSpline
 62
9
  6
CONTINUOUS
 70
0
 71
3
 72
51
 73
47
 74
0
 42
0.0000001
 43
0.0000001
 44
0.0000000001
 40
0.0
 40
0.0
 40
0.0
 40
0.0
 40
0.0398578219
 40
0.0792933819
 40
0.1182274786
 40
0.1565855454
 40
0.1942985172
 40
0.2313037342
 40
0.2675458959
 40
0.3029780525
 40
0.3375626375
 40
0.37127255
 40
0.4040922791
 40
0.4360190423
 40
0.4670638885
 40
0.4822654667
 40
0.4972576042
 40
0.5266321191
 40
0.555250348
 40
0.5693015548
 40
0.5831930609
 40
0.5969367303
 40
0.6105453777
 40
0.6240327135
 40
0.6374132978
 40
0.6507024393
 40
0.6639161176
 40
0.677070877
 40
0.6901837035
 40
0.70327191
 40
0.7163529988
 40
0.7294445274
 40
0.7425639715
 40
0.7557285932
 40
0.7689553043
 40
0.7822605485
 40
0.7956601901
 40
0.809169399
 40
0.8228025807
 40
0.8365732841
 40
0.8504941413
 40
0.8788261399
 40
0.9078861695
 40
0.9377389928
 40
0.9684328645
 40
1.0
 40
1.0
 40
1.0
 40
1.0
 10
19.9599411777
 20
5.9619750306
 30
0.0
 10
19.9917714491
 20
5.9570550847
 30
0.0
 10
20.0549039438
 20
5.9459792804
 30
0.0
 10
20.1482623229
 20
5.9255663157
 30
0.0
 10
20.2394980323
 20
5.901506479
 30
0.0
 10
20.3282652154
 20
5.8738904987
 30
0.0
 10
20.414229968
 20
5.8428219371
 30
0.0
 10
20.4970683121
 20
5.8084172751
 30
0.0
 10
20.5764682855
 20
5.7708053449
 30
0.0
 10
20.6521308383
 20
5.7301268322
 30
0.0
 10
20.723770988
 20
5.6865335647
 30
0.0
 10
20.7911185489
 20
5.6401881454
 30
0.0
 10
20.8539198618
 20
5.591262435
 30
0.0
 10
20.9119356767
 20
5.5399401534
 30
0.0
 10
20.9564232141
 20
5.4950172447
 30
0.0
 10
20.9893480661
 20
5.4580617733
 30
0.0
 10
21.0200633374
 20
5.4209877388
 30
0.0
 10
21.0551715481
 20
5.3735248525
 30
0.0
 10
21.086078457
 20
5.3241098644
 30
0.0
 10
21.1078793907
 20
5.2839257476
 30
0.0
 10
21.1226917927
 20
5.253659659
 30
0.0
 10
21.1360492792
 20
5.2231139543
 30
0.0
 10
21.1479393298
 20
5.1923170773
 30
0.0
 10
21.1583502457
 20
5.1612982882
 30
0.0
 10
21.1672721521
 20
5.1300870524
 30
0.0
 10
21.1746962461
 20
5.0987129895
 30
0.0
 10
21.1806153335
 20
5.067205964
 30
0.0
 10
21.18502375
 20
5.0355960032
 30
0.0
 10
21.1879169998
 20
5.0039132234
 30
0.0
 10
21.189292432
 20
4.9721878798
 30
0.0
 10
21.1891486317
 20
4.9404502483
 30
0.0
 10
21.1874856681
 20
4.9087306419
 30
0.0
 10
21.1843053405
 20
4.8770593279
 30
0.0
 10
21.1796105695
 20
4.8454665424
 30
0.0
 10
21.173406048
 20
4.8139823975
 30
0.0
 10
21.165697846
 20
4.7826368611
 30
0.0
 10
21.1564933184
 20
4.7514598038
 30
0.0
 10
21.1458015546
 20
4.7204807501
 30
0.0
 10
21.1336328649
 20
4.6897292698
 30
0.0
 10
21.1199986531
 20
4.6592339679
 30
0.0
 10
21.0997679041
 20
4.6187215291
 30
0.0
 10
21.0707905018
 20
4.5688291317
 30
0.0
 10
21.0306082789
 20
4.5108172815
 30
0.0
 10
20.9849650772
 20
4.4545197736
 30
0.0
 10
20.9340413795
 20
4.400151592
 30
0.0
 10
20.8972170626
 20
4.3658073776
 30
0.0
 10
20.8780241331
 20
4.3490047914
 30
0.0
  0
SPLINE
  5
4CD
100
AcDbEntity
  8
0
100
AcDbSpline
 62
9
  6
CONTINUOUS
 70
0
 71
3
 72
23
 73
19
 74
0
 42
0.0000001
 43
0.0000001
 44
0.0000000001
 40
0.0
 40
0.0
 40
0.0
 40
0.0
 40
0.0539782446
 40
0.1093723964
 40
0.1661679592
 40
0.2243329518
 40
0.283819456
 40
0.3445651257
 40
0.4064946502
 40
0.4695211628
 40
0.5335475821
 40
0.598467894
 40
0.66416838
 40
0.730528802
 40
0.7974235136
 40
0.8647227693
 40
0.9322930398
 40
1.0
 40
1.0
 40
1.0
 40
1.0
 10
20.8780241331
 20
4.3490047914
 30
0.0
 10
20.8592365475
 20
4.3325570662
 30
0.0
 10
20.8201327298
 20
4.300396259
 30
0.0
 10
20.7580157566
 20
4.2550522288
 30
0.0
 10
20.6918824331
 20
4.2121262058
 30
0.0
 10
20.6219620302
 20
4.1717660238
 30
0.0
 10
20.5484929274
 20
4.1341077752
 30
0.0
 10
20.4717265882
 20
4.0992794815
 30
0.0
 10
20.3919254531
 20
4.0673994471
 30
0.0
 10
20.3093624263
 20
4.0385761646
 30
0.0
 10
20.2243198699
 20
4.0129078099
 30
0.0
 10
20.1370886765
 20
3.9904818994
 30
0.0
 10
20.0479672863
 20
3.9713749565
 30
0.0
 10
19.9572606367
 20
3.9556522102
 30
0.0
 10
19.8652792349
 20
3.9433673146
 30
0.0
 10
19.7723376081
 20
3.9345623225
 30
0.0
 10
19.6787554274
 20
3.9292671807
 30
0.0
 10
19.6161705894
 20
3.9280895637
 30
0.0
 10
19.5848497676
 20
3.9280895637
 30
0.0
  0
SPLINE
  5
4CE
100
AcDbEntity
  8
0
100
AcDbSpline
 62
9
  6
CONTINUOUS
 70
0
 71
3
 72
39
 73
35
 74
0
 42
0.0000001
 43
0.0000001
 44
0.0000000001
 40
0.0
 40
0.0
 40
0.0
 40
0.0
 40
0.0751233633
 40
0.112557257
 40
0.1498329834
 40
0.1868991658
 40
0.2237055883
 40
0.2602034941
 40
0.2963458914
 40
0.3320878652
 40
0.3673868984
 40
0.4022032036
 40
0.4365000655
 40
0.4702441964
 40
0.5034061052
 40
0.5359604807
 40
0.5678865888
 40
0.5991686823
 40
0.6297964211
 40
0.6597652976
 40
0.6890770594
 40
0.7177401195
 40
0.7318343168
 40
0.74577276
 40
0.7731921693
 40
0.8000316378
 40
0.8263294108
 40
0.8521315157
 40
0.8774915832
 40
0.9024704516
 40
0.9271355276
 40
0.9515598875
 40
0.9758211285
 40
1.0
 40
1.0
 40
1.0
 40
1.0
 10
19.5848497676
 20
3.8770102363
 30
0.0
 10
19.6378054067
 20
3.8770102363
 30
0.0
 10
19.7171794252
 20
3.8795092244
 30
0.0
 10
19.8224810874
 20
3.8878516063
 30
0.0
 10
19.9008033377
 20
3.8965809026
 30
0.0
 10
19.9783643238
 20
3.9077681503
 30
0.0
 10
20.0549794118
 20
3.9213866361
 30
0.0
 10
20.130463902
 20
3.9374036244
 30
0.0
 10
20.2046364537
 20
3.9557806828
 30
0.0
 10
20.2773187327
 20
3.9764737155
 30
0.0
 10
20.3483360492
 20
3.9994330938
 30
0.0
 10
20.4175177217
 20
4.0246037781
 30
0.0
 10
20.4846974996
 20
4.0519254609
 30
0.0
 10
20.5497139539
 20
4.0813327216
 30
0.0
 10
20.6124108586
 20
4.1127551948
 30
0.0
 10
20.6726375566
 20
4.1461177527
 30
0.0
 10
20.7302492977
 20
4.1813406892
 30
0.0
 10
20.7851075961
 20
4.2183399534
 30
0.0
 10
20.8370804229
 20
4.2570272411
 30
0.0
 10
20.8860428949
 20
4.297310637
 30
0.0
 10
20.9318760673
 20
4.3390932822
 30
0.0
 10
20.9675704263
 20
4.3752816178
 30
0.0
 10
20.9944232816
 20
4.4048883697
 30
0.0
 10
21.0198546515
 20
4.4345791328
 30
0.0
 10
21.0495371051
 20
4.4724331064
 30
0.0
 10
21.0818251511
 20
4.5191892417
 30
0.0
 10
21.1105088801
 20
4.5669175494
 30
0.0
 10
21.1355165272
 20
4.6155029186
 30
0.0
 10
21.1567857596
 20
4.6648287696
 30
0.0
 10
21.1742628419
 20
4.7147759953
 30
0.0
 10
21.1879032217
 20
4.7652230387
 30
0.0
 10
21.1976717751
 20
4.8160477919
 30
0.0
 10
21.2035431385
 20
4.8671216179
 30
0.0
 10
21.2048497676
 20
4.9012820975
 30
0.0
 10
21.2048497676
 20
4.918326164
 30
0.0
  0
SPLINE
  5
4CF
100
AcDbEntity
  8
0
100
AcDbSpline
 62
9
  6
CONTINUOUS
 70
0
 71
3
 72
11
 73
7
 74
0
 42
0.0000001
 43
0.0000001
 44
0.0000000001
 40
0.0
 40
0.0
 40
0.0
 40
0.0
 40
0.2509921854
 40
0.5015850364
 40
0.7513850446
 40
1.0
 40
1.0
 40
1.0
 40
1.0
 10
19.5848497676
 20
3.1326038851
 30
0.0
 10
19.6195567671
 20
3.1326038851
 30
0.0
 10
19.6889210964
 20
3.1337628288
 30
0.0
 10
19.7927100325
 20
3.1389749324
 30
0.0
 10
19.8959376259
 20
3.1476458703
 30
0.0
 10
19.9643968779
 20
3.1557407906
 30
0.0
 10
19.9984628793
 20
3.1603639442
 30
0.0
  0
SPLINE
  5
4D0
100
AcDbEntity
  8
0
100
AcDbSpline
 62
9
  6
CONTINUOUS
 70
0
 71
3
 72
40
 73
36
 74
0
 42
0.0000001
 43
0.0000001
 44
0.0000000001
 40
0.0
 40
0.0
 40
0.0
 40
0.0
 40
0.0395521149
 40
0.0787491499
 40
0.1175369238
 40
0.1558638553
 40
0.1936813672
 40
0.2309443076
 40
0.2676113858
 40
0.3036456249
 40
0.3390148336
 40
0.3736920957
 40
0.4076562764
 40
0.4408925458
 40
0.4733929106
 40
0.5051567488
 40
0.5361913318
 40
0.5514412931
 40
0.5665155493
 40
0.5961474168
 40
0.6251238138
 40
0.6534877709
 40
0.681291737
 40
0.7085973843
 40
0.7354751342
 40
0.7620033647
 40
0.7882672828
 40
0.8143574688
 40
0.840368138
 40
0.8663951979
 40
0.8925342057
 40
0.9188783469
 40
0.9455165516
 40
0.9725318449
 40
1.0
 40
1.0
 40
1.0
 40
1.0
 10
20.0853480543
 20
3.1734618409
 30
0.0
 10
20.1181930882
 20
3.1789123409
 30
0.0
 10
20.1834100713
 20
3.1908739665
 30
0.0
 10
20.2800701224
 20
3.2120828162
 30
0.0
 10
20.3749248321
 20
3.2364316345
 30
0.0
 10
20.4677263279
 20
3.2638570702
 30
0.0
 10
20.5582339679
 20
3.2942881299
 30
0.0
 10
20.6462126026
 20
3.3276459976
 30
0.0
 10
20.7314338021
 20
3.3638443553
 30
0.0
 10
20.8136762772
 20
3.4027895969
 30
0.0
 10
20.8927264875
 20
3.4443810958
 30
0.0
 10
20.9683791497
 20
3.4885114765
 30
0.0
 10
21.0404377866
 20
3.5350669555
 30
0.0
 10
21.1087150411
 20
3.5839274894
 30
0.0
 10
21.173033672
 20
3.6349676793
 30
0.0
 10
21.2332249291
 20
3.6880549797
 30
0.0
 10
21.2800871779
 20
3.7341556644
 30
0.0
 10
21.3153198471
 20
3.7719329042
 30
0.0
 10
21.3486545964
 20
3.8098355358
 30
0.0
 10
21.3875270018
 20
3.8582209042
 30
0.0
 10
21.4297511481
 20
3.918089263
 30
0.0
 10
21.4671748373
 20
3.979278562
 30
0.0
 10
21.4996967626
 20
4.0416294789
 30
0.0
 10
21.5272291258
 20
4.1049804216
 30
0.0
 10
21.5496965062
 20
4.1691659507
 30
0.0
 10
21.567036729
 20
4.2340175292
 30
0.0
 10
21.5792012672
 20
4.2993637964
 30
0.0
 10
21.5861557655
 20
4.3650311374
 30
0.0
 10
21.5878804473
 20
4.4308443794
 30
0.0
 10
21.5843704014
 20
4.496627587
 30
0.0
 10
21.5756355967
 20
4.5622050686
 30
0.0
 10
21.5617009508
 20
4.6274018234
 30
0.0
 10
21.5426052028
 20
4.6920459527
 30
0.0
 10
21.5184034997
 20
4.7559631305
 30
0.0
 10
21.4990812748
 20
4.7976075953
 30
0.0
 10
21.4886292899
 20
4.8182325904
 30
0.0
  0
SPLINE
  5
4D1
100
AcDbEntity
  8
0
100
AcDbSpline
 62
9
  6
CONTINUOUS
 70
0
 71
3
 72
15
 73
11
 74
0
 42
0.0000001
 43
0.0000001
 44
0.0000000001
 40
0.0
 40
0.0
 40
0.0
 40
0.0
 40
0.12907913
 40
0.257754476
 40
0.3856286559
 40
0.5123128108
 40
0.6374330155
 40
0.7606351867
 40
0.8815903136
 40
1.0
 40
1.0
 40
1.0
 40
1.0
 10
19.5848497676
 20
3.4091285843
 30
0.0
 10
19.6311962763
 20
3.4091285843
 30
0.0
 10
19.7237590996
 20
3.4112986251
 30
0.0
 10
19.8619261753
 20
3.4210516153
 30
0.0
 10
19.9986249326
 20
3.4372491958
 30
0.0
 10
20.1331259472
 20
3.4598055712
 30
0.0
 10
20.2647158218
 20
3.4886013358
 30
0.0
 10
20.392697462
 20
3.5234847614
 30
0.0
 10
20.5163867356
 20
3.5642695177
 30
0.0
 10
20.5964702081
 20
3.5956117027
 30
0.0
 10
20.6355979145
 20
3.6122429419
 30
0.0
  0
SPLINE
  5
4D2
100
AcDbEntity
  8
0
100
AcDbSpline
 62
9
  6
CONTINUOUS
 70
0
 71
3
 72
11
 73
7
 74
0
 42
0.0000001
 43
0.0000001
 44
0.0000000001
 40
0.0
 40
0.0
 40
0.0
 40
0.0
 40
0.2563142796
 40
0.508530167
 40
0.7564740019
 40
1.0
 40
1.0
 40
1.0
 40
1.0
 10
20.6355979145
 20
3.6122429419
 30
0.0
 10
20.6597441745
 20
3.6225063145
 30
0.0
 10
20.7072923988
 20
3.6437251591
 30
0.0
 10
20.7768031959
 20
3.6778882913
 30
0.0
 10
20.8438030005
 20
3.7140674271
 30
0.0
 10
20.8871002425
 20
3.7397167461
 30
0.0
 10
20.9082786947
 20
3.7528649368
 30
0.0
  0
SPLINE
  5
4D3
100
AcDbEntity
  8
0
100
AcDbSpline
 62
9
  6
CONTINUOUS
 70
0
 71
3
 72
24
 73
20
 74
0
 42
0.0000001
 43
0.0000001
 44
0.0000000001
 40
0.0
 40
0.0
 40
0.0
 40
0.0
 40
0.0722789037
 40
0.1430539925
 40
0.212317097
 40
0.2800742411
 40
0.3463465456
 40
0.3789399928
 40
0.411177522
 40
0.4746079594
 40
0.5367152178
 40
0.5975876948
 40
0.6573312596
 40
0.7160688215
 40
0.7739394157
 40
0.8310967479
 40
0.8877071704
 40
0.9439471075
 40
1.0
 40
1.0
 40
1.0
 40
1.0
 10
20.9427777006
 20
3.7748360877
 30
0.0
 10
20.9641902725
 20
3.788825081
 30
0.0
 10
21.0059673189
 20
3.8174493996
 30
0.0
 10
21.0659341297
 20
3.8627576168
 30
0.0
 10
21.1224147002
 20
3.9098891686
 30
0.0
 10
21.1752730138
 20
3.9587319589
 30
0.0
 10
21.2164272799
 20
4.0010001494
 30
0.0
 10
21.2473831153
 20
4.0355626597
 30
0.0
 10
21.2767014268
 20
4.0702169992
 30
0.0
 10
21.3109160453
 20
4.1143804551
 30
0.0
 10
21.348125504
 20
4.1688978982
 30
0.0
 10
21.3811765431
 20
4.2245239947
 30
0.0
 10
21.4099881473
 20
4.2811272902
 30
0.0
 10
21.4344899927
 20
4.3385747145
 30
0.0
 10
21.4546214706
 20
4.3967303686
 30
0.0
 10
21.4703323514
 20
4.4554556163
 30
0.0
 10
21.4815830504
 20
4.5146112456
 30
0.0
 10
21.4883449931
 20
4.57405065
 30
0.0
 10
21.4898497676
 20
4.6138036941
 30
0.0
 10
21.4898497676
 20
4.6336389807
 30
0.0
  0
SPLINE
  5
4D4
100
AcDbEntity
  8
0
100
AcDbSpline
 62
9
  6
CONTINUOUS
 70
0
 71
3
 72
50
 73
46
 74
0
 42
0.0000001
 43
0.0000001
 44
0.0000000001
 40
0.0
 40
0.0
 40
0.0
 40
0.0
 40
0.0281674554
 40
0.0556007492
 40
0.0690700564
 40
0.082387856
 40
0.0955669732
 40
0.1086212097
 40
0.12156528
 40
0.1344147207
 40
0.1471857975
 40
0.1598953985
 40
0.1725609039
 40
0.1852000535
 40
0.1978308052
 40
0.2104711864
 40
0.223139145
 40
0.2358524006
 40
0.2486283036
 40
0.2614837034
 40
0.2744348201
 40
0.2874971361
 40
0.3006853056
 40
0.314013067
 40
0.3274931761
 40
0.3411373657
 40
0.368953805
 40
0.397540792
 40
0.4269529847
 40
0.4572278838
 40
0.4883865883
 40
0.5204348554
 40
0.5533642588
 40
0.5871534123
 40
0.6217692252
 40
0.6571680822
 40
0.6932970151
 40
0.7300948157
 40
0.7674930704
 40
0.8054171855
 40
0.8437873396
 40
0.8825194094
 40
0.9215258789
 40
0.9607165259
 40
1.0
 40
1.0
 40
1.0
 40
1.0
 10
17.700986963
 20
4.9600900909
 30
0.0
 10
17.6815912295
 20
4.9348458342
 30
0.0
 10
17.6451841407
 20
4.8835346357
 30
0.0
 10
17.6052983032
 20
4.8163178945
 30
0.0
 10
17.577492081
 20
4.7616906151
 30
0.0
 10
17.5587810608
 20
4.7205614245
 30
0.0
 10
17.542108567
 20
4.6790697739
 30
0.0
 10
17.5274913338
 20
4.6372568381
 30
0.0
 10
17.5149444376
 20
4.5951649941
 30
0.0
 10
17.504480853
 20
4.5528367088
 30
0.0
 10
17.4961114915
 20
4.5103148128
 30
0.0
 10
17.4898449347
 20
4.4676424082
 30
0.0
 10
17.4856877171
 20
4.42486277
 30
0.0
 10
17.483644266
 20
4.3820193237
 30
0.0
 10
17.4837166113
 20
4.3391555966
 30
0.0
 10
17.4859046653
 20
4.2963151272
 30
0.0
 10
17.4902062548
 20
4.2535414378
 30
0.0
 10
17.4966168242
 20
4.2108779489
 30
0.0
 10
17.505129666
 20
4.1683679199
 30
0.0
 10
17.5157360437
 20
4.1260544381
 30
0.0
 10
17.528424941
 20
4.0839803085
 30
0.0
 10
17.5431831785
 20
4.0421880266
 30
0.0
 10
17.5599956705
 20
4.0007197268
 30
0.0
 10
17.5788450241
 20
3.9596173701
 30
0.0
 10
17.5997123553
 20
3.918921569
 30
0.0
 10
17.630390511
 20
3.8649168253
 30
0.0
 10
17.6738056122
 20
3.7985993793
 30
0.0
 10
17.7332399238
 20
3.7218368168
 30
0.0
 10
17.80010571
 20
3.6476728531
 30
0.0
 10
17.8741280155
 20
3.5764041738
 30
0.0
 10
17.9550076833
 20
3.5083101179
 30
0.0
 10
18.0424187251
 20
3.4436594931
 30
0.0
 10
18.1360100954
 20
3.3827074518
 30
0.0
 10
18.2354064739
 20
3.3256950033
 30
0.0
 10
18.3402097733
 20
3.2728481835
 30
0.0
 10
18.4500003145
 20
3.2243767409
 30
0.0
 10
18.5643385161
 20
3.1804734061
 30
0.0
 10
18.6827665793
 20
3.1413131274
 30
0.0
 10
18.8048101708
 20
3.1070519397
 30
0.0
 10
18.9299804029
 20
3.077826651
 30
0.0
 10
19.0577758074
 20
3.0537540457
 30
0.0
 10
19.1876840285
 20
3.034930248
 30
0.0
 10
19.3191849843
 20
3.0214306934
 30
0.0
 10
19.4517488802
 20
3.0133092191
 30
0.0
 10
19.5404513927
 20
3.0115027615
 30
0.0
 10
19.5848497676
 20
3.0115027615
 30
0.0
  0
SPLINE
  5
4D5
100
AcDbEntity
  8
0
100
AcDbSpline
 62
7
  6
CONTINUOUS
 70
0
 71
3
 72
38
 73
34
 74
0
 42
0.0000001
 43
0.0000001
 44
0.0000000001
 40
0.0
 40
0.0
 40
0.0
 40
0.0
 40
0.0741569692
 40
0.1111228036
 40
0.1479491258
 40
0.1845904962
 40
0.2210023804
 40
0.2571413926
 40
0.2929655307
 40
0.3284344213
 40
0.3635095685
 40
0.3981546113
 40
0.432335588
 40
0.4660212101
 40
0.4991831458
 40
0.531796314
 40
0.563839188
 40
0.5952941111
 40
0.6261476196
 40
0.6563907744
 40
0.686019496
 40
0.7150348971
 40
0.7434436065
 40
0.771258073
 40
0.7984968341
 40
0.8251847342
 40
0.851353068
 40
0.8770396269
 40
0.9022886205
 40
0.9271504478
 40
0.9516812952
 40
0.9759425464
 40
1.0
 40
1.0
 40
1.0
 40
1.0
 10
19.5848497676
 20
2.9260597672
 30
0.0
 10
19.5184363607
 20
2.9260597672
 30
0.0
 10
19.418882881
 20
2.9290220454
 30
0.0
 10
19.2867387939
 20
2.9389094437
 30
0.0
 10
19.1883634062
 20
2.9492592426
 30
0.0
 10
19.0908411181
 20
2.962527867
 30
0.0
 10
18.9943792468
 20
2.9786870203
 30
0.0
 10
18.8991854665
 20
2.9977020059
 30
0.0
 10
18.8054640107
 20
3.0195320675
 30
0.0
 10
18.7134161221
 20
3.0441304107
 30
0.0
 10
18.6232393839
 20
3.071444328
 30
0.0
 10
18.5351273585
 20
3.1014153137
 30
0.0
 10
18.4492691564
 20
3.133979198
 30
0.0
 10
18.3658490382
 20
3.1690662933
 30
0.0
 10
18.2850460222
 20
3.2066015531
 30
0.0
 10
18.207033509
 20
3.2465047437
 30
0.0
 10
18.1319789193
 20
3.2886906262
 30
0.0
 10
18.0600433507
 20
3.3330691503
 30
0.0
 10
17.9913812505
 20
3.3795456559
 30
0.0
 10
17.9261401109
 20
3.4280210827
 30
0.0
 10
17.8644601824
 20
3.4783921844
 30
0.0
 10
17.8064742107
 20
3.5305517444
 30
0.0
 10
17.7523071938
 20
3.5843887905
 30
0.0
 10
17.7020761585
 20
3.6397888033
 30
0.0
 10
17.6558899534
 20
3.6966339162
 30
0.0
 10
17.6138490537
 20
3.7548030989
 30
0.0
 10
17.5760453661
 20
3.8141723415
 30
0.0
 10
17.5425620359
 20
3.8746147747
 30
0.0
 10
17.5134732117
 20
3.9360009697
 30
0.0
 10
17.4888438786
 20
3.9981985731
 30
0.0
 10
17.4687293267
 20
4.0610744162
 30
0.0
 10
17.4531758294
 20
4.1244876995
 30
0.0
 10
17.4458458913
 20
4.167179293
 30
0.0
 10
17.4429632018
 20
4.18853092
 30
0.0
  0
SPLINE
  5
4D6
100
AcDbEntity
  8
0
100
AcDbSpline
 62
9
  6
CONTINUOUS
 70
0
 71
3
 72
50
 73
46
 74
0
 42
0.0000001
 43
0.0000001
 44
0.0000000001
 40
0.0
 40
0.0
 40
0.0
 40
0.0
 40
0.0392834622
 40
0.0784740979
 40
0.1174805575
 40
0.1562126195
 40
0.1945827683
 40
0.2325068813
 40
0.2699051377
 40
0.306702944
 40
0.342831887
 40
0.3782307587
 40
0.4128465911
 40
0.4466357688
 40
0.479565201
 40
0.5116135008
 40
0.5427722416
 40
0.5730471797
 40
0.602459413
 40
0.631046441
 40
0.6588629203
 40
0.6725071289
 40
0.6859872561
 40
0.6993150344
 40
0.7125032195
 40
0.7255655494
 40
0.7385166782
 40
0.7513720879
 40
0.7641479985
 40
0.7768612592
 40
0.7895292201
 40
0.8021696006
 40
0.8148003485
 40
0.8274394911
 40
0.8401049862
 40
0.8528145734
 40
0.865585633
 40
0.8784350529
 40
0.8913790991
 40
0.904433308
 40
0.9176123942
 40
0.9309301595
 40
0.9443994293
 40
0.9718326392
 40
1.0
 40
1.0
 40
1.0
 40
1.0
 10
19.5848497676
 20
3.0115027615
 30
0.0
 10
19.6292479849
 20
3.0115027615
 30
0.0
 10
19.7179501832
 20
3.0133092063
 30
0.0
 10
19.8505136131
 20
3.0214306231
 30
0.0
 10
19.9820141141
 20
3.0349300823
 30
0.0
 10
20.1119218973
 20
3.0537537477
 30
0.0
 10
20.2397168862
 20
3.0778261845
 30
0.0
 10
20.3648867303
 20
3.1070512701
 30
0.0
 10
20.4869299666
 20
3.1413122218
 30
0.0
 10
20.605357712
 20
3.1804722333
 30
0.0
 10
20.719695638
 20
3.2243752719
 30
0.0
 10
20.8294859502
 20
3.2728463919
 30
0.0
 10
20.9342890712
 20
3.325692865
 30
0.0
 10
21.0336853254
 20
3.3827049458
 30
0.0
 10
21.127276629
 20
3.4436566013
 30
0.0
 10
21.2146876647
 20
3.5083068254
 30
0.0
 10
21.2955673894
 20
3.5764004691
 30
0.0
 10
21.3695898171
 20
3.6476687281
 30
0.0
 10
21.4364557925
 20
3.7218322671
 30
0.0
 10
21.4958903615
 20
3.7985944041
 30
0.0
 10
21.5393057373
 20
3.8649114965
 30
0.0
 10
21.5699841485
 20
3.9189159631
 30
0.0
 10
21.5908516872
 20
3.9596115595
 30
0.0
 10
21.6097012653
 20
4.0007137145
 30
0.0
 10
21.626513999
 20
4.042181816
 30
0.0
 10
21.6412724953
 20
4.0839739034
 30
0.0
 10
21.6539616683
 20
4.1260478431
 30
0.0
 10
21.6645683383
 20
4.1683611399
 30
0.0
 10
21.673081489
 20
4.2108709894
 30
0.0
 10
21.6794923834
 20
4.2535343047
 30
0.0
 10
21.6837943139
 20
4.296307827
 30
0.0
 10
21.6859827245
 20
4.3391481361
 30
0.0
 10
21.6860554417
 20
4.3820117104
 30
0.0
 10
21.6840123774
 20
4.4248550118
 30
0.0
 10
21.6798555609
 20
4.4676345134
 30
0.0
 10
21.6735894193
 20
4.5103067903
 30
0.0
 10
21.6652204866
 20
4.5528285676
 30
0.0
 10
21.6547573437
 20
4.595156744
 30
0.0
 10
21.6422109017
 20
4.6372484891
 30
0.0
 10
21.6275941347
 20
4.6790613365
 30
0.0
 10
21.6109221184
 20
4.7205529094
 30
0.0
 10
21.5922115865
 20
4.7616820334
 30
0.0
 10
21.5644060354
 20
4.8163092339
 30
0.0
 10
21.5245210619
 20
4.8835259091
 30
0.0
 10
21.4881146639
 20
4.9348371001
 30
0.0
 10
21.46871928
 20
4.9600813603
 30
0.0
  0
SPLINE
  5
4D7
100
AcDbEntity
  8
0
100
AcDbSpline
 62
9
  6
CONTINUOUS
 70
0
 71
3
 72
51
 73
47
 74
0
 42
0.0000001
 43
0.0000001
 44
0.0000000001
 40
0.0
 40
0.0
 40
0.0
 40
0.0
 40
0.0135004066
 40
0.0270244065
 40
0.0405930932
 40
0.0542291538
 40
0.0679532377
 40
0.081784976
 40
0.0957425636
 40
0.1098424691
 40
0.1240993332
 40
0.1385258261
 40
0.1531325784
 40
0.1679281347
 40
0.1980993638
 40
0.2290767943
 40
0.260855169
 40
0.2933999602
 40
0.3266505396
 40
0.3605237489
 40
0.3949175853
 40
0.4297150197
 40
0.46478775
 40
0.5
 40
0.53521225
 40
0.5702849803
 40
0.6050824147
 40
0.6394762511
 40
0.6733494604
 40
0.7066000398
 40
0.739144831
 40
0.7709232057
 40
0.8019006362
 40
0.8320718653
 40
0.8468674216
 40
0.8614741739
 40
0.8759006668
 40
0.8901575309
 40
0.9042574364
 40
0.918215024
 40
0.9320467623
 40
0.9457708462
 40
0.9594069068
 40
0.9729755935
 40
0.9864995934
 40
1.0
 40
1.0
 40
1.0
 40
1.0
 10
19.0948497676
 20
11.3531496249
 30
0.0
 10
19.0948497676
 20
11.3592920128
 30
0.0
 10
19.0952442638
 20
11.3715911508
 30
0.0
 10
19.0970170729
 20
11.3899868371
 30
0.0
 10
19.0999671711
 20
11.4082939495
 30
0.0
 10
19.1040868771
 20
11.426466763
 30
0.0
 10
19.1093662732
 20
11.4444617367
 30
0.0
 10
19.1157922286
 20
11.4622351742
 30
0.0
 10
19.1233489244
 20
11.4797441717
 30
0.0
 10
19.1320179002
 20
11.4969464537
 30
0.0
 10
19.1417779773
 20
11.5138006021
 30
0.0
 10
19.1526051884
 20
11.5302659937
 30
0.0
 10
19.1644736233
 20
11.5463034791
 30
0.0
 10
19.181757028
 20
11.5671970349
 30
0.0
 10
19.2058710676
 20
11.592037363
 30
0.0
 10
19.2382463571
 20
11.6193297666
 30
0.0
 10
19.2739424544
 20
11.6440531255
 30
0.0
 10
19.3126135273
 20
11.6659721998
 30
0.0
 10
19.353889052
 20
11.6848814971
 30
0.0
 10
19.3973735725
 20
11.7006024727
 30
0.0
 10
19.442651005
 20
11.7129869129
 30
0.0
 10
19.4892883167
 20
11.721917558
 30
0.0
 10
19.5368394749
 20
11.7273100902
 30
0.0
 10
19.5848497676
 20
11.7291132209
 30
0.0
 10
19.6328600602
 20
11.7273100902
 30
0.0
 10
19.6804112185
 20
11.721917558
 30
0.0
 10
19.7270485301
 20
11.7129869129
 30
0.0
 10
19.7723259626
 20
11.7006024727
 30
0.0
 10
19.8158104831
 20
11.6848814971
 30
0.0
 10
19.8570860078
 20
11.6659721998
 30
0.0
 10
19.8957570808
 20
11.6440531255
 30
0.0
 10
19.931453178
 20
11.6193297666
 30
0.0
 10
19.9638284675
 20
11.592037363
 30
0.0
 10
19.9879425072
 20
11.5671970349
 30
0.0
 10
20.0052259119
 20
11.5463034791
 30
0.0
 10
20.0170943468
 20
11.5302659937
 30
0.0
 10
20.0279215578
 20
11.5138006021
 30
0.0
 10
20.037681635
 20
11.4969464537
 30
0.0
 10
20.0463506108
 20
11.4797441717
 30
0.0
 10
20.0539073065
 20
11.4622351742
 30
0.0
 10
20.060333262
 20
11.4444617367
 30
0.0
 10
20.065612658
 20
11.426466763
 30
0.0
 10
20.069732364
 20
11.4082939495
 30
0.0
 10
20.0726824622
 20
11.3899868371
 30
0.0
 10
20.0744552713
 20
11.3715911508
 30
0.0
 10
20.0748497676
 20
11.3592920128
 30
0.0
 10
20.0748497676
 20
11.3531496249
 30
0.0
  0
SPLINE
  5
4D8
100
AcDbEntity
  8
0
100
AcDbSpline
 62
9
  6
CONTINUOUS
 70
0
 71
3
 72
23
 73
19
 74
0
 42
0.0000001
 43
0.0000001
 44
0.0000000001
 40
0.0
 40
0.0
 40
0.0
 40
0.0
 40
0.0620315503
 40
0.1235079929
 40
0.1845572614
 40
0.2453127869
 40
0.3059118601
 40
0.3664938561
 40
0.4271983775
 40
0.4881633925
 40
0.549523434
 40
0.6114079226
 40
0.6739396647
 40
0.7372335575
 40
0.8013955454
 40
0.8665218175
 40
0.9326982388
 40
1.0
 40
1.0
 40
1.0
 40
1.0
 10
17.9876713224
 20
5.119452737
 30
0.0
 10
17.9831963801
 20
5.1057253722
 30
0.0
 10
17.9750897254
 20
5.0781234984
 30
0.0
 10
17.9654903363
 20
5.0362265771
 30
0.0
 10
17.9585283344
 20
4.9941104623
 30
0.0
 10
17.9542162393
 20
4.9518464258
 30
0.0
 10
17.9525613372
 20
4.9095037477
 30
0.0
 10
17.9535665167
 20
4.8671525454
 30
0.0
 10
17.957230013
 20
4.8248627882
 30
0.0
 10
17.9635455195
 20
4.7827043278
 30
0.0
 10
17.9725022013
 20
4.7407466696
 30
0.0
 10
17.9840847659
 20
4.6990588258
 30
0.0
 10
17.9982735348
 20
4.6577091825
 30
0.0
 10
18.015044509
 20
4.6167653253
 30
0.0
 10
18.0343694159
 20
4.5762940777
 30
0.0
 10
18.0562161733
 20
4.5363609125
 30
0.0
 10
18.0805475665
 20
4.4970317878
 30
0.0
 10
18.0982454371
 20
4.4714780886
 30
0.0
 10
18.1074803999
 20
4.4588246929
 30
0.0
  0
SPLINE
  5
4D9
100
AcDbEntity
  8
0
100
AcDbSpline
 62
9
  6
CONTINUOUS
 70
0
 71
3
 72
16
 73
12
 74
0
 42
0.0000001
 43
0.0000001
 44
0.0000000001
 40
0.0
 40
0.0
 40
0.0
 40
0.0
 40
0.1112745617
 40
0.1683469598
 40
0.226400756
 40
0.3454924636
 40
0.4686385205
 40
0.595810289
 40
0.7268958515
 40
0.8617093905
 40
1.0
 40
1.0
 40
1.0
 40
1.0
 10
18.1074803999
 20
4.4588246929
 30
0.0
 10
18.1250444186
 20
4.4347591406
 30
0.0
 10
18.1533497616
 20
4.3995789838
 30
0.0
 10
18.1943196718
 20
4.3548867485
 30
0.0
 10
18.2386059013
 20
4.3104619612
 30
0.0
 10
18.2988130035
 20
4.2570387041
 30
0.0
 10
18.3776076233
 20
4.1971127795
 30
0.0
 10
18.4631230321
 20
4.1411491546
 30
0.0
 10
18.5548805992
 20
4.089456069
 30
0.0
 10
18.6523667576
 20
4.0423178254
 30
0.0
 10
18.720015375
 20
4.0144316923
 30
0.0
 10
18.7546291204
 20
4.0012834932
 30
0.0
  0
SPLINE
  5
4DA
100
AcDbEntity
  8
0
100
AcDbSpline
 62
9
  6
CONTINUOUS
 70
0
 71
3
 72
15
 73
11
 74
0
 42
0.0000001
 43
0.0000001
 44
0.0000000001
 40
0.0
 40
0.0
 40
0.0
 40
0.0
 40
0.1194615858
 40
0.24107603
 40
0.3645807034
 40
0.4896919414
 40
0.6161088165
 40
0.7435167986
 40
0.8715905235
 40
1.0
 40
1.0
 40
1.0
 40
1.0
 10
18.7546291204
 20
4.0012834932
 30
0.0
 10
18.7861751071
 20
3.9893005971
 30
0.0
 10
18.8504628049
 20
3.9667391053
 30
0.0
 10
18.9492161707
 20
3.9373880743
 30
0.0
 10
19.050790392
 20
3.9123287525
 30
0.0
 10
19.1547320653
 20
3.8916730571
 30
0.0
 10
19.260581165
 20
3.8755118676
 30
0.0
 10
19.3678686979
 20
3.8639169024
 30
0.0
 10
19.4761165981
 20
3.8569392486
 30
0.0
 10
19.5485769817
 20
3.8553870611
 30
0.0
 10
19.5848497676
 20
3.8553870611
 30
0.0
  0
SPLINE
  5
4DB
100
AcDbEntity
  8
0
100
AcDbSpline
 62
9
  6
CONTINUOUS
 70
0
 71
3
 72
15
 73
11
 74
0
 42
0.0000001
 43
0.0000001
 44
0.0000000001
 40
0.0
 40
0.0
 40
0.0
 40
0.0
 40
0.1313716757
 40
0.2615169958
 40
0.390114079
 40
0.5168576892
 40
0.6414631843
 40
0.7636705641
 40
0.8832487218
 40
1.0
 40
1.0
 40
1.0
 40
1.0
 10
19.2661845632
 20
3.6481114869
 30
0.0
 10
19.2253228132
 20
3.6526776644
 30
0.0
 10
19.1441676207
 20
3.6635470072
 30
0.0
 10
19.0239558812
 20
3.6851385484
 30
0.0
 10
18.9062602296
 20
3.7118595742
 30
0.0
 10
18.7916118633
 20
3.7435903688
 30
0.0
 10
18.6805247051
 20
3.780188988
 30
0.0
 10
18.5734960257
 20
3.821492683
 30
0.0
 10
18.4710101585
 20
3.8673150422
 30
0.0
 10
18.4051937122
 20
3.901165701
 30
0.0
 10
18.373198624
 20
3.9188152109
 30
0.0
  0
LINE
  5
4DC
100
AcDbEntity
  8
0
100
AcDbLine
 62
9
  6
CONTINUOUS
 10
18.373198624
 20
3.9188152109
 11
18.3729344806
 21
3.9189609484
  0
SPLINE
  5
4DD
100
AcDbEntity
  8
0
100
AcDbSpline
 62
9
  6
CONTINUOUS
 70
0
 71
3
 72
51
 73
47
 74
0
 42
0.0000001
 43
0.0000001
 44
0.0000000001
 40
0.0
 40
0.0
 40
0.0
 40
0.0
 40
0.0338456997
 40
0.0667193316
 40
0.0986107145
 40
0.1295278624
 40
0.1594986084
 40
0.1885719555
 40
0.2027969183
 40
0.2168261237
 40
0.2306719766
 40
0.2443482565
 40
0.2578700616
 40
0.2712537423
 40
0.284516819
 40
0.2976778613
 40
0.3107563519
 40
0.3237725332
 40
0.3367472329
 40
0.3497016716
 40
0.362657264
 40
0.3756354136
 40
0.3886573079
 40
0.4017437205
 40
0.4149148212
 40
0.4281900008
 40
0.4415877213
 40
0.4551253833
 40
0.4688192073
 40
0.4826841508
 40
0.4967338467
 40
0.5109805532
 40
0.540100568
 40
0.5701211755
 40
0.6010902097
 40
0.6330344023
 40
0.6659607423
 40
0.6998581216
 40
0.7346990097
 40
0.770441157
 40
0.8070292505
 40
0.8443964707
 40
0.8824660182
 40
0.921152506
 40
0.9603633403
 40
1.0
 40
1.0
 40
1.0
 40
1.0
 10
18.3125053971
 20
3.9538087725
 30
0.0
 10
18.2820373785
 20
3.9721656076
 30
0.0
 10
18.2230364117
 20
4.0101538304
 30
0.0
 10
18.1396058435
 20
4.0717555991
 30
0.0
 10
18.0628844355
 20
4.136890129
 30
0.0
 10
17.9932343265
 20
4.2052595221
 30
0.0
 10
17.9309847764
 20
4.2765485673
 30
0.0
 10
17.8851869135
 20
4.3385776707
 30
0.0
 10
17.8526456202
 20
4.3893029369
 30
0.0
 10
17.8304335085
 20
4.4275872705
 30
0.0
 10
17.8102677662
 20
4.4663389288
 30
0.0
 10
17.7921717332
 20
4.5055134387
 30
0.0
 10
17.7761671112
 20
4.5450649376
 30
0.0
 10
17.7622730619
 20
4.5849472847
 30
0.0
 10
17.7505061947
 20
4.6251137568
 30
0.0
 10
17.7408806374
 20
4.665517249
 30
0.0
 10
17.7334080678
 20
4.7061103051
 30
0.0
 10
17.7280975514
 20
4.7468451541
 30
0.0
 10
17.724955457
 20
4.7876737874
 30
0.0
 10
17.7239856124
 20
4.8285480578
 30
0.0
 10
17.7251892789
 20
4.8694197335
 30
0.0
 10
17.7285649309
 20
4.9102405846
 30
0.0
 10
17.7341084329
 20
4.9509624772
 30
0.0
 10
17.7418131139
 20
4.9915374297
 30
0.0
 10
17.7516696795
 20
5.0319176909
 30
0.0
 10
17.763666158
 20
5.072055843
 30
0.0
 10
17.7777881289
 20
5.1119048302
 30
0.0
 10
17.7940187276
 20
5.1514179761
 30
0.0
 10
17.8123385547
 20
5.1905491826
 30
0.0
 10
17.8327256263
 20
5.2292526551
 30
0.0
 10
17.8551563286
 20
5.2674839909
 30
0.0
 10
17.8879880962
 20
5.3181330257
 30
0.0
 10
17.9341404305
 20
5.3800533529
 30
0.0
 10
17.9967957766
 20
5.4511932803
 30
0.0
 10
18.0668350807
 20
5.5193965763
 30
0.0
 10
18.1439263311
 20
5.5843481372
 30
0.0
 10
18.2277098866
 20
5.6457534564
 30
0.0
 10
18.3177955046
 20
5.703331766
 30
0.0
 10
18.4137646503
 20
5.7568197451
 30
0.0
 10
18.5151718668
 20
5.8059720551
 30
0.0
 10
18.6215466762
 20
5.8505626553
 30
0.0
 10
18.7323955402
 20
5.8903862943
 30
0.0
 10
18.8472038903
 20
5.9252590295
 30
0.0
 10
18.9654396113
 20
5.9550199986
 30
0.0
 10
19.0865505245
 20
5.9795309942
 30
0.0
 10
19.1684701759
 20
5.9922395502
 30
0.0
 10
19.2097670887
 20
5.9977033287
 30
0.0
  0
SPLINE
  5
4DE
100
AcDbEntity
  8
0
100
AcDbSpline
 62
9
  6
CONTINUOUS
 70
0
 71
3
 72
23
 73
19
 74
0
 42
0.0000001
 43
0.0000001
 44
0.0000000001
 40
0.0
 40
0.0
 40
0.0
 40
0.0
 40
0.0699133253
 40
0.1396211944
 40
0.2089215904
 40
0.2776162139
 40
0.3455140067
 40
0.4124333558
 40
0.4782045925
 40
0.5426725944
 40
0.6056995653
 40
0.6671678693
 40
0.726983146
 40
0.7850774524
 40
0.8414126618
 40
0.8959838315
 40
0.9488225519
 40
1.0
 40
1.0
 40
1.0
 40
1.0
 10
19.5848497676
 20
3.8553870611
 30
0.0
 10
19.623317503
 20
3.8553870611
 30
0.0
 10
19.7001514477
 20
3.8571324377
 30
0.0
 10
19.8148745771
 20
3.8649774439
 30
0.0
 10
19.9284530806
 20
3.8780090603
 30
0.0
 10
20.0403178372
 20
3.8961624857
 30
0.0
 10
20.1499119549
 20
3.9193475102
 30
0.0
 10
20.2566890815
 20
3.9474490112
 30
0.0
 10
20.3601173666
 20
3.980327505
 30
0.0
 10
20.4596816715
 20
4.0178202305
 30
0.0
 10
20.5548863502
 20
4.0597415828
 30
0.0
 10
20.6452574176
 20
4.1058848166
 30
0.0
 10
20.7303449939
 20
4.1560224801
 30
0.0
 10
20.8097252376
 20
4.2099085889
 30
0.0
 10
20.8830016809
 20
4.2672785044
 30
0.0
 10
20.9498090373
 20
4.3278539808
 30
0.0
 10
21.0098057557
 20
4.3913321583
 30
0.0
 10
21.0456187034
 20
4.4360794108
 30
0.0
 10
21.0622191353
 20
4.4588246929
 30
0.0
  0
SPLINE
  5
4DF
100
AcDbEntity
  8
0
100
AcDbSpline
 62
9
  6
CONTINUOUS
 70
0
 71
3
 72
23
 73
19
 74
0
 42
0.0000001
 43
0.0000001
 44
0.0000000001
 40
0.0
 40
0.0
 40
0.0
 40
0.0
 40
0.0673017629
 40
0.1334781901
 40
0.1986044718
 40
0.2627664722
 40
0.3260603794
 40
0.3885921367
 40
0.4504766402
 40
0.5118366951
 40
0.5728017209
 40
0.6335062492
 40
0.6940882468
 40
0.7546873153
 40
0.8154428286
 40
0.8764920765
 40
0.9379684894
 40
1.0
 40
1.0
 40
1.0
 40
1.0
 10
21.0622191353
 20
4.4588246929
 30
0.0
 10
21.0714540606
 20
4.4714780374
 30
0.0
 10
21.0891518627
 20
4.497031632
 30
0.0
 10
21.1134831713
 20
4.5363605921
 30
0.0
 10
21.1353298647
 20
4.5762935882
 30
0.0
 10
21.1546547288
 20
4.616764663
 30
0.0
 10
21.1714256814
 20
4.6577083446
 30
0.0
 10
21.1856144504
 20
4.6990578104
 30
0.0
 10
21.197197037
 20
4.7407454755
 30
0.0
 10
21.2061537627
 20
4.7827029547
 30
0.0
 10
21.2124693351
 20
4.8248612367
 30
0.0
 10
21.2161329195
 20
4.867150817
 30
0.0
 10
21.2171382089
 20
4.9095018447
 30
0.0
 10
21.2154834385
 20
4.9518443515
 30
0.0
 10
21.2111714966
 20
4.9941082208
 30
0.0
 10
21.2042096691
 20
5.0362241732
 30
0.0
 10
21.1946104751
 20
5.0781209379
 30
0.0
 10
21.1865039627
 20
5.1057227144
 30
0.0
 10
21.1820290946
 20
5.1194500318
 30
0.0
  0
SPLINE
  5
4E0
100
AcDbEntity
  8
0
100
AcDbSpline
 62
9
  6
CONTINUOUS
 70
0
 71
3
 72
68
 73
64
 74
0
 42
0.0000001
 43
0.0000001
 44
0.0000000001
 40
0.0
 40
0.0
 40
0.0
 40
0.0
 40
0.0380181773
 40
0.0568343262
 40
0.0754955269
 40
0.0939838452
 40
0.1122821307
 40
0.130374115
 40
0.1482445125
 40
0.165879125
 40
0.183264949
 40
0.2003902871
 40
0.2172448625
 40
0.2338199385
 40
0.2501084401
 40
0.2661050798
 40
0.2818064845
 40
0.2972113236
 40
0.3123204356
 40
0.3416579601
 40
0.3559084091
 40
0.3698904947
 40
0.3836175185
 40
0.3971054656
 40
0.4103729916
 40
0.4234413572
 40
0.436334306
 40
0.449077878
 40
0.4617001543
 40
0.4742309355
 40
0.4867013575
 40
0.4991434559
 40
0.5115896937
 40
0.5240724713
 40
0.5366236389
 40
0.5492740321
 40
0.5620530476
 40
0.5749882748
 40
0.5881051902
 40
0.6014269203
 40
0.6149740716
 40
0.6287646237
 40
0.6428138786
 40
0.6571344579
 40
0.6717363393
 40
0.6866269235
 40
0.7018111253
 40
0.7172914803
 40
0.7330682627
 40
0.7491396096
 40
0.7655016482
 40
0.782148624
 40
0.7990730278
 40
0.8162657195
 40
0.8337160498
 40
0.8514119777
 40
0.8693401848
 40
0.8874861858
 40
0.9058344349
 40
0.9243684297
 40
0.9430708112
 40
0.9619234605
 40
1.0
 40
1.0
 40
1.0
 40
1.0
 10
19.9599324464
 20
5.9977033287
 30
0.0
 10
20.0117595244
 20
5.9908463592
 30
0.0
 10
20.0889748335
 20
5.9784172933
 30
0.0
 10
20.1906638701
 20
5.9574710628
 30
0.0
 10
20.2655625385
 20
5.9397329777
 30
0.0
 10
20.3392084636
 20
5.9199469478
 30
0.0
 10
20.4114676747
 20
5.8981489932
 30
0.0
 10
20.4822069815
 20
5.8743791889
 30
0.0
 10
20.5512964659
 20
5.8486811143
 30
0.0
 10
20.6186091258
 20
5.8211018931
 30
0.0
 10
20.684021262
 20
5.79169207
 30
0.0
 10
20.7474126627
 20
5.7605055198
 30
0.0
 10
20.808666824
 20
5.7275993467
 30
0.0
 10
20.8676711761
 20
5.6930337529
 30
0.0
 10
20.9243172052
 20
5.6568720026
 30
0.0
 10
20.9785009288
 20
5.6191800199
 30
0.0
 10
21.0301220398
 20
5.5800272983
 30
0.0
 10
21.0790878102
 20
5.5394830023
 30
0.0
 10
21.1401030477
 20
5.4842223244
 30
0.0
 10
21.1961829467
 20
5.4259650764
 30
0.0
 10
21.2466426829
 20
5.3649303422
 30
0.0
 10
21.2810697748
 20
5.3185931984
 30
0.0
 10
21.3123741507
 20
5.2713445151
 30
0.0
 10
21.3404984582
 20
5.2232693183
 30
0.0
 10
21.3653893811
 20
5.1744561286
 30
0.0
 10
21.3869998397
 20
5.1249945921
 30
0.0
 10
21.4052885877
 20
5.0749759612
 30
0.0
 10
21.4202205045
 20
5.0244928137
 30
0.0
 10
21.431766715
 20
4.9736389422
 30
0.0
 10
21.4399047549
 20
4.9225091591
 30
0.0
 10
21.4446187084
 20
4.8711990778
 30
0.0
 10
21.445899322
 20
4.8198048561
 30
0.0
 10
21.4437440751
 20
4.7684229122
 30
0.0
 10
21.4381571991
 20
4.7171496267
 30
0.0
 10
21.4291496535
 20
4.6660810458
 30
0.0
 10
21.4167390361
 20
4.6153126024
 30
0.0
 10
21.4009494599
 20
4.5649388685
 30
0.0
 10
21.3818114079
 20
4.5150533437
 30
0.0
 10
21.359361576
 20
4.4657482797
 30
0.0
 10
21.333642717
 20
4.417114536
 30
0.0
 10
21.3047034925
 20
4.3692414584
 30
0.0
 10
21.272598336
 20
4.3222167724
 30
0.0
 10
21.2373873269
 20
4.2761264809
 30
0.0
 10
21.1991360712
 20
4.2310547643
 30
0.0
 10
21.1579155926
 20
4.18708387
 30
0.0
 10
21.1138022136
 20
4.1442940029
 30
0.0
 10
21.0668774323
 20
4.1027632095
 30
0.0
 10
21.017227796
 20
4.0625672555
 30
0.0
 10
20.9649447644
 20
4.0237794999
 30
0.0
 10
20.9101245627
 20
3.9864707675
 30
0.0
 10
20.8528680233
 20
3.950709222
 30
0.0
 10
20.7932804169
 20
3.9165602396
 30
0.0
 10
20.7314712719
 20
3.8840862865
 30
0.0
 10
20.6675541842
 20
3.8533468005
 30
0.0
 10
20.6016466182
 20
3.8243980725
 30
0.0
 10
20.5338696992
 20
3.7972931384
 30
0.0
 10
20.4643479819
 20
3.7720816782
 30
0.0
 10
20.393209266
 20
3.7488099269
 30
0.0
 10
20.320584207
 20
3.7275205533
 30
0.0
 10
20.2466066705
 20
3.7082526985
 30
0.0
 10
20.1714112402
 20
3.6910414429
 30
0.0
 10
20.0693863428
 20
3.6708130112
 30
0.0
 10
19.9919542964
 20
3.6589241695
 30
0.0
 10
19.939999649
 20
3.6524298475
 30
0.0
  0
LINE
  5
4E1
100
AcDbEntity
  8
0
100
AcDbLine
 62
9
  6
CONTINUOUS
 10
19.939999649
 20
3.6524298475
 11
19.936952702
 21
3.6520506749
  0
LINE
  5
4E2
100
AcDbEntity
  8
0
100
AcDbLine
 62
9
  6
CONTINUOUS
 10
19.936952702
 20
3.6520506749
 11
19.9353371189
 21
3.651851001
  0
ENDSEC
  0
SECTION
  2
OBJECTS
  0
DICTIONARY
  5
C
100
AcDbDictionary
280
0
281
1
  3
ACAD_GROUP
350
D
  3
ACAD_MLINESTYLE
350
17
  3
ACAD_LAYOUT
350
1A
  3
ACAD_PLOTSETTINGS
350
19
  3
ACAD_PLOTSTYLENAME
350
E
  0
DICTIONARY
  5
D
102
{ACAD_REACTORS
330
C
102
}
100
AcDbDictionary
280
0
281
1
  0
ACDBDICTIONARYWDFLT
  5
E
102
{ACAD_REACTORS
330
C
102
}
100
AcDbDictionary
281
1
  3
Normal
350
F
100
AcDbDictionaryWithDefault
340
F
  0
DICTIONARY
  5
17
102
{ACAD_REACTORS
330
C
102
}
100
AcDbDictionary
280
0
281
1
  3
Standard
350
18
  0
DICTIONARY
  5
19
102
{ACAD_REACTORS
330
C
102
}
100
AcDbDictionary
281
1
  0
DICTIONARY
  5
1A
102
{ACAD_REACTORS
330
C
102
}
100
AcDbDictionary
281
1
  3
Model
350
4E3
  3
Layout1
350
4E4
  0
ACDBPLACEHOLDER
  5
F
102
{ACAD_REACTORS
330
E
102
}
  0
MLINESTYLE
  5
18
102
{ACAD_REACTORS
330
17
102
}
100
AcDbMlineStyle
  2
STANDARD
 70
0
  3

 62
256
 51
90.0
 52
90.0
 71
2
 49
0.5
 62
256
  6
BYLAYER
 49
-0.5
 62
256
  6
BYLAYER
  0
LAYOUT
  5
4E3
102
{ACAD_REACTORS
330
1A
102
}
100
AcDbPlotSettings
  1

  2
none_device
  4
ANSI_C_(22.00_x_17.00_Inches)
  6

 40
0.0
 41
0.0
 42
0.0
 43
0.0
 44
558.8
 45
431.8
 46
0.0
 47
0.0
 48
0.0
 49
0.0
140
0.0
141
0.0
142
1.0
143
1.0
 70
1024
 72
0
 73
0
 74
0
  7

 75
0
147
1.0
148
0.0
149
0.0
100
AcDbLayout
  1
Model
 70
0
 71
0
 10
0.0
 20
0.0
 11
22.0
 21
17.0
 12
0.0
 22
0.0
 32
0.0
 14
0.0
 24
0.0
 34
0.0
 15
0.0
 25
0.0
 35
0.0
146
0.0
 13
0.0
 23
0.0
 33
0.0
 16
1.0
 26
0.0
 36
0.0
 17
0.0
 27
1.0
 37
0.0
 76
0
330
205
345
0
346
0
  0
LAYOUT
  5
4E4
102
{ACAD_REACTORS
330
1A
102
}
100
AcDbPlotSettings
  1

  2
none_device
  4
ANSI_C_(22.00_x_17.00_Inches)
  6

 40
0.0
 41
0.0
 42
0.0
 43
0.0
 44
558.8
 45
431.8
 46
0.0
 47
0.0
 48
0.0
 49
0.0
140
0.0
141
0.0
142
1.0
143
1.0
 70
0
 72
0
 73
0
 74
0
  7

 75
0
147
1.0
148
0.0
149
0.0
100
AcDbLayout
  1
Layout1
 70
0
 71
1
 10
0.0
 20
0.0
 11
22.0
 21
17.0
 12
0.0
 22
0.0
 32
0.0
 14
0.0
 24
0.0
 34
0.0
 15
0.0
 25
0.0
 35
0.0
146
0.0
 13
0.0
 23
0.0
 33
0.0
 16
1.0
 26
0.0
 36
0.0
 17
0.0
 27
1.0
 37
0.0
 76
0
330
206
345
0
346
0
  0
ENDSEC
  0
EOF
