999
DXF file: 3-2914tr_RIGHT.dxf
999
Pro/ENGINEER 2018400 by Parametric Technology Corporation
  0
SECTION
  2
HEADER
  9
$ACADVER
  1
AC1027
  9
$DWGCODEPAGE
  3
ANSI_1252
  9
$EXTMAX
 10
11.0
 20
8.5
 30
0.0
  9
$EXTMIN
 10
0.0
 20
0.0
 30
0.0
  9
$LIMMIN
 10
0.0
 20
0.0
  9
$LIMMAX
 10
11.0
 20
8.5
  9
$VIEWCTR
 10
5.5
 20
4.25
  9
$VIEWSIZE
 40
8.5
  9
$CLAYER
  8
0
  9
$LTSCALE
 40
0.605
  9
$CELTYPE
  6
BYLAYER
  9
$DIMSCALE
 40
1.0
  9
$DIMASZ
 40
0.1
  9
$DIMEXO
 40
0.0625
  9
$DIMDLI
 40
0.418
  9
$DIMEXE
 40
0.125
  9
$DIMCEN
 40
0.099
  9
$DIMLFAC
 40
1.0
  9
$DIMBLK
  1
_FILLED
  9
$DIMALT
 70
1
  9
$DIMALTD
 70
2
  9
$DIMALTTD
 70
2
  9
$DIMALTF
 40
25.4
  9
$DIMTXT
 40
0.08
  9
$DIMTOL
 70
1
  9
$DIMLIM
 70
0
  9
$DIMTFAC
 40
1.0
  9
$DIMTP
 40
0.001
  9
$DIMTM
 40
0.001
  9
$DIMGAP
 40
0.09
  9
$DIMDSEP
 70
46
  9
$AUNITS
 70
0
  9
$PDMODE
 70
3
  9
$PDSIZE
 40
0.3125
  9
$HANDSEED
  5
2E6
  9
$TILEMODE
 70
1
  9
$MEASUREMENT
 70
0
  9
$INSUNITS
 70
1
  0
ENDSEC
  0
SECTION
  2
CLASSES
  0
CLASS
  1
ACDBDICTIONARYWDFLT
  2
AcDbDictionaryWithDefault
  3
AutoCAD 2000
 90
0
 91
1
280
0
281
0
  0
CLASS
  1
ACDBPLACEHOLDER
  2
AcDbPlaceHolder
  3
AutoCAD 2000
 90
0
 91
1
280
0
281
0
  0
CLASS
  1
LAYOUT
  2
AcDbLayout
  3
AutoCAD 2000
 90
0
 91
0
280
0
281
0
  0
ENDSEC
  0
SECTION
  2
TABLES
  0
TABLE
  2
VPORT
  5
8
100
AcDbSymbolTable
 70
2
  0
VPORT
  5
1F4
100
AcDbSymbolTableRecord
100
AcDbViewportTableRecord
  2
*ACTIVE
 70
0
 10
0.0
 20
0.0
 11
1.0
 21
1.0
 12
5.5
 22
4.25
 13
0.0
 23
0.0
 14
1.0
 24
1.0
 15
0.0
 25
0.0
 16
0.0
 26
0.0
 36
1.0
 17
0.0
 27
0.0
 37
0.0
 40
8.5
 41
1.2941176471
 42
50.0
 43
0.0
 44
0.0
 50
0.0
 51
0.0
 71
0
 72
100
 73
1
 74
1
 75
0
 76
0
 77
0
 78
0
  0
ENDTAB
  0
TABLE
  2
LTYPE
  5
5
100
AcDbSymbolTable
 70
6
  0
LTYPE
  5
14
100
AcDbSymbolTableRecord
100
AcDbLinetypeTableRecord
  2
BYBLOCK
 70
0
  3

 72
65
 73
0
 40
0.0
  0
LTYPE
  5
15
100
AcDbSymbolTableRecord
100
AcDbLinetypeTableRecord
  2
BYLAYER
 70
0
  3

 72
65
 73
0
 40
0.0
  0
LTYPE
  5
16
100
AcDbSymbolTableRecord
100
AcDbLinetypeTableRecord
  2
CONTINUOUS
 70
64
  3
Solid line
 72
65
 73
0
 40
0.0
  0
LTYPE
  5
1F5
100
AcDbSymbolTableRecord
100
AcDbLinetypeTableRecord
  2
CENTER
 70
64
  3
____ _ ____ _ ____ _ ____ _ ____ _ ____ _ ____
 72
65
 73
4
 40
0.6
 49
0.375
 74
0
 49
-0.075
 74
0
 49
0.075
 74
0
 49
-0.075
 74
0
  0
LTYPE
  5
1F6
100
AcDbSymbolTableRecord
100
AcDbLinetypeTableRecord
  2
HIDDEN
 70
64
  3
- - - - - - - - - - - - - - - - - - - -
 72
65
 73
2
 40
0.2
 49
0.1
 74
0
 49
-0.1
 74
0
  0
LTYPE
  5
1F7
100
AcDbSymbolTableRecord
100
AcDbLinetypeTableRecord
  2
PHANTOM
 70
64
  3
_____ _ _ _____ _ _ _____ _ _ _____
 72
65
 73
6
 40
0.8
 49
0.45
 74
0
 49
-0.05
 74
0
 49
0.1
 74
0
 49
-0.05
 74
0
 49
0.1
 74
0
 49
-0.05
 74
0
  0
LTYPE
  5
1F8
100
AcDbSymbolTableRecord
100
AcDbLinetypeTableRecord
  2
DOT
 70
64
  3
. . . . . . . . . . . . . . . . . . . .
 72
65
 73
2
 40
0.2
 49
0.1
 74
0
 49
-0.1
 74
0
  0
LTYPE
  5
1F9
100
AcDbSymbolTableRecord
100
AcDbLinetypeTableRecord
  2
DASHED
 70
64
  3
- - - - - - - - - - - - - - - - - - - -
 72
65
 73
2
 40
0.2
 49
0.1
 74
0
 49
-0.1
 74
0
  0
ENDTAB
  0
TABLE
  2
LAYER
  5
2
100
AcDbSymbolTable
 70
36
  0
LAYER
  5
10
100
AcDbSymbolTableRecord
100
AcDbLayerTableRecord
  2
0
 70
0
 62
7
  6
CONTINUOUS
370
-3
390
F
  0
LAYER
  5
1FA
100
AcDbSymbolTableRecord
100
AcDbLayerTableRecord
  2
DEFAULT_1
 70
0
 62
7
  6
CENTER
370
-3
390
F
  0
LAYER
  5
1FB
100
AcDbSymbolTableRecord
100
AcDbLayerTableRecord
  2
DEFAULT_2
 70
0
 62
8
  6
HIDDEN
370
-3
390
F
  0
LAYER
  5
1FC
100
AcDbSymbolTableRecord
100
AcDbLayerTableRecord
  2
DEFAULT_3
 70
0
 62
7
  6
PHANTOM
370
-3
390
F
  0
LAYER
  5
1FD
100
AcDbSymbolTableRecord
100
AcDbLayerTableRecord
  2
ALL_ASSEMBLY_MEMBERS
 70
0
 62
7
  6
CONTINUOUS
370
-3
390
F
  0
LAYER
  5
1FE
100
AcDbSymbolTableRecord
100
AcDbLayerTableRecord
  2
ALL_FEATURES
 70
0
 62
7
  6
CONTINUOUS
370
-3
390
F
  0
LAYER
  5
1FF
100
AcDbSymbolTableRecord
100
AcDbLayerTableRecord
  2
AXES_FEATURES
 70
0
 62
7
  6
CONTINUOUS
370
-3
390
F
  0
LAYER
  5
200
100
AcDbSymbolTableRecord
100
AcDbLayerTableRecord
  2
CHAMFER_FEATURES
 70
0
 62
7
  6
CONTINUOUS
370
-3
390
F
  0
LAYER
  5
201
100
AcDbSymbolTableRecord
100
AcDbLayerTableRecord
  2
COORDINATE_SYSTEMS
 70
0
 62
7
  6
CONTINUOUS
370
-3
390
F
  0
LAYER
  5
202
100
AcDbSymbolTableRecord
100
AcDbLayerTableRecord
  2
CUT_FEATURES
 70
0
 62
7
  6
CONTINUOUS
370
-3
390
F
  0
LAYER
  5
203
100
AcDbSymbolTableRecord
100
AcDbLayerTableRecord
  2
DATUM_CURVES
 70
0
 62
7
  6
CONTINUOUS
370
-3
390
F
  0
LAYER
  5
204
100
AcDbSymbolTableRecord
100
AcDbLayerTableRecord
  2
DATUM_PLANES
 70
0
 62
7
  6
CONTINUOUS
370
-3
390
F
  0
LAYER
  5
205
100
AcDbSymbolTableRecord
100
AcDbLayerTableRecord
  2
DATUM_POINTS
 70
0
 62
7
  6
CONTINUOUS
370
-3
390
F
  0
LAYER
  5
206
100
AcDbSymbolTableRecord
100
AcDbLayerTableRecord
  2
DEFAULT_COORDINATE_SYSTEM
 70
0
 62
7
  6
CONTINUOUS
370
-3
390
F
  0
LAYER
  5
207
100
AcDbSymbolTableRecord
100
AcDbLayerTableRecord
  2
DEFAULT_DATUM_AXES
 70
0
 62
7
  6
CONTINUOUS
370
-3
390
F
  0
LAYER
  5
208
100
AcDbSymbolTableRecord
100
AcDbLayerTableRecord
  2
DEFAULT_DATUM_CURVES
 70
0
 62
7
  6
CONTINUOUS
370
-3
390
F
  0
LAYER
  5
209
100
AcDbSymbolTableRecord
100
AcDbLayerTableRecord
  2
DEFAULT_DATUM_PLANES
 70
0
 62
7
  6
CONTINUOUS
370
-3
390
F
  0
LAYER
  5
20A
100
AcDbSymbolTableRecord
100
AcDbLayerTableRecord
  2
DEFAULT_SURFACES
 70
0
 62
7
  6
CONTINUOUS
370
-3
390
F
  0
LAYER
  5
20B
100
AcDbSymbolTableRecord
100
AcDbLayerTableRecord
  2
DIMENSIONS
 70
0
 62
7
  6
CONTINUOUS
370
-3
390
F
  0
LAYER
  5
20C
100
AcDbSymbolTableRecord
100
AcDbLayerTableRecord
  2
HOLE_FEATURES
 70
0
 62
7
  6
CONTINUOUS
370
-3
390
F
  0
LAYER
  5
20D
100
AcDbSymbolTableRecord
100
AcDbLayerTableRecord
  2
IMPORT_FEATURE
 70
0
 62
7
  6
CONTINUOUS
370
-3
390
F
  0
LAYER
  5
20E
100
AcDbSymbolTableRecord
100
AcDbLayerTableRecord
  2
NOTES
 70
0
 62
7
  6
CONTINUOUS
370
-3
390
F
  0
LAYER
  5
20F
100
AcDbSymbolTableRecord
100
AcDbLayerTableRecord
  2
PART_REFERENCE_DIMENSIONS
 70
0
 62
7
  6
CONTINUOUS
370
-3
390
F
  0
LAYER
  5
210
100
AcDbSymbolTableRecord
100
AcDbLayerTableRecord
  2
PLATED_SURFACES
 70
0
 62
7
  6
CONTINUOUS
370
-3
390
F
  0
LAYER
  5
211
100
AcDbSymbolTableRecord
100
AcDbLayerTableRecord
  2
PLATED_SURFACE_AREA
 70
0
 62
7
  6
CONTINUOUS
370
-3
390
F
  0
LAYER
  5
212
100
AcDbSymbolTableRecord
100
AcDbLayerTableRecord
  2
POINTS
 70
0
 62
7
  6
CONTINUOUS
370
-3
390
F
  0
LAYER
  5
213
100
AcDbSymbolTableRecord
100
AcDbLayerTableRecord
  2
PROTRUSION
 70
0
 62
7
  6
CONTINUOUS
370
-3
390
F
  0
LAYER
  5
214
100
AcDbSymbolTableRecord
100
AcDbLayerTableRecord
  2
PROTRUSION_FEATURES
 70
0
 62
7
  6
CONTINUOUS
370
-3
390
F
  0
LAYER
  5
215
100
AcDbSymbolTableRecord
100
AcDbLayerTableRecord
  2
QUILT
 70
0
 62
7
  6
CONTINUOUS
370
-3
390
F
  0
LAYER
  5
216
100
AcDbSymbolTableRecord
100
AcDbLayerTableRecord
  2
QUILTS
 70
0
 62
7
  6
CONTINUOUS
370
-3
390
F
  0
LAYER
  5
217
100
AcDbSymbolTableRecord
100
AcDbLayerTableRecord
  2
REFERENCE_DIMENSIONS
 70
0
 62
7
  6
CONTINUOUS
370
-3
390
F
  0
LAYER
  5
218
100
AcDbSymbolTableRecord
100
AcDbLayerTableRecord
  2
ROUND_FEATURES
 70
0
 62
7
  6
CONTINUOUS
370
-3
390
F
  0
LAYER
  5
219
100
AcDbSymbolTableRecord
100
AcDbLayerTableRecord
  2
SHELL_FEATURES
 70
0
 62
7
  6
CONTINUOUS
370
-3
390
F
  0
LAYER
  5
21A
100
AcDbSymbolTableRecord
100
AcDbLayerTableRecord
  2
SURFACE_FEATURES
 70
0
 62
7
  6
CONTINUOUS
370
-3
390
F
  0
LAYER
  5
21B
100
AcDbSymbolTableRecord
100
AcDbLayerTableRecord
  2
XSEC_DATUMS
 70
0
 62
7
  6
CONTINUOUS
370
-3
390
F
  0
ENDTAB
  0
TABLE
  2
STYLE
  5
3
100
AcDbSymbolTable
 70
1
  0
STYLE
  5
11
100
AcDbSymbolTableRecord
100
AcDbTextStyleTableRecord
  2
STANDARD
 70
0
 40
0.0
 41
0.8
 50
0.0
 71
0
 42
0.2
  3
txt
  4

  0
STYLE
  5
21C
100
AcDbSymbolTableRecord
100
AcDbTextStyleTableRecord
  2
TEXTSTYLE_1
 70
0
 40
0.0
 41
0.8
 50
0.0
 71
0
 42
0.2
  3
gdt
  4

  0
ENDTAB
  0
TABLE
  2
VIEW
  5
6
100
AcDbSymbolTable
 70
0
  0
ENDTAB
  0
TABLE
  2
UCS
  5
7
100
AcDbSymbolTable
 70
0
  0
ENDTAB
  0
TABLE
  2
APPID
  5
9
100
AcDbSymbolTable
 70
1
  0
APPID
  5
21D
100
AcDbSymbolTableRecord
100
AcDbRegAppTableRecord
  2
ACAD
 70
0
  0
ENDTAB
  0
TABLE
  2
BLOCK_RECORD
  5
1
100
AcDbSymbolTable
 70
0
  0
BLOCK_RECORD
  5
21E
100
AcDbSymbolTableRecord
100
AcDbBlockTableRecord
  2
*Model_Space
  0
BLOCK_RECORD
  5
21F
100
AcDbSymbolTableRecord
100
AcDbBlockTableRecord
  2
*Paper_Space
  0
BLOCK_RECORD
  5
220
100
AcDbSymbolTableRecord
100
AcDbBlockTableRecord
  2
_FILLED
  0
ENDTAB
  0
TABLE
  2
DIMSTYLE
  5
A
100
AcDbSymbolTable
 70
1
100
AcDbDimStyleTable
 71
0
  0
DIMSTYLE
105
221
100
AcDbSymbolTableRecord
100
AcDbDimStyleTableRecord
  2
STANDARD
 70
0
  3

  4

 40
1.0
 41
0.1
 42
0.0625
 43
0.38
 44
0.125
 45
0.0
 46
0.0
 47
0.001
 48
0.001
140
0.08
141
0.09
142
0.0
143
25.4
144
1.0
145
0.0
146
1.0
147
0.09
 71
1.0
 72
0.0
 73
1
 74
1
 75
0
 76
0
 77
0
 78
4
 79
1
170
1
171
2
172
0
173
0
174
0
175
0
176
0
177
0
178
0
270
2
179
3
271
3
272
3
273
2
274
2
275
0
280
0
281
0
282
0
283
1
284
4
285
0
286
0
287
3
288
0
340
11
278
46
341
220
342
220
343
220
344
220
  0
ENDTAB
  0
ENDSEC
  0
SECTION
  2
BLOCKS
  0
BLOCK
  5
20
100
AcDbEntity
  8
0
100
AcDbBlockBegin
  2
*Model_Space
 70
0
 10
0.0
 20
0.0
 30
0.0
  3
*Model_Space
  1

  0
ENDBLK
  5
21
100
AcDbEntity
  8
0
100
AcDbBlockEnd
  0
BLOCK
  5
1C
100
AcDbEntity
  8
0
100
AcDbBlockBegin
  2
*Paper_Space
 70
0
 10
0.0
 20
0.0
 30
0.0
  3
*Paper_Space
  1

  0
ENDBLK
  5
1D
100
AcDbEntity
  8
0
100
AcDbBlockEnd
  0
BLOCK
  5
222
100
AcDbEntity
  8
0
100
AcDbBlockBegin
  2
_FILLED
 70
64
 10
0.0
 20
0.0
  3
_FILLED
  1

  0
SOLID
  5
223
100
AcDbEntity
  8
0
  6
BYBLOCK
 62
0
100
AcDbTrace
 10
0.0
 20
0.0
 11
-1.0
 21
0.2
 12
-1.0
 22
-0.2
 13
-1.0
 23
-0.2
  0
ENDBLK
  5
224
100
AcDbEntity
  8
0
  6
BYBLOCK
 62
0
100
AcDbBlockEnd
  0
ENDSEC
  0
SECTION
  2
ENTITIES
  0
MTEXT
  5
225
100
AcDbEntity
  8
0
100
AcDbMText
 62
2
  6
CONTINUOUS
  7
STANDARD
 71
3
 72
1
 10
4.9350543478
 20
2.4241187888
 30
0.0
 11
1.0
 21
0.0
 31
0.0
 73
2
 44
0.9
  1
SCALE  .500
 40
0.08
 41
0.704
  0
LINE
  5
226
100
AcDbEntity
  8
0
100
AcDbLine
 62
7
  6
CONTINUOUS
 10
0.0
 20
0.0
 11
0.0
 21
8.5
  0
LINE
  5
227
100
AcDbEntity
  8
0
100
AcDbLine
 62
7
  6
CONTINUOUS
 10
0.0
 20
0.0
 11
11.0
 21
0.0
  0
LINE
  5
228
100
AcDbEntity
  8
0
100
AcDbLine
 62
7
  6
CONTINUOUS
 10
0.0
 20
8.5
 11
11.0
 21
8.5
  0
LINE
  5
229
100
AcDbEntity
  8
0
100
AcDbLine
 62
7
  6
CONTINUOUS
 10
11.0
 20
0.0
 11
11.0
 21
8.5
  0
LINE
  5
22A
100
AcDbEntity
  8
0
100
AcDbLine
 62
7
  6
CONTINUOUS
 10
5.5495425368
 20
2.5191187888
 11
5.5120425368
 21
2.5191187888
  0
LINE
  5
22B
100
AcDbEntity
  8
0
100
AcDbLine
 62
7
  6
CONTINUOUS
 10
5.5495425368
 20
2.521527002
 11
5.5995425368
 21
2.521527002
  0
LWPOLYLINE
  5
22C
100
AcDbEntity
  8
0
100
AcDbPolyline
 62
7
  6
CONTINUOUS
 90
27
 70
0
 10
3.8450741846
 20
4.1593898388
 10
3.8451473994
 20
4.1586166947
 10
3.8453874803
 20
4.157137666
 10
3.8457546263
 20
4.1556838448
 10
3.8462449366
 20
4.1542668584
 10
3.8468546905
 20
4.152897732
 10
3.8475805899
 20
4.151587
 10
3.84841932
 20
4.1503457744
 10
3.8493670832
 20
4.1491859559
 10
3.8504180497
 20
4.1481176853
 10
3.8515622014
 20
4.1471469476
 10
3.852788833
 20
4.1462792577
 10
3.8540867999
 20
4.1455203478
 10
3.8554449166
 20
4.1448757818
 10
3.8568527904
 20
4.1443507051
 10
3.8583004649
 20
4.1439503171
 10
3.8597775994
 20
4.1436801701
 10
3.8612730524
 20
4.1435459654
 10
3.8627754459
 20
4.143550011
 10
3.8642733558
 20
4.1436891253
 10
3.8657552277
 20
4.1439596071
 10
3.8672090967
 20
4.1443576104
 10
3.8686230816
 20
4.1448791594
 10
3.8699860509
 20
4.1455205186
 10
3.8712871001
 20
4.1462782572
 10
3.87251479
 20
4.1471488601
 10
3.8736107003
 20
4.1480847089
  0
LINE
  5
22D
100
AcDbEntity
  8
0
100
AcDbLine
 62
7
  6
CONTINUOUS
 10
3.835670613
 20
4.5562015568
 11
3.835670613
 21
4.2320360209
  0
LINE
  5
22E
100
AcDbEntity
  8
0
100
AcDbLine
 62
7
  6
CONTINUOUS
 10
3.8450741846
 20
4.6288477388
 11
3.8450741846
 21
4.1593898388
  0
LINE
  5
22F
100
AcDbEntity
  8
0
100
AcDbLine
 62
7
  6
CONTINUOUS
 10
3.8736107002
 20
4.1480847089
 11
3.8736107002
 21
4.6401528688
  0
LINE
  5
230
100
AcDbEntity
  8
0
100
AcDbLine
 62
7
  6
CONTINUOUS
 10
3.9038684811
 20
4.1613945217
 11
3.9038684811
 21
4.6268430559
  0
LINE
  5
231
100
AcDbEntity
  8
0
100
AcDbLine
 62
7
  6
CONTINUOUS
 10
3.9548992958
 20
4.1770303871
 11
3.9548992958
 21
4.6190320604
  0
LINE
  5
232
100
AcDbEntity
  8
0
100
AcDbLine
 62
7
  6
CONTINUOUS
 10
3.8965543478
 20
3.817762459
 11
3.9425967844
 21
4.1697514752
  0
LINE
  5
233
100
AcDbEntity
  8
ALL_FEATURES
100
AcDbLine
 62
7
  6
CONTINUOUS
 10
5.2773043063
 20
3.5256237934
 11
5.2342807673
 21
3.5267504044
  0
LINE
  5
234
100
AcDbEntity
  8
0
100
AcDbLine
 62
7
  6
CONTINUOUS
 10
4.200948624
 20
4.5654827605
 11
4.200948624
 21
4.2227548172
  0
LINE
  5
235
100
AcDbEntity
  8
0
100
AcDbLine
 62
7
  6
CONTINUOUS
 10
4.1815543478
 20
3.817762459
 11
4.1307619577
 21
4.206064312
  0
LWPOLYLINE
  5
236
100
AcDbEntity
  8
0
100
AcDbPolyline
 62
7
  6
CONTINUOUS
 90
24
 70
0
 10
4.2575543478
 20
4.5551632936
 10
4.2574906926
 20
4.5565788387
 10
4.2573015935
 20
4.557989385
 10
4.2569899132
 20
4.5593846908
 10
4.2565586274
 20
4.5607542195
 10
4.2560107536
 20
4.5620873793
 10
4.2553492857
 20
4.5633734944
 10
4.2545769839
 20
4.5646019778
 10
4.253697384
 20
4.5657608037
 10
4.2527151031
 20
4.5668370582
 10
4.2516352516
 20
4.5678201302
 10
4.2504668566
 20
4.5687039875
 10
4.2492211
 20
4.5694828998
 10
4.2479087075
 20
4.570151684
 10
4.2465404371
 20
4.5707051552
 10
4.2451279113
 20
4.5711378675
 10
4.2436820576
 20
4.5714447223
 10
4.24221418
 20
4.5716205087
 10
4.2407367011
 20
4.5716600685
 10
4.2392609324
 20
4.5715612683
 10
4.2377982319
 20
4.5713278479
 10
4.2363611284
 20
4.5709646619
 10
4.2349613081
 20
4.5704766788
 10
4.2335770348
 20
4.5698521539
  0
LINE
  5
237
100
AcDbEntity
  8
0
100
AcDbLine
 62
7
  6
CONTINUOUS
 10
4.2335770348
 20
4.5698521539
 11
4.2335770348
 21
4.2183854237
  0
LINE
  5
238
100
AcDbEntity
  8
0
100
AcDbLine
 62
7
  6
CONTINUOUS
 10
4.2575543478
 20
4.2330742841
 11
4.2575543478
 21
4.5551632936
  0
LINE
  5
239
100
AcDbEntity
  8
ALL_FEATURES
100
AcDbLine
 62
7
  6
CONTINUOUS
 10
4.3460073424
 20
4.2485858131
 11
4.3460073424
 21
4.2685858131
  0
LINE
  5
23A
100
AcDbEntity
  8
ALL_FEATURES
100
AcDbLine
 62
7
  6
CONTINUOUS
 10
4.3691013532
 20
4.2485858131
 11
4.3691013532
 21
4.2685858131
  0
LINE
  5
23B
100
AcDbEntity
  8
0
100
AcDbLine
 62
7
  6
CONTINUOUS
 10
3.881626584
 20
3.787808768
 11
4.1964821116
 21
3.787808768
  0
LINE
  5
23C
100
AcDbEntity
  8
0
100
AcDbLine
 62
7
  6
CONTINUOUS
 10
3.8828061786
 20
3.817762459
 11
4.1953043478
 21
3.817762459
  0
LINE
  5
23D
100
AcDbEntity
  8
ALL_FEATURES
100
AcDbLine
 62
7
  6
CONTINUOUS
 10
4.3900993478
 20
4.2599238223
 11
4.3900993478
 21
4.2617652045
  0
LINE
  5
23E
100
AcDbEntity
  8
0
100
AcDbLine
 62
7
  6
CONTINUOUS
 10
4.4575543478
 20
4.5503687888
 11
4.4575543478
 21
4.2378687888
  0
LINE
  5
23F
100
AcDbEntity
  8
0
100
AcDbLine
 62
7
  6
CONTINUOUS
 10
4.4725543478
 20
4.213313354
 11
4.4725543478
 21
4.5749242237
  0
LINE
  5
240
100
AcDbEntity
  8
0
100
AcDbLine
 62
7
  6
CONTINUOUS
 10
4.4874877249
 20
4.1904296676
 11
4.4874877249
 21
4.59780791
  0
LINE
  5
241
100
AcDbEntity
  8
0
100
AcDbLine
 62
7
  6
CONTINUOUS
 10
4.3985543478
 20
4.264530747
 11
4.3984267882
 21
4.2629149176
  0
LINE
  5
242
100
AcDbEntity
  8
0
100
AcDbLine
 62
7
  6
CONTINUOUS
 10
4.7435416054
 20
4.8603536719
 11
4.7392352623
 21
4.85497078
  0
LINE
  5
243
100
AcDbEntity
  8
0
100
AcDbLine
 62
7
  6
CONTINUOUS
 10
5.2245425368
 20
3.9091187888
 11
4.7825849413
 21
3.9091187888
  0
LINE
  5
244
100
AcDbEntity
  8
0
100
AcDbLine
 62
7
  6
CONTINUOUS
 10
4.7220952578
 20
3.9438599136
 11
4.7202951712
 21
3.9442456544
  0
LWPOLYLINE
  5
245
100
AcDbEntity
  8
0
100
AcDbPolyline
 62
7
  6
CONTINUOUS
 90
24
 70
0
 10
4.2335770348
 20
4.2183854237
 10
4.2349613081
 20
4.2177608988
 10
4.2363611284
 20
4.2172729157
 10
4.2377982319
 20
4.2169097297
 10
4.2392609324
 20
4.2166763094
 10
4.2407367011
 20
4.2165775091
 10
4.24221418
 20
4.216617069
 10
4.2436820576
 20
4.2167928553
 10
4.2451279113
 20
4.2170997101
 10
4.2465404371
 20
4.2175324225
 10
4.2479087075
 20
4.2180858937
 10
4.2492211
 20
4.2187546779
 10
4.2504668566
 20
4.2195335902
 10
4.2516352516
 20
4.2204174475
 10
4.2527151031
 20
4.2214005194
 10
4.253697384
 20
4.222476774
 10
4.2545769839
 20
4.2236355999
 10
4.2553492857
 20
4.2248640832
 10
4.2560107536
 20
4.2261501984
 10
4.2565586274
 20
4.2274833582
 10
4.2569899132
 20
4.2288528868
 10
4.2573015935
 20
4.2302481926
 10
4.2574906926
 20
4.2316587389
 10
4.2575543478
 20
4.2330742841
  0
LINE
  5
246
100
AcDbEntity
  8
ALL_FEATURES
100
AcDbLine
 62
7
  6
CONTINUOUS
 10
4.3322429538
 20
4.249636884
 11
4.3286504519
 21
4.2521771664
  0
LWPOLYLINE
  5
247
100
AcDbEntity
  8
0
100
AcDbPolyline
 62
7
  6
CONTINUOUS
 90
27
 70
0
 10
3.8736107003
 20
4.6401528687
 10
3.87251479
 20
4.6410887175
 10
3.8712871001
 20
4.6419593204
 10
3.8699860509
 20
4.6427170591
 10
3.8686230816
 20
4.6433584182
 10
3.8672090967
 20
4.6438799672
 10
3.8657552277
 20
4.6442779706
 10
3.8642733558
 20
4.6445484524
 10
3.8627754459
 20
4.6446875666
 10
3.8612730524
 20
4.6446916122
 10
3.8597775994
 20
4.6445574075
 10
3.8583004649
 20
4.6442872606
 10
3.8568527904
 20
4.6438868726
 10
3.8554449166
 20
4.6433617958
 10
3.8540867999
 20
4.6427172299
 10
3.852788833
 20
4.6419583199
 10
3.8515622014
 20
4.64109063
 10
3.8504180497
 20
4.6401198924
 10
3.8493670832
 20
4.6390516217
 10
3.84841932
 20
4.6378918032
 10
3.8475805899
 20
4.6366505777
 10
3.8468546905
 20
4.6353398457
 10
3.8462449366
 20
4.6339707193
 10
3.8457546263
 20
4.6325537328
 10
3.8453874803
 20
4.6310999117
 10
3.8451473994
 20
4.6296208829
 10
3.8450741846
 20
4.6288477388
  0
LINE
  5
248
100
AcDbEntity
  8
ALL_FEATURES
100
AcDbLine
 62
7
  6
CONTINUOUS
 10
4.3344603371
 20
4.2585858131
 11
4.3460073424
 21
4.2485858131
  0
LINE
  5
249
100
AcDbEntity
  8
ALL_FEATURES
100
AcDbLine
 62
7
  6
CONTINUOUS
 10
4.3806483586
 20
4.2585858131
 11
4.3691013532
 21
4.2685858131
  0
LINE
  5
24A
100
AcDbEntity
  8
0
100
AcDbLine
 62
7
  6
CONTINUOUS
 10
4.7435416054
 20
3.9278839058
 11
4.7392352623
 21
3.9332667976
  0
LINE
  5
24B
100
AcDbEntity
  8
ALL_FEATURES
100
AcDbLine
 62
7
  6
CONTINUOUS
 10
4.3460073424
 20
4.2685858131
 11
4.3344603371
 21
4.2585858131
  0
LINE
  5
24C
100
AcDbEntity
  8
0
100
AcDbLine
 62
7
  6
CONTINUOUS
 10
3.9525142722
 20
4.1756113923
 11
3.9548992958
 21
4.1770303871
  0
LINE
  5
24D
100
AcDbEntity
  8
0
100
AcDbLine
 62
7
  6
CONTINUOUS
 10
3.9349366699
 20
4.1652221271
 11
3.9548992958
 21
4.1770303871
  0
LINE
  5
24E
100
AcDbEntity
  8
0
100
AcDbLine
 62
7
  6
CONTINUOUS
 10
3.9373157835
 20
4.1666307763
 11
3.9460898988
 21
4.1718200785
  0
LINE
  5
24F
100
AcDbEntity
  8
0
100
AcDbLine
 62
7
  6
CONTINUOUS
 10
3.9460898988
 20
4.1718200785
 11
3.9525142722
 21
4.1756113923
  0
LINE
  5
250
100
AcDbEntity
  8
0
100
AcDbLine
 62
7
  6
CONTINUOUS
 10
4.6909013427
 20
3.9702033455
 11
4.6909013427
 21
4.8180342321
  0
LINE
  5
251
100
AcDbEntity
  8
0
100
AcDbLine
 62
7
  6
CONTINUOUS
 10
4.7202951712
 20
3.9442456544
 11
4.7202951712
 21
4.8439919232
  0
LINE
  5
252
100
AcDbEntity
  8
0
100
AcDbLine
 62
7
  6
CONTINUOUS
 10
4.7220952578
 20
4.8443776641
 11
4.7220952578
 21
3.9438599136
  0
LINE
  5
253
100
AcDbEntity
  8
0
100
AcDbLine
 62
7
  6
CONTINUOUS
 10
4.7392352623
 20
4.85497078
 11
4.7392352623
 21
3.9332667976
  0
LINE
  5
254
100
AcDbEntity
  8
0
100
AcDbLine
 62
7
  6
CONTINUOUS
 10
4.7435416054
 20
3.9278839058
 11
4.7435416054
 21
4.8603536719
  0
LINE
  5
255
100
AcDbEntity
  8
0
100
AcDbLine
 62
7
  6
CONTINUOUS
 10
4.7825849413
 20
3.9091187888
 11
4.7825849413
 21
4.8791187888
  0
LINE
  5
256
100
AcDbEntity
  8
ALL_FEATURES
100
AcDbLine
 62
7
  6
CONTINUOUS
 10
4.3691013532
 20
4.2485858131
 11
4.3806483586
 21
4.2585858131
  0
LINE
  5
257
100
AcDbEntity
  8
ALL_FEATURES
100
AcDbLine
 62
7
  6
CONTINUOUS
 10
4.3828657418
 20
4.249636884
 11
4.384127229
 21
4.2505288901
  0
LINE
  5
258
100
AcDbEntity
  8
0
100
AcDbLine
 62
7
  6
CONTINUOUS
 10
4.0152212432
 20
4.206064312
 11
4.1307619577
 21
4.206064312
  0
LINE
  5
259
100
AcDbEntity
  8
0
100
AcDbLine
 62
7
  6
CONTINUOUS
 10
4.2575543478
 20
4.2378687888
 11
4.4575543478
 21
4.2378687888
  0
LINE
  5
25A
100
AcDbEntity
  8
ALL_FEATURES
100
AcDbLine
 62
7
  6
CONTINUOUS
 10
4.3575668081
 20
4.2430858144
 11
4.3575418876
 21
4.2430858144
  0
LINE
  5
25B
100
AcDbEntity
  8
ALL_FEATURES
100
AcDbLine
 62
7
  6
CONTINUOUS
 10
4.3460073424
 20
4.2485858131
 11
4.3691013532
 21
4.2485858131
  0
LINE
  5
25C
100
AcDbEntity
  8
0
100
AcDbLine
 62
7
  6
CONTINUOUS
 10
4.8295543478
 20
4.8761074627
 11
4.8295543478
 21
4.9899020569
  0
LINE
  5
25D
100
AcDbEntity
  8
0
100
AcDbLine
 62
7
  6
CONTINUOUS
 10
4.200948624
 20
4.2227548172
 11
4.1377251935
 21
4.2095830163
  0
LINE
  5
25E
100
AcDbEntity
  8
ALL_FEATURES
100
AcDbLine
 62
7
  6
CONTINUOUS
 10
4.3691013532
 20
4.2685858131
 11
4.3460073424
 21
4.2685858131
  0
LINE
  5
25F
100
AcDbEntity
  8
0
100
AcDbLine
 62
7
  6
CONTINUOUS
 10
4.4725543478
 20
4.3022442253
 11
4.4575543478
 21
4.3022442253
  0
LINE
  5
260
100
AcDbEntity
  8
0
100
AcDbLine
 62
7
  6
CONTINUOUS
 10
4.4725543478
 20
4.3051283282
 11
4.4575543478
 21
4.3051283282
  0
LINE
  5
261
100
AcDbEntity
  8
0
100
AcDbLine
 62
7
  6
CONTINUOUS
 10
4.4725543478
 20
4.3133471919
 11
4.4575543478
 21
4.3133471919
  0
LINE
  5
262
100
AcDbEntity
  8
0
100
AcDbLine
 62
7
  6
CONTINUOUS
 10
4.4725543478
 20
4.321560422
 11
4.4575543478
 21
4.321560422
  0
LINE
  5
263
100
AcDbEntity
  8
0
100
AcDbLine
 62
7
  6
CONTINUOUS
 10
4.4575543478
 20
4.3330109516
 11
4.4725543478
 21
4.3330109516
  0
LINE
  5
264
100
AcDbEntity
  8
0
100
AcDbLine
 62
7
  6
CONTINUOUS
 10
4.4725543478
 20
4.336746902
 11
4.4575543478
 21
4.336746902
  0
LINE
  5
265
100
AcDbEntity
  8
0
100
AcDbLine
 62
7
  6
CONTINUOUS
 10
4.4725543478
 20
4.3490388694
 11
4.4575543478
 21
4.3490388694
  0
LINE
  5
266
100
AcDbEntity
  8
0
100
AcDbLine
 62
7
  6
CONTINUOUS
 10
4.4575543478
 20
4.3584436453
 11
4.4725543478
 21
4.3584436453
  0
LINE
  5
267
100
AcDbEntity
  8
0
100
AcDbLine
 62
7
  6
CONTINUOUS
 10
4.4575543478
 20
4.3673336441
 11
4.4725543478
 21
4.3673336441
  0
LINE
  5
268
100
AcDbEntity
  8
0
100
AcDbLine
 62
7
  6
CONTINUOUS
 10
4.4725543478
 20
4.3688809617
 11
4.4575543478
 21
4.3688809617
  0
LINE
  5
269
100
AcDbEntity
  8
0
100
AcDbLine
 62
7
  6
CONTINUOUS
 10
4.4725543478
 20
4.3833803258
 11
4.4575543478
 21
4.3833803258
  0
LINE
  5
26A
100
AcDbEntity
  8
0
100
AcDbLine
 62
7
  6
CONTINUOUS
 10
4.4575543478
 20
4.3893075561
 11
4.4725543478
 21
4.3893075561
  0
LINE
  5
26B
100
AcDbEntity
  8
0
100
AcDbLine
 62
7
  6
CONTINUOUS
 10
3.8356706164
 20
4.3941187888
 11
3.9038684793
 21
4.3941187888
  0
LINE
  5
26C
100
AcDbEntity
  8
0
100
AcDbLine
 62
7
  6
CONTINUOUS
 10
4.2009486167
 20
4.3941187888
 11
4.2575543478
 21
4.3941187888
  0
LINE
  5
26D
100
AcDbEntity
  8
0
100
AcDbLine
 62
7
  6
CONTINUOUS
 10
4.4575543478
 20
4.3989300215
 11
4.4725543478
 21
4.3989300215
  0
LINE
  5
26E
100
AcDbEntity
  8
0
100
AcDbLine
 62
7
  6
CONTINUOUS
 10
4.4725543478
 20
4.4048572518
 11
4.4575543478
 21
4.4048572518
  0
LINE
  5
26F
100
AcDbEntity
  8
0
100
AcDbLine
 62
7
  6
CONTINUOUS
 10
4.200948624
 20
4.5654827605
 11
3.9548992958
 21
4.6190320604
  0
LINE
  5
270
100
AcDbEntity
  8
ALL_FEATURES
100
AcDbLine
 62
7
  6
CONTINUOUS
 10
4.9595543478
 20
4.8761079667
 11
4.9595543478
 21
4.9899020569
  0
LINE
  5
271
100
AcDbEntity
  8
0
100
AcDbLine
 62
7
  6
CONTINUOUS
 10
4.4725543478
 20
4.419356616
 11
4.4575543478
 21
4.419356616
  0
LINE
  5
272
100
AcDbEntity
  8
0
100
AcDbLine
 62
7
  6
CONTINUOUS
 10
4.4575543478
 20
4.4209039336
 11
4.4725543478
 21
4.4209039336
  0
LINE
  5
273
100
AcDbEntity
  8
0
100
AcDbLine
 62
7
  6
CONTINUOUS
 10
4.4575543478
 20
4.4297939324
 11
4.4725543478
 21
4.4297939324
  0
LINE
  5
274
100
AcDbEntity
  8
0
100
AcDbLine
 62
7
  6
CONTINUOUS
 10
4.4725543478
 20
4.4391987083
 11
4.4575543478
 21
4.4391987083
  0
LINE
  5
275
100
AcDbEntity
  8
0
100
AcDbLine
 62
7
  6
CONTINUOUS
 10
4.4725543478
 20
4.4514906757
 11
4.4575543478
 21
4.4514906757
  0
LINE
  5
276
100
AcDbEntity
  8
0
100
AcDbLine
 62
7
  6
CONTINUOUS
 10
4.4575543478
 20
4.455226626
 11
4.4725543478
 21
4.455226626
  0
LINE
  5
277
100
AcDbEntity
  8
0
100
AcDbLine
 62
7
  6
CONTINUOUS
 10
4.4725543478
 20
4.4666771557
 11
4.4575543478
 21
4.4666771557
  0
LINE
  5
278
100
AcDbEntity
  8
0
100
AcDbLine
 62
7
  6
CONTINUOUS
 10
4.4725543478
 20
4.4748903857
 11
4.4575543478
 21
4.4748903857
  0
LINE
  5
279
100
AcDbEntity
  8
0
100
AcDbLine
 62
7
  6
CONTINUOUS
 10
4.4725543478
 20
4.4831092494
 11
4.4575543478
 21
4.4831092494
  0
LINE
  5
27A
100
AcDbEntity
  8
ALL_FEATURES
100
AcDbLine
 62
7
  6
CONTINUOUS
 10
4.4725543478
 20
4.4859933523
 11
4.4575543478
 21
4.4859933523
  0
LINE
  5
27B
100
AcDbEntity
  8
0
100
AcDbLine
 62
7
  6
CONTINUOUS
 10
4.2575543478
 20
4.5503687888
 11
4.4575543478
 21
4.5503687888
  0
LINE
  5
27C
100
AcDbEntity
  8
ALL_FEATURES
100
AcDbLine
 62
7
  6
CONTINUOUS
 10
5.2245425368
 20
3.5367469776
 11
5.2245425368
 21
5.2514906
  0
LINE
  5
27D
100
AcDbEntity
  8
ALL_FEATURES
100
AcDbLine
 62
7
  6
CONTINUOUS
 10
5.2342807673
 20
3.5267504044
 11
5.2342807673
 21
5.2614871733
  0
LINE
  5
27E
100
AcDbEntity
  8
ALL_FEATURES
100
AcDbLine
 62
7
  6
CONTINUOUS
 10
5.2773043063
 20
3.5256237934
 11
5.2773043063
 21
5.2626137843
  0
LINE
  5
27F
100
AcDbEntity
  8
ALL_FEATURES
100
AcDbLine
 62
7
  6
CONTINUOUS
 10
5.2870425368
 20
6.0106187888
 11
5.2870425368
 21
2.7776187888
  0
LINE
  5
280
100
AcDbEntity
  8
ALL_FEATURES
100
AcDbLine
 62
7
  6
CONTINUOUS
 10
5.3165484685
 20
6.0492176817
 11
5.3165484685
 21
2.739019896
  0
LINE
  5
281
100
AcDbEntity
  8
ALL_FEATURES
100
AcDbLine
 62
7
  6
CONTINUOUS
 10
5.4722415378
 20
6.2331038203
 11
5.4722415378
 21
2.5551337574
  0
LINE
  5
282
100
AcDbEntity
  8
ALL_FEATURES
100
AcDbLine
 62
7
  6
CONTINUOUS
 10
5.5120425368
 20
6.2691187888
 11
5.5120425368
 21
2.5191187888
  0
LINE
  5
283
100
AcDbEntity
  8
0
100
AcDbLine
 62
7
  6
CONTINUOUS
 10
4.7220952578
 20
4.8443776641
 11
4.7202951712
 21
4.8439919232
  0
LINE
  5
284
100
AcDbEntity
  8
0
100
AcDbLine
 62
7
  6
CONTINUOUS
 10
5.2245425368
 20
4.8791187888
 11
4.9820543478
 21
4.8791187888
  0
LINE
  5
285
100
AcDbEntity
  8
0
100
AcDbLine
 62
7
  6
CONTINUOUS
 10
4.8070543478
 20
4.8791187888
 11
4.7825849413
 21
4.8791187888
  0
LINE
  5
286
100
AcDbEntity
  8
ALL_FEATURES
100
AcDbLine
 62
7
  6
CONTINUOUS
 10
4.8295543478
 20
4.9899020569
 11
4.9595543478
 21
4.9899020569
  0
LINE
  5
287
100
AcDbEntity
  8
0
100
AcDbLine
 62
7
  6
CONTINUOUS
 10
5.5495425368
 20
2.521527002
 11
5.5495425368
 21
2.5191187888
  0
LINE
  5
288
100
AcDbEntity
  8
0
100
AcDbLine
 62
7
  6
CONTINUOUS
 10
5.5995425368
 20
6.2691187888
 11
5.5995425368
 21
2.521527002
  0
LINE
  5
289
100
AcDbEntity
  8
ALL_FEATURES
100
AcDbLine
 62
7
  6
CONTINUOUS
 10
4.9390998024
 20
5.0183429482
 11
4.8500088933
 21
5.0183429482
  0
LINE
  5
28A
100
AcDbEntity
  8
ALL_FEATURES
100
AcDbLine
 62
7
  6
CONTINUOUS
 10
5.2773043063
 20
5.2626137843
 11
5.2342807673
 21
5.2614871733
  0
LINE
  5
28B
100
AcDbEntity
  8
ALL_FEATURES
100
AcDbLine
 62
7
  6
CONTINUOUS
 10
5.5995425368
 20
6.2691187888
 11
5.5120425368
 21
6.2691187888
  0
ARC
  5
28C
100
AcDbEntity
  8
0
100
AcDbCircle
 62
7
  6
CONTINUOUS
 10
3.2067079466
 20
4.113689226
 40
0.6399999999
100
AcDbArc
 50
4.094816567
 51
10.6562856397
  0
ARC
  5
28D
100
AcDbEntity
  8
0
100
AcDbCircle
 62
7
  6
CONTINUOUS
 10
4.3362870481
 20
3.8467166982
 40
0.3755
100
AcDbArc
 50
19.1995510708
 51
66.2551185683
  0
ARC
  5
28E
100
AcDbEntity
  8
0
100
AcDbCircle
 62
7
  6
CONTINUOUS
 10
3.8769684906
 20
4.2804971544
 40
0.347388965
100
AcDbArc
 50
77.0363413225
 51
85.5588676713
  0
ARC
  5
28F
100
AcDbEntity
  8
0
100
AcDbCircle
 62
7
  6
CONTINUOUS
 10
4.3575433418
 20
4.2145376628
 40
0.0700963048
100
AcDbArc
 50
83.0769201158
 51
89.9910038377
  0
ARC
  5
290
100
AcDbEntity
  8
0
100
AcDbCircle
 62
7
  6
CONTINUOUS
 10
4.3575564954
 20
4.2148919428
 40
0.0697420239
100
AcDbArc
 50
90.0017643466
 51
92.7367356336
  0
ARC
  5
291
100
AcDbEntity
  8
0
100
AcDbCircle
 62
7
  6
CONTINUOUS
 10
4.2109962885
 20
4.173774776
 40
0.05
100
AcDbArc
 50
63.1526567454
 51
101.5927103279
  0
ARC
  5
292
100
AcDbEntity
  8
0
100
AcDbCircle
 62
7
  6
CONTINUOUS
 10
3.9077402205
 20
4.111544651
 40
0.0499999999
100
AcDbArc
 50
94.4411323288
 51
133.0463997286
  0
ARC
  5
293
100
AcDbEntity
  8
0
100
AcDbCircle
 62
7
  6
CONTINUOUS
 10
4.1158886615
 20
4.2041187888
 40
0.015
100
AcDbArc
 50
7.4523461736
 51
32.4581295977
  0
ARC
  5
294
100
AcDbEntity
  8
0
100
AcDbCircle
 62
7
  6
CONTINUOUS
 10
4.1953043478
 20
3.802762459
 40
0.015
100
AcDbArc
 50
274.5033617277
 51
90.0
  0
ARC
  5
295
100
AcDbEntity
  8
0
100
AcDbCircle
 62
7
  6
CONTINUOUS
 10
3.8828043478
 20
3.802762459
 40
0.015
100
AcDbArc
 50
90.0
 51
265.4966382723
  0
ARC
  5
296
100
AcDbEntity
  8
0
100
AcDbCircle
 62
7
  6
CONTINUOUS
 10
4.0390543478
 20
5.7866187888
 40
2.005
100
AcDbArc
 50
265.4966382723
 51
274.5033617277
  0
ARC
  5
297
100
AcDbEntity
  8
0
100
AcDbCircle
 62
7
  6
CONTINUOUS
 10
3.2067079466
 20
4.6745483516
 40
0.6399999999
100
AcDbArc
 50
349.3437143603
 51
355.905183433
  0
ARC
  5
298
100
AcDbEntity
  8
0
100
AcDbCircle
 62
7
  6
CONTINUOUS
 10
4.3362870481
 20
4.9415208795
 40
0.3755
100
AcDbArc
 50
293.7448814317
 51
340.8004489292
  0
ARC
  5
299
100
AcDbEntity
  8
0
100
AcDbCircle
 62
7
  6
CONTINUOUS
 10
3.8769684906
 20
4.5077404233
 40
0.347388965
100
AcDbArc
 50
274.4411323287
 51
279.6057805683
  0
ARC
  5
29A
100
AcDbEntity
  8
0
100
AcDbCircle
 62
7
  6
CONTINUOUS
 10
4.2109962885
 20
4.6144628017
 40
0.05
100
AcDbArc
 50
258.4072896721
 51
296.8473432546
  0
ARC
  5
29B
100
AcDbEntity
  8
0
100
AcDbCircle
 62
7
  6
CONTINUOUS
 10
3.9077402205
 20
4.6766929266
 40
0.0499999999
100
AcDbArc
 50
226.9536002714
 51
265.5588676712
  0
ARC
  5
29C
100
AcDbEntity
  8
ALL_FEATURES
100
AcDbCircle
 62
7
  6
CONTINUOUS
 10
5.2607987304
 20
2.5339632777
 40
0.2125
100
AcDbArc
 50
5.7176220275
 51
74.7903499152
  0
ARC
  5
29D
100
AcDbEntity
  8
0
100
AcDbCircle
 62
7
  6
CONTINUOUS
 10
4.7825849413
 20
3.9591187888
 40
0.05
100
AcDbArc
 50
218.66
 51
270.0
  0
ARC
  5
29E
100
AcDbEntity
  8
0
100
AcDbCircle
 62
7
  6
CONTINUOUS
 10
4.7286765006
 20
3.9833577154
 40
0.04
100
AcDbArc
 50
199.1995510708
 51
257.905
  0
ARC
  5
29F
100
AcDbEntity
  8
ALL_FEATURES
100
AcDbCircle
 62
7
  6
CONTINUOUS
 10
5.5120425368
 20
2.5591187888
 40
0.04
100
AcDbArc
 50
185.7176220275
 51
270.0
  0
ARC
  5
2A0
100
AcDbEntity
  8
ALL_FEATURES
100
AcDbCircle
 62
7
  6
CONTINUOUS
 10
5.3270425368
 20
2.7776187888
 40
0.04
100
AcDbArc
 50
180.0
 51
254.7903499152
  0
ARC
  5
2A1
100
AcDbEntity
  8
0
100
AcDbCircle
 62
7
  6
CONTINUOUS
 10
4.3713632336
 20
4.2421408285
 40
0.0388903867
100
AcDbArc
 50
49.2693435179
 51
53.2505050137
  0
ARC
  5
2A2
100
AcDbEntity
  8
0
100
AcDbCircle
 62
7
  6
CONTINUOUS
 10
4.3734656056
 20
4.244596827
 40
0.0356574622
100
AcDbArc
 50
47.910646618
 51
49.2542359179
  0
ARC
  5
2A3
100
AcDbEntity
  8
0
100
AcDbCircle
 62
7
  6
CONTINUOUS
 10
4.7158092608
 20
3.9145258678
 40
0.03
100
AcDbArc
 50
38.6599999999
 51
77.9049999999
  0
ARC
  5
2A4
100
AcDbEntity
  8
0
100
AcDbCircle
 62
7
  6
CONTINUOUS
 10
4.4975543478
 20
4.213313354
 40
0.025
100
AcDbArc
 50
180.0
 51
246.2551185677
  0
ARC
  5
2A5
100
AcDbEntity
  8
0
100
AcDbCircle
 62
7
  6
CONTINUOUS
 10
4.3785461134
 20
4.2741677198
 40
0.0236481121
100
AcDbArc
 50
306.0800282072
 51
307.5440310084
  0
ARC
  5
2A6
100
AcDbEntity
  8
ALL_FEATURES
100
AcDbCircle
 62
7
  6
CONTINUOUS
 10
4.3724346507
 20
4.2646553145
 40
0.0182804408
100
AcDbArc
 50
309.6322339613
 51
310.8927448448
  0
ARC
  5
2A7
100
AcDbEntity
  8
0
100
AcDbCircle
 62
7
  6
CONTINUOUS
 10
4.384366213
 20
4.2629451833
 40
0.014529974
100
AcDbArc
 50
30.9858397957
 51
32.248780706
  0
ARC
  5
2A8
100
AcDbEntity
  8
ALL_FEATURES
100
AcDbCircle
 62
7
  6
CONTINUOUS
 10
4.3863853147
 20
4.2677734327
 40
0.0122483994
100
AcDbArc
 50
334.6501450964
 51
339.109578607
  0
ARC
  5
2A9
100
AcDbEntity
  8
ALL_FEATURES
100
AcDbCircle
 62
7
  6
CONTINUOUS
 10
4.3880060276
 20
4.2672776991
 40
0.0105501741
100
AcDbArc
 50
348.5274964046
 51
352.5434693792
  0
ARC
  5
2AA
100
AcDbEntity
  8
ALL_FEATURES
100
AcDbCircle
 62
7
  6
CONTINUOUS
 10
5.2770425368
 20
3.5156272201
 40
0.01
100
AcDbArc
 50
0.0
 51
88.5
  0
ARC
  5
2AB
100
AcDbEntity
  8
ALL_FEATURES
100
AcDbCircle
 62
7
  6
CONTINUOUS
 10
5.2345425368
 20
3.5367469776
 40
0.01
100
AcDbArc
 50
180.0
 51
268.5
  0
ARC
  5
2AC
100
AcDbEntity
  8
0
100
AcDbCircle
 62
7
  6
CONTINUOUS
 10
4.6970712911
 20
4.3941187888
 40
0.8765169433
100
AcDbArc
 50
169.3437143601
 51
190.6562856399
  0
ARC
  5
2AD
100
AcDbEntity
  8
ALL_FEATURES
100
AcDbCircle
 62
7
  6
CONTINUOUS
 10
5.2607987304
 20
6.2542743
 40
0.2125
100
AcDbArc
 50
285.2096500848
 51
354.2823779725
  0
ARC
  5
2AE
100
AcDbEntity
  8
ALL_FEATURES
100
AcDbCircle
 62
7
  6
CONTINUOUS
 10
4.8945543478
 20
4.8856187888
 40
0.14
100
AcDbArc
 50
71.446995465
 51
108.553004535
  0
ARC
  5
2AF
100
AcDbEntity
  8
0
100
AcDbCircle
 62
7
  6
CONTINUOUS
 10
4.7825849413
 20
4.8291187888
 40
0.05
100
AcDbArc
 50
90.0
 51
141.34
  0
ARC
  5
2B0
100
AcDbEntity
  8
0
100
AcDbCircle
 62
7
  6
CONTINUOUS
 10
4.7286765006
 20
4.8048798622
 40
0.04
100
AcDbArc
 50
102.095
 51
160.8004489292
  0
ARC
  5
2B1
100
AcDbEntity
  8
ALL_FEATURES
100
AcDbCircle
 62
7
  6
CONTINUOUS
 10
5.5120425368
 20
6.2291187888
 40
0.04
100
AcDbArc
 50
90.0
 51
174.2823779725
  0
ARC
  5
2B2
100
AcDbEntity
  8
ALL_FEATURES
100
AcDbCircle
 62
7
  6
CONTINUOUS
 10
5.3270425368
 20
6.0106187888
 40
0.04
100
AcDbArc
 50
105.2096500848
 51
180.0
  0
ARC
  5
2B3
100
AcDbEntity
  8
ALL_FEATURES
100
AcDbCircle
 62
7
  6
CONTINUOUS
 10
4.8595543478
 20
4.9899020569
 40
0.03
100
AcDbArc
 50
108.553004535
 51
180.0
  0
ARC
  5
2B4
100
AcDbEntity
  8
ALL_FEATURES
100
AcDbCircle
 62
7
  6
CONTINUOUS
 10
4.9295543478
 20
4.9899020569
 40
0.03
100
AcDbArc
 50
0.0
 51
71.446995465
  0
ARC
  5
2B5
100
AcDbEntity
  8
0
100
AcDbCircle
 62
7
  6
CONTINUOUS
 10
4.7158092608
 20
4.8737117098
 40
0.03
100
AcDbArc
 50
282.0950000001
 51
321.3400000001
  0
ARC
  5
2B6
100
AcDbEntity
  8
0
100
AcDbCircle
 62
7
  6
CONTINUOUS
 10
4.4975543478
 20
4.5749242237
 40
0.025
100
AcDbArc
 50
113.7448814323
 51
180.0
  0
ARC
  5
2B7
100
AcDbEntity
  8
ALL_FEATURES
100
AcDbCircle
 62
7
  6
CONTINUOUS
 10
5.2770425368
 20
5.2726103575
 40
0.01
100
AcDbArc
 50
271.5
 51
360.0
  0
ARC
  5
2B8
100
AcDbEntity
  8
ALL_FEATURES
100
AcDbCircle
 62
7
  6
CONTINUOUS
 10
5.2345425368
 20
5.2514906
 40
0.01
100
AcDbArc
 50
91.5
 51
180.0
  0
SPLINE
  5
2B9
100
AcDbEntity
  8
DEFAULT_2
100
AcDbSpline
 62
8
  6
HIDDEN
 70
0
 71
3
 72
122
 73
118
 74
0
 42
0.0000001
 43
0.0000001
 44
0.0000000001
 40
0.0
 40
0.0
 40
0.0
 40
0.0
 40
0.03125
 40
0.0625
 40
0.078125
 40
0.09375
 40
0.109375
 40
0.1171875
 40
0.125
 40
0.1328125
 40
0.13671875
 40
0.140625
 40
0.1416015625
 40
0.142578125
 40
0.14453125
 40
0.146484375
 40
0.1484375
 40
0.15625
 40
0.1640625
 40
0.171875
 40
0.1875
 40
0.203125
 40
0.21875
 40
0.234375
 40
0.25
 40
0.2578125
 40
0.265625
 40
0.2734375
 40
0.27734375
 40
0.28125
 40
0.283203125
 40
0.28515625
 40
0.2856445312
 40
0.2861328125
 40
0.287109375
 40
0.2890625
 40
0.29296875
 40
0.296875
 40
0.3046875
 40
0.3125
 40
0.328125
 40
0.34375
 40
0.375
 40
0.390625
 40
0.3984375
 40
0.40625
 40
0.4140625
 40
0.421875
 40
0.42578125
 40
0.427734375
 40
0.4287109375
 40
0.4296875
 40
0.431640625
 40
0.43359375
 40
0.4375
 40
0.44140625
 40
0.4453125
 40
0.453125
 40
0.46875
 40
0.484375
 40
0.5
 40
0.515625
 40
0.53125
 40
0.546875
 40
0.5546875
 40
0.55859375
 40
0.5625
 40
0.56640625
 40
0.568359375
 40
0.5703125
 40
0.5712890625
 40
0.572265625
 40
0.57421875
 40
0.578125
 40
0.5859375
 40
0.59375
 40
0.6015625
 40
0.609375
 40
0.625
 40
0.65625
 40
0.671875
 40
0.6875
 40
0.6953125
 40
0.703125
 40
0.70703125
 40
0.7109375
 40
0.71484375
 40
0.716796875
 40
0.71875
 40
0.72265625
 40
0.7265625
 40
0.734375
 40
0.7421875
 40
0.75
 40
0.765625
 40
0.78125
 40
0.796875
 40
0.8125
 40
0.828125
 40
0.8359375
 40
0.84375
 40
0.8515625
 40
0.853515625
 40
0.85546875
 40
0.857421875
 40
0.859375
 40
0.861328125
 40
0.86328125
 40
0.8671875
 40
0.875
 40
0.8828125
 40
0.890625
 40
0.90625
 40
0.921875
 40
0.9375
 40
0.96875
 40
1.0
 40
1.0
 40
1.0
 40
1.0
 10
4.3204927824
 20
4.2732977357
 30
0.0
 10
4.3202812801
 20
4.2729926723
 30
0.0
 10
4.3198582757
 20
4.2723825453
 30
0.0
 10
4.3193295195
 20
4.2716198867
 30
0.0
 10
4.318906516
 20
4.2710097597
 30
0.0
 10
4.3185892596
 20
4.2705521648
 30
0.0
 10
4.3183248913
 20
4.2701708344
 30
0.0
 10
4.3181133695
 20
4.2698657731
 30
0.0
 10
4.3179548024
 20
4.2696369687
 30
0.0
 10
4.3178224269
 20
4.2694463254
 30
0.0
 10
4.3177170565
 20
4.26929375
 30
0.0
 10
4.3176566996
 20
4.2692080509
 30
0.0
 10
4.3176181889
 20
4.2691507201
 30
0.0
 10
4.3175883918
 20
4.2691129724
 30
0.0
 10
4.3175812063
 20
4.2690623402
 30
0.0
 10
4.3175655707
 20
4.2690023858
 30
0.0
 10
4.3175379071
 20
4.2688820633
 30
0.0
 10
4.3174948967
 20
4.2687017533
 30
0.0
 10
4.3174384141
 20
4.2684612408
 30
0.0
 10
4.317362802
 20
4.2681405921
 30
0.0
 10
4.3172683904
 20
4.2677397693
 30
0.0
 10
4.3171550523
 20
4.2672587871
 30
0.0
 10
4.3170417254
 20
4.2667778035
 30
0.0
 10
4.3169283976
 20
4.2662968202
 30
0.0
 10
4.3168339517
 20
4.265896001
 30
0.0
 10
4.3167584099
 20
4.265575345
 30
0.0
 10
4.3167017125
 20
4.2653348547
 30
0.0
 10
4.3166545952
 20
4.2651344408
 30
0.0
 10
4.3166166086
 20
4.2649741216
 30
0.0
 10
4.3165935336
 20
4.264873895
 30
0.0
 10
4.3165735468
 20
4.2647937756
 30
0.0
 10
4.3165654397
 20
4.2647485815
 30
0.0
 10
4.3165550478
 20
4.264718654
 30
0.0
 10
4.3165600254
 20
4.2646982203
 30
0.0
 10
4.3165667284
 20
4.2646625425
 30
0.0
 10
4.3165815598
 20
4.2645911292
 30
0.0
 10
4.3166020039
 20
4.2644891403
 30
0.0
 10
4.3166351299
 20
4.2643259413
 30
0.0
 10
4.3166763952
 20
4.2641219483
 30
0.0
 10
4.3167424992
 20
4.2637955562
 30
0.0
 10
4.3168251019
 20
4.2633875672
 30
0.0
 10
4.3169572821
 20
4.2627347844
 30
0.0
 10
4.3170894538
 20
4.262082001
 30
0.0
 10
4.317205116
 20
4.2615108171
 30
0.0
 10
4.3172711924
 20
4.261184424
 30
0.0
 10
4.3173207952
 20
4.2609396357
 30
0.0
 10
4.3173702244
 20
4.2606948222
 30
0.0
 10
4.317411956
 20
4.2604908895
 30
0.0
 10
4.3174401087
 20
4.2603479828
 30
0.0
 10
4.3174556323
 20
4.2602767395
 30
0.0
 10
4.3174621733
 20
4.2602356909
 30
0.0
 10
4.3174921027
 20
4.260198038
 30
0.0
 10
4.3175215062
 20
4.2601498092
 30
0.0
 10
4.3175730277
 20
4.2600732929
 30
0.0
 10
4.3176358939
 20
4.2599774246
 30
0.0
 10
4.3177119905
 20
4.2598624781
 30
0.0
 10
4.3178132234
 20
4.2597091828
 30
0.0
 10
4.3179904879
 20
4.2594409315
 30
0.0
 10
4.318243667
 20
4.2590577073
 30
0.0
 10
4.3185475059
 20
4.2585978417
 30
0.0
 10
4.318851338
 20
4.2581379751
 30
0.0
 10
4.3191551735
 20
4.257678109
 30
0.0
 10
4.3194590023
 20
4.2572182418
 30
0.0
 10
4.3197122125
 20
4.2568350227
 30
0.0
 10
4.3198894215
 20
4.2565667622
 30
0.0
 10
4.3199907433
 20
4.2564134816
 30
0.0
 10
4.3200665669
 20
4.2562984899
 30
0.0
 10
4.3201302878
 20
4.2562027628
 30
0.0
 10
4.3201800653
 20
4.2561259585
 30
0.0
 10
4.320213907
 20
4.2560784628
 30
0.0
 10
4.3202347264
 20
4.2560393052
 30
0.0
 10
4.3202783772
 20
4.2560043861
 30
0.0
 10
4.3203507865
 20
4.255942539
 30
0.0
 10
4.3204984305
 20
4.2558193692
 30
0.0
 10
4.3207078732
 20
4.2556431382
 30
0.0
 10
4.3209598377
 20
4.2554317785
 30
0.0
 10
4.3212116328
 20
4.2552203874
 30
0.0
 10
4.3215474189
 20
4.2549385436
 30
0.0
 10
4.3221350148
 20
4.2544453109
 30
0.0
 10
4.322806579
 20
4.2538816248
 30
0.0
 10
4.323478099
 20
4.2533179203
 30
0.0
 10
4.323897888
 20
4.2529656439
 30
0.0
 10
4.3242335165
 20
4.2526837341
 30
0.0
 10
4.3244437466
 20
4.2525077427
 30
0.0
 10
4.3246108719
 20
4.2523664863
 30
0.0
 10
4.3247391149
 20
4.2522618126
 30
0.0
 10
4.3248367619
 20
4.2521705489
 30
0.0
 10
4.324952749
 20
4.2521141096
 30
0.0
 10
4.3250621225
 20
4.2520547763
 30
0.0
 10
4.325201104
 20
4.2519816005
 30
0.0
 10
4.3254222087
 20
4.2518639655
 30
0.0
 10
4.3256990239
 20
4.2517171117
 30
0.0
 10
4.3260310162
 20
4.2515408057
 30
0.0
 10
4.3264737375
 20
4.2513057596
 30
0.0
 10
4.3270271168
 20
4.2510119422
 30
0.0
 10
4.3276911818
 20
4.2506593656
 30
0.0
 10
4.3283552431
 20
4.2503067873
 30
0.0
 10
4.3290193097
 20
4.2499542117
 30
0.0
 10
4.3295726837
 20
4.249660391
 30
0.0
 10
4.3300154159
 20
4.2494253514
 30
0.0
 10
4.3303473751
 20
4.2492490256
 30
0.0
 10
4.3305966018
 20
4.2491169132
 30
0.0
 10
4.3307623522
 20
4.2490286328
 30
0.0
 10
4.3308459431
 20
4.2489848595
 30
0.0
 10
4.3309267515
 20
4.2489396596
 30
0.0
 10
4.3310338902
 20
4.24890796
 30
0.0
 10
4.3311339857
 20
4.2488726491
 30
0.0
 10
4.3312699031
 20
4.2488268276
 30
0.0
 10
4.3315066139
 20
4.248746053
 30
0.0
 10
4.3318453706
 20
4.2486309676
 30
0.0
 10
4.3322516226
 20
4.2484927337
 30
0.0
 10
4.3327933813
 20
4.2483084678
 30
0.0
 10
4.3334705491
 20
4.2480781197
 30
0.0
 10
4.3342831635
 20
4.2478017087
 30
0.0
 10
4.3353666447
 20
4.2474331584
 30
0.0
 10
4.3367209979
 20
4.2469724712
 30
0.0
 10
4.33780448
 20
4.2466039213
 30
0.0
 10
4.3383462211
 20
4.2464196463
 30
0.0
  0
SPLINE
  5
2BA
100
AcDbEntity
  8
DEFAULT_2
100
AcDbSpline
 62
8
  6
HIDDEN
 70
0
 71
3
 72
90
 73
86
 74
0
 42
0.0000001
 43
0.0000001
 44
0.0000000001
 40
0.0
 40
0.0
 40
0.0
 40
0.0
 40
0.0625
 40
0.09375
 40
0.109375
 40
0.125
 40
0.140625
 40
0.15625
 40
0.16015625
 40
0.1640625
 40
0.166015625
 40
0.16796875
 40
0.171875
 40
0.1796875
 40
0.1875
 40
0.203125
 40
0.21875
 40
0.25
 40
0.28125
 40
0.296875
 40
0.3125
 40
0.3203125
 40
0.328125
 40
0.33203125
 40
0.333984375
 40
0.3359375
 40
0.33984375
 40
0.34375
 40
0.3515625
 40
0.359375
 40
0.375
 40
0.390625
 40
0.40625
 40
0.421875
 40
0.4375
 40
0.453125
 40
0.46875
 40
0.4765625
 40
0.484375
 40
0.4921875
 40
0.49609375
 40
0.498046875
 40
0.5
 40
0.501953125
 40
0.50390625
 40
0.5078125
 40
0.515625
 40
0.5234375
 40
0.53125
 40
0.546875
 40
0.5625
 40
0.578125
 40
0.59375
 40
0.609375
 40
0.625
 40
0.640625
 40
0.6484375
 40
0.65625
 40
0.66015625
 40
0.6640625
 40
0.666015625
 40
0.66796875
 40
0.671875
 40
0.6796875
 40
0.6875
 40
0.703125
 40
0.71875
 40
0.75
 40
0.78125
 40
0.796875
 40
0.8125
 40
0.8203125
 40
0.828125
 40
0.83203125
 40
0.833984375
 40
0.8359375
 40
0.83984375
 40
0.84375
 40
0.8515625
 40
0.859375
 40
0.875
 40
0.890625
 40
0.90625
 40
0.9375
 40
1.0
 40
1.0
 40
1.0
 40
1.0
 10
4.3767624766
 20
4.2464196469
 30
0.0
 10
4.3774697394
 20
4.2466461201
 30
0.0
 10
4.3785306365
 20
4.2469858274
 30
0.0
 10
4.3797683393
 20
4.2473821616
 30
0.0
 10
4.3804756131
 20
4.2476086254
 30
0.0
 10
4.3810060263
 20
4.2477785095
 30
0.0
 10
4.3815366006
 20
4.247948255
 30
0.0
 10
4.3819340797
 20
4.2480759525
 30
0.0
 10
4.3821997681
 20
4.2481604803
 30
0.0
 10
4.3823094264
 20
4.2481965987
 30
0.0
 10
4.3823995912
 20
4.2482233974
 30
0.0
 10
4.3824808396
 20
4.2482578614
 30
0.0
 10
4.3826188816
 20
4.2483217347
 30
0.0
 10
4.3828182458
 20
4.2484111242
 30
0.0
 10
4.3831360206
 20
4.2485551857
 30
0.0
 10
4.383533653
 20
4.248734907
 30
0.0
 10
4.3841696319
 20
4.2490226606
 30
0.0
 10
4.3849646963
 20
4.2493822789
 30
0.0
 10
4.3857596889
 20
4.2497419422
 30
0.0
 10
4.3863957827
 20
4.2500296239
 30
0.0
 10
4.386793128
 20
4.2502095249
 30
0.0
 10
4.3871114914
 20
4.250353218
 30
0.0
 10
4.3873093572
 20
4.2504435455
 30
0.0
 10
4.3874500905
 20
4.250505734
 30
0.0
 10
4.3875270248
 20
4.2505428986
 30
0.0
 10
4.3875908318
 20
4.2505861976
 30
0.0
 10
4.3876750854
 20
4.250638221
 30
0.0
 10
4.3878073792
 20
4.2507226321
 30
0.0
 10
4.3879736065
 20
4.2508277442
 30
0.0
 10
4.3882390895
 20
4.2509961481
 30
0.0
 10
4.3885711083
 20
4.2512065759
 30
0.0
 10
4.38896946
 20
4.2514591223
 30
0.0
 10
4.3893678309
 20
4.2517116598
 30
0.0
 10
4.389766196
 20
4.2519642
 30
0.0
 10
4.390164565
 20
4.2522167386
 30
0.0
 10
4.390562924
 20
4.2524692806
 30
0.0
 10
4.3908949201
 20
4.2526797222
 30
0.0
 10
4.3911604494
 20
4.2528480979
 30
0.0
 10
4.3913597809
 20
4.2529743186
 30
0.0
 10
4.3915253034
 20
4.2530796966
 30
0.0
 10
4.3916423214
 20
4.2531530804
 30
0.0
 10
4.3917073896
 20
4.2531956086
 30
0.0
 10
4.3917612591
 20
4.2532258297
 30
0.0
 10
4.3917957551
 20
4.2532624536
 30
0.0
 10
4.3918485074
 20
4.253309052
 30
0.0
 10
4.3919376753
 20
4.2533916399
 30
0.0
 10
4.3920667043
 20
4.2535090785
 30
0.0
 10
4.3922208344
 20
4.2536502377
 30
0.0
 10
4.3924265873
 20
4.2538383686
 30
0.0
 10
4.392683694
 20
4.2540735602
 30
0.0
 10
4.3929922584
 20
4.2543557781
 30
0.0
 10
4.3933008126
 20
4.2546379992
 30
0.0
 10
4.3936093712
 20
4.2549202192
 30
0.0
 10
4.3939179226
 20
4.2552024408
 30
0.0
 10
4.394226498
 20
4.2554846571
 30
0.0
 10
4.3944835704
 20
4.2557198536
 30
0.0
 10
4.3946893934
 20
4.2559079744
 30
0.0
 10
4.3948176568
 20
4.256025633
 30
0.0
 10
4.3949211287
 20
4.2561195694
 30
0.0
 10
4.3949838335
 20
4.2561787143
 30
0.0
 10
4.3950384984
 20
4.2562250347
 30
0.0
 10
4.3950767314
 20
4.2562749896
 30
0.0
 10
4.3951360058
 20
4.2563640991
 30
0.0
 10
4.3952246663
 20
4.2564905175
 30
0.0
 10
4.3953642972
 20
4.2566932792
 30
0.0
 10
4.3955395983
 20
4.2569465628
 30
0.0
 10
4.395819652
 20
4.2573519109
 30
0.0
 10
4.3961698804
 20
4.2578585619
 30
0.0
 10
4.3965199986
 20
4.2583652317
 30
0.0
 10
4.3968002287
 20
4.2587705498
 30
0.0
 10
4.3969750888
 20
4.2590239086
 30
0.0
 10
4.3971156238
 20
4.259226516
 30
0.0
 10
4.3972019829
 20
4.2593533272
 30
0.0
 10
4.3972653907
 20
4.2594417312
 30
0.0
 10
4.3972969982
 20
4.259492817
 30
0.0
 10
4.3973111803
 20
4.2595460471
 30
0.0
 10
4.3973348743
 20
4.2596118505
 30
0.0
 10
4.3973694505
 20
4.2597175463
 30
0.0
 10
4.3974138123
 20
4.2598495255
 30
0.0
 10
4.3974841532
 20
4.2600607708
 30
0.0
 10
4.3975722983
 20
4.2603248004
 30
0.0
 10
4.3976779787
 20
4.2606416475
 30
0.0
 10
4.3978189185
 20
4.2610641063
 30
0.0
 10
4.398065548
 20
4.261803411
 30
0.0
 10
4.3982769499
 20
4.2624371002
 30
0.0
 10
4.3984178833
 20
4.2628595597
 30
0.0
  0
LINE
  5
2BB
100
AcDbEntity
  8
DEFAULT_2
100
AcDbLine
 62
8
  6
HIDDEN
 10
4.3984178831
 20
4.2628595587
 11
4.3985534858
 21
4.2646636834
  0
LINE
  5
2BC
100
AcDbEntity
  8
DEFAULT_2
100
AcDbLine
 62
8
  6
HIDDEN
 10
4.3985534858
 20
4.2646636834
 11
4.3984655055
 21
4.2658795594
  0
LINE
  5
2BD
100
AcDbEntity
  8
DEFAULT_2
100
AcDbLine
 62
8
  6
HIDDEN
 10
4.3984655055
 20
4.2658795594
 11
4.398448493
 21
4.2660028958
  0
LINE
  5
2BE
100
AcDbEntity
  8
DEFAULT_2
100
AcDbLine
 62
8
  6
HIDDEN
 10
4.398448493
 20
4.2660028958
 11
4.3981682584
 21
4.2673374473
  0
LINE
  5
2BF
100
AcDbEntity
  8
DEFAULT_2
100
AcDbLine
 62
8
  6
HIDDEN
 10
4.3981682584
 20
4.2673374473
 11
4.3981336152
 21
4.2674600412
  0
LINE
  5
2C0
100
AcDbEntity
  8
DEFAULT_2
100
AcDbLine
 62
8
  6
HIDDEN
 10
4.3981336152
 20
4.2674600412
 11
4.3976536591
 21
4.2688040724
  0
LINE
  5
2C1
100
AcDbEntity
  8
DEFAULT_2
100
AcDbLine
 62
8
  6
HIDDEN
 10
4.3976536591
 20
4.2688040723
 11
4.3975591541
 21
4.2690200531
  0
LINE
  5
2C2
100
AcDbEntity
  8
DEFAULT_2
100
AcDbLine
 62
8
  6
HIDDEN
 10
4.3975591541
 20
4.2690200531
 11
4.3968877024
 21
4.2703162292
  0
LINE
  5
2C3
100
AcDbEntity
  8
DEFAULT_2
100
AcDbLine
 62
8
  6
HIDDEN
 10
4.3968877024
 20
4.2703162292
 11
4.3967508466
 21
4.2705439509
  0
LINE
  5
2C4
100
AcDbEntity
  8
DEFAULT_2
100
AcDbLine
 62
8
  6
HIDDEN
 10
4.3967508466
 20
4.2705439509
 11
4.3958757022
 21
4.2718189875
  0
LINE
  5
2C5
100
AcDbEntity
  8
DEFAULT_2
100
AcDbLine
 62
8
  6
HIDDEN
 10
4.3958757023
 20
4.2718189874
 11
4.3957330458
 21
4.2720038156
  0
LINE
  5
2C6
100
AcDbEntity
  8
DEFAULT_2
100
AcDbLine
 62
8
  6
HIDDEN
 10
4.3957330458
 20
4.2720038156
 11
4.394615922
 21
4.2732977265
  0
LINE
  5
2C7
100
AcDbEntity
  8
ALL_FEATURES
100
AcDbLine
 62
7
  6
CONTINUOUS
 10
4.3918048265
 20
4.2559776965
 11
4.3875931293
 21
4.2536525276
  0
SPLINE
  5
2C8
100
AcDbEntity
  8
ALL_FEATURES
100
AcDbSpline
 62
7
  6
CONTINUOUS
 70
0
 71
3
 72
30
 73
26
 74
0
 42
0.0000001
 43
0.0000001
 44
0.0000000001
 40
0.0
 40
0.0
 40
0.0
 40
0.0
 40
0.0808960546
 40
0.1607449762
 40
0.2390750768
 40
0.3154376994
 40
0.3894150861
 40
0.4606330021
 40
0.4951094498
 40
0.5287810096
 40
0.5616176576
 40
0.5935960417
 40
0.6548958084
 40
0.6842158044
 40
0.7126468121
 40
0.7402006824
 40
0.7669008163
 40
0.8178569622
 40
0.8659398907
 40
0.8891005647
 40
0.9117861247
 40
0.9341036165
 40
0.9561681325
 40
0.978094739
 40
1.0
 40
1.0
 40
1.0
 40
1.0
 10
4.3542263835
 20
4.2845475623
 30
0.0
 10
4.3530787042
 20
4.2844336443
 30
0.0
 10
4.3508029889
 20
4.2841552529
 30
0.0
 10
4.3474418035
 20
4.2835820967
 30
0.0
 10
4.3441757823
 20
4.2828583996
 30
0.0
 10
4.3410322138
 20
4.2819886177
 30
0.0
 10
4.3380376781
 20
4.2809782762
 30
0.0
 10
4.3356622507
 20
4.2800147096
 30
0.0
 10
4.3338602676
 20
4.2791768522
 30
0.0
 10
4.3325762938
 20
4.2785248794
 30
0.0
 10
4.3313481082
 20
4.2778436295
 30
0.0
 10
4.3298103791
 20
4.2769113254
 30
0.0
 10
4.3283709994
 20
4.275915076
 30
0.0
 10
4.3270463495
 20
4.2748530285
 30
0.0
 10
4.326135808
 20
4.2740459988
 30
0.0
 10
4.3252957314
 20
4.2732181249
 30
0.0
 10
4.324287987
 20
4.2721062627
 30
0.0
 10
4.3232037968
 20
4.2706723271
 30
0.0
 10
4.3223497331
 20
4.2691460671
 30
0.0
 10
4.321836114
 20
4.2679080031
 30
0.0
 10
4.3215369516
 20
4.2669822147
 30
0.0
 10
4.3213201094
 20
4.2660497702
 30
0.0
 10
4.3211865304
 20
4.2651126617
 30
0.0
 10
4.3211364961
 20
4.264173346
 30
0.0
 10
4.3211590025
 20
4.2635478683
 30
0.0
 10
4.321184105
 20
4.2632365798
 30
0.0
  0
SPLINE
  5
2C9
100
AcDbEntity
  8
ALL_FEATURES
100
AcDbSpline
 62
7
  6
CONTINUOUS
 70
0
 71
3
 72
17
 73
13
 74
0
 42
0.0000001
 43
0.0000001
 44
0.0000000001
 40
0.0
 40
0.0
 40
0.0
 40
0.0
 40
0.054157206
 40
0.1087651379
 40
0.1639962452
 40
0.2200159364
 40
0.3350036203
 40
0.4549805008
 40
0.5809023535
 40
0.7134492326
 40
0.8530703847
 40
1.0
 40
1.0
 40
1.0
 40
1.0
 10
4.321184105
 20
4.2632365798
 30
0.0
 10
4.3212040924
 20
4.2629887226
 30
0.0
 10
4.321261889
 20
4.2624921953
 30
0.0
 10
4.3214009315
 20
4.2617515851
 30
0.0
 10
4.321592434
 20
4.2610138907
 30
0.0
 10
4.3219202459
 20
4.2600275148
 30
0.0
 10
4.3224657209
 20
4.258803642
 30
0.0
 10
4.3233191792
 20
4.2573792089
 30
0.0
 10
4.3243723015
 20
4.2559930683
 30
0.0
 10
4.3256189213
 20
4.2546526098
 30
0.0
 10
4.3270519472
 20
4.2533650141
 30
0.0
 10
4.3280996439
 20
4.2525666629
 30
0.0
 10
4.3286504786
 20
4.2521771769
 30
0.0
  0
LINE
  5
2CA
100
AcDbEntity
  8
ALL_FEATURES
100
AcDbLine
 62
7
  6
CONTINUOUS
 10
4.398345412
 20
4.2651792943
 11
4.3978285546
 21
4.2634058762
  0
SPLINE
  5
2CB
100
AcDbEntity
  8
ALL_FEATURES
100
AcDbSpline
 62
7
  6
CONTINUOUS
 70
0
 71
3
 72
14
 73
10
 74
0
 42
0.0000001
 43
0.0000001
 44
0.0000000001
 40
0.0
 40
0.0
 40
0.0
 40
0.0
 40
0.1119610568
 40
0.2271060832
 40
0.3457741278
 40
0.4682532944
 40
0.7254525344
 40
0.8605455425
 40
1.0
 40
1.0
 40
1.0
 40
1.0
 10
4.3974543201
 20
4.2625293494
 30
0.0
 10
4.3973150165
 20
4.262234772
 30
0.0
 10
4.3970095031
 20
4.2616478395
 30
0.0
 10
4.3964818621
 20
4.2607900157
 30
0.0
 10
4.3958797674
 20
4.2599448005
 30
0.0
 10
4.3949646394
 20
4.2588185479
 30
0.0
 10
4.3939159794
 20
4.2577432842
 30
0.0
 10
4.3927534184
 20
4.2567212064
 30
0.0
 10
4.3921279852
 20
4.2562232586
 30
0.0
 10
4.3918048265
 20
4.2559776965
 30
0.0
  0
SPLINE
  5
2CC
100
AcDbEntity
  8
ALL_FEATURES
100
AcDbSpline
 62
7
  6
CONTINUOUS
 70
0
 71
3
 72
21
 73
17
 74
0
 42
0.0000001
 43
0.0000001
 44
0.0000000001
 40
0.0
 40
0.0
 40
0.0
 40
0.0
 40
0.0503898443
 40
0.1028467377
 40
0.1573298137
 40
0.2137782112
 40
0.2721058031
 40
0.3322130097
 40
0.3939834436
 40
0.4572851599
 40
0.5219781857
 40
0.5879089323
 40
0.7228158013
 40
0.8606559041
 40
0.930234358
 40
1.0
 40
1.0
 40
1.0
 40
1.0
 10
4.3828657393
 20
4.2496368848
 30
0.0
 10
4.3825022251
 20
4.2493798324
 30
0.0
 10
4.3817441536
 20
4.248877698
 30
0.0
 10
4.3805444345
 20
4.2481743729
 30
0.0
 10
4.3792631495
 20
4.2475080273
 30
0.0
 10
4.3779048159
 20
4.2468811865
 30
0.0
 10
4.3764743036
 20
4.2462958308
 30
0.0
 10
4.3749766165
 20
4.2457541792
 30
0.0
 10
4.3734170683
 20
4.2452581263
 30
0.0
 10
4.3718012155
 20
4.2448093092
 30
0.0
 10
4.3701347255
 20
4.244409511
 30
0.0
 10
4.3678357278
 20
4.2439399351
 30
0.0
 10
4.3648756653
 20
4.2434866896
 30
0.0
 10
4.3618613307
 20
4.2432147156
 30
0.0
 10
4.3594144748
 20
4.2431045704
 30
0.0
 10
4.3581832196
 20
4.2430859385
 30
0.0
 10
4.3575668081
 20
4.2430858144
 30
0.0
  0
SPLINE
  5
2CD
100
AcDbEntity
  8
ALL_FEATURES
100
AcDbSpline
 62
7
  6
CONTINUOUS
 70
0
 71
3
 72
21
 73
17
 74
0
 42
0.0000001
 43
0.0000001
 44
0.0000000001
 40
0.0
 40
0.0
 40
0.0
 40
0.0
 40
0.069765642
 40
0.1393440959
 40
0.2771841987
 40
0.4120910677
 40
0.4780218143
 40
0.5427148401
 40
0.6060165564
 40
0.6677869903
 40
0.7278941969
 40
0.7862217888
 40
0.8426701863
 40
0.8971532623
 40
0.9496101557
 40
1.0
 40
1.0
 40
1.0
 40
1.0
 10
4.3575418876
 20
4.2430858144
 30
0.0
 10
4.3569254761
 20
4.2430859385
 30
0.0
 10
4.3556942208
 20
4.2431045704
 30
0.0
 10
4.353247365
 20
4.2432147156
 30
0.0
 10
4.3502330303
 20
4.2434866896
 30
0.0
 10
4.3472729679
 20
4.2439399351
 30
0.0
 10
4.3449739701
 20
4.244409511
 30
0.0
 10
4.3433074801
 20
4.2448093092
 30
0.0
 10
4.3416916274
 20
4.2452581263
 30
0.0
 10
4.3401320791
 20
4.2457541792
 30
0.0
 10
4.338634392
 20
4.2462958308
 30
0.0
 10
4.3372038797
 20
4.2468811865
 30
0.0
 10
4.3358455461
 20
4.2475080273
 30
0.0
 10
4.3345642611
 20
4.2481743729
 30
0.0
 10
4.3333645421
 20
4.248877698
 30
0.0
 10
4.3326064706
 20
4.2493798324
 30
0.0
 10
4.3322429563
 20
4.2496368848
 30
0.0
  0
SPLINE
  5
2CE
100
AcDbEntity
  8
ALL_FEATURES
100
AcDbSpline
 62
7
  6
CONTINUOUS
 70
0
 71
3
 72
18
 73
14
 74
0
 42
0.0000001
 43
0.0000001
 44
0.0000000001
 40
0.0
 40
0.0
 40
0.0
 40
0.0
 40
0.1488883156
 40
0.2895444484
 40
0.422332917
 40
0.5478519442
 40
0.6669964781
 40
0.7245771054
 40
0.7810485743
 40
0.8366124093
 40
0.8914817758
 40
0.9458710672
 40
1.0
 40
1.0
 40
1.0
 40
1.0
 10
4.3841272151
 20
4.250528895
 30
0.0
 10
4.384595921
 20
4.2508602987
 30
0.0
 10
4.3854838789
 20
4.2515392019
 30
0.0
 10
4.3866895742
 20
4.2526367414
 30
0.0
 10
4.3877241766
 20
4.2537786547
 30
0.0
 10
4.3885811333
 20
4.2549585788
 30
0.0
 10
4.3891490945
 20
4.255980078
 30
0.0
 10
4.3895047606
 20
4.2568064822
 30
0.0
 10
4.3897212227
 20
4.257424159
 30
0.0
 10
4.3898899703
 20
4.2580457217
 30
0.0
 10
4.3900106605
 20
4.2586702379
 30
0.0
 10
4.3900831821
 20
4.2592965664
 30
0.0
 10
4.3900993478
 20
4.2597151305
 30
0.0
 10
4.3900993478
 20
4.2599238223
 30
0.0
  0
SPLINE
  5
2CF
100
AcDbEntity
  8
ALL_FEATURES
100
AcDbSpline
 62
7
  6
CONTINUOUS
 70
0
 71
3
 72
23
 73
19
 74
0
 42
0.0000001
 43
0.0000001
 44
0.0000000001
 40
0.0
 40
0.0
 40
0.0
 40
0.0
 40
0.0840950497
 40
0.165288749
 40
0.2434402907
 40
0.3184481454
 40
0.3902794175
 40
0.458929478
 40
0.5244251726
 40
0.5868299098
 40
0.6462465134
 40
0.7028381192
 40
0.7568280368
 40
0.8084989385
 40
0.8582056518
 40
0.9063660578
 40
0.9534562741
 40
1.0
 40
1.0
 40
1.0
 40
1.0
 10
4.3789106415
 20
4.2722027244
 30
0.0
 10
4.3793404962
 20
4.272053513
 30
0.0
 10
4.3801799603
 20
4.2717442939
 30
0.0
 10
4.3813968135
 20
4.2712390904
 30
0.0
 10
4.3825460691
 20
4.2707022546
 30
0.0
 10
4.3836240493
 20
4.2701355943
 30
0.0
 10
4.3846277494
 20
4.2695412062
 30
0.0
 10
4.3855544289
 20
4.2689209485
 30
0.0
 10
4.3864015197
 20
4.2682768031
 30
0.0
 10
4.3871667191
 20
4.2676109711
 30
0.0
 10
4.3878476969
 20
4.2669254336
 30
0.0
 10
4.3884424726
 20
4.2662223908
 30
0.0
 10
4.3889493796
 20
4.2655041118
 30
0.0
 10
4.3893666295
 20
4.2647726976
 30
0.0
 10
4.3896929211
 20
4.2640305876
 30
0.0
 10
4.3899270744
 20
4.2632801844
 30
0.0
 10
4.3900678789
 20
4.2625242062
 30
0.0
 10
4.3900993081
 20
4.2620170398
 30
0.0
 10
4.3900993227
 20
4.2617652043
 30
0.0
  0
SPLINE
  5
2D0
100
AcDbEntity
  8
ALL_FEATURES
100
AcDbSpline
 62
7
  6
CONTINUOUS
 70
0
 71
3
 72
18
 73
14
 74
0
 42
0.0000001
 43
0.0000001
 44
0.0000000001
 40
0.0
 40
0.0
 40
0.0
 40
0.0
 40
0.1488738005
 40
0.2895407806
 40
0.4223304363
 40
0.5478474532
 40
0.6669846483
 40
0.7245707198
 40
0.78105337
 40
0.8366303826
 40
0.8915049971
 40
0.9458884803
 40
1.0
 40
1.0
 40
1.0
 40
1.0
 10
4.3322429563
 20
4.2496368848
 30
0.0
 10
4.3317965606
 20
4.2499525455
 30
0.0
 10
4.3309507949
 20
4.250599235
 30
0.0
 10
4.3298022701
 20
4.2516445875
 30
0.0
 10
4.3288168688
 20
4.2527324083
 30
0.0
 10
4.3280004751
 20
4.2538561905
 30
0.0
 10
4.3274595468
 20
4.2548292192
 30
0.0
 10
4.3271207089
 20
4.2556164004
 30
0.0
 10
4.3269144948
 20
4.2562048625
 30
0.0
 10
4.3267538411
 20
4.2567970516
 30
0.0
 10
4.3266388752
 20
4.2573919623
 30
0.0
 10
4.3265697649
 20
4.2579884855
 30
0.0
 10
4.3265543478
 20
4.2583870928
 30
0.0
 10
4.3265543478
 20
4.2585858131
 30
0.0
  0
SPLINE
  5
2D1
100
AcDbEntity
  8
ALL_FEATURES
100
AcDbSpline
 62
7
  6
CONTINUOUS
 70
0
 71
3
 72
15
 73
11
 74
0
 42
0.0000001
 43
0.0000001
 44
0.0000000001
 40
0.0
 40
0.0
 40
0.0
 40
0.0
 40
0.1119864835
 40
0.2254705068
 40
0.3417146691
 40
0.4619047979
 40
0.5870880069
 40
0.7181134907
 40
0.8556014139
 40
1.0
 40
1.0
 40
1.0
 40
1.0
 10
4.3885543478
 20
4.2585858131
 30
0.0
 10
4.3885543478
 20
4.2582473446
 30
0.0
 10
4.3885092697
 20
4.2575650711
 30
0.0
 10
4.3883080715
 20
4.2565493434
 30
0.0
 10
4.3879739321
 20
4.2555431247
 30
0.0
 10
4.3875088723
 20
4.2545514688
 30
0.0
 10
4.3869155405
 20
4.253578396
 30
0.0
 10
4.3861966465
 20
4.2526279285
 30
0.0
 10
4.3853558066
 20
4.2517037041
 30
0.0
 10
4.3847317543
 20
4.2511221851
 30
0.0
 10
4.3844018517
 20
4.2508364645
 30
0.0
  0
LINE
  5
2D2
100
AcDbEntity
  8
ALL_FEATURES
100
AcDbLine
 62
7
  6
CONTINUOUS
 10
4.3840949646
 20
4.2505765506
 11
4.3828657393
 21
4.2496368848
  0
SPLINE
  5
2D3
100
AcDbEntity
  8
ALL_FEATURES
100
AcDbSpline
 62
7
  6
CONTINUOUS
 70
0
 71
3
 72
39
 73
35
 74
0
 42
0.0000001
 43
0.0000001
 44
0.0000000001
 40
0.0
 40
0.0
 40
0.0
 40
0.0
 40
0.0309892637
 40
0.0605738073
 40
0.0887915768
 40
0.1156993669
 40
0.1413838387
 40
0.1659620491
 40
0.1895775203
 40
0.2124017708
 40
0.234632298
 40
0.2564907309
 40
0.2782185035
 40
0.3000665292
 40
0.3222851298
 40
0.345116443
 40
0.3687828249
 40
0.3934807894
 40
0.4193831843
 40
0.4466351209
 40
0.4753514339
 40
0.5056261981
 40
0.5375326855
 40
0.5711191324
 40
0.6064197299
 40
0.6434551364
 40
0.6822240852
 40
0.7227152521
 40
0.7649102288
 40
0.8087782147
 40
0.8542827317
 40
0.9013775908
 40
0.9499810032
 40
1.0
 40
1.0
 40
1.0
 40
1.0
 10
4.3918048265
 20
4.2559776965
 30
0.0
 10
4.3920369925
 20
4.2561574949
 30
0.0
 10
4.3924815795
 20
4.2565211084
 30
0.0
 10
4.39310042
 20
4.257091912
 30
0.0
 10
4.3936540777
 20
4.2576739761
 30
0.0
 10
4.3941408968
 20
4.2582659899
 30
0.0
 10
4.3945594914
 20
4.2588666056
 30
0.0
 10
4.3949087352
 20
4.2594744355
 30
0.0
 10
4.3951874426
 20
4.2600881708
 30
0.0
 10
4.3953944218
 20
4.2607063807
 30
0.0
 10
4.3955287611
 20
4.2613274197
 30
0.0
 10
4.3955895334
 20
4.2619495666
 30
0.0
 10
4.3955758324
 20
4.2625709467
 30
0.0
 10
4.395487319
 20
4.263189579
 30
0.0
 10
4.3953238576
 20
4.2638035294
 30
0.0
 10
4.3950853503
 20
4.2644108537
 30
0.0
 10
4.3947720757
 20
4.2650097129
 30
0.0
 10
4.3943844951
 20
4.2655984039
 30
0.0
 10
4.3939229874
 20
4.2661751654
 30
0.0
 10
4.3933881251
 20
4.2667382651
 30
0.0
 10
4.3927807124
 20
4.2672860837
 30
0.0
 10
4.3921015347
 20
4.2678168553
 30
0.0
 10
4.3913515444
 20
4.2683287719
 30
0.0
 10
4.3905319659
 20
4.2688201605
 30
0.0
 10
4.3896441006
 20
4.2692892098
 30
0.0
 10
4.3886894441
 20
4.2697340467
 30
0.0
 10
4.3876697972
 20
4.2701529777
 30
0.0
 10
4.3865870987
 20
4.2705442023
 30
0.0
 10
4.3854434204
 20
4.2709058802
 30
0.0
 10
4.3842410169
 20
4.2712363398
 30
0.0
 10
4.3829822999
 20
4.2715338541
 30
0.0
 10
4.3816700918
 20
4.2717966265
 30
0.0
 10
4.3803077742
 20
4.2720230846
 30
0.0
 10
4.3793813261
 20
4.2721470299
 30
0.0
 10
4.3789106415
 20
4.2722027244
 30
0.0
  0
SPLINE
  5
2D4
100
AcDbEntity
  8
ALL_FEATURES
100
AcDbSpline
 62
7
  6
CONTINUOUS
 70
0
 71
3
 72
57
 73
53
 74
0
 42
0.0000001
 43
0.0000001
 44
0.0000000001
 40
0.0
 40
0.0
 40
0.0
 40
0.0
 40
0.0101374816
 40
0.0203545342
 40
0.030717035
 40
0.0412877362
 40
0.0521267712
 40
0.063288665
 40
0.0748210662
 40
0.0867626748
 40
0.1119752046
 40
0.1253000067
 40
0.1391156056
 40
0.1534276382
 40
0.1682369058
 40
0.1835383135
 40
0.1993234256
 40
0.223879815
 40
0.2494418539
 40
0.275941433
 40
0.3032964249
 40
0.3314157675
 40
0.3601988439
 40
0.3895383782
 40
0.4193212881
 40
0.4494298299
 40
0.4797435251
 40
0.5101394032
 40
0.5404941922
 40
0.6005786629
 40
0.6300789135
 40
0.6590595863
 40
0.6874118541
 40
0.7150321017
 40
0.7418265545
 40
0.767709283
 40
0.7926078335
 40
0.8164615261
 40
0.839227236
 40
0.8608793218
 40
0.8814150653
 40
0.9008572423
 40
0.9192578963
 40
0.9280964925
 40
0.9367096793
 40
0.9533223621
 40
0.9613714473
 40
0.9692777895
 40
0.9770670478
 40
0.9847654767
 40
0.9924003759
 40
1.0
 40
1.0
 40
1.0
 40
1.0
 10
4.3265543478
 20
4.2585858131
 30
0.0
 10
4.3265543478
 20
4.2588394972
 30
0.0
 10
4.3265795373
 20
4.2593492036
 30
0.0
 10
4.3266922987
 20
4.2601107105
 30
0.0
 10
4.3268797293
 20
4.2608685606
 30
0.0
 10
4.3271415255
 20
4.2616204505
 30
0.0
 10
4.3274767884
 20
4.2623644922
 30
0.0
 10
4.3278844989
 20
4.2630989795
 30
0.0
 10
4.3283637397
 20
4.263822205
 30
0.0
 10
4.329109753
 20
4.2647865527
 30
0.0
 10
4.3299847965
 20
4.2657032372
 30
0.0
 10
4.3309682697
 20
4.266569366
 30
0.0
 10
4.3317834176
 20
4.2672117822
 30
0.0
 10
4.3326603995
 20
4.2678332948
 30
0.0
 10
4.3335972379
 20
4.2684324408
 30
0.0
 10
4.3345915902
 20
4.2690079089
 30
0.0
 10
4.3358250512
 20
4.269654765
 30
0.0
 10
4.3373224896
 20
4.2703480311
 30
0.0
 10
4.3391040178
 20
4.2710589961
 30
0.0
 10
4.3409851284
 20
4.2717024896
 30
0.0
 10
4.3429555969
 20
4.2722753279
 30
0.0
 10
4.345004888
 20
4.2727741907
 30
0.0
 10
4.3471219152
 20
4.2731965775
 30
0.0
 10
4.3492952904
 20
4.2735400668
 30
0.0
 10
4.3515132663
 20
4.2738028852
 30
0.0
 10
4.3537638822
 20
4.273983581
 30
0.0
 10
4.3560349593
 20
4.2740811481
 30
0.0
 10
4.3583142985
 20
4.2740951411
 30
0.0
 10
4.3613371832
 20
4.2740023981
 30
0.0
 10
4.3643309408
 20
4.2737448053
 30
0.0
 10
4.3672679877
 20
4.2733199719
 30
0.0
 10
4.3694051069
 20
4.2729235847
 30
0.0
 10
4.3714782232
 20
4.2724499923
 30
0.0
 10
4.3734761611
 20
4.2719014372
 30
0.0
 10
4.37538821
 20
4.2712811726
 30
0.0
 10
4.3772040277
 20
4.2705922557
 30
0.0
 10
4.3789139337
 20
4.2698386155
 30
0.0
 10
4.3805087004
 20
4.2690240598
 30
0.0
 10
4.381979854
 20
4.2681530432
 30
0.0
 10
4.383319498
 20
4.2672300433
 30
0.0
 10
4.3845204893
 20
4.2662598185
 30
0.0
 10
4.3855763125
 20
4.2652474246
 30
0.0
 10
4.3863404294
 20
4.2643609585
 30
0.0
 10
4.3868700041
 20
4.2636362027
 30
0.0
 10
4.3873338617
 20
4.262920641
 30
0.0
 10
4.3877253779
 20
4.2621828796
 30
0.0
 10
4.3880356198
 20
4.2614287175
 30
0.0
 10
4.3882245198
 20
4.2608648398
 30
0.0
 10
4.3883716594
 20
4.2602977209
 30
0.0
 10
4.3884769475
 20
4.2597282396
 30
0.0
 10
4.3885402329
 20
4.2591573706
 30
0.0
 10
4.3885543478
 20
4.2587759889
 30
0.0
 10
4.3885543478
 20
4.2585858131
 30
0.0
  0
SPLINE
  5
2D5
100
AcDbEntity
  8
ALL_FEATURES
100
AcDbSpline
 62
7
  6
CONTINUOUS
 70
0
 71
3
 72
10
 73
6
 74
0
 42
0.0000001
 43
0.0000001
 44
0.0000000001
 40
0.0
 40
0.0
 40
0.0
 40
0.0
 40
0.4785957017
 40
0.7337612826
 40
1.0
 40
1.0
 40
1.0
 40
1.0
 10
4.3268791701
 20
4.2747008317
 30
0.0
 10
4.3274010853
 20
4.275540421
 30
0.0
 10
4.328333007
 20
4.2767491119
 30
0.0
 10
4.3297816274
 20
4.2782227507
 30
0.0
 10
4.3305926856
 20
4.2789333166
 30
0.0
 10
4.3310182508
 20
4.2792816433
 30
0.0
  0
SPLINE
  5
2D6
100
AcDbEntity
  8
ALL_FEATURES
100
AcDbSpline
 62
7
  6
CONTINUOUS
 70
0
 71
3
 72
23
 73
19
 74
0
 42
0.0000001
 43
0.0000001
 44
0.0000000001
 40
0.0
 40
0.0
 40
0.0
 40
0.0
 40
0.0496179959
 40
0.0996780137
 40
0.1505630634
 40
0.2026467288
 40
0.2562744424
 40
0.3117432362
 40
0.369296199
 40
0.4291315381
 40
0.4913998105
 40
0.5562118593
 40
0.6236332255
 40
0.6936949484
 40
0.7664023251
 40
0.8417377232
 40
0.91964258
 40
1.0
 40
1.0
 40
1.0
 40
1.0
 10
4.3900993478
 20
4.2599238223
 30
0.0
 10
4.3900993478
 20
4.2602138876
 30
0.0
 10
4.3900679925
 20
4.2607970705
 30
0.0
 10
4.3899276116
 20
4.2616675515
 30
0.0
 10
4.3896941087
 20
4.2625327651
 30
0.0
 10
4.3893684256
 20
4.2633898601
 30
0.0
 10
4.3889516973
 20
4.2642364172
 30
0.0
 10
4.3884452786
 20
4.2650700611
 30
0.0
 10
4.3878508226
 20
4.2658885388
 30
0.0
 10
4.3871700047
 20
4.2666894894
 30
0.0
 10
4.3864049436
 20
4.267470835
 30
0.0
 10
4.3855577504
 20
4.2682303271
 30
0.0
 10
4.3846309529
 20
4.2689659645
 30
0.0
 10
4.3836271468
 20
4.269675667
 30
0.0
 10
4.382549119
 20
4.2703574966
 30
0.0
 10
4.3813998661
 20
4.2710095729
 30
0.0
 10
4.38018284
 20
4.2716299238
 30
0.0
 10
4.3793414453
 20
4.2720154037
 30
0.0
 10
4.3789106415
 20
4.2722027244
 30
0.0
  0
SPLINE
  5
2D7
100
AcDbEntity
  8
0
100
AcDbSpline
 62
7
  6
CONTINUOUS
 70
0
 71
3
 72
27
 73
23
 74
0
 42
0.0000001
 43
0.0000001
 44
0.0000000001
 40
0.0
 40
0.0
 40
0.0
 40
0.0
 40
0.0603496628
 40
0.1283011717
 40
0.2021783139
 40
0.2805890312
 40
0.3622385833
 40
0.4457783113
 40
0.4877862278
 40
0.5296630377
 40
0.5711667377
 40
0.6120524662
 40
0.632185236
 40
0.6520678126
 40
0.6909610772
 40
0.7284965103
 40
0.7644496483
 40
0.7986080919
 40
0.8307685098
 40
0.8882961305
 40
0.9707100493
 40
1.0
 40
1.0
 40
1.0
 40
1.0
 10
3.9548992958
 20
4.1770303871
 30
0.0
 10
3.9582208721
 20
4.1789960522
 30
0.0
 10
3.9653310812
 20
4.1830934952
 30
0.0
 10
3.9767102891
 20
4.1892381137
 30
0.0
 10
3.9893340899
 20
4.1954939205
 30
0.0
 10
4.0030214311
 20
4.2015498012
 30
0.0
 10
4.0175919424
 20
4.2070886954
 30
0.0
 10
4.0302652224
 20
4.2109997178
 30
0.0
 10
4.0406584325
 20
4.2135846518
 30
0.0
 10
4.0485131122
 20
4.2152115278
 30
0.0
 10
4.0563570775
 20
4.2165033981
 30
0.0
 10
4.0628684032
 20
4.21729216
 30
0.0
 10
4.0680224766
 20
4.2177494759
 30
0.0
 10
4.0730580981
 20
4.2180865392
 30
0.0
 10
4.0792158261
 20
4.2183025741
 30
0.0
 10
4.0864049512
 20
4.2182556496
 30
0.0
 10
4.0932837212
 20
4.2179348518
 30
0.0
 10
4.099802723
 20
4.2173842144
 30
0.0
 10
4.1076682688
 20
4.2164410544
 30
0.0
 10
4.1185305067
 20
4.214626104
 30
0.0
 10
4.1290706463
 20
4.2121167491
 30
0.0
 10
4.1359328772
 20
4.2101266241
 30
0.0
 10
4.1377251935
 20
4.2095830163
 30
0.0
  0
SPLINE
  5
2D8
100
AcDbEntity
  8
0
100
AcDbSpline
 62
7
  6
CONTINUOUS
 70
0
 71
3
 72
14
 73
10
 74
0
 42
0.0000001
 43
0.0000001
 44
0.0000000001
 40
0.0
 40
0.0
 40
0.0
 40
0.0
 40
0.2690359901
 40
0.4009817556
 40
0.5301178803
 40
0.6555897159
 40
0.7764301565
 40
0.891596056
 40
1.0
 40
1.0
 40
1.0
 40
1.0
 10
4.3542265309
 20
4.2845544237
 30
0.0
 10
4.3507542639
 20
4.2843886919
 30
0.0
 10
4.3455857071
 20
4.2837569827
 30
0.0
 10
4.3389210146
 20
4.2821563931
 30
0.0
 10
4.3341623771
 20
4.2806215851
 30
0.0
 10
4.3296712749
 20
4.2787743355
 30
0.0
 10
4.3255055319
 20
4.276649623
 30
0.0
 10
4.3217271525
 20
4.2742879162
 30
0.0
 10
4.3194303824
 20
4.2725257784
 30
0.0
 10
4.3183693309
 20
4.2716113925
 30
0.0
  0
SPLINE
  5
2D9
100
AcDbEntity
  8
0
100
AcDbSpline
 62
7
  6
CONTINUOUS
 70
0
 71
3
 72
14
 73
10
 74
0
 42
0.0000001
 43
0.0000001
 44
0.0000000001
 40
0.0
 40
0.0
 40
0.0
 40
0.0
 40
0.1214307675
 40
0.2416208815
 40
0.3617385905
 40
0.4829718103
 40
0.6064535612
 40
0.7332334861
 40
1.0
 40
1.0
 40
1.0
 40
1.0
 10
4.3212513627
 20
4.2655875701
 30
0.0
 10
4.3211530253
 20
4.2659935523
 30
0.0
 10
4.321001795
 20
4.2668129783
 30
0.0
 10
4.3209176202
 20
4.2680571923
 30
0.0
 10
4.320979183
 20
4.2693022559
 30
0.0
 10
4.3211867311
 20
4.2705427594
 30
0.0
 10
4.3215389027
 20
4.2717740489
 30
0.0
 10
4.3222102527
 20
4.2734238932
 30
0.0
 10
4.3229149062
 20
4.274592675
 30
0.0
 10
4.3234530686
 20
4.2753359873
 30
0.0
  0
SPLINE
  5
2DA
100
AcDbEntity
  8
0
100
AcDbSpline
 62
7
  6
CONTINUOUS
 70
0
 71
3
 72
9
 73
5
 74
0
 42
0.0000001
 43
0.0000001
 44
0.0000000001
 40
0.0
 40
0.0
 40
0.0
 40
0.0
 40
0.4879272229
 40
1.0
 40
1.0
 40
1.0
 40
1.0
 10
4.394632034
 20
4.2733021042
 30
0.0
 10
4.3935798315
 20
4.274089672
 30
0.0
 10
4.3913473123
 20
4.2756037118
 30
0.0
 10
4.3889994216
 20
4.2769301593
 30
0.0
 10
4.3877739813
 20
4.2775633124
 30
0.0
  0
SPLINE
  5
2DB
100
AcDbEntity
  8
0
100
AcDbSpline
 62
7
  6
CONTINUOUS
 70
0
 71
3
 72
10
 73
6
 74
0
 42
0.0000001
 43
0.0000001
 44
0.0000000001
 40
0.0
 40
0.0
 40
0.0
 40
0.0
 40
0.2388822263
 40
0.4867155313
 40
1.0
 40
1.0
 40
1.0
 40
1.0
 10
4.3877739813
 20
4.2775633124
 30
0.0
 10
4.3861576636
 20
4.2783984219
 30
0.0
 10
4.3827785209
 20
4.2799387322
 30
0.0
 10
4.3755862442
 20
4.2824628045
 30
0.0
 10
4.3698731276
 20
4.2836514397
 30
0.0
 10
4.3659925213
 20
4.2841228862
 30
0.0
  0
LINE
  5
2DC
100
AcDbEntity
  8
0
100
AcDbLine
 62
7
  6
CONTINUOUS
 10
4.394603794
 20
4.2733101129
 11
4.3966547812
 21
4.2706983268
  0
LINE
  5
2DD
100
AcDbEntity
  8
0
100
AcDbLine
 62
7
  6
CONTINUOUS
 10
4.3968226807
 20
4.2704255948
 11
4.3975980317
 21
4.2689325895
  0
SPLINE
  5
2DE
100
AcDbEntity
  8
0
100
AcDbSpline
 62
7
  6
CONTINUOUS
 70
0
 71
3
 72
9
 73
5
 74
0
 42
0.0000001
 43
0.0000001
 44
0.0000000001
 40
0.0
 40
0.0
 40
0.0
 40
0.0
 40
0.5083128265
 40
1.0
 40
1.0
 40
1.0
 40
1.0
 10
4.3975980317
 20
4.2689325895
 30
0.0
 10
4.3979069602
 20
4.2682301303
 30
0.0
 10
4.3983876046
 20
4.2667869709
 30
0.0
 10
4.3985536925
 20
4.2652730364
 30
0.0
 10
4.3985538968
 20
4.264530747
 30
0.0
  0
SPLINE
  5
2DF
100
AcDbEntity
  8
0
100
AcDbSpline
 62
7
  6
CONTINUOUS
 70
0
 71
3
 72
11
 73
7
 74
0
 42
0.0000001
 43
0.0000001
 44
0.0000000001
 40
0.0
 40
0.0
 40
0.0
 40
0.0
 40
0.2219963686
 40
0.4597231491
 40
0.7179809063
 40
1.0
 40
1.0
 40
1.0
 40
1.0
 10
4.3984267882
 20
4.2629149176
 30
0.0
 10
4.3982595119
 20
4.262236216
 30
0.0
 10
4.3977539824
 20
4.2608666341
 30
0.0
 10
4.3965684392
 20
4.2589279979
 30
0.0
 10
4.3949521774
 20
4.2570742857
 30
0.0
 10
4.3936606416
 20
4.2559586485
 30
0.0
 10
4.3929565855
 20
4.2554174797
 30
0.0
  0
SPLINE
  5
2E0
100
AcDbEntity
  8
0
100
AcDbSpline
 62
7
  6
CONTINUOUS
 70
0
 71
3
 72
10
 73
6
 74
0
 42
0.0000001
 43
0.0000001
 44
0.0000000001
 40
0.0
 40
0.0
 40
0.0
 40
0.0
 40
0.2304722706
 40
0.4741635126
 40
1.0
 40
1.0
 40
1.0
 40
1.0
 10
4.3924728338
 20
4.2550554287
 30
0.0
 10
4.3919311849
 20
4.2546605932
 30
0.0
 10
4.3907831333
 20
4.2538936899
 30
0.0
 10
4.3882545534
 20
4.2524535168
 30
0.0
 10
4.3862036296
 20
4.2515400879
 30
0.0
 10
4.3847768115
 20
4.2509897072
 30
0.0
  0
SPLINE
  5
2E1
100
AcDbEntity
  8
0
100
AcDbSpline
 62
7
  6
CONTINUOUS
 70
0
 71
3
 72
34
 73
30
 74
0
 42
0.0000001
 43
0.0000001
 44
0.0000000001
 40
0.0
 40
0.0
 40
0.0
 40
0.0
 40
0.0859399046
 40
0.1708943579
 40
0.2536461213
 40
0.3332079563
 40
0.4086565402
 40
0.4445635956
 40
0.4791240322
 40
0.5122460078
 40
0.5438528881
 40
0.573892668
 40
0.6023376286
 40
0.6291889956
 40
0.6545008101
 40
0.6783946917
 40
0.701062469
 40
0.7227809927
 40
0.7439180896
 40
0.764893013
 40
0.7861450531
 40
0.8081009613
 40
0.8311033674
 40
0.8554094245
 40
0.8811988938
 40
0.9085558292
 40
0.9374978544
 40
0.9679991391
 40
1.0
 40
1.0
 40
1.0
 40
1.0
 10
4.3575543478
 20
4.2428344067
 30
0.0
 10
4.359490377
 20
4.2428344067
 30
0.0
 10
4.3633404906
 20
4.242889688
 30
0.0
 10
4.3690497872
 20
4.2431436404
 30
0.0
 10
4.374604621
 20
4.2435760314
 30
0.0
 10
4.3799255302
 20
4.244203475
 30
0.0
 10
4.3841698981
 20
4.2449142194
 30
0.0
 10
4.387382685
 20
4.2456122454
 30
0.0
 10
4.3896442193
 20
4.2461902381
 30
0.0
 10
4.3917870247
 20
4.2468343079
 30
0.0
 10
4.3938003071
 20
4.2475475626
 30
0.0
 10
4.3956730273
 20
4.2483331692
 30
0.0
 10
4.3973939466
 20
4.2491936925
 30
0.0
 10
4.3989518752
 20
4.2501308178
 30
0.0
 10
4.4003351745
 20
4.251146669
 30
0.0
 10
4.4015315803
 20
4.2522430535
 30
0.0
 10
4.4025307386
 20
4.2534184729
 30
0.0
 10
4.4033213389
 20
4.2546715779
 30
0.0
 10
4.4038905968
 20
4.2559989114
 30
0.0
 10
4.4042327637
 20
4.2573914186
 30
0.0
 10
4.4043431384
 20
4.2588395349
 30
0.0
 10
4.4042188087
 20
4.2603317051
 30
0.0
 10
4.4038660967
 20
4.2618566251
 30
0.0
 10
4.403290371
 20
4.2634037698
 30
0.0
 10
4.4024974659
 20
4.2649617459
 30
0.0
 10
4.4014978188
 20
4.2665206815
 30
0.0
 10
4.4003011828
 20
4.2680700151
 30
0.0
 10
4.3989174868
 20
4.2695985716
 30
0.0
 10
4.3979013622
 20
4.2705750031
 30
0.0
 10
4.3973664009
 20
4.2710582442
 30
0.0
  0
SPLINE
  5
2E2
100
AcDbEntity
  8
0
100
AcDbSpline
 62
7
  6
CONTINUOUS
 70
0
 71
3
 72
33
 73
29
 74
0
 42
0.0000001
 43
0.0000001
 44
0.0000000001
 40
0.0
 40
0.0
 40
0.0
 40
0.0
 40
0.0325152769
 40
0.0635435058
 40
0.0930126754
 40
0.1208837648
 40
0.1718175212
 40
0.1951727406
 40
0.2173857711
 40
0.2387793711
 40
0.2597725327
 40
0.2808163552
 40
0.3023465652
 40
0.3247570124
 40
0.3483528555
 40
0.373347613
 40
0.3998801898
 40
0.4280184494
 40
0.4577719357
 40
0.4891160085
 40
0.5220018304
 40
0.5563542951
 40
0.5920806735
 40
0.6672439049
 40
0.746609889
 40
0.8292343949
 40
0.9141113328
 40
1.0
 40
1.0
 40
1.0
 40
1.0
 10
4.3183693309
 20
4.2716113925
 30
0.0
 10
4.3178076352
 20
4.2711273382
 30
0.0
 10
4.3167381283
 20
4.2701478107
 30
0.0
 10
4.3152734052
 20
4.2686114338
 30
0.0
 10
4.3139957417
 20
4.2670496125
 30
0.0
 10
4.3125994873
 20
4.2650117341
 30
0.0
 10
4.3115523608
 20
4.2629046207
 30
0.0
 10
4.3109691559
 20
4.2607763738
 30
0.0
 10
4.310776089
 20
4.2592557768
 30
0.0
 10
4.3108221597
 20
4.2577768205
 30
0.0
 10
4.3111071005
 20
4.2563517889
 30
0.0
 10
4.3116256695
 20
4.2549910256
 30
0.0
 10
4.3123729975
 20
4.2537043788
 30
0.0
 10
4.3133370478
 20
4.2524969998
 30
0.0
 10
4.3145053127
 20
4.2513702414
 30
0.0
 10
4.3158672
 20
4.2503258327
 30
0.0
 10
4.3174103177
 20
4.2493626009
 30
0.0
 10
4.3191223838
 20
4.2484781288
 30
0.0
 10
4.3209917956
 20
4.2476706602
 30
0.0
 10
4.3230069497
 20
4.2469377735
 30
0.0
 10
4.325156348
 20
4.2462761731
 30
0.0
 10
4.327428802
 20
4.2456826484
 30
0.0
 10
4.3306631008
 20
4.2449657987
 30
0.0
 10
4.3349427814
 20
4.2442366093
 30
0.0
 10
4.3403142088
 20
4.243593687
 30
0.0
 10
4.3459277507
 20
4.2431508667
 30
0.0
 10
4.3517012301
 20
4.2428909799
 30
0.0
 10
4.355595706
 20
4.2428344067
 30
0.0
 10
4.3575543478
 20
4.2428344067
 30
0.0
  0
SPLINE
  5
2E3
100
AcDbEntity
  8
0
100
AcDbSpline
 62
7
  6
CONTINUOUS
 70
0
 71
3
 72
15
 73
11
 74
0
 42
0.0000001
 43
0.0000001
 44
0.0000000001
 40
0.0
 40
0.0
 40
0.0
 40
0.0
 40
0.0414431941
 40
0.1545441927
 40
0.3155766489
 40
0.4999967084
 40
0.6844176311
 40
0.8454506494
 40
0.9585536013
 40
1.0
 40
1.0
 40
1.0
 40
1.0
 10
4.9820543478
 20
4.8791187888
 30
0.0
 10
4.9796553814
 20
4.878752118
 30
0.0
 10
4.9707013104
 20
4.8774372367
 30
0.0
 10
4.952359266
 20
4.8751583488
 30
0.0
 10
4.9255878908
 20
4.8729403147
 30
0.0
 10
4.8945548758
 20
4.8720381431
 30
0.0
 10
4.8635218257
 20
4.8729402511
 30
0.0
 10
4.8367502493
 20
4.8751582562
 30
0.0
 10
4.81840787
 20
4.8774371669
 30
0.0
 10
4.8094534997
 20
4.8787520893
 30
0.0
 10
4.8070543478
 20
4.8791187888
 30
0.0
  0
ENDSEC
  0
SECTION
  2
OBJECTS
  0
DICTIONARY
  5
C
100
AcDbDictionary
280
0
281
1
  3
ACAD_GROUP
350
D
  3
ACAD_MLINESTYLE
350
17
  3
ACAD_LAYOUT
350
1A
  3
ACAD_PLOTSETTINGS
350
19
  3
ACAD_PLOTSTYLENAME
350
E
  0
DICTIONARY
  5
D
102
{ACAD_REACTORS
330
C
102
}
100
AcDbDictionary
280
0
281
1
  0
ACDBDICTIONARYWDFLT
  5
E
102
{ACAD_REACTORS
330
C
102
}
100
AcDbDictionary
281
1
  3
Normal
350
F
100
AcDbDictionaryWithDefault
340
F
  0
DICTIONARY
  5
17
102
{ACAD_REACTORS
330
C
102
}
100
AcDbDictionary
280
0
281
1
  3
Standard
350
18
  0
DICTIONARY
  5
19
102
{ACAD_REACTORS
330
C
102
}
100
AcDbDictionary
281
1
  0
DICTIONARY
  5
1A
102
{ACAD_REACTORS
330
C
102
}
100
AcDbDictionary
281
1
  3
Model
350
2E4
  3
Layout1
350
2E5
  0
ACDBPLACEHOLDER
  5
F
102
{ACAD_REACTORS
330
E
102
}
  0
MLINESTYLE
  5
18
102
{ACAD_REACTORS
330
17
102
}
100
AcDbMlineStyle
  2
STANDARD
 70
0
  3

 62
256
 51
90.0
 52
90.0
 71
2
 49
0.5
 62
256
  6
BYLAYER
 49
-0.5
 62
256
  6
BYLAYER
  0
LAYOUT
  5
2E4
102
{ACAD_REACTORS
330
1A
102
}
100
AcDbPlotSettings
  1

  2
none_device
  4
ANSI_A_(11.00_x_8.50_Inches)
  6

 40
0.0
 41
0.0
 42
0.0
 43
0.0
 44
279.4
 45
215.9
 46
0.0
 47
0.0
 48
0.0
 49
0.0
140
0.0
141
0.0
142
1.0
143
1.0
 70
1024
 72
0
 73
0
 74
0
  7

 75
0
147
1.0
148
0.0
149
0.0
100
AcDbLayout
  1
Model
 70
0
 71
0
 10
0.0
 20
0.0
 11
11.0
 21
8.5
 12
0.0
 22
0.0
 32
0.0
 14
0.0
 24
0.0
 34
0.0
 15
0.0
 25
0.0
 35
0.0
146
0.0
 13
0.0
 23
0.0
 33
0.0
 16
1.0
 26
0.0
 36
0.0
 17
0.0
 27
1.0
 37
0.0
 76
0
330
21E
345
0
346
0
  0
LAYOUT
  5
2E5
102
{ACAD_REACTORS
330
1A
102
}
100
AcDbPlotSettings
  1

  2
none_device
  4
ANSI_A_(11.00_x_8.50_Inches)
  6

 40
0.0
 41
0.0
 42
0.0
 43
0.0
 44
279.4
 45
215.9
 46
0.0
 47
0.0
 48
0.0
 49
0.0
140
0.0
141
0.0
142
1.0
143
1.0
 70
0
 72
0
 73
0
 74
0
  7

 75
0
147
1.0
148
0.0
149
0.0
100
AcDbLayout
  1
Layout1
 70
0
 71
1
 10
0.0
 20
0.0
 11
11.0
 21
8.5
 12
0.0
 22
0.0
 32
0.0
 14
0.0
 24
0.0
 34
0.0
 15
0.0
 25
0.0
 35
0.0
146
0.0
 13
0.0
 23
0.0
 33
0.0
 16
1.0
 26
0.0
 36
0.0
 17
0.0
 27
1.0
 37
0.0
 76
0
330
21F
345
0
346
0
  0
ENDSEC
  0
EOF
