999
DXF file: 3-2914tr_TOP.dxf
999
Pro/ENGINEER 2018400 by Parametric Technology Corporation
  0
SECTION
  2
HEADER
  9
$ACADVER
  1
AC1027
  9
$DWGCODEPAGE
  3
ANSI_1252
  9
$EXTMAX
 10
11.0
 20
8.5
 30
0.0
  9
$EXTMIN
 10
0.0
 20
0.0
 30
0.0
  9
$LIMMIN
 10
0.0
 20
0.0
  9
$LIMMAX
 10
11.0
 20
8.5
  9
$VIEWCTR
 10
5.5
 20
4.25
  9
$VIEWSIZE
 40
8.5
  9
$CLAYER
  8
0
  9
$LTSCALE
 40
0.605
  9
$CELTYPE
  6
BYLAYER
  9
$DIMSCALE
 40
1.0
  9
$DIMASZ
 40
0.1
  9
$DIMEXO
 40
0.0625
  9
$DIMDLI
 40
0.418
  9
$DIMEXE
 40
0.125
  9
$DIMCEN
 40
0.099
  9
$DIMLFAC
 40
1.0
  9
$DIMBLK
  1
_FILLED
  9
$DIMALT
 70
1
  9
$DIMALTD
 70
2
  9
$DIMALTTD
 70
2
  9
$DIMALTF
 40
25.4
  9
$DIMTXT
 40
0.08
  9
$DIMTOL
 70
1
  9
$DIMLIM
 70
0
  9
$DIMTFAC
 40
1.0
  9
$DIMTP
 40
0.001
  9
$DIMTM
 40
0.001
  9
$DIMGAP
 40
0.09
  9
$DIMDSEP
 70
46
  9
$AUNITS
 70
0
  9
$PDMODE
 70
3
  9
$PDSIZE
 40
0.3125
  9
$HANDSEED
  5
297
  9
$TILEMODE
 70
1
  9
$MEASUREMENT
 70
0
  9
$INSUNITS
 70
1
  0
ENDSEC
  0
SECTION
  2
CLASSES
  0
CLASS
  1
ACDBDICTIONARYWDFLT
  2
AcDbDictionaryWithDefault
  3
AutoCAD 2000
 90
0
 91
1
280
0
281
0
  0
CLASS
  1
ACDBPLACEHOLDER
  2
AcDbPlaceHolder
  3
AutoCAD 2000
 90
0
 91
1
280
0
281
0
  0
CLASS
  1
LAYOUT
  2
AcDbLayout
  3
AutoCAD 2000
 90
0
 91
0
280
0
281
0
  0
ENDSEC
  0
SECTION
  2
TABLES
  0
TABLE
  2
VPORT
  5
8
100
AcDbSymbolTable
 70
2
  0
VPORT
  5
1F4
100
AcDbSymbolTableRecord
100
AcDbViewportTableRecord
  2
*ACTIVE
 70
0
 10
0.0
 20
0.0
 11
1.0
 21
1.0
 12
5.5
 22
4.25
 13
0.0
 23
0.0
 14
1.0
 24
1.0
 15
0.0
 25
0.0
 16
0.0
 26
0.0
 36
1.0
 17
0.0
 27
0.0
 37
0.0
 40
8.5
 41
1.2941176471
 42
50.0
 43
0.0
 44
0.0
 50
0.0
 51
0.0
 71
0
 72
100
 73
1
 74
1
 75
0
 76
0
 77
0
 78
0
  0
ENDTAB
  0
TABLE
  2
LTYPE
  5
5
100
AcDbSymbolTable
 70
6
  0
LTYPE
  5
14
100
AcDbSymbolTableRecord
100
AcDbLinetypeTableRecord
  2
BYBLOCK
 70
0
  3

 72
65
 73
0
 40
0.0
  0
LTYPE
  5
15
100
AcDbSymbolTableRecord
100
AcDbLinetypeTableRecord
  2
BYLAYER
 70
0
  3

 72
65
 73
0
 40
0.0
  0
LTYPE
  5
16
100
AcDbSymbolTableRecord
100
AcDbLinetypeTableRecord
  2
CONTINUOUS
 70
64
  3
Solid line
 72
65
 73
0
 40
0.0
  0
LTYPE
  5
1F5
100
AcDbSymbolTableRecord
100
AcDbLinetypeTableRecord
  2
CENTER
 70
64
  3
____ _ ____ _ ____ _ ____ _ ____ _ ____ _ ____
 72
65
 73
4
 40
0.6
 49
0.375
 74
0
 49
-0.075
 74
0
 49
0.075
 74
0
 49
-0.075
 74
0
  0
LTYPE
  5
1F6
100
AcDbSymbolTableRecord
100
AcDbLinetypeTableRecord
  2
HIDDEN
 70
64
  3
- - - - - - - - - - - - - - - - - - - -
 72
65
 73
2
 40
0.2
 49
0.1
 74
0
 49
-0.1
 74
0
  0
LTYPE
  5
1F7
100
AcDbSymbolTableRecord
100
AcDbLinetypeTableRecord
  2
PHANTOM
 70
64
  3
_____ _ _ _____ _ _ _____ _ _ _____
 72
65
 73
6
 40
0.8
 49
0.45
 74
0
 49
-0.05
 74
0
 49
0.1
 74
0
 49
-0.05
 74
0
 49
0.1
 74
0
 49
-0.05
 74
0
  0
LTYPE
  5
1F8
100
AcDbSymbolTableRecord
100
AcDbLinetypeTableRecord
  2
DOT
 70
64
  3
. . . . . . . . . . . . . . . . . . . .
 72
65
 73
2
 40
0.2
 49
0.1
 74
0
 49
-0.1
 74
0
  0
LTYPE
  5
1F9
100
AcDbSymbolTableRecord
100
AcDbLinetypeTableRecord
  2
DASHED
 70
64
  3
- - - - - - - - - - - - - - - - - - - -
 72
65
 73
2
 40
0.2
 49
0.1
 74
0
 49
-0.1
 74
0
  0
ENDTAB
  0
TABLE
  2
LAYER
  5
2
100
AcDbSymbolTable
 70
36
  0
LAYER
  5
10
100
AcDbSymbolTableRecord
100
AcDbLayerTableRecord
  2
0
 70
0
 62
7
  6
CONTINUOUS
370
-3
390
F
  0
LAYER
  5
1FA
100
AcDbSymbolTableRecord
100
AcDbLayerTableRecord
  2
DEFAULT_1
 70
0
 62
7
  6
CENTER
370
-3
390
F
  0
LAYER
  5
1FB
100
AcDbSymbolTableRecord
100
AcDbLayerTableRecord
  2
DEFAULT_2
 70
0
 62
8
  6
HIDDEN
370
-3
390
F
  0
LAYER
  5
1FC
100
AcDbSymbolTableRecord
100
AcDbLayerTableRecord
  2
DEFAULT_3
 70
0
 62
7
  6
PHANTOM
370
-3
390
F
  0
LAYER
  5
1FD
100
AcDbSymbolTableRecord
100
AcDbLayerTableRecord
  2
ALL_ASSEMBLY_MEMBERS
 70
0
 62
7
  6
CONTINUOUS
370
-3
390
F
  0
LAYER
  5
1FE
100
AcDbSymbolTableRecord
100
AcDbLayerTableRecord
  2
ALL_FEATURES
 70
0
 62
7
  6
CONTINUOUS
370
-3
390
F
  0
LAYER
  5
1FF
100
AcDbSymbolTableRecord
100
AcDbLayerTableRecord
  2
AXES_FEATURES
 70
0
 62
7
  6
CONTINUOUS
370
-3
390
F
  0
LAYER
  5
200
100
AcDbSymbolTableRecord
100
AcDbLayerTableRecord
  2
CHAMFER_FEATURES
 70
0
 62
7
  6
CONTINUOUS
370
-3
390
F
  0
LAYER
  5
201
100
AcDbSymbolTableRecord
100
AcDbLayerTableRecord
  2
COORDINATE_SYSTEMS
 70
0
 62
7
  6
CONTINUOUS
370
-3
390
F
  0
LAYER
  5
202
100
AcDbSymbolTableRecord
100
AcDbLayerTableRecord
  2
CUT_FEATURES
 70
0
 62
7
  6
CONTINUOUS
370
-3
390
F
  0
LAYER
  5
203
100
AcDbSymbolTableRecord
100
AcDbLayerTableRecord
  2
DATUM_CURVES
 70
0
 62
7
  6
CONTINUOUS
370
-3
390
F
  0
LAYER
  5
204
100
AcDbSymbolTableRecord
100
AcDbLayerTableRecord
  2
DATUM_PLANES
 70
0
 62
7
  6
CONTINUOUS
370
-3
390
F
  0
LAYER
  5
205
100
AcDbSymbolTableRecord
100
AcDbLayerTableRecord
  2
DATUM_POINTS
 70
0
 62
7
  6
CONTINUOUS
370
-3
390
F
  0
LAYER
  5
206
100
AcDbSymbolTableRecord
100
AcDbLayerTableRecord
  2
DEFAULT_COORDINATE_SYSTEM
 70
0
 62
7
  6
CONTINUOUS
370
-3
390
F
  0
LAYER
  5
207
100
AcDbSymbolTableRecord
100
AcDbLayerTableRecord
  2
DEFAULT_DATUM_AXES
 70
0
 62
7
  6
CONTINUOUS
370
-3
390
F
  0
LAYER
  5
208
100
AcDbSymbolTableRecord
100
AcDbLayerTableRecord
  2
DEFAULT_DATUM_CURVES
 70
0
 62
7
  6
CONTINUOUS
370
-3
390
F
  0
LAYER
  5
209
100
AcDbSymbolTableRecord
100
AcDbLayerTableRecord
  2
DEFAULT_DATUM_PLANES
 70
0
 62
7
  6
CONTINUOUS
370
-3
390
F
  0
LAYER
  5
20A
100
AcDbSymbolTableRecord
100
AcDbLayerTableRecord
  2
DEFAULT_SURFACES
 70
0
 62
7
  6
CONTINUOUS
370
-3
390
F
  0
LAYER
  5
20B
100
AcDbSymbolTableRecord
100
AcDbLayerTableRecord
  2
DIMENSIONS
 70
0
 62
7
  6
CONTINUOUS
370
-3
390
F
  0
LAYER
  5
20C
100
AcDbSymbolTableRecord
100
AcDbLayerTableRecord
  2
HOLE_FEATURES
 70
0
 62
7
  6
CONTINUOUS
370
-3
390
F
  0
LAYER
  5
20D
100
AcDbSymbolTableRecord
100
AcDbLayerTableRecord
  2
IMPORT_FEATURE
 70
0
 62
7
  6
CONTINUOUS
370
-3
390
F
  0
LAYER
  5
20E
100
AcDbSymbolTableRecord
100
AcDbLayerTableRecord
  2
NOTES
 70
0
 62
7
  6
CONTINUOUS
370
-3
390
F
  0
LAYER
  5
20F
100
AcDbSymbolTableRecord
100
AcDbLayerTableRecord
  2
PART_REFERENCE_DIMENSIONS
 70
0
 62
7
  6
CONTINUOUS
370
-3
390
F
  0
LAYER
  5
210
100
AcDbSymbolTableRecord
100
AcDbLayerTableRecord
  2
PLATED_SURFACES
 70
0
 62
7
  6
CONTINUOUS
370
-3
390
F
  0
LAYER
  5
211
100
AcDbSymbolTableRecord
100
AcDbLayerTableRecord
  2
PLATED_SURFACE_AREA
 70
0
 62
7
  6
CONTINUOUS
370
-3
390
F
  0
LAYER
  5
212
100
AcDbSymbolTableRecord
100
AcDbLayerTableRecord
  2
POINTS
 70
0
 62
7
  6
CONTINUOUS
370
-3
390
F
  0
LAYER
  5
213
100
AcDbSymbolTableRecord
100
AcDbLayerTableRecord
  2
PROTRUSION
 70
0
 62
7
  6
CONTINUOUS
370
-3
390
F
  0
LAYER
  5
214
100
AcDbSymbolTableRecord
100
AcDbLayerTableRecord
  2
PROTRUSION_FEATURES
 70
0
 62
7
  6
CONTINUOUS
370
-3
390
F
  0
LAYER
  5
215
100
AcDbSymbolTableRecord
100
AcDbLayerTableRecord
  2
QUILT
 70
0
 62
7
  6
CONTINUOUS
370
-3
390
F
  0
LAYER
  5
216
100
AcDbSymbolTableRecord
100
AcDbLayerTableRecord
  2
QUILTS
 70
0
 62
7
  6
CONTINUOUS
370
-3
390
F
  0
LAYER
  5
217
100
AcDbSymbolTableRecord
100
AcDbLayerTableRecord
  2
REFERENCE_DIMENSIONS
 70
0
 62
7
  6
CONTINUOUS
370
-3
390
F
  0
LAYER
  5
218
100
AcDbSymbolTableRecord
100
AcDbLayerTableRecord
  2
ROUND_FEATURES
 70
0
 62
7
  6
CONTINUOUS
370
-3
390
F
  0
LAYER
  5
219
100
AcDbSymbolTableRecord
100
AcDbLayerTableRecord
  2
SHELL_FEATURES
 70
0
 62
7
  6
CONTINUOUS
370
-3
390
F
  0
LAYER
  5
21A
100
AcDbSymbolTableRecord
100
AcDbLayerTableRecord
  2
SURFACE_FEATURES
 70
0
 62
7
  6
CONTINUOUS
370
-3
390
F
  0
LAYER
  5
21B
100
AcDbSymbolTableRecord
100
AcDbLayerTableRecord
  2
XSEC_DATUMS
 70
0
 62
7
  6
CONTINUOUS
370
-3
390
F
  0
ENDTAB
  0
TABLE
  2
STYLE
  5
3
100
AcDbSymbolTable
 70
1
  0
STYLE
  5
11
100
AcDbSymbolTableRecord
100
AcDbTextStyleTableRecord
  2
STANDARD
 70
0
 40
0.0
 41
0.8
 50
0.0
 71
0
 42
0.2
  3
txt
  4

  0
STYLE
  5
21C
100
AcDbSymbolTableRecord
100
AcDbTextStyleTableRecord
  2
TEXTSTYLE_1
 70
0
 40
0.0
 41
0.8
 50
0.0
 71
0
 42
0.2
  3
gdt
  4

  0
ENDTAB
  0
TABLE
  2
VIEW
  5
6
100
AcDbSymbolTable
 70
0
  0
ENDTAB
  0
TABLE
  2
UCS
  5
7
100
AcDbSymbolTable
 70
0
  0
ENDTAB
  0
TABLE
  2
APPID
  5
9
100
AcDbSymbolTable
 70
1
  0
APPID
  5
21D
100
AcDbSymbolTableRecord
100
AcDbRegAppTableRecord
  2
ACAD
 70
0
  0
ENDTAB
  0
TABLE
  2
BLOCK_RECORD
  5
1
100
AcDbSymbolTable
 70
0
  0
BLOCK_RECORD
  5
21E
100
AcDbSymbolTableRecord
100
AcDbBlockTableRecord
  2
*Model_Space
  0
BLOCK_RECORD
  5
21F
100
AcDbSymbolTableRecord
100
AcDbBlockTableRecord
  2
*Paper_Space
  0
BLOCK_RECORD
  5
220
100
AcDbSymbolTableRecord
100
AcDbBlockTableRecord
  2
_FILLED
  0
ENDTAB
  0
TABLE
  2
DIMSTYLE
  5
A
100
AcDbSymbolTable
 70
1
100
AcDbDimStyleTable
 71
0
  0
DIMSTYLE
105
221
100
AcDbSymbolTableRecord
100
AcDbDimStyleTableRecord
  2
STANDARD
 70
0
  3

  4

 40
1.0
 41
0.1
 42
0.0625
 43
0.38
 44
0.125
 45
0.0
 46
0.0
 47
0.001
 48
0.001
140
0.08
141
0.09
142
0.0
143
25.4
144
1.0
145
0.0
146
1.0
147
0.09
 71
1.0
 72
0.0
 73
1
 74
1
 75
0
 76
0
 77
0
 78
4
 79
1
170
1
171
2
172
0
173
0
174
0
175
0
176
0
177
0
178
0
270
2
179
3
271
3
272
3
273
2
274
2
275
0
280
0
281
0
282
0
283
1
284
4
285
0
286
0
287
3
288
0
340
11
278
46
341
220
342
220
343
220
344
220
  0
ENDTAB
  0
ENDSEC
  0
SECTION
  2
BLOCKS
  0
BLOCK
  5
20
100
AcDbEntity
  8
0
100
AcDbBlockBegin
  2
*Model_Space
 70
0
 10
0.0
 20
0.0
 30
0.0
  3
*Model_Space
  1

  0
ENDBLK
  5
21
100
AcDbEntity
  8
0
100
AcDbBlockEnd
  0
BLOCK
  5
1C
100
AcDbEntity
  8
0
100
AcDbBlockBegin
  2
*Paper_Space
 70
0
 10
0.0
 20
0.0
 30
0.0
  3
*Paper_Space
  1

  0
ENDBLK
  5
1D
100
AcDbEntity
  8
0
100
AcDbBlockEnd
  0
BLOCK
  5
222
100
AcDbEntity
  8
0
100
AcDbBlockBegin
  2
_FILLED
 70
64
 10
0.0
 20
0.0
  3
_FILLED
  1

  0
SOLID
  5
223
100
AcDbEntity
  8
0
  6
BYBLOCK
 62
0
100
AcDbTrace
 10
0.0
 20
0.0
 11
-1.0
 21
0.2
 12
-1.0
 22
-0.2
 13
-1.0
 23
-0.2
  0
ENDBLK
  5
224
100
AcDbEntity
  8
0
  6
BYBLOCK
 62
0
100
AcDbBlockEnd
  0
ENDSEC
  0
SECTION
  2
ENTITIES
  0
MTEXT
  5
225
100
AcDbEntity
  8
0
100
AcDbMText
 62
2
  6
CONTINUOUS
  7
STANDARD
 71
3
 72
1
 10
4.9350543478
 20
3.1846187888
 30
0.0
 11
1.0
 21
0.0
 31
0.0
 73
2
 44
0.9
  1
SCALE  .500
 40
0.08
 41
0.704
  0
LINE
  5
226
100
AcDbEntity
  8
0
100
AcDbLine
 62
7
  6
CONTINUOUS
 10
0.0
 20
0.0
 11
0.0
 21
8.5
  0
LINE
  5
227
100
AcDbEntity
  8
0
100
AcDbLine
 62
7
  6
CONTINUOUS
 10
0.0
 20
0.0
 11
11.0
 21
0.0
  0
LINE
  5
228
100
AcDbEntity
  8
0
100
AcDbLine
 62
7
  6
CONTINUOUS
 10
0.0
 20
8.5
 11
11.0
 21
8.5
  0
LINE
  5
229
100
AcDbEntity
  8
0
100
AcDbLine
 62
7
  6
CONTINUOUS
 10
11.0
 20
0.0
 11
11.0
 21
8.5
  0
LINE
  5
22A
100
AcDbEntity
  8
ALL_FEATURES
100
AcDbLine
 62
7
  6
CONTINUOUS
 10
3.0600543478
 20
4.9711069778
 11
3.0600543478
 21
5.0586069778
  0
LINE
  5
22B
100
AcDbEntity
  8
0
100
AcDbLine
 62
7
  6
CONTINUOUS
 10
4.7729715794
 20
3.2947350541
 11
5.0971371162
 21
3.2947350541
  0
LINE
  5
22C
100
AcDbEntity
  8
0
100
AcDbLine
 62
7
  6
CONTINUOUS
 10
4.7003253978
 20
3.3041386256
 11
5.1697832978
 21
3.3041386256
  0
LINE
  5
22D
100
AcDbEntity
  8
0
100
AcDbLine
 62
7
  6
CONTINUOUS
 10
5.1810884277
 20
3.3326751412
 11
4.6890202678
 21
3.3326751412
  0
LINE
  5
22E
100
AcDbEntity
  8
0
100
AcDbLine
 62
7
  6
CONTINUOUS
 10
5.1677786149
 20
3.3629329221
 11
4.7023300807
 21
3.3629329221
  0
LINE
  5
22F
100
AcDbEntity
  8
0
100
AcDbLine
 62
7
  6
CONTINUOUS
 10
4.0676859633
 20
4.6933452083
 11
4.0665593523
 21
4.7363687473
  0
LINE
  5
230
100
AcDbEntity
  8
0
100
AcDbLine
 62
7
  6
CONTINUOUS
 10
5.1599676194
 20
3.4139637368
 11
4.7101410762
 21
3.4139637368
  0
LINE
  5
231
100
AcDbEntity
  8
0
100
AcDbLine
 62
7
  6
CONTINUOUS
 10
4.7636903762
 20
3.660013065
 11
5.1064183194
 21
3.660013065
  0
LINE
  5
232
100
AcDbEntity
  8
0
100
AcDbLine
 62
7
  6
CONTINUOUS
 10
4.7593209827
 20
3.6926414758
 11
5.1107877129
 21
3.6926414758
  0
LINE
  5
233
100
AcDbEntity
  8
0
100
AcDbLine
 62
7
  6
CONTINUOUS
 10
5.0960988525
 20
3.7166187888
 11
4.7740098431
 21
3.7166187888
  0
LINE
  5
234
100
AcDbEntity
  8
ALL_FEATURES
100
AcDbLine
 62
7
  6
CONTINUOUS
 10
4.4500543478
 20
4.2416493823
 11
4.4500543478
 21
4.6836069778
  0
LINE
  5
235
100
AcDbEntity
  8
0
100
AcDbLine
 62
7
  6
CONTINUOUS
 10
4.7788070788
 20
3.9166187888
 11
5.0913016168
 21
3.9166187888
  0
LINE
  5
236
100
AcDbEntity
  8
0
100
AcDbLine
 62
7
  6
CONTINUOUS
 10
5.1158597818
 20
3.9316187888
 11
4.7542489138
 21
3.9316187888
  0
LINE
  5
237
100
AcDbEntity
  8
0
100
AcDbLine
 62
7
  6
CONTINUOUS
 10
5.1387434688
 20
3.9465521655
 11
4.7313652267
 21
3.9465521655
  0
LINE
  5
238
100
AcDbEntity
  8
ALL_FEATURES
100
AcDbLine
 62
7
  6
CONTINUOUS
 10
4.4742023566
 20
4.1982997033
 11
4.4688194647
 21
4.2026060463
  0
LINE
  5
239
100
AcDbEntity
  8
ALL_FEATURES
100
AcDbLine
 62
7
  6
CONTINUOUS
 10
4.4851812134
 20
4.1793596122
 11
4.4847954725
 21
4.1811596988
  0
LINE
  5
23A
100
AcDbEntity
  8
0
100
AcDbLine
 62
7
  6
CONTINUOUS
 10
4.7788043478
 20
3.7166187888
 11
4.7788043478
 21
3.9166187888
  0
LINE
  5
23B
100
AcDbEntity
  8
0
100
AcDbLine
 62
7
  6
CONTINUOUS
 10
5.35896979
 20
4.1499657833
 11
4.5111389056
 21
4.1499657833
  0
LINE
  5
23C
100
AcDbEntity
  8
0
100
AcDbLine
 62
7
  6
CONTINUOUS
 10
5.3849274821
 20
4.1793596118
 11
4.4851812134
 21
4.1793596118
  0
LINE
  5
23D
100
AcDbEntity
  8
0
100
AcDbLine
 62
7
  6
CONTINUOUS
 10
4.4847954725
 20
4.1811596988
 11
5.385313223
 21
4.1811596988
  0
LINE
  5
23E
100
AcDbEntity
  8
0
100
AcDbLine
 62
7
  6
CONTINUOUS
 10
4.4742023566
 20
4.1982997033
 11
5.395906339
 21
4.1982997033
  0
LINE
  5
23F
100
AcDbEntity
  8
0
100
AcDbLine
 62
7
  6
CONTINUOUS
 10
5.4012892308
 20
4.2026060463
 11
4.4688194648
 21
4.2026060463
  0
LINE
  5
240
100
AcDbEntity
  8
0
100
AcDbLine
 62
7
  6
CONTINUOUS
 10
5.4200543478
 20
4.2416493823
 11
4.4500543478
 21
4.2416493823
  0
LINE
  5
241
100
AcDbEntity
  8
0
100
AcDbLine
 62
7
  6
CONTINUOUS
 10
4.8431797843
 20
3.9316187888
 11
4.8431797843
 21
3.9166187888
  0
LINE
  5
242
100
AcDbEntity
  8
0
100
AcDbLine
 62
7
  6
CONTINUOUS
 10
4.8460638872
 20
3.9316187888
 11
4.8460638872
 21
3.9166187888
  0
LINE
  5
243
100
AcDbEntity
  8
0
100
AcDbLine
 62
7
  6
CONTINUOUS
 10
4.8542827509
 20
3.9316187888
 11
4.8542827509
 21
3.9166187888
  0
LINE
  5
244
100
AcDbEntity
  8
0
100
AcDbLine
 62
7
  6
CONTINUOUS
 10
4.862495981
 20
3.9316187888
 11
4.862495981
 21
3.9166187888
  0
LINE
  5
245
100
AcDbEntity
  8
0
100
AcDbLine
 62
7
  6
CONTINUOUS
 10
4.8739465106
 20
3.9166187888
 11
4.8739465106
 21
3.9316187888
  0
LINE
  5
246
100
AcDbEntity
  8
0
100
AcDbLine
 62
7
  6
CONTINUOUS
 10
4.8776824609
 20
3.9316187888
 11
4.8776824609
 21
3.9166187888
  0
LINE
  5
247
100
AcDbEntity
  8
0
100
AcDbLine
 62
7
  6
CONTINUOUS
 10
4.8899744283
 20
3.9316187888
 11
4.8899744283
 21
3.9166187888
  0
LINE
  5
248
100
AcDbEntity
  8
0
100
AcDbLine
 62
7
  6
CONTINUOUS
 10
4.8993792042
 20
3.9166187888
 11
4.8993792042
 21
3.9316187888
  0
LINE
  5
249
100
AcDbEntity
  8
ALL_FEATURES
100
AcDbLine
 62
7
  6
CONTINUOUS
 10
4.9055543478
 20
4.417066999
 11
4.9055543478
 21
4.4115389925
  0
LINE
  5
24A
100
AcDbEntity
  8
0
100
AcDbLine
 62
7
  6
CONTINUOUS
 10
4.908269203
 20
3.9166187888
 11
4.908269203
 21
3.9316187888
  0
LINE
  5
24B
100
AcDbEntity
  8
0
100
AcDbLine
 62
7
  6
CONTINUOUS
 10
4.9098165206
 20
3.9316187888
 11
4.9098165206
 21
3.9166187888
  0
LINE
  5
24C
100
AcDbEntity
  8
ALL_FEATURES
100
AcDbLine
 62
7
  6
CONTINUOUS
 10
4.9243158848
 20
3.9316187888
 11
4.9243158848
 21
3.9166187888
  0
LINE
  5
24D
100
AcDbEntity
  8
ALL_FEATURES
100
AcDbLine
 62
7
  6
CONTINUOUS
 10
4.9302431151
 20
3.9166187888
 11
4.9302431151
 21
3.9316187888
  0
LINE
  5
24E
100
AcDbEntity
  8
ALL_FEATURES
100
AcDbLine
 62
7
  6
CONTINUOUS
 10
4.9398655805
 20
3.9166187888
 11
4.9398655805
 21
3.9316187888
  0
LINE
  5
24F
100
AcDbEntity
  8
ALL_FEATURES
100
AcDbLine
 62
7
  6
CONTINUOUS
 10
4.9457928108
 20
3.9316187888
 11
4.9457928108
 21
3.9166187888
  0
LINE
  5
250
100
AcDbEntity
  8
0
100
AcDbLine
 62
7
  6
CONTINUOUS
 10
4.9602921749
 20
3.9316187888
 11
4.9602921749
 21
3.9166187888
  0
LINE
  5
251
100
AcDbEntity
  8
0
100
AcDbLine
 62
7
  6
CONTINUOUS
 10
4.9618394925
 20
3.9166187888
 11
4.9618394925
 21
3.9316187888
  0
LINE
  5
252
100
AcDbEntity
  8
ALL_FEATURES
100
AcDbLine
 62
7
  6
CONTINUOUS
 10
4.9645543478
 20
4.417066999
 11
4.9645543478
 21
4.4115389925
  0
LINE
  5
253
100
AcDbEntity
  8
0
100
AcDbLine
 62
7
  6
CONTINUOUS
 10
4.9707294913
 20
3.9166187888
 11
4.9707294913
 21
3.9316187888
  0
LINE
  5
254
100
AcDbEntity
  8
0
100
AcDbLine
 62
7
  6
CONTINUOUS
 10
4.9801342672
 20
3.9316187888
 11
4.9801342672
 21
3.9166187888
  0
LINE
  5
255
100
AcDbEntity
  8
0
100
AcDbLine
 62
7
  6
CONTINUOUS
 10
4.9924262346
 20
3.9316187888
 11
4.9924262346
 21
3.9166187888
  0
LINE
  5
256
100
AcDbEntity
  8
0
100
AcDbLine
 62
7
  6
CONTINUOUS
 10
4.996162185
 20
3.9166187888
 11
4.996162185
 21
3.9316187888
  0
LINE
  5
257
100
AcDbEntity
  8
0
100
AcDbLine
 62
7
  6
CONTINUOUS
 10
5.0076127146
 20
3.9316187888
 11
5.0076127146
 21
3.9166187888
  0
LINE
  5
258
100
AcDbEntity
  8
0
100
AcDbLine
 62
7
  6
CONTINUOUS
 10
5.0158259447
 20
3.9316187888
 11
5.0158259447
 21
3.9166187888
  0
LINE
  5
259
100
AcDbEntity
  8
0
100
AcDbLine
 62
7
  6
CONTINUOUS
 10
5.0240448084
 20
3.9316187888
 11
5.0240448084
 21
3.9166187888
  0
LINE
  5
25A
100
AcDbEntity
  8
0
100
AcDbLine
 62
7
  6
CONTINUOUS
 10
5.0269289113
 20
3.9316187888
 11
5.0269289113
 21
3.9166187888
  0
LINE
  5
25B
100
AcDbEntity
  8
0
100
AcDbLine
 62
7
  6
CONTINUOUS
 10
5.0913043478
 20
3.7166187888
 11
5.0913043478
 21
3.9166187888
  0
LINE
  5
25C
100
AcDbEntity
  8
ALL_FEATURES
100
AcDbLine
 62
7
  6
CONTINUOUS
 10
4.9615706137
 20
4.4183687888
 11
4.9404609544
 21
4.4183687888
  0
LINE
  5
25D
100
AcDbEntity
  8
ALL_FEATURES
100
AcDbLine
 62
7
  6
CONTINUOUS
 10
4.9085380818
 20
4.4183687888
 11
4.9296477412
 21
4.4183687888
  0
LINE
  5
25E
100
AcDbEntity
  8
ALL_FEATURES
100
AcDbLine
 62
7
  6
CONTINUOUS
 10
5.792426159
 20
4.6836069778
 11
4.0776825366
 21
4.6836069778
  0
LINE
  5
25F
100
AcDbEntity
  8
ALL_FEATURES
100
AcDbLine
 62
7
  6
CONTINUOUS
 10
5.8024227322
 20
4.6933452083
 11
4.0676859633
 21
4.6933452083
  0
LINE
  5
260
100
AcDbEntity
  8
ALL_FEATURES
100
AcDbLine
 62
7
  6
CONTINUOUS
 10
5.395906339
 20
4.1982997033
 11
5.4012892308
 21
4.2026060463
  0
LINE
  5
261
100
AcDbEntity
  8
ALL_FEATURES
100
AcDbLine
 62
7
  6
CONTINUOUS
 10
5.8035493432
 20
4.7363687473
 11
4.0665593523
 21
4.7363687473
  0
LINE
  5
262
100
AcDbEntity
  8
ALL_FEATURES
100
AcDbLine
 62
7
  6
CONTINUOUS
 10
3.3185543689
 20
4.7461069778
 11
6.5515543478
 21
4.7461069778
  0
LINE
  5
263
100
AcDbEntity
  8
ALL_FEATURES
100
AcDbLine
 62
7
  6
CONTINUOUS
 10
3.2799554549
 20
4.7756129095
 11
6.5901532406
 21
4.7756129095
  0
LINE
  5
264
100
AcDbEntity
  8
ALL_FEATURES
100
AcDbLine
 62
7
  6
CONTINUOUS
 10
5.4200543478
 20
4.2416493823
 11
5.4200543478
 21
4.6836069778
  0
LINE
  5
265
100
AcDbEntity
  8
ALL_FEATURES
100
AcDbLine
 62
7
  6
CONTINUOUS
 10
5.3849274822
 20
4.1793596122
 11
5.385313223
 21
4.1811596988
  0
LINE
  5
266
100
AcDbEntity
  8
ALL_FEATURES
100
AcDbLine
 62
7
  6
CONTINUOUS
 10
3.0960693163
 20
4.9313059788
 11
6.7740393793
 21
4.9313059788
  0
LINE
  5
267
100
AcDbEntity
  8
ALL_FEATURES
100
AcDbLine
 62
7
  6
CONTINUOUS
 10
3.0600543478
 20
4.9711069778
 11
6.8100543478
 21
4.9711069778
  0
LINE
  5
268
100
AcDbEntity
  8
0
100
AcDbLine
 62
7
  6
CONTINUOUS
 10
3.0600543478
 20
5.0586069778
 11
6.8100543478
 21
5.0586069778
  0
LINE
  5
269
100
AcDbEntity
  8
0
100
AcDbLine
 62
7
  6
CONTINUOUS
 10
5.8024227322
 20
4.6933452083
 11
5.8035493432
 21
4.7363687473
  0
LINE
  5
26A
100
AcDbEntity
  8
ALL_FEATURES
100
AcDbLine
 62
7
  6
CONTINUOUS
 10
6.8100543478
 20
4.9711069778
 11
6.8100543478
 21
5.0586069778
  0
ARC
  5
26B
100
AcDbEntity
  8
0
100
AcDbCircle
 62
7
  6
CONTINUOUS
 10
4.6546248146
 20
2.6657723876
 40
0.6399999976
100
AcDbArc
 50
79.3437170419
 51
85.9051860878
  0
ARC
  5
26C
100
AcDbEntity
  8
ALL_FEATURES
100
AcDbCircle
 62
7
  6
CONTINUOUS
 10
4.3876522572
 20
3.7953514891
 40
0.3755
100
AcDbArc
 50
23.7448814317
 51
70.8004489292
  0
ARC
  5
26D
100
AcDbEntity
  8
0
100
AcDbCircle
 62
7
  6
CONTINUOUS
 10
4.8214327134
 20
3.3360329316
 40
0.347388965
100
AcDbArc
 50
4.4411323253
 51
12.9636586775
  0
ARC
  5
26E
100
AcDbEntity
  8
0
100
AcDbCircle
 62
7
  6
CONTINUOUS
 10
4.6524802391
 20
3.3668046615
 40
0.0499999948
100
AcDbArc
 50
316.9535774643
 51
355.5588650687
  0
ARC
  5
26F
100
AcDbEntity
  8
0
100
AcDbCircle
 62
7
  6
CONTINUOUS
 10
4.7147103829
 20
3.6700607295
 40
0.0499999895
100
AcDbArc
 50
348.4072786163
 51
26.8473681009
  0
ARC
  5
270
100
AcDbEntity
  8
0
100
AcDbCircle
 62
7
  6
CONTINUOUS
 10
4.5242932744
 20
4.1877409416
 40
0.04
100
AcDbArc
 50
192.095
 51
250.8004489292
  0
ARC
  5
271
100
AcDbEntity
  8
0
100
AcDbCircle
 62
7
  6
CONTINUOUS
 10
4.4554614268
 20
4.1748737018
 40
0.03
100
AcDbArc
 50
12.095
 51
51.34
  0
ARC
  5
272
100
AcDbEntity
  8
0
100
AcDbCircle
 62
7
  6
CONTINUOUS
 10
4.754248913
 20
3.9566187888
 40
0.025
100
AcDbArc
 50
203.7448814317
 51
270.0
  0
ARC
  5
273
100
AcDbEntity
  8
0
100
AcDbCircle
 62
7
  6
CONTINUOUS
 10
-5.5456856957
 20
5.7748571738
 40
10.5240581809
100
AcDbArc
 50
347.0363413225
 51
348.4072896721
  0
ARC
  5
274
100
AcDbEntity
  8
ALL_FEATURES
100
AcDbCircle
 62
7
  6
CONTINUOUS
 10
3.0748988366
 20
4.7198631714
 40
0.2125
100
AcDbArc
 50
15.2096500848
 51
84.2823779725
  0
ARC
  5
275
100
AcDbEntity
  8
0
100
AcDbCircle
 62
7
  6
CONTINUOUS
 10
4.5000543478
 20
4.2416493823
 40
0.05
100
AcDbArc
 50
180.0
 51
231.34
  0
ARC
  5
276
100
AcDbEntity
  8
ALL_FEATURES
100
AcDbCircle
 62
7
  6
CONTINUOUS
 10
3.3185543478
 20
4.7861069778
 40
0.04
100
AcDbArc
 50
195.2096500848
 51
270.0
  0
ARC
  5
277
100
AcDbEntity
  8
ALL_FEATURES
100
AcDbCircle
 62
7
  6
CONTINUOUS
 10
3.1000543478
 20
4.9711069778
 40
0.04
100
AcDbArc
 50
180.0
 51
264.2823779725
  0
ARC
  5
278
100
AcDbEntity
  8
ALL_FEATURES
100
AcDbCircle
 62
7
  6
CONTINUOUS
 10
4.0776825366
 20
4.6936069778
 40
0.01
100
AcDbArc
 50
181.5
 51
270.0
  0
ARC
  5
279
100
AcDbEntity
  8
ALL_FEATURES
100
AcDbCircle
 62
7
  6
CONTINUOUS
 10
4.0565627791
 20
4.7361069778
 40
0.01
100
AcDbArc
 50
1.5
 51
90.0
  0
ARC
  5
27A
100
AcDbEntity
  8
0
100
AcDbCircle
 62
7
  6
CONTINUOUS
 10
4.9350543478
 20
4.1561357321
 40
0.8765169433
100
AcDbArc
 50
259.3437143082
 51
280.6562856918
  0
ARC
  5
27B
100
AcDbEntity
  8
0
100
AcDbCircle
 62
7
  6
CONTINUOUS
 10
5.2154838809
 20
2.6657723876
 40
0.6399999976
100
AcDbArc
 50
94.0948139122
 51
100.6562829581
  0
ARC
  5
27C
100
AcDbEntity
  8
ALL_FEATURES
100
AcDbCircle
 62
7
  6
CONTINUOUS
 10
5.4824564384
 20
3.7953514891
 40
0.3755
100
AcDbArc
 50
109.1995510708
 51
156.2551185683
  0
ARC
  5
27D
100
AcDbEntity
  8
0
100
AcDbCircle
 62
7
  6
CONTINUOUS
 10
5.0486759822
 20
3.3360329316
 40
0.347388965
100
AcDbArc
 50
167.0363413225
 51
175.5588676747
  0
ARC
  5
27E
100
AcDbEntity
  8
0
100
AcDbCircle
 62
7
  6
CONTINUOUS
 10
5.2176284565
 20
3.3668046615
 40
0.0499999948
100
AcDbArc
 50
184.4411349313
 51
223.0464225357
  0
ARC
  5
27F
100
AcDbEntity
  8
0
100
AcDbCircle
 62
7
  6
CONTINUOUS
 10
5.1553983126
 20
3.6700607295
 40
0.0499999895
100
AcDbArc
 50
153.1526318991
 51
191.5927213837
  0
ARC
  5
280
100
AcDbEntity
  8
0
100
AcDbCircle
 62
7
  6
CONTINUOUS
 10
5.3458154212
 20
4.1877409416
 40
0.04
100
AcDbArc
 50
289.1995510708
 51
347.905
  0
ARC
  5
281
100
AcDbEntity
  8
0
100
AcDbCircle
 62
7
  6
CONTINUOUS
 10
5.4146472688
 20
4.1748737018
 40
0.03
100
AcDbArc
 50
128.66
 51
167.905
  0
ARC
  5
282
100
AcDbEntity
  8
0
100
AcDbCircle
 62
7
  6
CONTINUOUS
 10
5.1158597826
 20
3.9566187888
 40
0.025
100
AcDbArc
 50
270.0
 51
336.2551185683
  0
ARC
  5
283
100
AcDbEntity
  8
0
100
AcDbCircle
 62
7
  6
CONTINUOUS
 10
15.4157943913
 20
5.7748571738
 40
10.5240581809
100
AcDbArc
 50
191.5927103279
 51
192.9636586775
  0
ARC
  5
284
100
AcDbEntity
  8
ALL_FEATURES
100
AcDbCircle
 62
7
  6
CONTINUOUS
 10
6.7952098589
 20
4.7198631714
 40
0.2125
100
AcDbArc
 50
95.7176220275
 51
164.7903499152
  0
CIRCLE
  5
285
100
AcDbEntity
  8
0
100
AcDbCircle
 62
7
  6
CONTINUOUS
 10
4.9350543478
 20
4.3536187888
 40
0.07
  0
CIRCLE
  5
286
100
AcDbEntity
  8
ALL_FEATURES
100
AcDbCircle
 62
7
  6
CONTINUOUS
 10
4.9350543478
 20
4.3536187888
 40
0.065
  0
ARC
  5
287
100
AcDbEntity
  8
0
100
AcDbCircle
 62
7
  6
CONTINUOUS
 10
5.3700543478
 20
4.2416493823
 40
0.05
100
AcDbArc
 50
308.66
 51
360.0
  0
CIRCLE
  5
288
100
AcDbEntity
  8
ALL_FEATURES
100
AcDbCircle
 62
7
  6
CONTINUOUS
 10
4.9350543478
 20
4.3536187888
 40
0.0445454545
  0
ARC
  5
289
100
AcDbEntity
  8
ALL_FEATURES
100
AcDbCircle
 62
7
  6
CONTINUOUS
 10
6.5515543478
 20
4.7861069778
 40
0.04
100
AcDbArc
 50
270.0
 51
344.7903499152
  0
ARC
  5
28A
100
AcDbEntity
  8
ALL_FEATURES
100
AcDbCircle
 62
7
  6
CONTINUOUS
 10
6.7700543478
 20
4.9711069778
 40
0.04
100
AcDbArc
 50
275.7176220275
 51
360.0
  0
ARC
  5
28B
100
AcDbEntity
  8
ALL_FEATURES
100
AcDbCircle
 62
7
  6
CONTINUOUS
 10
5.792426159
 20
4.6936069778
 40
0.01
100
AcDbArc
 50
270.0
 51
358.5
  0
ARC
  5
28C
100
AcDbEntity
  8
ALL_FEATURES
100
AcDbCircle
 62
7
  6
CONTINUOUS
 10
5.8135459165
 20
4.7361069778
 40
0.01
100
AcDbArc
 50
90.0
 51
178.5
  0
SPLINE
  5
28D
100
AcDbEntity
  8
0
100
AcDbSpline
 62
7
  6
CONTINUOUS
 70
0
 71
3
 72
9
 73
5
 74
0
 42
0.0000001
 43
0.0000001
 44
0.0000000001
 40
0.0
 40
0.0
 40
0.0
 40
0.0
 40
0.4999990104
 40
1.0
 40
1.0
 40
1.0
 40
1.0
 10
5.1125988525
 20
3.7001187888
 30
0.0
 10
5.1125988525
 20
3.698827778
 30
0.0
 10
5.1122771849
 20
3.6962376692
 30
0.0
 10
5.111370755
 20
3.693793337
 30
0.0
 10
5.1107877129
 20
3.6926414758
 30
0.0
  0
SPLINE
  5
28E
100
AcDbEntity
  8
0
100
AcDbSpline
 62
7
  6
CONTINUOUS
 70
0
 71
3
 72
9
 73
5
 74
0
 42
0.0000001
 43
0.0000001
 44
0.0000000001
 40
0.0
 40
0.0
 40
0.0
 40
0.0
 40
0.4999990104
 40
1.0
 40
1.0
 40
1.0
 40
1.0
 10
4.7575098431
 20
3.7001187888
 30
0.0
 10
4.7575098431
 20
3.698827778
 30
0.0
 10
4.7578315107
 20
3.6962376692
 30
0.0
 10
4.7587379406
 20
3.693793337
 30
0.0
 10
4.7593209827
 20
3.6926414758
 30
0.0
  0
SPLINE
  5
28F
100
AcDbEntity
  8
0
100
AcDbSpline
 62
7
  6
CONTINUOUS
 70
0
 71
3
 72
15
 73
11
 74
0
 42
0.0000001
 43
0.0000001
 44
0.0000000001
 40
0.0
 40
0.0
 40
0.0
 40
0.0
 40
0.1249562035
 40
0.250015953
 40
0.3750045582
 40
0.4999997705
 40
0.6249958588
 40
0.7499851734
 40
0.8750441968
 40
1.0
 40
1.0
 40
1.0
 40
1.0
 10
4.7740098431
 20
3.7166187888
 30
0.0
 10
4.7729326843
 20
3.7166187888
 30
0.0
 10
4.7707720757
 20
3.7163938525
 30
0.0
 10
4.7676635334
 20
3.7154411049
 30
0.0
 10
4.7647904585
 20
3.7139161268
 30
0.0
 10
4.7622631265
 20
3.711865503
 30
0.0
 10
4.7602125032
 20
3.7093381632
 30
0.0
 10
4.7586875176
 20
3.7064650837
 30
0.0
 10
4.7577347767
 20
3.7033565428
 30
0.0
 10
4.7575098431
 20
3.7011959441
 30
0.0
 10
4.7575098431
 20
3.7001187888
 30
0.0
  0
SPLINE
  5
290
100
AcDbEntity
  8
0
100
AcDbSpline
 62
7
  6
CONTINUOUS
 70
0
 71
3
 72
15
 73
11
 74
0
 42
0.0000001
 43
0.0000001
 44
0.0000000001
 40
0.0
 40
0.0
 40
0.0
 40
0.0
 40
0.1249562035
 40
0.250015953
 40
0.3750045582
 40
0.4999997705
 40
0.6249958588
 40
0.7499851734
 40
0.8750441968
 40
1.0
 40
1.0
 40
1.0
 40
1.0
 10
5.0960988525
 20
3.7166187888
 30
0.0
 10
5.0971760112
 20
3.7166187888
 30
0.0
 10
5.0993366199
 20
3.7163938525
 30
0.0
 10
5.1024451622
 20
3.7154411049
 30
0.0
 10
5.105318237
 20
3.7139161268
 30
0.0
 10
5.1078455691
 20
3.711865503
 30
0.0
 10
5.1098961924
 20
3.7093381632
 30
0.0
 10
5.111421178
 20
3.7064650837
 30
0.0
 10
5.1123739188
 20
3.7033565428
 30
0.0
 10
5.1125988525
 20
3.7011959441
 30
0.0
 10
5.1125988525
 20
3.7001187888
 30
0.0
  0
SPLINE
  5
291
100
AcDbEntity
  8
0
100
AcDbSpline
 62
7
  6
CONTINUOUS
 70
0
 71
3
 72
27
 73
23
 74
0
 42
0.0000001
 43
0.0000001
 44
0.0000000001
 40
0.0
 40
0.0
 40
0.0
 40
0.0
 40
0.0624474826
 40
0.1249954858
 40
0.1874754819
 40
0.2499639928
 40
0.3124555948
 40
0.343714071
 40
0.37497885
 40
0.437480456
 40
0.4999607037
 40
0.5624548547
 40
0.6249511424
 40
0.6562087671
 40
0.6874703038
 40
0.7187403763
 40
0.7500120817
 40
0.7812756271
 40
0.8125283914
 40
0.8750183579
 40
0.9375603392
 40
1.0
 40
1.0
 40
1.0
 40
1.0
 10
5.1810884277
 20
3.3326751412
 30
0.0
 10
5.1816319842
 20
3.3320931939
 30
0.0
 10
5.1826335882
 20
3.3308446519
 30
0.0
 10
5.1838537547
 20
3.3287802374
 30
0.0
 10
5.1847764469
 20
3.3265659289
 30
0.0
 10
5.1853898214
 20
3.3242481742
 30
0.0
 10
5.1856320178
 20
3.3222633697
 30
0.0
 10
5.1856522006
 20
3.3206680582
 30
0.0
 10
5.1855550197
 20
3.3190755158
 30
0.0
 10
5.1852190079
 20
3.3171041198
 30
0.0
 10
5.1844851482
 20
3.3148208136
 30
0.0
 10
5.1834454722
 20
3.3126602085
 30
0.0
 10
5.1823433773
 20
3.3109920836
 30
0.0
 10
5.1813284016
 20
3.3097612771
 30
0.0
 10
5.1805017741
 20
3.3088954337
 30
0.0
 10
5.1796144291
 20
3.3080917725
 30
0.0
 10
5.1786717705
 20
3.3073537579
 30
0.0
 10
5.1776788278
 20
3.3066852102
 30
0.0
 10
5.1762952315
 20
3.3058913528
 30
0.0
 10
5.1744654891
 20
3.3050840501
 30
0.0
 10
5.1721611255
 20
3.3044229165
 30
0.0
 10
5.1705774797
 20
3.304195481
 30
0.0
 10
5.1697832978
 20
3.3041386256
 30
0.0
  0
SPLINE
  5
292
100
AcDbEntity
  8
0
100
AcDbSpline
 62
7
  6
CONTINUOUS
 70
0
 71
3
 72
27
 73
23
 74
0
 42
0.0000001
 43
0.0000001
 44
0.0000000001
 40
0.0
 40
0.0
 40
0.0
 40
0.0
 40
0.0624474826
 40
0.1249954858
 40
0.1874754819
 40
0.2499639928
 40
0.3124555948
 40
0.343714071
 40
0.37497885
 40
0.437480456
 40
0.4999607037
 40
0.5624548547
 40
0.6249511424
 40
0.6562087671
 40
0.6874703038
 40
0.7187403763
 40
0.7500120817
 40
0.7812756271
 40
0.8125283914
 40
0.8750183579
 40
0.9375603392
 40
1.0
 40
1.0
 40
1.0
 40
1.0
 10
4.6890202678
 20
3.3326751412
 30
0.0
 10
4.6884767114
 20
3.3320931939
 30
0.0
 10
4.6874751074
 20
3.3308446519
 30
0.0
 10
4.6862549408
 20
3.3287802374
 30
0.0
 10
4.6853322487
 20
3.3265659289
 30
0.0
 10
4.6847188741
 20
3.3242481742
 30
0.0
 10
4.6844766777
 20
3.3222633697
 30
0.0
 10
4.684456495
 20
3.3206680582
 30
0.0
 10
4.6845536759
 20
3.3190755158
 30
0.0
 10
4.6848896877
 20
3.3171041198
 30
0.0
 10
4.6856235474
 20
3.3148208136
 30
0.0
 10
4.6866632233
 20
3.3126602085
 30
0.0
 10
4.6877653183
 20
3.3109920836
 30
0.0
 10
4.688780294
 20
3.3097612771
 30
0.0
 10
4.6896069215
 20
3.3088954337
 30
0.0
 10
4.6904942665
 20
3.3080917725
 30
0.0
 10
4.6914369251
 20
3.3073537579
 30
0.0
 10
4.6924298678
 20
3.3066852102
 30
0.0
 10
4.693813464
 20
3.3058913528
 30
0.0
 10
4.6956432065
 20
3.3050840501
 30
0.0
 10
4.6979475701
 20
3.3044229165
 30
0.0
 10
4.6995312159
 20
3.304195481
 30
0.0
 10
4.7003253978
 20
3.3041386256
 30
0.0
  0
SPLINE
  5
293
100
AcDbEntity
  8
0
100
AcDbSpline
 62
7
  6
CONTINUOUS
 70
0
 71
3
 72
23
 73
19
 74
0
 42
0.0000001
 43
0.0000001
 44
0.0000000001
 40
0.0
 40
0.0
 40
0.0
 40
0.0
 40
0.0625893971
 40
0.1251102792
 40
0.1875527562
 40
0.2499535235
 40
0.3123714732
 40
0.3748505099
 40
0.437400337
 40
0.4999978223
 40
0.5625954735
 40
0.625145463
 40
0.6876245655
 40
0.7500419281
 40
0.8124422496
 40
0.8748846704
 40
0.9374076302
 40
1.0
 40
1.0
 40
1.0
 40
1.0
 10
4.9350543478
 20
4.4411187888
 30
0.0
 10
4.9405592619
 20
4.4411187888
 30
0.0
 10
4.9516018975
 20
4.4398801373
 30
0.0
 10
4.9673100949
 20
4.4344504687
 30
0.0
 10
4.9814996458
 20
4.4258352184
 30
0.0
 10
4.9936421188
 20
4.4145488037
 30
0.0
 10
5.0033863183
 20
4.4011445752
 30
0.0
 10
5.0104962723
 20
4.3861689087
 30
0.0
 10
5.0148204196
 20
4.3701532609
 30
0.0
 10
5.0162714563
 20
4.3536193553
 30
0.0
 10
5.0148206189
 20
4.3370854176
 30
0.0
 10
5.0104966522
 20
4.3210696841
 30
0.0
 10
5.0033868838
 20
4.3060939661
 30
0.0
 10
4.99364292
 20
4.2926896721
 30
0.0
 10
4.9815006749
 20
4.2814031638
 30
0.0
 10
4.9673111771
 20
4.2727875484
 30
0.0
 10
4.951602596
 20
4.2673576176
 30
0.0
 10
4.9405595233
 20
4.2661187888
 30
0.0
 10
4.9350543478
 20
4.2661187888
 30
0.0
  0
SPLINE
  5
294
100
AcDbEntity
  8
0
100
AcDbSpline
 62
7
  6
CONTINUOUS
 70
0
 71
3
 72
23
 73
19
 74
0
 42
0.0000001
 43
0.0000001
 44
0.0000000001
 40
0.0
 40
0.0
 40
0.0
 40
0.0
 40
0.0625891332
 40
0.1251098922
 40
0.1875524331
 40
0.2499532796
 40
0.3123713076
 40
0.3748503865
 40
0.4374002664
 40
0.4999978057
 40
0.5625955109
 40
0.6251455521
 40
0.6876246981
 40
0.7500421394
 40
0.8124425398
 40
0.874885025
 40
0.9374078697
 40
1.0
 40
1.0
 40
1.0
 40
1.0
 10
4.9350543478
 20
4.2661187888
 30
0.0
 10
4.9295494569
 20
4.2661187888
 30
0.0
 10
4.9185068547
 20
4.2673574257
 30
0.0
 10
4.9027986814
 20
4.2727870756
 30
0.0
 10
4.8886091163
 20
4.2814023059
 30
0.0
 10
4.8764666196
 20
4.2926887249
 30
0.0
 10
4.8667224005
 20
4.3060929611
 30
0.0
 10
4.8596124338
 20
4.3210686389
 30
0.0
 10
4.8552882784
 20
4.3370842982
 30
0.0
 10
4.8538372384
 20
4.353618218
 30
0.0
 10
4.8552880776
 20
4.37015217
 30
0.0
 10
4.8596120508
 20
4.3861679156
 30
0.0
 10
4.8667218306
 20
4.4011436454
 30
0.0
 10
4.8764658126
 20
4.4145479483
 30
0.0
 10
4.8886080804
 20
4.4258344622
 30
0.0
 10
4.9027975919
 20
4.4344500596
 30
0.0
 10
4.9185061512
 20
4.4398799745
 30
0.0
 10
4.9295491933
 20
4.4411187888
 30
0.0
 10
4.9350543478
 20
4.4411187888
 30
0.0
  0
ENDSEC
  0
SECTION
  2
OBJECTS
  0
DICTIONARY
  5
C
100
AcDbDictionary
280
0
281
1
  3
ACAD_GROUP
350
D
  3
ACAD_MLINESTYLE
350
17
  3
ACAD_LAYOUT
350
1A
  3
ACAD_PLOTSETTINGS
350
19
  3
ACAD_PLOTSTYLENAME
350
E
  0
DICTIONARY
  5
D
102
{ACAD_REACTORS
330
C
102
}
100
AcDbDictionary
280
0
281
1
  0
ACDBDICTIONARYWDFLT
  5
E
102
{ACAD_REACTORS
330
C
102
}
100
AcDbDictionary
281
1
  3
Normal
350
F
100
AcDbDictionaryWithDefault
340
F
  0
DICTIONARY
  5
17
102
{ACAD_REACTORS
330
C
102
}
100
AcDbDictionary
280
0
281
1
  3
Standard
350
18
  0
DICTIONARY
  5
19
102
{ACAD_REACTORS
330
C
102
}
100
AcDbDictionary
281
1
  0
DICTIONARY
  5
1A
102
{ACAD_REACTORS
330
C
102
}
100
AcDbDictionary
281
1
  3
Model
350
295
  3
Layout1
350
296
  0
ACDBPLACEHOLDER
  5
F
102
{ACAD_REACTORS
330
E
102
}
  0
MLINESTYLE
  5
18
102
{ACAD_REACTORS
330
17
102
}
100
AcDbMlineStyle
  2
STANDARD
 70
0
  3

 62
256
 51
90.0
 52
90.0
 71
2
 49
0.5
 62
256
  6
BYLAYER
 49
-0.5
 62
256
  6
BYLAYER
  0
LAYOUT
  5
295
102
{ACAD_REACTORS
330
1A
102
}
100
AcDbPlotSettings
  1

  2
none_device
  4
ANSI_A_(11.00_x_8.50_Inches)
  6

 40
0.0
 41
0.0
 42
0.0
 43
0.0
 44
279.4
 45
215.9
 46
0.0
 47
0.0
 48
0.0
 49
0.0
140
0.0
141
0.0
142
1.0
143
1.0
 70
1024
 72
0
 73
0
 74
0
  7

 75
0
147
1.0
148
0.0
149
0.0
100
AcDbLayout
  1
Model
 70
0
 71
0
 10
0.0
 20
0.0
 11
11.0
 21
8.5
 12
0.0
 22
0.0
 32
0.0
 14
0.0
 24
0.0
 34
0.0
 15
0.0
 25
0.0
 35
0.0
146
0.0
 13
0.0
 23
0.0
 33
0.0
 16
1.0
 26
0.0
 36
0.0
 17
0.0
 27
1.0
 37
0.0
 76
0
330
21E
345
0
346
0
  0
LAYOUT
  5
296
102
{ACAD_REACTORS
330
1A
102
}
100
AcDbPlotSettings
  1

  2
none_device
  4
ANSI_A_(11.00_x_8.50_Inches)
  6

 40
0.0
 41
0.0
 42
0.0
 43
0.0
 44
279.4
 45
215.9
 46
0.0
 47
0.0
 48
0.0
 49
0.0
140
0.0
141
0.0
142
1.0
143
1.0
 70
0
 72
0
 73
0
 74
0
  7

 75
0
147
1.0
148
0.0
149
0.0
100
AcDbLayout
  1
Layout1
 70
0
 71
1
 10
0.0
 20
0.0
 11
11.0
 21
8.5
 12
0.0
 22
0.0
 32
0.0
 14
0.0
 24
0.0
 34
0.0
 15
0.0
 25
0.0
 35
0.0
146
0.0
 13
0.0
 23
0.0
 33
0.0
 16
1.0
 26
0.0
 36
0.0
 17
0.0
 27
1.0
 37
0.0
 76
0
330
21F
345
0
346
0
  0
ENDSEC
  0
EOF
