999
DXF file: 3-2915_FRONT.dxf
999
Pro/ENGINEER 2018400 by Parametric Technology Corporation
  0
SECTION
  2
HEADER
  9
$ACADVER
  1
AC1027
  9
$DWGCODEPAGE
  3
ANSI_1252
  9
$EXTMAX
 10
11.0
 20
8.5
 30
0.0
  9
$EXTMIN
 10
0.0
 20
0.0
 30
0.0
  9
$LIMMIN
 10
0.0
 20
0.0
  9
$LIMMAX
 10
11.0
 20
8.5
  9
$VIEWCTR
 10
5.5
 20
4.25
  9
$VIEWSIZE
 40
8.5
  9
$CLAYER
  8
0
  9
$LTSCALE
 40
0.605
  9
$CELTYPE
  6
BYLAYER
  9
$DIMSCALE
 40
1.0
  9
$DIMASZ
 40
0.1
  9
$DIMEXO
 40
0.0625
  9
$DIMDLI
 40
0.418
  9
$DIMEXE
 40
0.125
  9
$DIMCEN
 40
0.099
  9
$DIMLFAC
 40
1.0
  9
$DIMBLK
  1
_FILLED
  9
$DIMALT
 70
1
  9
$DIMALTD
 70
2
  9
$DIMALTTD
 70
2
  9
$DIMALTF
 40
25.4
  9
$DIMTXT
 40
0.08
  9
$DIMTOL
 70
1
  9
$DIMLIM
 70
0
  9
$DIMTFAC
 40
1.0
  9
$DIMTP
 40
0.001
  9
$DIMTM
 40
0.001
  9
$DIMGAP
 40
0.09
  9
$DIMDSEP
 70
46
  9
$AUNITS
 70
0
  9
$PDMODE
 70
3
  9
$PDSIZE
 40
0.3125
  9
$HANDSEED
  5
382
  9
$TILEMODE
 70
1
  9
$MEASUREMENT
 70
0
  9
$INSUNITS
 70
1
  0
ENDSEC
  0
SECTION
  2
CLASSES
  0
CLASS
  1
ACDBDICTIONARYWDFLT
  2
AcDbDictionaryWithDefault
  3
AutoCAD 2000
 90
0
 91
1
280
0
281
0
  0
CLASS
  1
ACDBPLACEHOLDER
  2
AcDbPlaceHolder
  3
AutoCAD 2000
 90
0
 91
1
280
0
281
0
  0
CLASS
  1
LAYOUT
  2
AcDbLayout
  3
AutoCAD 2000
 90
0
 91
0
280
0
281
0
  0
ENDSEC
  0
SECTION
  2
TABLES
  0
TABLE
  2
VPORT
  5
8
100
AcDbSymbolTable
 70
2
  0
VPORT
  5
1F4
100
AcDbSymbolTableRecord
100
AcDbViewportTableRecord
  2
*ACTIVE
 70
0
 10
0.0
 20
0.0
 11
1.0
 21
1.0
 12
5.5
 22
4.25
 13
0.0
 23
0.0
 14
1.0
 24
1.0
 15
0.0
 25
0.0
 16
0.0
 26
0.0
 36
1.0
 17
0.0
 27
0.0
 37
0.0
 40
8.5
 41
1.2941176471
 42
50.0
 43
0.0
 44
0.0
 50
0.0
 51
0.0
 71
0
 72
100
 73
1
 74
1
 75
0
 76
0
 77
0
 78
0
  0
ENDTAB
  0
TABLE
  2
LTYPE
  5
5
100
AcDbSymbolTable
 70
6
  0
LTYPE
  5
14
100
AcDbSymbolTableRecord
100
AcDbLinetypeTableRecord
  2
BYBLOCK
 70
0
  3

 72
65
 73
0
 40
0.0
  0
LTYPE
  5
15
100
AcDbSymbolTableRecord
100
AcDbLinetypeTableRecord
  2
BYLAYER
 70
0
  3

 72
65
 73
0
 40
0.0
  0
LTYPE
  5
16
100
AcDbSymbolTableRecord
100
AcDbLinetypeTableRecord
  2
CONTINUOUS
 70
64
  3
Solid line
 72
65
 73
0
 40
0.0
  0
LTYPE
  5
1F5
100
AcDbSymbolTableRecord
100
AcDbLinetypeTableRecord
  2
CENTER
 70
64
  3
____ _ ____ _ ____ _ ____ _ ____ _ ____ _ ____
 72
65
 73
4
 40
0.6
 49
0.375
 74
0
 49
-0.075
 74
0
 49
0.075
 74
0
 49
-0.075
 74
0
  0
LTYPE
  5
1F6
100
AcDbSymbolTableRecord
100
AcDbLinetypeTableRecord
  2
HIDDEN
 70
64
  3
- - - - - - - - - - - - - - - - - - - -
 72
65
 73
2
 40
0.2
 49
0.1
 74
0
 49
-0.1
 74
0
  0
LTYPE
  5
1F7
100
AcDbSymbolTableRecord
100
AcDbLinetypeTableRecord
  2
PHANTOM
 70
64
  3
_____ _ _ _____ _ _ _____ _ _ _____
 72
65
 73
6
 40
0.8
 49
0.45
 74
0
 49
-0.05
 74
0
 49
0.1
 74
0
 49
-0.05
 74
0
 49
0.1
 74
0
 49
-0.05
 74
0
  0
LTYPE
  5
1F8
100
AcDbSymbolTableRecord
100
AcDbLinetypeTableRecord
  2
DOT
 70
64
  3
. . . . . . . . . . . . . . . . . . . .
 72
65
 73
2
 40
0.2
 49
0.1
 74
0
 49
-0.1
 74
0
  0
LTYPE
  5
1F9
100
AcDbSymbolTableRecord
100
AcDbLinetypeTableRecord
  2
DASHED
 70
64
  3
- - - - - - - - - - - - - - - - - - - -
 72
65
 73
2
 40
0.2
 49
0.1
 74
0
 49
-0.1
 74
0
  0
ENDTAB
  0
TABLE
  2
LAYER
  5
2
100
AcDbSymbolTable
 70
36
  0
LAYER
  5
10
100
AcDbSymbolTableRecord
100
AcDbLayerTableRecord
  2
0
 70
0
 62
7
  6
CONTINUOUS
370
-3
390
F
  0
LAYER
  5
1FA
100
AcDbSymbolTableRecord
100
AcDbLayerTableRecord
  2
DEFAULT_1
 70
0
 62
7
  6
CENTER
370
-3
390
F
  0
LAYER
  5
1FB
100
AcDbSymbolTableRecord
100
AcDbLayerTableRecord
  2
DEFAULT_2
 70
0
 62
8
  6
HIDDEN
370
-3
390
F
  0
LAYER
  5
1FC
100
AcDbSymbolTableRecord
100
AcDbLayerTableRecord
  2
DEFAULT_3
 70
0
 62
7
  6
PHANTOM
370
-3
390
F
  0
LAYER
  5
1FD
100
AcDbSymbolTableRecord
100
AcDbLayerTableRecord
  2
2201_ASSY_PLANES
 70
0
 62
7
  6
CONTINUOUS
370
-3
390
F
  0
LAYER
  5
1FE
100
AcDbSymbolTableRecord
100
AcDbLayerTableRecord
  2
3-985_ASSY_PLANES
 70
0
 62
7
  6
CONTINUOUS
370
-3
390
F
  0
LAYER
  5
1FF
100
AcDbSymbolTableRecord
100
AcDbLayerTableRecord
  2
ALL_ASSEMBLY_MEMBERS
 70
0
 62
7
  6
CONTINUOUS
370
-3
390
F
  0
LAYER
  5
200
100
AcDbSymbolTableRecord
100
AcDbLayerTableRecord
  2
ALL_FEATURES
 70
0
 62
7
  6
CONTINUOUS
370
-3
390
F
  0
LAYER
  5
201
100
AcDbSymbolTableRecord
100
AcDbLayerTableRecord
  2
AXES_FEATURES
 70
0
 62
7
  6
CONTINUOUS
370
-3
390
F
  0
LAYER
  5
202
100
AcDbSymbolTableRecord
100
AcDbLayerTableRecord
  2
CHAMFER_FEATURES
 70
0
 62
7
  6
CONTINUOUS
370
-3
390
F
  0
LAYER
  5
203
100
AcDbSymbolTableRecord
100
AcDbLayerTableRecord
  2
CUT_FEATURES
 70
0
 62
7
  6
CONTINUOUS
370
-3
390
F
  0
LAYER
  5
204
100
AcDbSymbolTableRecord
100
AcDbLayerTableRecord
  2
DATUM_CURVES
 70
0
 62
7
  6
CONTINUOUS
370
-3
390
F
  0
LAYER
  5
205
100
AcDbSymbolTableRecord
100
AcDbLayerTableRecord
  2
DATUM_PLANES
 70
0
 62
7
  6
CONTINUOUS
370
-3
390
F
  0
LAYER
  5
206
100
AcDbSymbolTableRecord
100
AcDbLayerTableRecord
  2
DATUM_POINTS
 70
0
 62
7
  6
CONTINUOUS
370
-3
390
F
  0
LAYER
  5
207
100
AcDbSymbolTableRecord
100
AcDbLayerTableRecord
  2
DEFAULT_COORDINATE_SYSTEM
 70
0
 62
7
  6
CONTINUOUS
370
-3
390
F
  0
LAYER
  5
208
100
AcDbSymbolTableRecord
100
AcDbLayerTableRecord
  2
DEFAULT_DATUM_AXES
 70
0
 62
7
  6
CONTINUOUS
370
-3
390
F
  0
LAYER
  5
209
100
AcDbSymbolTableRecord
100
AcDbLayerTableRecord
  2
DEFAULT_DATUM_CURVES
 70
0
 62
7
  6
CONTINUOUS
370
-3
390
F
  0
LAYER
  5
20A
100
AcDbSymbolTableRecord
100
AcDbLayerTableRecord
  2
DEFAULT_DATUM_PLANES
 70
0
 62
7
  6
CONTINUOUS
370
-3
390
F
  0
LAYER
  5
20B
100
AcDbSymbolTableRecord
100
AcDbLayerTableRecord
  2
DEFAULT_SURFACES
 70
0
 62
7
  6
CONTINUOUS
370
-3
390
F
  0
LAYER
  5
20C
100
AcDbSymbolTableRecord
100
AcDbLayerTableRecord
  2
DIMENSIONS
 70
0
 62
7
  6
CONTINUOUS
370
-3
390
F
  0
LAYER
  5
20D
100
AcDbSymbolTableRecord
100
AcDbLayerTableRecord
  2
HOLE_FEATURES
 70
0
 62
7
  6
CONTINUOUS
370
-3
390
F
  0
LAYER
  5
20E
100
AcDbSymbolTableRecord
100
AcDbLayerTableRecord
  2
INTF_1
 70
0
 62
7
  6
CONTINUOUS
370
-3
390
F
  0
LAYER
  5
20F
100
AcDbSymbolTableRecord
100
AcDbLayerTableRecord
  2
NONE
 70
0
 62
7
  6
CONTINUOUS
370
-3
390
F
  0
LAYER
  5
210
100
AcDbSymbolTableRecord
100
AcDbLayerTableRecord
  2
PART_REFERENCE_DIMENSIONS
 70
0
 62
7
  6
CONTINUOUS
370
-3
390
F
  0
LAYER
  5
211
100
AcDbSymbolTableRecord
100
AcDbLayerTableRecord
  2
PLATED_SURFACES
 70
0
 62
7
  6
CONTINUOUS
370
-3
390
F
  0
LAYER
  5
212
100
AcDbSymbolTableRecord
100
AcDbLayerTableRecord
  2
POINTS
 70
0
 62
7
  6
CONTINUOUS
370
-3
390
F
  0
LAYER
  5
213
100
AcDbSymbolTableRecord
100
AcDbLayerTableRecord
  2
PROTRUSION_FEATURES
 70
0
 62
7
  6
CONTINUOUS
370
-3
390
F
  0
LAYER
  5
214
100
AcDbSymbolTableRecord
100
AcDbLayerTableRecord
  2
QUILT
 70
0
 62
7
  6
CONTINUOUS
370
-3
390
F
  0
LAYER
  5
215
100
AcDbSymbolTableRecord
100
AcDbLayerTableRecord
  2
QUILTS
 70
0
 62
7
  6
CONTINUOUS
370
-3
390
F
  0
LAYER
  5
216
100
AcDbSymbolTableRecord
100
AcDbLayerTableRecord
  2
REFERENCE_DIMENSIONS
 70
0
 62
7
  6
CONTINUOUS
370
-3
390
F
  0
LAYER
  5
217
100
AcDbSymbolTableRecord
100
AcDbLayerTableRecord
  2
REF_CURVES
 70
0
 62
7
  6
CONTINUOUS
370
-3
390
F
  0
LAYER
  5
218
100
AcDbSymbolTableRecord
100
AcDbLayerTableRecord
  2
RGB(   0_   0_   0 )
 70
0
 62
7
  6
CONTINUOUS
370
-3
390
F
  0
LAYER
  5
219
100
AcDbSymbolTableRecord
100
AcDbLayerTableRecord
  2
ROUND_FEATURES
 70
0
 62
7
  6
CONTINUOUS
370
-3
390
F
  0
LAYER
  5
21A
100
AcDbSymbolTableRecord
100
AcDbLayerTableRecord
  2
SHELL_FEATURES
 70
0
 62
7
  6
CONTINUOUS
370
-3
390
F
  0
LAYER
  5
21B
100
AcDbSymbolTableRecord
100
AcDbLayerTableRecord
  2
SIZE_REF
 70
0
 62
7
  6
CONTINUOUS
370
-3
390
F
  0
LAYER
  5
21C
100
AcDbSymbolTableRecord
100
AcDbLayerTableRecord
  2
SURFACE_FEATURES
 70
0
 62
7
  6
CONTINUOUS
370
-3
390
F
  0
LAYER
  5
21D
100
AcDbSymbolTableRecord
100
AcDbLayerTableRecord
  2
XSEC_DATUMS
 70
0
 62
7
  6
CONTINUOUS
370
-3
390
F
  0
ENDTAB
  0
TABLE
  2
STYLE
  5
3
100
AcDbSymbolTable
 70
1
  0
STYLE
  5
11
100
AcDbSymbolTableRecord
100
AcDbTextStyleTableRecord
  2
STANDARD
 70
0
 40
0.0
 41
0.8
 50
0.0
 71
0
 42
0.2
  3
txt
  4

  0
STYLE
  5
21E
100
AcDbSymbolTableRecord
100
AcDbTextStyleTableRecord
  2
TEXTSTYLE_1
 70
0
 40
0.0
 41
0.8
 50
0.0
 71
0
 42
0.2
  3
gdt
  4

  0
ENDTAB
  0
TABLE
  2
VIEW
  5
6
100
AcDbSymbolTable
 70
0
  0
ENDTAB
  0
TABLE
  2
UCS
  5
7
100
AcDbSymbolTable
 70
0
  0
ENDTAB
  0
TABLE
  2
APPID
  5
9
100
AcDbSymbolTable
 70
1
  0
APPID
  5
21F
100
AcDbSymbolTableRecord
100
AcDbRegAppTableRecord
  2
ACAD
 70
0
  0
ENDTAB
  0
TABLE
  2
BLOCK_RECORD
  5
1
100
AcDbSymbolTable
 70
0
  0
BLOCK_RECORD
  5
220
100
AcDbSymbolTableRecord
100
AcDbBlockTableRecord
  2
*Model_Space
  0
BLOCK_RECORD
  5
221
100
AcDbSymbolTableRecord
100
AcDbBlockTableRecord
  2
*Paper_Space
  0
BLOCK_RECORD
  5
222
100
AcDbSymbolTableRecord
100
AcDbBlockTableRecord
  2
_FILLED
  0
ENDTAB
  0
TABLE
  2
DIMSTYLE
  5
A
100
AcDbSymbolTable
 70
1
100
AcDbDimStyleTable
 71
0
  0
DIMSTYLE
105
223
100
AcDbSymbolTableRecord
100
AcDbDimStyleTableRecord
  2
STANDARD
 70
0
  3

  4

 40
1.0
 41
0.1
 42
0.0625
 43
0.38
 44
0.125
 45
0.0
 46
0.0
 47
0.001
 48
0.001
140
0.08
141
0.09
142
0.0
143
25.4
144
1.0
145
0.0
146
1.0
147
0.09
 71
1.0
 72
0.0
 73
1
 74
1
 75
0
 76
0
 77
0
 78
4
 79
1
170
1
171
2
172
0
173
0
174
0
175
0
176
0
177
0
178
0
270
2
179
3
271
3
272
3
273
2
274
2
275
0
280
0
281
0
282
0
283
1
284
4
285
0
286
0
287
3
288
0
340
11
278
46
341
222
342
222
343
222
344
222
  0
ENDTAB
  0
ENDSEC
  0
SECTION
  2
BLOCKS
  0
BLOCK
  5
20
100
AcDbEntity
  8
0
100
AcDbBlockBegin
  2
*Model_Space
 70
0
 10
0.0
 20
0.0
 30
0.0
  3
*Model_Space
  1

  0
ENDBLK
  5
21
100
AcDbEntity
  8
0
100
AcDbBlockEnd
  0
BLOCK
  5
1C
100
AcDbEntity
  8
0
100
AcDbBlockBegin
  2
*Paper_Space
 70
0
 10
0.0
 20
0.0
 30
0.0
  3
*Paper_Space
  1

  0
ENDBLK
  5
1D
100
AcDbEntity
  8
0
100
AcDbBlockEnd
  0
BLOCK
  5
224
100
AcDbEntity
  8
0
100
AcDbBlockBegin
  2
_FILLED
 70
64
 10
0.0
 20
0.0
  3
_FILLED
  1

  0
SOLID
  5
225
100
AcDbEntity
  8
0
  6
BYBLOCK
 62
0
100
AcDbTrace
 10
0.0
 20
0.0
 11
-1.0
 21
0.2
 12
-1.0
 22
-0.2
 13
-1.0
 23
-0.2
  0
ENDBLK
  5
226
100
AcDbEntity
  8
0
  6
BYBLOCK
 62
0
100
AcDbBlockEnd
  0
ENDSEC
  0
SECTION
  2
ENTITIES
  0
MTEXT
  5
227
100
AcDbEntity
  8
0
100
AcDbMText
 62
2
  6
CONTINUOUS
  7
STANDARD
 71
3
 72
1
 10
2.496564441
 20
1.8701532892
 30
0.0
 11
1.0
 21
0.0
 31
0.0
 73
2
 44
0.9
  1
SCALE  .500
 40
0.08
 41
0.704
  0
LINE
  5
228
100
AcDbEntity
  8
0
100
AcDbLine
 62
7
  6
CONTINUOUS
 10
0.0
 20
0.0
 11
0.0
 21
8.5
  0
LINE
  5
229
100
AcDbEntity
  8
0
100
AcDbLine
 62
7
  6
CONTINUOUS
 10
0.0
 20
0.0
 11
11.0
 21
0.0
  0
LINE
  5
22A
100
AcDbEntity
  8
0
100
AcDbLine
 62
7
  6
CONTINUOUS
 10
0.0
 20
8.5
 11
11.0
 21
8.5
  0
LINE
  5
22B
100
AcDbEntity
  8
0
100
AcDbLine
 62
7
  6
CONTINUOUS
 10
11.0
 20
0.0
 11
11.0
 21
8.5
  0
LINE
  5
22C
100
AcDbEntity
  8
ALL_ASSEMBLY_MEMBERS
100
AcDbLine
 62
7
  6
CONTINUOUS
 10
1.6431029955
 20
5.7955880106
 11
1.6431029955
 21
6.1846356297
  0
LINE
  5
22D
100
AcDbEntity
  8
ALL_ASSEMBLY_MEMBERS
100
AcDbLine
 62
7
  6
CONTINUOUS
 10
1.6825846573
 20
5.8001118202
 11
1.6825846573
 21
6.1801118202
  0
LINE
  5
22E
100
AcDbEntity
  8
ALL_ASSEMBLY_MEMBERS
100
AcDbLine
 62
7
  6
CONTINUOUS
 10
3.1008311674
 20
6.2463618202
 11
3.0151214306
 21
6.0979082013
  0
LWPOLYLINE
  5
22F
100
AcDbEntity
  8
ALL_ASSEMBLY_MEMBERS
100
AcDbPolyline
 62
7
  6
CONTINUOUS
 90
27
 70
0
 10
2.8083144539
 20
5.8401118202
 10
2.8083768152
 20
5.8387744159
 10
2.8085609908
 20
5.8374477373
 10
2.8088626268
 20
5.8361418898
 10
2.8092772159
 20
5.8348673916
 10
2.8098005162
 20
5.8336338226
 10
2.8104289255
 20
5.8324499836
 10
2.8111589709
 20
5.8313253382
 10
2.8119862483
 20
5.8302709486
 10
2.8129057926
 20
5.8292979854
 10
2.8139112589
 20
5.8284151182
 10
2.8149932641
 20
5.8276265886
 10
2.816141755
 20
5.82693641
 10
2.8173462751
 20
5.8263488277
 10
2.8185969854
 20
5.8258677544
 10
2.8198849135
 20
5.8254970107
 10
2.8212007796
 20
5.8252408777
 10
2.8225337648
 20
5.8251040161
 10
2.8238726112
 20
5.8250907309
 10
2.8252068799
 20
5.8252015699
 10
2.8265267411
 20
5.8254325518
 10
2.8278218523
 20
5.8257793332
 10
2.8290816923
 20
5.826237406
 10
2.8302966865
 20
5.8268025641
 10
2.831457827
 20
5.8274711498
 10
2.8325552487
 20
5.8282393759
 10
2.8335071042
 20
5.8290374474
  0
LINE
  5
230
100
AcDbEntity
  8
ALL_ASSEMBLY_MEMBERS
100
AcDbLine
 62
7
  6
CONTINUOUS
 10
2.8083144539
 20
6.1401091925
 11
2.8083144539
 21
5.8401144478
  0
LINE
  5
231
100
AcDbEntity
  8
ALL_ASSEMBLY_MEMBERS
100
AcDbLine
 62
7
  6
CONTINUOUS
 10
2.8335070504
 20
5.8290373983
 11
2.8335070504
 21
6.151186242
  0
LINE
  5
232
100
AcDbEntity
  8
ALL_ASSEMBLY_MEMBERS
100
AcDbLine
 62
7
  6
CONTINUOUS
 10
2.8640178476
 20
5.8439106555
 11
2.8640178476
 21
6.1363129848
  0
LINE
  5
233
100
AcDbEntity
  8
ALL_ASSEMBLY_MEMBERS
100
AcDbLine
 62
7
  6
CONTINUOUS
 10
3.3967231804
 20
5.7338618202
 11
3.5446691869
 21
5.9901118202
  0
LINE
  5
234
100
AcDbEntity
  8
ALL_ASSEMBLY_MEMBERS
100
AcDbLine
 62
7
  6
CONTINUOUS
 10
5.4369547071
 20
2.9901116766
 11
5.7846381502
 21
2.9901118202
  0
LINE
  5
235
100
AcDbEntity
  8
ALL_ASSEMBLY_MEMBERS
100
AcDbLine
 62
7
  6
CONTINUOUS
 10
5.0015603373
 20
2.9901117509
 11
4.6479162353
 21
2.9901118202
  0
LINE
  5
236
100
AcDbEntity
  8
ALL_ASSEMBLY_MEMBERS
100
AcDbLine
 62
7
  6
CONTINUOUS
 10
5.4836295977
 20
2.3783872636
 11
5.4838340209
 21
2.3781959907
  0
LINE
  5
237
100
AcDbEntity
  8
ALL_ASSEMBLY_MEMBERS
100
AcDbLine
 62
7
  6
CONTINUOUS
 10
5.4836277341
 20
2.3783871295
 11
5.4838159277
 21
2.3781947023
  0
LINE
  5
238
100
AcDbEntity
  8
ALL_ASSEMBLY_MEMBERS
100
AcDbLine
 62
7
  6
CONTINUOUS
 10
3.0151214291
 20
5.8823154417
 11
3.1008311674
 21
5.7338618202
  0
LWPOLYLINE
  5
239
100
AcDbEntity
  8
ALL_ASSEMBLY_MEMBERS
100
AcDbPolyline
 62
7
  6
CONTINUOUS
 90
17
 70
0
 10
5.3924358143
 20
3.0733792069
 10
5.3916879138
 20
3.0745379017
 10
5.3909212259
 20
3.0757126707
 10
5.3901030872
 20
3.0769511298
 10
5.3892317406
 20
3.0782522632
 10
5.3883072013
 20
3.0796119425
 10
5.387297152
 20
3.0810720179
 10
5.3861690672
 20
3.0826705873
 10
5.384947186
 20
3.0843631364
 10
5.3836831984
 20
3.0860710695
 10
5.3823502051
 20
3.0878251714
 10
5.380967353
 20
3.0895953263
 10
5.3796636263
 20
3.0912196381
 10
5.378444113
 20
3.0927013462
 10
5.3773104502
 20
3.0940473158
 10
5.3763968178
 20
3.0951108707
 10
5.3758125283
 20
3.0957815407
  0
LINE
  5
23A
100
AcDbEntity
  8
ALL_ASSEMBLY_MEMBERS
100
AcDbLine
 62
7
  6
CONTINUOUS
 10
5.3938890534
 20
3.0710937838
 11
5.3924358143
 21
3.0733792069
  0
LINE
  5
23B
100
AcDbEntity
  8
ALL_ASSEMBLY_MEMBERS
100
AcDbLine
 62
7
  6
CONTINUOUS
 10
5.3953161532
 20
3.0688088186
 11
5.3938890534
 21
3.0710937838
  0
LINE
  5
23C
100
AcDbEntity
  8
ALL_ASSEMBLY_MEMBERS
100
AcDbLine
 62
7
  6
CONTINUOUS
 10
5.3967406967
 20
3.0664911331
 11
5.3953161532
 21
3.0688088186
  0
LINE
  5
23D
100
AcDbEntity
  8
ALL_ASSEMBLY_MEMBERS
100
AcDbLine
 62
7
  6
CONTINUOUS
 10
5.398182908
 20
3.0641103424
 11
5.3967406967
 21
3.0664911331
  0
LINE
  5
23E
100
AcDbEntity
  8
ALL_ASSEMBLY_MEMBERS
100
AcDbLine
 62
7
  6
CONTINUOUS
 10
5.3996710441
 20
3.0616203209
 11
5.398182908
 21
3.0641103424
  0
LINE
  5
23F
100
AcDbEntity
  8
ALL_ASSEMBLY_MEMBERS
100
AcDbLine
 62
7
  6
CONTINUOUS
 10
5.401219456
 20
3.0589953785
 11
5.3996710441
 21
3.0616203209
  0
LINE
  5
240
100
AcDbEntity
  8
ALL_ASSEMBLY_MEMBERS
100
AcDbLine
 62
7
  6
CONTINUOUS
 10
5.4028436569
 20
3.0562062225
 11
5.401219456
 21
3.0589953785
  0
LINE
  5
241
100
AcDbEntity
  8
ALL_ASSEMBLY_MEMBERS
100
AcDbLine
 62
7
  6
CONTINUOUS
 10
3.5446691869
 20
5.9901118202
 11
3.3967231804
 21
6.2463618202
  0
LINE
  5
242
100
AcDbEntity
  8
ALL_ASSEMBLY_MEMBERS
100
AcDbLine
 62
7
  6
CONTINUOUS
 10
5.4045488932
 20
3.0532400866
 11
5.4028436569
 21
3.0562062225
  0
LINE
  5
243
100
AcDbEntity
  8
ALL_ASSEMBLY_MEMBERS
100
AcDbLine
 62
7
  6
CONTINUOUS
 10
5.4063409084
 20
3.050082749
 11
5.4045488932
 21
3.0532400866
  0
LINE
  5
244
100
AcDbEntity
  8
ALL_ASSEMBLY_MEMBERS
100
AcDbLine
 62
7
  6
CONTINUOUS
 10
5.4082275894
 20
3.0467154736
 11
5.4063409084
 21
3.050082749
  0
LINE
  5
245
100
AcDbEntity
  8
ALL_ASSEMBLY_MEMBERS
100
AcDbLine
 62
7
  6
CONTINUOUS
 10
5.4102167574
 20
3.0431187225
 11
5.4082275894
 21
3.0467154736
  0
LINE
  5
246
100
AcDbEntity
  8
ALL_ASSEMBLY_MEMBERS
100
AcDbLine
 62
7
  6
CONTINUOUS
 10
5.4123144864
 20
3.0392751849
 11
5.4102167574
 21
3.0431187225
  0
LINE
  5
247
100
AcDbEntity
  8
ALL_ASSEMBLY_MEMBERS
100
AcDbLine
 62
7
  6
CONTINUOUS
 10
5.4145291571
 20
3.0351622129
 11
5.4123144864
 21
3.0392751849
  0
LINE
  5
248
100
AcDbEntity
  8
ALL_ASSEMBLY_MEMBERS
100
AcDbLine
 62
7
  6
CONTINUOUS
 10
5.416862245
 20
3.0307686199
 11
5.4145291571
 21
3.0351622129
  0
LINE
  5
249
100
AcDbEntity
  8
ALL_ASSEMBLY_MEMBERS
100
AcDbLine
 62
7
  6
CONTINUOUS
 10
5.4193155565
 20
3.0260816887
 11
5.416862245
 21
3.0307686199
  0
LINE
  5
24A
100
AcDbEntity
  8
ALL_ASSEMBLY_MEMBERS
100
AcDbLine
 62
7
  6
CONTINUOUS
 10
4.9879877588
 20
2.5428476441
 11
4.9879877588
 21
2.4467392379
  0
LINE
  5
24B
100
AcDbEntity
  8
ALL_ASSEMBLY_MEMBERS
100
AcDbLine
 62
7
  6
CONTINUOUS
 10
5.0157406117
 20
2.548664296
 11
5.0157406117
 21
2.4525558898
  0
LINE
  5
24C
100
AcDbEntity
  8
ALL_ASSEMBLY_MEMBERS
100
AcDbLine
 62
7
  6
CONTINUOUS
 10
5.0456905852
 20
2.5536982592
 11
5.0456905852
 21
2.4575898529
  0
LINE
  5
24D
100
AcDbEntity
  8
ALL_ASSEMBLY_MEMBERS
100
AcDbLine
 62
7
  6
CONTINUOUS
 10
5.077509541
 20
2.5578943805
 11
5.077509541
 21
2.4617859742
  0
LINE
  5
24E
100
AcDbEntity
  8
ALL_ASSEMBLY_MEMBERS
100
AcDbLine
 62
7
  6
CONTINUOUS
 10
5.110848864
 20
2.5612066863
 11
5.110848864
 21
2.4650982801
  0
LINE
  5
24F
100
AcDbEntity
  8
ALL_ASSEMBLY_MEMBERS
100
AcDbLine
 62
7
  6
CONTINUOUS
 10
5.1453432817
 20
2.5635988864
 11
5.1453432817
 21
2.4674904802
  0
LINE
  5
250
100
AcDbEntity
  8
ALL_ASSEMBLY_MEMBERS
100
AcDbLine
 62
7
  6
CONTINUOUS
 10
5.180614866
 20
2.5650447713
 11
5.180614866
 21
2.468936365
  0
LINE
  5
251
100
AcDbEntity
  8
ALL_ASSEMBLY_MEMBERS
100
AcDbLine
 62
7
  6
CONTINUOUS
 10
5.2162771739
 20
2.5655284995
 11
5.2162771739
 21
2.4694200933
  0
LINE
  5
252
100
AcDbEntity
  8
ALL_ASSEMBLY_MEMBERS
100
AcDbLine
 62
7
  6
CONTINUOUS
 10
5.2162771739
 20
2.5824190358
 11
5.2162771739
 21
3.5763617187
  0
LINE
  5
253
100
AcDbEntity
  8
ALL_ASSEMBLY_MEMBERS
100
AcDbLine
 62
7
  6
CONTINUOUS
 10
5.2519394819
 20
2.5650447713
 11
5.2519394819
 21
2.468936365
  0
LWPOLYLINE
  5
254
100
AcDbEntity
  8
ALL_ASSEMBLY_MEMBERS
100
AcDbPolyline
 62
7
  6
CONTINUOUS
 90
27
 70
0
 10
2.8335071042
 20
6.1511861929
 10
2.8325552487
 20
6.1519842644
 10
2.831457827
 20
6.1527524906
 10
2.8302966865
 20
6.1534210762
 10
2.8290816923
 20
6.1539862343
 10
2.8278218523
 20
6.1544443071
 10
2.8265267411
 20
6.1547910885
 10
2.8252068799
 20
6.1550220704
 10
2.8238726112
 20
6.1551329094
 10
2.8225337648
 20
6.1551196242
 10
2.8212007796
 20
6.1549827626
 10
2.8198849135
 20
6.1547266296
 10
2.8185969854
 20
6.1543558859
 10
2.8173462751
 20
6.1538748126
 10
2.816141755
 20
6.1532872303
 10
2.8149932641
 20
6.1525970517
 10
2.8139112589
 20
6.1518085221
 10
2.8129057926
 20
6.1509256549
 10
2.8119862483
 20
6.1499526917
 10
2.8111589709
 20
6.1488983021
 10
2.8104289255
 20
6.1477736567
 10
2.8098005162
 20
6.1465898177
 10
2.8092772159
 20
6.1453562487
 10
2.8088626268
 20
6.1440817505
 10
2.8085609908
 20
6.1427759031
 10
2.8083768152
 20
6.1414492245
 10
2.8083144539
 20
6.1401118202
  0
LWPOLYLINE
  5
255
100
AcDbEntity
  8
ALL_ASSEMBLY_MEMBERS
100
AcDbPolyline
 62
7
  6
CONTINUOUS
 90
80
 70
0
 10
5.5343428337
 20
2.5131704626
 10
5.534305403
 20
2.5184607164
 10
5.5341482358
 20
2.5299643147
 10
5.5339180456
 20
2.5413281379
 10
5.533616539
 20
2.5525500018
 10
5.5332451284
 20
2.5636335168
 10
5.532805348
 20
2.574574292
 10
5.5322987241
 20
2.585367989
 10
5.5317263137
 20
2.5960185216
 10
5.531089449
 20
2.6065221262
 10
5.5303894556
 20
2.6168751471
 10
5.5296270468
 20
2.6270818237
 10
5.5288033312
 20
2.6371392681
 10
5.5279194594
 20
2.6470440893
 10
5.5269758993
 20
2.6567998681
 10
5.5259733828
 20
2.6664060058
 10
5.5249131696
 20
2.6758578992
 10
5.523797444
 20
2.6851543322
 10
5.52262914
 20
2.694293936
 10
5.5214108556
 20
2.7032776408
 10
5.5201448052
 20
2.7121083536
 10
5.5188336576
 20
2.7207850849
 10
5.5174797372
 20
2.729308812
 10
5.5160844666
 20
2.7376853258
 10
5.5146500588
 20
2.7459147115
 10
5.5131786776
 20
2.7539970724
 10
5.51167136
 20
2.7619381055
 10
5.5101300417
 20
2.7697379879
 10
5.5085566102
 20
2.7773969415
 10
5.5069517322
 20
2.7849206354
 10
5.5053169745
 20
2.7923098277
 10
5.503654061
 20
2.7995643918
 10
5.5019636483
 20
2.8066885543
 10
5.5002468541
 20
2.8136840695
 10
5.4985054531
 20
2.8205506809
 10
5.4967411047
 20
2.8272909384
 10
5.4949551043
 20
2.8339090185
 10
5.4931492286
 20
2.840407126
 10
5.4913259566
 20
2.8467849964
 10
5.4894866871
 20
2.8530462031
 10
5.487632973
 20
2.8591936125
 10
5.4857676034
 20
2.865226008
 10
5.4838921212
 20
2.8711463057
 10
5.4820078372
 20
2.876957972
 10
5.4801172928
 20
2.8826605917
 10
5.4782218332
 20
2.8882573559
 10
5.4763228676
 20
2.8937510714
 10
5.4744231607
 20
2.8991405623
 10
5.4725240849
 20
2.9044286053
 10
5.4706269547
 20
2.9096179428
 10
5.4687345906
 20
2.9147071095
 10
5.4668490826
 20
2.9196966282
 10
5.4649709799
 20
2.9245909311
 10
5.463100679
 20
2.9293942767
 10
5.4612384966
 20
2.9341097203
 10
5.4593854327
 20
2.9387380577
 10
5.4575425288
 20
2.9432798312
 10
5.4557101028
 20
2.9477371911
 10
5.4538889256
 20
2.9521109862
 10
5.4520807361
 20
2.9563996302
 10
5.4502854367
 20
2.9606057806
 10
5.4485041173
 20
2.9647291275
 10
5.446740373
 20
2.9687635753
 10
5.4449944192
 20
2.9727108344
 10
5.4432669379
 20
2.9765717958
 10
5.4415623472
 20
2.9803393183
 10
5.4398816678
 20
2.9840139297
 10
5.4382247349
 20
2.987598647
 10
5.4365942587
 20
2.9910901988
 10
5.4349906713
 20
2.9944902091
 10
5.433414186
 20
2.9978006531
 10
5.4318671488
 20
3.0010189735
 10
5.4303502687
 20
3.0041460215
 10
5.4288632759
 20
3.0071845647
 10
5.4274069433
 20
3.0101351244
 10
5.4259813677
 20
3.0129994046
 10
5.4245864462
 20
3.0157793003
 10
5.4232225
 20
3.018475781
 10
5.4218895638
 20
3.0210903237
 10
5.4193155565
 20
3.0260816887
  0
LINE
  5
256
100
AcDbEntity
  8
ALL_ASSEMBLY_MEMBERS
100
AcDbLine
 62
7
  6
CONTINUOUS
 10
5.2872110661
 20
2.5635988864
 11
5.2872110661
 21
2.4674904802
  0
LINE
  5
257
100
AcDbEntity
  8
ALL_ASSEMBLY_MEMBERS
100
AcDbLine
 62
7
  6
CONTINUOUS
 10
5.3217054838
 20
2.5612066863
 11
5.3217054838
 21
2.4650982801
  0
LINE
  5
258
100
AcDbEntity
  8
ALL_ASSEMBLY_MEMBERS
100
AcDbLine
 62
7
  6
CONTINUOUS
 10
5.3550448068
 20
2.5578943805
 11
5.3550448068
 21
2.4617859742
  0
LINE
  5
259
100
AcDbEntity
  8
ALL_ASSEMBLY_MEMBERS
100
AcDbLine
 62
7
  6
CONTINUOUS
 10
5.3868637627
 20
2.5536982592
 11
5.3868637627
 21
2.4575898529
  0
LINE
  5
25A
100
AcDbEntity
  8
ALL_ASSEMBLY_MEMBERS
100
AcDbLine
 62
7
  6
CONTINUOUS
 10
5.4168137361
 20
2.548664296
 11
5.4168137361
 21
2.4525558898
  0
LINE
  5
25B
100
AcDbEntity
  8
ALL_ASSEMBLY_MEMBERS
100
AcDbLine
 62
7
  6
CONTINUOUS
 10
5.444566589
 20
2.5428476441
 11
5.444566589
 21
2.4467392379
  0
LINE
  5
25C
100
AcDbEntity
  8
ALL_ASSEMBLY_MEMBERS
100
AcDbLine
 62
7
  6
CONTINUOUS
 10
4.9467337913
 20
2.3735983374
 11
4.9466813811
 21
2.3734773979
  0
LWPOLYLINE
  5
25D
100
AcDbEntity
  8
ALL_ASSEMBLY_MEMBERS
100
AcDbPolyline
 62
7
  6
CONTINUOUS
 90
59
 70
0
 10
5.0131794836
 20
3.0167484932
 10
5.011750418
 20
3.0135587548
 10
5.0102760529
 20
3.0102433812
 10
5.0087562505
 20
3.0067998679
 10
5.0071910177
 20
3.0032259062
 10
5.005576611
 20
2.9995103815
 10
5.0039126724
 20
2.9956496248
 10
5.0021996333
 20
2.9916416068
 10
5.0004348524
 20
2.9874768413
 10
4.9986183713
 20
2.9831517984
 10
4.9967506693
 20
2.9786637003
 10
4.9948297743
 20
2.9740034991
 10
4.9928549643
 20
2.9691646916
 10
4.9908281154
 20
2.9641467764
 10
4.9887512778
 20
2.958949454
 10
4.9866237284
 20
2.9535651265
 10
4.9844483092
 20
2.9479947731
 10
4.9822324735
 20
2.9422511831
 10
4.9799774778
 20
2.936331515
 10
4.9776848452
 20
2.9302347251
 10
4.9753622836
 20
2.9239764989
 10
4.9730130036
 20
2.9175605545
 10
4.9706371182
 20
2.9109816823
 10
4.9682376243
 20
2.9042419869
 10
4.9658176302
 20
2.8973434245
 10
4.9633782134
 20
2.8902814833
 10
4.9609195591
 20
2.8830468843
 10
4.9584434631
 20
2.8756324809
 10
4.9559536854
 20
2.8680360823
 10
4.953453557
 20
2.8602535304
 10
4.9509461463
 20
2.852279042
 10
4.9484348596
 20
2.8441070081
 10
4.9459235202
 20
2.835732289
 10
4.9434159248
 20
2.8271487488
 10
4.9409158044
 20
2.8183489961
 10
4.9384269581
 20
2.8093246955
 10
4.9359541077
 20
2.8000696711
 10
4.9335014314
 20
2.790574513
 10
4.9310722336
 20
2.7808246393
 10
4.928671981
 20
2.7708121701
 10
4.926306013
 20
2.7605271659
 10
4.9239780985
 20
2.7499504199
 10
4.9216947581
 20
2.7390722163
 10
4.9194628077
 20
2.727882132
 10
4.9172874392
 20
2.7163583527
 10
4.9151766791
 20
2.7044898786
 10
4.9131389987
 20
2.6922652816
 10
4.9111815342
 20
2.6796606136
 10
4.9093135537
 20
2.6666591904
 10
4.9075462135
 20
2.6532528386
 10
4.9058906641
 20
2.6394296326
 10
4.9043577312
 20
2.6251684508
 10
4.9029607667
 20
2.6104645561
 10
4.9017148149
 20
2.5953320572
 10
4.9006323174
 20
2.5797551802
 10
4.8997269477
 20
2.5637265303
 10
4.8990141599
 20
2.5472766504
 10
4.8985071784
 20
2.5304106467
 10
4.8982200837
 20
2.5131919019
  0
LINE
  5
25E
100
AcDbEntity
  8
ALL_ASSEMBLY_MEMBERS
100
AcDbLine
 62
7
  6
CONTINUOUS
 10
5.0159131636
 20
3.0227843638
 11
5.0131794836
 21
3.0167484932
  0
LINE
  5
25F
100
AcDbEntity
  8
ALL_ASSEMBLY_MEMBERS
100
AcDbLine
 62
7
  6
CONTINUOUS
 10
5.0184847163
 20
3.0283821841
 11
5.0159131636
 21
3.0227843638
  0
LINE
  5
260
100
AcDbEntity
  8
ALL_ASSEMBLY_MEMBERS
100
AcDbLine
 62
7
  6
CONTINUOUS
 10
5.0209048697
 20
3.0335781906
 11
5.0184847163
 21
3.0283821841
  0
LINE
  5
261
100
AcDbEntity
  8
ALL_ASSEMBLY_MEMBERS
100
AcDbLine
 62
7
  6
CONTINUOUS
 10
5.0231816261
 20
3.0384008158
 11
5.0209048697
 21
3.0335781906
  0
LINE
  5
262
100
AcDbEntity
  8
ALL_ASSEMBLY_MEMBERS
100
AcDbLine
 62
7
  6
CONTINUOUS
 10
5.0253177803
 20
3.0428660644
 11
5.0231816261
 21
3.0384008158
  0
LINE
  5
263
100
AcDbEntity
  8
ALL_ASSEMBLY_MEMBERS
100
AcDbLine
 62
7
  6
CONTINUOUS
 10
5.0273115005
 20
3.0469794638
 11
5.0253177803
 21
3.0428660644
  0
LINE
  5
264
100
AcDbEntity
  8
ALL_ASSEMBLY_MEMBERS
100
AcDbLine
 62
7
  6
CONTINUOUS
 10
5.0291740406
 20
3.0507725603
 11
5.0273115005
 21
3.0469794638
  0
LINE
  5
265
100
AcDbEntity
  8
ALL_ASSEMBLY_MEMBERS
100
AcDbLine
 62
7
  6
CONTINUOUS
 10
5.0309147146
 20
3.054270207
 11
5.0291740406
 21
3.0507725603
  0
LINE
  5
266
100
AcDbEntity
  8
ALL_ASSEMBLY_MEMBERS
100
AcDbLine
 62
7
  6
CONTINUOUS
 10
5.0325447961
 20
3.057498883
 11
5.0309147146
 21
3.054270207
  0
LINE
  5
267
100
AcDbEntity
  8
ALL_ASSEMBLY_MEMBERS
100
AcDbLine
 62
7
  6
CONTINUOUS
 10
5.0341051146
 20
3.0605406991
 11
5.0325447961
 21
3.057498883
  0
LWPOLYLINE
  5
268
100
AcDbEntity
  8
ALL_ASSEMBLY_MEMBERS
100
AcDbPolyline
 62
7
  6
CONTINUOUS
 90
7
 70
0
 10
5.0395642084
 20
3.0706726066
 10
5.0387931396
 20
3.0693005999
 10
5.0380014668
 20
3.0678698814
 10
5.0372239115
 20
3.0664433021
 10
5.0364229226
 20
3.0649533315
 10
5.0356304378
 20
3.0634605038
 10
5.0341051146
 20
3.0605406991
  0
LWPOLYLINE
  5
269
100
AcDbEntity
  8
ALL_ASSEMBLY_MEMBERS
100
AcDbPolyline
 62
7
  6
CONTINUOUS
 90
5
 70
0
 10
5.0407185838
 20
3.0726877135
 10
5.0408582598
 20
3.0729323499
 10
5.0408498562
 20
3.0729180001
 10
5.0405933119
 20
3.0724732804
 10
5.0395642084
 20
3.0706726066
  0
LINE
  5
26A
100
AcDbEntity
  8
ALL_ASSEMBLY_MEMBERS
100
AcDbLine
 62
7
  6
CONTINUOUS
 10
4.9467492827
 20
2.3735961935
 11
4.9466822705
 21
2.3734756424
  0
LINE
  5
26B
100
AcDbEntity
  8
ALL_ASSEMBLY_MEMBERS
100
AcDbLine
 62
7
  6
CONTINUOUS
 10
7.0383311674
 20
6.2463618202
 11
6.890385161
 21
5.9901118202
  0
LINE
  5
26C
100
AcDbEntity
  8
ALL_ASSEMBLY_MEMBERS
100
AcDbLine
 62
7
  6
CONTINUOUS
 10
7.3342231804
 20
5.7338618202
 11
7.4199329172
 21
5.882315439
  0
LINE
  5
26D
100
AcDbEntity
  8
ALL_ASSEMBLY_MEMBERS
100
AcDbLine
 62
7
  6
CONTINUOUS
 10
5.5561900951
 20
2.371830312
 11
5.556050278
 21
2.3716002873
  0
LINE
  5
26E
100
AcDbEntity
  8
ALL_ASSEMBLY_MEMBERS
100
AcDbLine
 62
7
  6
CONTINUOUS
 10
5.5561812068
 20
2.3718138147
 11
5.5560353189
 21
2.3715908583
  0
LINE
  5
26F
100
AcDbEntity
  8
ALL_ASSEMBLY_MEMBERS
100
AcDbLine
 62
7
  6
CONTINUOUS
 10
3.1008311674
 20
5.7338618202
 11
3.3967231804
 21
5.7338618202
  0
LINE
  5
270
100
AcDbEntity
  8
ALL_ASSEMBLY_MEMBERS
100
AcDbLine
 62
7
  6
CONTINUOUS
 10
7.0383311674
 20
5.7338618202
 11
7.3342231804
 21
5.7338618202
  0
LINE
  5
271
100
AcDbEntity
  8
ALL_ASSEMBLY_MEMBERS
100
AcDbLine
 62
7
  6
CONTINUOUS
 10
5.4723972597
 20
2.3410358474
 11
5.4720686471
 21
2.340730039
  0
LINE
  5
272
100
AcDbEntity
  8
ALL_ASSEMBLY_MEMBERS
100
AcDbLine
 62
7
  6
CONTINUOUS
 10
1.6825846573
 20
5.8151118202
 11
2.8083144539
 21
5.8551118202
  0
LINE
  5
273
100
AcDbEntity
  8
ALL_ASSEMBLY_MEMBERS
100
AcDbLine
 62
7
  6
CONTINUOUS
 10
8.7524696905
 20
6.1651118202
 11
7.6267398939
 21
6.1251118202
  0
LINE
  5
274
100
AcDbEntity
  8
ALL_ASSEMBLY_MEMBERS
100
AcDbLine
 62
7
  6
CONTINUOUS
 10
3.0008024519
 20
5.9901113337
 11
2.9766279551
 21
5.9901118202
  0
LINE
  5
275
100
AcDbEntity
  8
ALL_ASSEMBLY_MEMBERS
100
AcDbLine
 62
7
  6
CONTINUOUS
 10
2.8083144539
 20
5.9901118202
 11
2.8640178401
 21
5.9901118202
  0
LINE
  5
276
100
AcDbEntity
  8
ALL_ASSEMBLY_MEMBERS
100
AcDbLine
 62
7
  6
CONTINUOUS
 10
3.0008024417
 20
5.9901118202
 11
3.0761559913
 21
5.9901118202
  0
LINE
  5
277
100
AcDbEntity
  8
ALL_ASSEMBLY_MEMBERS
100
AcDbLine
 62
7
  6
CONTINUOUS
 10
3.4213983565
 20
5.9901118202
 11
3.4967519062
 21
5.9901118202
  0
LINE
  5
278
100
AcDbEntity
  8
ALL_ASSEMBLY_MEMBERS
100
AcDbLine
 62
7
  6
CONTINUOUS
 10
6.9383024417
 20
5.9901118202
 11
7.0136559913
 21
5.9901118202
  0
LINE
  5
279
100
AcDbEntity
  8
ALL_ASSEMBLY_MEMBERS
100
AcDbLine
 62
7
  6
CONTINUOUS
 10
7.3588983565
 20
5.9901118202
 11
7.4342519062
 21
5.9901118202
  0
LINE
  5
27A
100
AcDbEntity
  8
ALL_ASSEMBLY_MEMBERS
100
AcDbLine
 62
7
  6
CONTINUOUS
 10
7.5710365077
 20
5.9901118202
 11
7.6267398939
 21
5.9901118202
  0
LINE
  5
27B
100
AcDbEntity
  8
ALL_ASSEMBLY_MEMBERS
100
AcDbLine
 62
7
  6
CONTINUOUS
 10
7.434251896
 20
5.9901123066
 11
7.4584263928
 21
5.9901118202
  0
LINE
  5
27C
100
AcDbEntity
  8
ALL_ASSEMBLY_MEMBERS
100
AcDbLine
 62
7
  6
CONTINUOUS
 10
8.7524696905
 20
5.8151118202
 11
7.6267398939
 21
5.8551118202
  0
LINE
  5
27D
100
AcDbEntity
  8
ALL_ASSEMBLY_MEMBERS
100
AcDbLine
 62
7
  6
CONTINUOUS
 10
1.6825846573
 20
6.1651118202
 11
2.8083144539
 21
6.1251118202
  0
LINE
  5
27E
100
AcDbEntity
  8
ALL_ASSEMBLY_MEMBERS
100
AcDbLine
 62
7
  6
CONTINUOUS
 10
4.9760623054
 20
2.4136648131
 11
4.9758809404
 21
2.4136094922
  0
LINE
  5
27F
100
AcDbEntity
  8
ALL_ASSEMBLY_MEMBERS
100
AcDbLine
 62
7
  6
CONTINUOUS
 10
4.9760619384
 20
2.4136648964
 11
4.9758772257
 21
2.4136103339
  0
LINE
  5
280
100
AcDbEntity
  8
ALL_ASSEMBLY_MEMBERS
100
AcDbLine
 62
7
  6
CONTINUOUS
 10
7.3342231804
 20
6.2463618202
 11
7.0383311674
 21
6.2463618202
  0
LINE
  5
281
100
AcDbEntity
  8
ALL_ASSEMBLY_MEMBERS
100
AcDbLine
 62
7
  6
CONTINUOUS
 10
3.3967231804
 20
6.2463618202
 11
3.1008311674
 21
6.2463618202
  0
LINE
  5
282
100
AcDbEntity
  8
ALL_ASSEMBLY_MEMBERS
100
AcDbLine
 62
7
  6
CONTINUOUS
 10
6.890385161
 20
5.9901118202
 11
7.0383311674
 21
5.7338618202
  0
LWPOLYLINE
  5
283
100
AcDbEntity
  8
ALL_ASSEMBLY_MEMBERS
100
AcDbPolyline
 62
7
  6
CONTINUOUS
 90
27
 70
0
 10
7.6267398939
 20
6.1401118202
 10
7.6266775326
 20
6.1414492245
 10
7.626493357
 20
6.1427759031
 10
7.626191721
 20
6.1440817505
 10
7.625777132
 20
6.1453562487
 10
7.6252538316
 20
6.1465898177
 10
7.6246254223
 20
6.1477736567
 10
7.6238953769
 20
6.1488983021
 10
7.6230680996
 20
6.1499526917
 10
7.6221485552
 20
6.1509256549
 10
7.621143089
 20
6.1518085221
 10
7.6200610838
 20
6.1525970517
 10
7.6189125928
 20
6.1532872303
 10
7.6177080727
 20
6.1538748126
 10
7.6164573624
 20
6.1543558859
 10
7.6151694343
 20
6.1547266296
 10
7.6138535682
 20
6.1549827626
 10
7.612520583
 20
6.1551196242
 10
7.6111817367
 20
6.1551329094
 10
7.6098474679
 20
6.1550220704
 10
7.6085276067
 20
6.1547910885
 10
7.6072324955
 20
6.1544443071
 10
7.6059726556
 20
6.1539862343
 10
7.6047576613
 20
6.1534210762
 10
7.6035965208
 20
6.1527524906
 10
7.6024990991
 20
6.1519842644
 10
7.6015472437
 20
6.1511861929
  0
LINE
  5
284
100
AcDbEntity
  8
ALL_ASSEMBLY_MEMBERS
100
AcDbLine
 62
7
  6
CONTINUOUS
 10
7.5710365002
 20
6.1363129848
 11
7.5710365002
 21
5.8439106555
  0
LINE
  5
285
100
AcDbEntity
  8
ALL_ASSEMBLY_MEMBERS
100
AcDbLine
 62
7
  6
CONTINUOUS
 10
7.6015472974
 20
6.151186242
 11
7.6015472974
 21
5.8290373983
  0
LINE
  5
286
100
AcDbEntity
  8
ALL_ASSEMBLY_MEMBERS
100
AcDbLine
 62
7
  6
CONTINUOUS
 10
7.6267398939
 20
5.8401144478
 11
7.6267398939
 21
6.1401091925
  0
LWPOLYLINE
  5
287
100
AcDbEntity
  8
ALL_ASSEMBLY_MEMBERS
100
AcDbPolyline
 62
7
  6
CONTINUOUS
 90
27
 70
0
 10
7.6015472437
 20
5.8290374474
 10
7.6024990991
 20
5.8282393759
 10
7.6035965208
 20
5.8274711498
 10
7.6047576613
 20
5.8268025641
 10
7.6059726556
 20
5.826237406
 10
7.6072324955
 20
5.8257793332
 10
7.6085276067
 20
5.8254325518
 10
7.6098474679
 20
5.8252015699
 10
7.6111817367
 20
5.8250907309
 10
7.612520583
 20
5.8251040161
 10
7.6138535682
 20
5.8252408777
 10
7.6151694343
 20
5.8254970107
 10
7.6164573624
 20
5.8258677544
 10
7.6177080727
 20
5.8263488277
 10
7.6189125928
 20
5.82693641
 10
7.6200610838
 20
5.8276265886
 10
7.621143089
 20
5.8284151182
 10
7.6221485552
 20
5.8292979854
 10
7.6230680996
 20
5.8302709486
 10
7.6238953769
 20
5.8313253382
 10
7.6246254223
 20
5.8324499836
 10
7.6252538316
 20
5.8336338226
 10
7.625777132
 20
5.8348673916
 10
7.626191721
 20
5.8361418898
 10
7.626493357
 20
5.8374477373
 10
7.6266775326
 20
5.8387744159
 10
7.6267398939
 20
5.8401118202
  0
LINE
  5
288
100
AcDbEntity
  8
ALL_ASSEMBLY_MEMBERS
100
AcDbLine
 62
7
  6
CONTINUOUS
 10
7.4199329188
 20
6.0979081986
 11
7.3342231804
 21
6.2463618202
  0
LINE
  5
289
100
AcDbEntity
  8
ALL_ASSEMBLY_MEMBERS
100
AcDbLine
 62
7
  6
CONTINUOUS
 10
8.7524696905
 20
5.8001118202
 11
8.7524696905
 21
6.1801118202
  0
LINE
  5
28A
100
AcDbEntity
  8
ALL_ASSEMBLY_MEMBERS
100
AcDbLine
 62
7
  6
CONTINUOUS
 10
8.7919513523
 20
5.7955880106
 11
8.7919513523
 21
6.1846356297
  0
ARC
  5
28B
100
AcDbEntity
  8
ALL_ASSEMBLY_MEMBERS
100
AcDbCircle
 62
7
  6
CONTINUOUS
 10
5.0402401497
 20
2.1736395798
 40
0.2481892211
100
AcDbArc
 50
111.1668722772
 51
112.5757696947
  0
ARC
  5
28C
100
AcDbEntity
  8
ALL_ASSEMBLY_MEMBERS
100
AcDbCircle
 62
7
  6
CONTINUOUS
 10
5.0291429845
 20
2.200466878
 40
0.219157378
100
AcDbArc
 50
112.5894458147
 51
114.121226925
  0
ARC
  5
28D
100
AcDbEntity
  8
ALL_ASSEMBLY_MEMBERS
100
AcDbCircle
 62
7
  6
CONTINUOUS
 10
5.0508507017
 20
2.2280646347
 40
0.1830154863
100
AcDbArc
 50
112.316145678
 51
114.6555270982
  0
ARC
  5
28E
100
AcDbEntity
  8
ALL_ASSEMBLY_MEMBERS
100
AcDbCircle
 62
7
  6
CONTINUOUS
 10
4.9935491741
 20
2.4166927654
 40
0.1351650713
100
AcDbArc
 50
118.1741062976
 51
120.9088452904
  0
ARC
  5
28F
100
AcDbEntity
  8
ALL_ASSEMBLY_MEMBERS
100
AcDbCircle
 62
7
  6
CONTINUOUS
 10
5.0391986017
 20
2.2732765529
 40
0.1313090048
100
AcDbArc
 50
115.9876054953
 51
118.2388690951
  0
ARC
  5
290
100
AcDbEntity
  8
ALL_ASSEMBLY_MEMBERS
100
AcDbCircle
 62
7
  6
CONTINUOUS
 10
4.98483849
 20
2.4385500148
 40
0.1273877524
100
AcDbArc
 50
216.5430505766
 51
222.3108785382
  0
ARC
  5
291
100
AcDbEntity
  8
ALL_ASSEMBLY_MEMBERS
100
AcDbCircle
 62
7
  6
CONTINUOUS
 10
4.9833722037
 20
2.4209766323
 40
0.1255064501
100
AcDbArc
 50
137.6450124778
 51
143.4849739052
  0
ARC
  5
292
100
AcDbEntity
  8
ALL_ASSEMBLY_MEMBERS
100
AcDbCircle
 62
7
  6
CONTINUOUS
 10
4.9809141747
 20
2.4355144089
 40
0.1224274815
100
AcDbArc
 50
216.1941120855
 51
216.4952242613
  0
ARC
  5
293
100
AcDbEntity
  8
ALL_ASSEMBLY_MEMBERS
100
AcDbCircle
 62
7
  6
CONTINUOUS
 10
4.9797812002
 20
2.4236742219
 40
0.1210152052
100
AcDbArc
 50
143.4997872005
 51
144.8658521734
  0
ARC
  5
294
100
AcDbEntity
  8
ALL_ASSEMBLY_MEMBERS
100
AcDbCircle
 62
7
  6
CONTINUOUS
 10
4.9787756907
 20
2.4339739907
 40
0.1197920297
100
AcDbArc
 50
211.3803787271
 51
216.2035218555
  0
ARC
  5
295
100
AcDbEntity
  8
ALL_ASSEMBLY_MEMBERS
100
AcDbCircle
 62
7
  6
CONTINUOUS
 10
4.9767075441
 20
2.4257311246
 40
0.1173178475
100
AcDbArc
 50
144.8235009058
 51
154.2503365046
  0
ARC
  5
296
100
AcDbEntity
  8
ALL_ASSEMBLY_MEMBERS
100
AcDbCircle
 62
7
  6
CONTINUOUS
 10
4.9757392236
 20
2.4320801826
 40
0.1162135759
100
AcDbArc
 50
205.7213668514
 51
211.362798422
  0
ARC
  5
297
100
AcDbEntity
  8
ALL_ASSEMBLY_MEMBERS
100
AcDbCircle
 62
7
  6
CONTINUOUS
 10
4.9666583193
 20
2.4303829915
 40
0.1070753794
100
AcDbArc
 50
208.2907835234
 51
213.1134302812
  0
ARC
  5
298
100
AcDbEntity
  8
ALL_ASSEMBLY_MEMBERS
100
AcDbCircle
 62
7
  6
CONTINUOUS
 10
4.9574288935
 20
2.4322020002
 40
0.0969085953
100
AcDbArc
 50
156.3538093111
 51
164.5390225961
  0
ARC
  5
299
100
AcDbEntity
  8
ALL_ASSEMBLY_MEMBERS
100
AcDbCircle
 62
7
  6
CONTINUOUS
 10
4.9565827354
 20
2.4408064034
 40
0.0919720149
100
AcDbArc
 50
156.5122798348
 51
157.9891229994
  0
ARC
  5
29A
100
AcDbEntity
  8
ALL_ASSEMBLY_MEMBERS
100
AcDbCircle
 62
7
  6
CONTINUOUS
 10
5.0187448686
 20
2.3090064206
 40
0.0901259649
100
AcDbArc
 50
121.7130699607
 51
123.3902523191
  0
ARC
  5
29B
100
AcDbEntity
  8
ALL_ASSEMBLY_MEMBERS
100
AcDbCircle
 62
7
  6
CONTINUOUS
 10
4.950250001
 20
2.434114968
 40
0.0894795555
100
AcDbArc
 50
164.4941860002
 51
173.675531669
  0
ARC
  5
29C
100
AcDbEntity
  8
ALL_ASSEMBLY_MEMBERS
100
AcDbCircle
 62
7
  6
CONTINUOUS
 10
5.0058215308
 20
2.4056561538
 40
0.0854578741
100
AcDbArc
 50
233.6801672324
 51
235.0824763011
  0
ARC
  5
29D
100
AcDbEntity
  8
ALL_ASSEMBLY_MEMBERS
100
AcDbCircle
 62
7
  6
CONTINUOUS
 10
4.928775583
 20
2.40939192
 40
0.0640570447
100
AcDbArc
 50
200.2995106434
 51
205.6607735475
  0
ARC
  5
29E
100
AcDbEntity
  8
ALL_ASSEMBLY_MEMBERS
100
AcDbCircle
 62
7
  6
CONTINUOUS
 10
4.9924606211
 20
2.3885154542
 40
0.0637180019
100
AcDbArc
 50
228.9893540347
 51
229.5121244641
  0
ARC
  5
29F
100
AcDbEntity
  8
ALL_ASSEMBLY_MEMBERS
100
AcDbCircle
 62
7
  6
CONTINUOUS
 10
4.9764654224
 20
2.3561571499
 40
0.0262910188
100
AcDbArc
 50
149.7706906967
 51
150.893595869
  0
ARC
  5
2A0
100
AcDbEntity
  8
ALL_ASSEMBLY_MEMBERS
100
AcDbCircle
 62
7
  6
CONTINUOUS
 10
4.9697185026
 20
2.36355765
 40
0.0250821123
100
AcDbArc
 50
154.269746581
 51
156.4022733854
  0
ARC
  5
2A1
100
AcDbEntity
  8
ALL_ASSEMBLY_MEMBERS
100
AcDbCircle
 62
7
  6
CONTINUOUS
 10
4.9595418223
 20
2.3628703368
 40
0.0214318885
100
AcDbArc
 50
189.8801080511
 51
192.7347750673
  0
ARC
  5
2A2
100
AcDbEntity
  8
ALL_ASSEMBLY_MEMBERS
100
AcDbCircle
 62
7
  6
CONTINUOUS
 10
4.9589001801
 20
2.3627574759
 40
0.0207803972
100
AcDbArc
 50
185.1143915832
 51
189.8771039809
  0
ARC
  5
2A3
100
AcDbEntity
  8
ALL_ASSEMBLY_MEMBERS
100
AcDbCircle
 62
7
  6
CONTINUOUS
 10
5.0974220195
 20
2.0019923676
 40
0.429188234
100
AcDbArc
 50
105.2210086288
 51
106.425391352
  0
ARC
  5
2A4
100
AcDbEntity
  8
ALL_ASSEMBLY_MEMBERS
100
AcDbCircle
 62
7
  6
CONTINUOUS
 10
5.2162774104
 20
3.3582638507
 40
1.0709435873
100
AcDbArc
 50
269.9996563496
 51
270.2442394089
  0
ARC
  5
2A5
100
AcDbEntity
  8
ALL_ASSEMBLY_MEMBERS
100
AcDbCircle
 62
7
  6
CONTINUOUS
 10
5.2043053387
 20
3.2292768052
 40
0.9413983614
100
AcDbArc
 50
264.2398664395
 51
266.1878872269
  0
ARC
  5
2A6
100
AcDbEntity
  8
ALL_ASSEMBLY_MEMBERS
100
AcDbCircle
 62
7
  6
CONTINUOUS
 10
5.2162771739
 20
2.9901118202
 40
0.7125
100
AcDbArc
 50
297.698928796
 51
242.3038011389
  0
ARC
  5
2A7
100
AcDbEntity
  8
ALL_ASSEMBLY_MEMBERS
100
AcDbCircle
 62
7
  6
CONTINUOUS
 10
5.2162771739
 20
2.9901118202
 40
0.6465838329
100
AcDbArc
 50
303.2288176824
 51
236.7722934249
  0
ARC
  5
2A8
100
AcDbEntity
  8
ALL_ASSEMBLY_MEMBERS
100
AcDbCircle
 62
7
  6
CONTINUOUS
 10
5.2162771739
 20
2.9901118202
 40
0.6265
100
AcDbArc
 50
303.7800472163
 51
236.2306798464
  0
ARC
  5
2A9
100
AcDbEntity
  8
ALL_ASSEMBLY_MEMBERS
100
AcDbCircle
 62
7
  6
CONTINUOUS
 10
5.2162771739
 20
2.9901118202
 40
0.58625
100
AcDbArc
 50
303.9275101286
 51
236.073749642
  0
ARC
  5
2AA
100
AcDbEntity
  8
ALL_ASSEMBLY_MEMBERS
100
AcDbCircle
 62
7
  6
CONTINUOUS
 10
2.4808144539
 20
5.9901118202
 40
0.86
100
AcDbArc
 50
166.9271076843
 51
193.0728923157
  0
ARC
  5
2AB
100
AcDbEntity
  8
ALL_ASSEMBLY_MEMBERS
100
AcDbCircle
 62
7
  6
CONTINUOUS
 10
3.2487771739
 20
5.9901118202
 40
0.5677938968
100
AcDbArc
 50
194.1614003706
 51
165.8385996294
  0
ARC
  5
2AC
100
AcDbEntity
  8
ALL_ASSEMBLY_MEMBERS
100
AcDbCircle
 62
7
  6
CONTINUOUS
 10
3.2487771739
 20
5.9901118202
 40
0.5509475526
100
AcDbArc
 50
194.5379192578
 51
165.4620807422
  0
ARC
  5
2AD
100
AcDbEntity
  8
ALL_ASSEMBLY_MEMBERS
100
AcDbCircle
 62
7
  6
CONTINUOUS
 10
3.2487771739
 20
5.9901118202
 40
0.5343470323
100
AcDbArc
 50
194.9340501968
 51
165.0659498032
  0
ARC
  5
2AE
100
AcDbEntity
  8
ALL_ASSEMBLY_MEMBERS
100
AcDbCircle
 62
7
  6
CONTINUOUS
 10
3.2487771739
 20
5.9901118202
 40
0.4990631352
100
AcDbArc
 50
195.8641676208
 51
164.1358323793
  0
ARC
  5
2AF
100
AcDbEntity
  8
ALL_ASSEMBLY_MEMBERS
100
AcDbCircle
 62
7
  6
CONTINUOUS
 10
3.2487771739
 20
5.9901118202
 40
0.4651140118
100
AcDbArc
 50
161.2859751102
 51
163.103745009
  0
ARC
  5
2B0
100
AcDbEntity
  8
ALL_ASSEMBLY_MEMBERS
100
AcDbCircle
 62
7
  6
CONTINUOUS
 10
3.2487771739
 20
5.9901118202
 40
0.4651140118
100
AcDbArc
 50
196.896254991
 51
198.7140248898
  0
ARC
  5
2B1
100
AcDbEntity
  8
ALL_ASSEMBLY_MEMBERS
100
AcDbCircle
 62
7
  6
CONTINUOUS
 10
3.2487771739
 20
5.9901118202
 40
0.4651140118
100
AcDbArc
 50
200.1051851949
 51
159.8948148051
  0
ARC
  5
2B2
100
AcDbEntity
  8
ALL_ASSEMBLY_MEMBERS
100
AcDbCircle
 62
7
  6
CONTINUOUS
 10
3.2487771739
 20
5.9901118202
 40
0.3808242655
100
AcDbArc
 50
201.599397114
 51
158.4006026638
  0
ARC
  5
2B3
100
AcDbEntity
  8
ALL_ASSEMBLY_MEMBERS
100
AcDbCircle
 62
7
  6
CONTINUOUS
 10
3.2487771739
 20
5.9901118202
 40
0.3458601813
100
AcDbArc
 50
202.4070463533
 51
157.5929539108
  0
ARC
  5
2B4
100
AcDbEntity
  8
ALL_ASSEMBLY_MEMBERS
100
AcDbCircle
 62
7
  6
CONTINUOUS
 10
3.2487771739
 20
5.9901118202
 40
0.2542879756
100
AcDbArc
 50
204.883844081
 51
155.1161557316
  0
CIRCLE
  5
2B5
100
AcDbEntity
  8
ALL_ASSEMBLY_MEMBERS
100
AcDbCircle
 62
7
  6
CONTINUOUS
 10
3.2487771739
 20
5.9901118202
 40
0.2479747323
  0
CIRCLE
  5
2B6
100
AcDbEntity
  8
ALL_ASSEMBLY_MEMBERS
100
AcDbCircle
 62
7
  6
CONTINUOUS
 10
3.2487771739
 20
5.9901118202
 40
0.2339842866
  0
CIRCLE
  5
2B7
100
AcDbEntity
  8
ALL_ASSEMBLY_MEMBERS
100
AcDbCircle
 62
7
  6
CONTINUOUS
 10
3.2487771739
 20
5.9901118202
 40
0.1726211828
  0
ARC
  5
2B8
100
AcDbEntity
  8
ALL_ASSEMBLY_MEMBERS
100
AcDbCircle
 62
7
  6
CONTINUOUS
 10
2.873979826
 20
5.784743843
 40
0.0599998865
100
AcDbArc
 50
99.5572542794
 51
132.4191124384
  0
ARC
  5
2B9
100
AcDbEntity
  8
ALL_ASSEMBLY_MEMBERS
100
AcDbCircle
 62
7
  6
CONTINUOUS
 10
2.873979826
 20
6.1954797973
 40
0.0599998865
100
AcDbArc
 50
227.5808875616
 51
260.4427457206
  0
ARC
  5
2BA
100
AcDbEntity
  8
ALL_ASSEMBLY_MEMBERS
100
AcDbCircle
 62
7
  6
CONTINUOUS
 10
1.6625846573
 20
5.8001118202
 40
0.02
100
AcDbArc
 50
193.0728923157
 51
360.0
  0
ARC
  5
2BB
100
AcDbEntity
  8
ALL_ASSEMBLY_MEMBERS
100
AcDbCircle
 62
7
  6
CONTINUOUS
 10
1.6625846573
 20
6.1801118202
 40
0.02
100
AcDbArc
 50
0.0
 51
166.9271076843
  0
ARC
  5
2BC
100
AcDbEntity
  8
ALL_ASSEMBLY_MEMBERS
100
AcDbCircle
 62
7
  6
CONTINUOUS
 10
5.4412472981
 20
2.4206490219
 40
0.1306189849
100
AcDbArc
 50
59.0435550244
 51
61.8734933876
  0
ARC
  5
2BD
100
AcDbEntity
  8
ALL_ASSEMBLY_MEMBERS
100
AcDbCircle
 62
7
  6
CONTINUOUS
 10
5.4477158578
 20
2.4197943459
 40
0.1273877524
100
AcDbArc
 50
36.5430505766
 51
42.3108785382
  0
ARC
  5
2BE
100
AcDbEntity
  8
ALL_ASSEMBLY_MEMBERS
100
AcDbCircle
 62
7
  6
CONTINUOUS
 10
5.4491821441
 20
2.4373677285
 40
0.1255064501
100
AcDbArc
 50
317.6450124778
 51
323.4849739052
  0
ARC
  5
2BF
100
AcDbEntity
  8
ALL_ASSEMBLY_MEMBERS
100
AcDbCircle
 62
7
  6
CONTINUOUS
 10
5.451640173
 20
2.4228299518
 40
0.1224274817
100
AcDbArc
 50
36.1941120857
 51
36.4952242611
  0
ARC
  5
2C0
100
AcDbEntity
  8
ALL_ASSEMBLY_MEMBERS
100
AcDbCircle
 62
7
  6
CONTINUOUS
 10
5.4527731476
 20
2.4346701388
 40
0.1210152052
100
AcDbArc
 50
323.4997872005
 51
324.8658521734
  0
ARC
  5
2C1
100
AcDbEntity
  8
ALL_ASSEMBLY_MEMBERS
100
AcDbCircle
 62
7
  6
CONTINUOUS
 10
5.4543096805
 20
2.4336088244
 40
0.1191478403
100
AcDbArc
 50
324.8580074485
 51
328.638660346
  0
ARC
  5
2C2
100
AcDbEntity
  8
ALL_ASSEMBLY_MEMBERS
100
AcDbCircle
 62
7
  6
CONTINUOUS
 10
5.4557602889
 20
2.4256892189
 40
0.1174133389
100
AcDbArc
 50
25.7507416097
 51
36.25537003
  0
ARC
  5
2C3
100
AcDbEntity
  8
ALL_ASSEMBLY_MEMBERS
100
AcDbCircle
 62
7
  6
CONTINUOUS
 10
5.4052491873
 20
2.4242308901
 40
0.1074443644
100
AcDbArc
 50
298.5976138167
 51
300.8362248905
  0
ARC
  5
2C4
100
AcDbEntity
  8
ALL_ASSEMBLY_MEMBERS
100
AcDbCircle
 62
7
  6
CONTINUOUS
 10
5.4755150491
 20
2.4406113636
 40
0.0924684798
100
AcDbArc
 50
22.512124604
 51
24.0841961603
  0
ARC
  5
2C5
100
AcDbEntity
  8
ALL_ASSEMBLY_MEMBERS
100
AcDbCircle
 62
7
  6
CONTINUOUS
 10
5.4817204825
 20
2.4339838494
 40
0.0900772555
100
AcDbArc
 50
7.6221802296
 51
15.4954065383
  0
ARC
  5
2C6
100
AcDbEntity
  8
ALL_ASSEMBLY_MEMBERS
100
AcDbCircle
 62
7
  6
CONTINUOUS
 10
5.4145636287
 20
2.4085269459
 40
0.0891859571
100
AcDbArc
 50
300.869570059
 51
303.3588634765
  0
ARC
  5
2C7
100
AcDbEntity
  8
ALL_ASSEMBLY_MEMBERS
100
AcDbCircle
 62
7
  6
CONTINUOUS
 10
5.4861279918
 20
2.4346520311
 40
0.0856200973
100
AcDbArc
 50
5.7343311429
 51
7.570207662
  0
ARC
  5
2C8
100
AcDbEntity
  8
ALL_ASSEMBLY_MEMBERS
100
AcDbCircle
 62
7
  6
CONTINUOUS
 10
5.4240474987
 20
2.3239236043
 40
0.0720303631
100
AcDbArc
 50
53.2175034428
 51
54.3496410461
  0
ARC
  5
2C9
100
AcDbEntity
  8
ALL_ASSEMBLY_MEMBERS
100
AcDbCircle
 62
7
  6
CONTINUOUS
 10
5.5028229177
 20
2.4097976378
 40
0.0650943476
100
AcDbArc
 50
334.3892270155
 51
339.7621088357
  0
ARC
  5
2CA
100
AcDbEntity
  8
ALL_ASSEMBLY_MEMBERS
100
AcDbCircle
 62
7
  6
CONTINUOUS
 10
5.4357682781
 20
2.3945406175
 40
0.0645044862
100
AcDbArc
 50
306.5594215256
 51
309.248148341
  0
ARC
  5
2CB
100
AcDbEntity
  8
ALL_ASSEMBLY_MEMBERS
100
AcDbCircle
 62
7
  6
CONTINUOUS
 10
5.4406492629
 20
2.3968669726
 40
0.0621617757
100
AcDbArc
 50
306.7888494748
 51
309.59286332
  0
ARC
  5
2CC
100
AcDbEntity
  8
ALL_ASSEMBLY_MEMBERS
100
AcDbCircle
 62
7
  6
CONTINUOUS
 10
5.4356595898
 20
2.3794469731
 40
0.0532222299
100
AcDbArc
 50
310.1124518018
 51
313.3149345977
  0
ARC
  5
2CD
100
AcDbEntity
  8
ALL_ASSEMBLY_MEMBERS
100
AcDbCircle
 62
7
  6
CONTINUOUS
 10
5.4398409025
 20
2.3749480994
 40
0.047080483
100
AcDbArc
 50
313.3684396627
 51
315.3687507628
  0
ARC
  5
2CE
100
AcDbEntity
  8
ALL_ASSEMBLY_MEMBERS
100
AcDbCircle
 62
7
  6
CONTINUOUS
 10
5.4427307459
 20
2.3720824832
 40
0.0430107335
100
AcDbArc
 50
315.3808215718
 51
317.7762836517
  0
ARC
  5
2CF
100
AcDbEntity
  8
ALL_ASSEMBLY_MEMBERS
100
AcDbCircle
 62
7
  6
CONTINUOUS
 10
5.4454023536
 20
2.3696367111
 40
0.0393887151
100
AcDbArc
 50
317.799217321
 51
319.8078581103
  0
ARC
  5
2D0
100
AcDbEntity
  8
ALL_ASSEMBLY_MEMBERS
100
AcDbCircle
 62
7
  6
CONTINUOUS
 10
5.4532703032
 20
2.3541303623
 40
0.038425751
100
AcDbArc
 50
40.8791657957
 51
42.7350313936
  0
ARC
  5
2D1
100
AcDbEntity
  8
ALL_ASSEMBLY_MEMBERS
100
AcDbCircle
 62
7
  6
CONTINUOUS
 10
5.4474582697
 20
2.35192131
 40
0.0380745706
100
AcDbArc
 50
41.6407188339
 51
43.7083475366
  0
ARC
  5
2D2
100
AcDbEntity
  8
ALL_ASSEMBLY_MEMBERS
100
AcDbCircle
 62
7
  6
CONTINUOUS
 10
5.4552247431
 20
2.3582355638
 40
0.0280571992
100
AcDbArc
 50
34.3025780215
 51
35.0275302205
  0
ARC
  5
2D3
100
AcDbEntity
  8
ALL_ASSEMBLY_MEMBERS
100
AcDbCircle
 62
7
  6
CONTINUOUS
 10
7.9542398939
 20
5.9901118202
 40
0.86
100
AcDbArc
 50
346.9271076843
 51
13.0728923157
  0
ARC
  5
2D4
100
AcDbEntity
  8
ALL_ASSEMBLY_MEMBERS
100
AcDbCircle
 62
7
  6
CONTINUOUS
 10
7.1862771739
 20
5.9901118202
 40
0.5677938968
100
AcDbArc
 50
14.1614003706
 51
345.8385996294
  0
ARC
  5
2D5
100
AcDbEntity
  8
ALL_ASSEMBLY_MEMBERS
100
AcDbCircle
 62
7
  6
CONTINUOUS
 10
7.1862771739
 20
5.9901118202
 40
0.5509475526
100
AcDbArc
 50
14.5379192578
 51
345.4620807422
  0
ARC
  5
2D6
100
AcDbEntity
  8
ALL_ASSEMBLY_MEMBERS
100
AcDbCircle
 62
7
  6
CONTINUOUS
 10
7.1862771739
 20
5.9901118202
 40
0.5343470323
100
AcDbArc
 50
14.9340501968
 51
345.0659498032
  0
ARC
  5
2D7
100
AcDbEntity
  8
ALL_ASSEMBLY_MEMBERS
100
AcDbCircle
 62
7
  6
CONTINUOUS
 10
7.1862771739
 20
5.9901118202
 40
0.4990631352
100
AcDbArc
 50
15.8641676208
 51
344.1358323793
  0
ARC
  5
2D8
100
AcDbEntity
  8
ALL_ASSEMBLY_MEMBERS
100
AcDbCircle
 62
7
  6
CONTINUOUS
 10
7.1862771739
 20
5.9901118202
 40
0.4651140118
100
AcDbArc
 50
341.2859751102
 51
343.103745009
  0
ARC
  5
2D9
100
AcDbEntity
  8
ALL_ASSEMBLY_MEMBERS
100
AcDbCircle
 62
7
  6
CONTINUOUS
 10
7.1862771739
 20
5.9901118202
 40
0.4651140118
100
AcDbArc
 50
16.896254991
 51
18.7140248898
  0
ARC
  5
2DA
100
AcDbEntity
  8
ALL_ASSEMBLY_MEMBERS
100
AcDbCircle
 62
7
  6
CONTINUOUS
 10
7.1862771739
 20
5.9901118202
 40
0.4651140118
100
AcDbArc
 50
20.1051851949
 51
339.8948148051
  0
ARC
  5
2DB
100
AcDbEntity
  8
ALL_ASSEMBLY_MEMBERS
100
AcDbCircle
 62
7
  6
CONTINUOUS
 10
7.1862771739
 20
5.9901118202
 40
0.3808242655
100
AcDbArc
 50
21.599397114
 51
338.4006026638
  0
ARC
  5
2DC
100
AcDbEntity
  8
ALL_ASSEMBLY_MEMBERS
100
AcDbCircle
 62
7
  6
CONTINUOUS
 10
7.1862771739
 20
5.9901118202
 40
0.3458601813
100
AcDbArc
 50
22.4070463533
 51
337.5929539108
  0
ARC
  5
2DD
100
AcDbEntity
  8
ALL_ASSEMBLY_MEMBERS
100
AcDbCircle
 62
7
  6
CONTINUOUS
 10
7.1862771739
 20
5.9901118202
 40
0.2542879756
100
AcDbArc
 50
24.883844081
 51
335.1161557316
  0
CIRCLE
  5
2DE
100
AcDbEntity
  8
ALL_ASSEMBLY_MEMBERS
100
AcDbCircle
 62
7
  6
CONTINUOUS
 10
7.1862771739
 20
5.9901118202
 40
0.2479747323
  0
CIRCLE
  5
2DF
100
AcDbEntity
  8
ALL_ASSEMBLY_MEMBERS
100
AcDbCircle
 62
7
  6
CONTINUOUS
 10
7.1862771739
 20
5.9901118202
 40
0.2339842866
  0
CIRCLE
  5
2E0
100
AcDbEntity
  8
ALL_ASSEMBLY_MEMBERS
100
AcDbCircle
 62
7
  6
CONTINUOUS
 10
7.1862771739
 20
5.9901118202
 40
0.1726211828
  0
ARC
  5
2E1
100
AcDbEntity
  8
ALL_ASSEMBLY_MEMBERS
100
AcDbCircle
 62
7
  6
CONTINUOUS
 10
7.5610745218
 20
6.1954797973
 40
0.0599998865
100
AcDbArc
 50
279.5572542794
 51
312.4191124384
  0
ARC
  5
2E2
100
AcDbEntity
  8
ALL_ASSEMBLY_MEMBERS
100
AcDbCircle
 62
7
  6
CONTINUOUS
 10
7.5610745218
 20
5.784743843
 40
0.0599998865
100
AcDbArc
 50
47.5808875616
 51
80.4427457206
  0
ARC
  5
2E3
100
AcDbEntity
  8
ALL_ASSEMBLY_MEMBERS
100
AcDbCircle
 62
7
  6
CONTINUOUS
 10
8.7724696905
 20
6.1801118202
 40
0.02
100
AcDbArc
 50
13.0728923157
 51
180.0
  0
ARC
  5
2E4
100
AcDbEntity
  8
ALL_ASSEMBLY_MEMBERS
100
AcDbCircle
 62
7
  6
CONTINUOUS
 10
8.7724696905
 20
5.8001118202
 40
0.02
100
AcDbArc
 50
180.0
 51
346.9271076843
  0
SPLINE
  5
2E5
100
AcDbEntity
  8
ALL_ASSEMBLY_MEMBERS
100
AcDbSpline
 62
7
  6
CONTINUOUS
 70
0
 71
3
 72
46
 73
42
 74
0
 42
0.0000001
 43
0.0000001
 44
0.0000000001
 40
0.0
 40
0.0
 40
0.0
 40
0.0
 40
0.0114499477
 40
0.0234073103
 40
0.0488013788
 40
0.0760962518
 40
0.105194756
 40
0.1359784096
 40
0.1683137091
 40
0.2020552578
 40
0.237048999
 40
0.2731311933
 40
0.3101312367
 40
0.3478721277
 40
0.3861724207
 40
0.4248469782
 40
0.4637082535
 40
0.5025677446
 40
0.5412365886
 40
0.5795276514
 40
0.6172554713
 40
0.6542390395
 40
0.6903011232
 40
0.7252716934
 40
0.7589867293
 40
0.7912923819
 40
0.8220434209
 40
0.8511082023
 40
0.8783671408
 40
0.8912877197
 40
0.9037204417
 40
0.9156550792
 40
0.9270833074
 40
0.9379992616
 40
0.9483984025
 40
0.9582777356
 40
0.9676372266
 40
0.976480594
 40
0.9848144617
 40
0.9926490314
 40
1.0
 40
1.0
 40
1.0
 40
1.0
 10
4.9813566352
 20
2.3973727649
 30
0.0
 10
4.9831737064
 20
2.3981206541
 30
0.0
 10
4.986910482
 20
2.3995963261
 30
0.0
 10
4.9947771799
 20
2.4024716048
 30
0.0
 10
5.0053315825
 20
2.4059029759
 30
0.0
 10
5.0188466734
 20
2.4097021598
 30
0.0
 10
5.0333856994
 20
2.4132411011
 30
0.0
 10
5.0488741647
 20
2.4165021577
 30
0.0
 10
5.0652321842
 20
2.419467196
 30
0.0
 10
5.0823748025
 20
2.4221210891
 30
0.0
 10
5.1002131747
 20
2.4244493287
 30
0.0
 10
5.1186547559
 20
2.4264401998
 30
0.0
 10
5.137603785
 20
2.428082653
 30
0.0
 10
5.1569617785
 20
2.4293685557
 30
0.0
 10
5.1766281455
 20
2.4302906354
 30
0.0
 10
5.1965006372
 20
2.4308445445
 30
0.0
 10
5.2164759643
 20
2.4310268677
 30
0.0
 10
5.236450242
 20
2.4308371448
 30
0.0
 10
5.2563196558
 20
2.430275873
 30
0.0
 10
5.2759808678
 20
2.4293465111
 30
0.0
 10
5.2953317153
 20
2.4280534354
 30
0.0
 10
5.3142715835
 20
2.4264039766
 30
0.0
 10
5.3327021147
 20
2.4244062829
 30
0.0
 10
5.3505275458
 20
2.4220714399
 30
0.0
 10
5.3676554099
 20
2.4194111861
 30
0.0
 10
5.3839968461
 20
2.4164401627
 30
0.0
 10
5.399467355
 20
2.4131734597
 30
0.0
 10
5.41398676
 20
2.4096289263
 30
0.0
 10
5.4254273408
 20
2.4064038905
 30
0.0
 10
5.4340382158
 20
2.4036861841
 30
0.0
 10
5.4400974796
 20
2.4016267727
 30
0.0
 10
5.4458657619
 20
2.3995122832
 30
0.0
 10
5.4513355791
 20
2.397345325
 30
0.0
 10
5.4565000982
 20
2.3951289719
 30
0.0
 10
5.4613527552
 20
2.3928661167
 30
0.0
 10
5.4658871562
 20
2.3905594801
 30
0.0
 10
5.4700974605
 20
2.3882118636
 30
0.0
 10
5.4739786075
 20
2.3858265087
 30
0.0
 10
5.4775258788
 20
2.3834063173
 30
0.0
 10
5.4807344021
 20
2.3809541526
 30
0.0
 10
5.482706127
 20
2.3792467092
 30
0.0
 10
5.4836295977
 20
2.3783872636
 30
0.0
  0
SPLINE
  5
2E6
100
AcDbEntity
  8
ALL_ASSEMBLY_MEMBERS
100
AcDbSpline
 62
7
  6
CONTINUOUS
 70
0
 71
3
 72
9
 73
5
 74
0
 42
0.0000001
 43
0.0000001
 44
0.0000000001
 40
0.0
 40
0.0
 40
0.0
 40
0.0
 40
0.5071215283
 40
1.0
 40
1.0
 40
1.0
 40
1.0
 10
5.5720649125
 20
2.4291760286
 30
0.0
 10
5.5721818928
 20
2.4264496765
 30
0.0
 10
5.5721689991
 20
2.4210598527
 30
0.0
 10
5.571638609
 20
2.4156949675
 30
0.0
 10
5.5712427292
 20
2.4130724615
 30
0.0
  0
SPLINE
  5
2E7
100
AcDbEntity
  8
ALL_ASSEMBLY_MEMBERS
100
AcDbSpline
 62
7
  6
CONTINUOUS
 70
0
 71
3
 72
11
 73
7
 74
0
 42
0.0000001
 43
0.0000001
 44
0.0000000001
 40
0.0
 40
0.0
 40
0.0
 40
0.0
 40
0.2753825577
 40
0.5329808993
 40
0.7739983492
 40
1.0
 40
1.0
 40
1.0
 40
1.0
 10
5.4765789959
 20
2.344587499
 30
0.0
 10
5.4775053581
 20
2.3453457489
 30
0.0
 10
5.4792544738
 20
2.3468682512
 30
0.0
 10
5.4816297548
 20
2.3492559075
 30
0.0
 10
5.4836635405
 20
2.3516662389
 30
0.0
 10
5.4848245851
 20
2.3533365689
 30
0.0
 10
5.4853405356
 20
2.3541726369
 30
0.0
  0
SPLINE
  5
2E8
100
AcDbEntity
  8
ALL_ASSEMBLY_MEMBERS
100
AcDbSpline
 62
7
  6
CONTINUOUS
 70
0
 71
3
 72
15
 73
11
 74
0
 42
0.0000001
 43
0.0000001
 44
0.0000000001
 40
0.0
 40
0.0
 40
0.0
 40
0.0
 40
0.1316766896
 40
0.2559457204
 40
0.3753325024
 40
0.4927018483
 40
0.611075118
 40
0.7333952578
 40
0.8622972013
 40
1.0
 40
1.0
 40
1.0
 40
1.0
 10
5.4853405356
 20
2.3541726369
 30
0.0
 10
5.4859057599
 20
2.3550885505
 30
0.0
 10
5.4868996174
 20
2.3569375112
 30
0.0
 10
5.4879600823
 20
2.3598279998
 30
0.0
 10
5.4885343321
 20
2.3627357725
 30
0.0
 10
5.4886178285
 20
2.3656509671
 30
0.0
 10
5.4882091205
 20
2.3685624485
 30
0.0
 10
5.4873119653
 20
2.3714597069
 30
0.0
 10
5.4859341213
 20
2.3743353429
 30
0.0
 10
5.4847431288
 20
2.3761675646
 30
0.0
 10
5.4840795949
 20
2.3770767126
 30
0.0
  0
LINE
  5
2E9
100
AcDbEntity
  8
ALL_ASSEMBLY_MEMBERS
100
AcDbLine
 62
7
  6
CONTINUOUS
 10
5.4840795949
 20
2.3770767126
 11
5.4823236869
 21
2.3792787068
  0
SPLINE
  5
2EA
100
AcDbEntity
  8
ALL_ASSEMBLY_MEMBERS
100
AcDbSpline
 62
7
  6
CONTINUOUS
 70
0
 71
3
 72
17
 73
13
 74
0
 42
0.0000001
 43
0.0000001
 44
0.0000000001
 40
0.0
 40
0.0
 40
0.0
 40
0.0
 40
0.0488721732
 40
0.0981502916
 40
0.1482289173
 40
0.1994830189
 40
0.3067970028
 40
0.4225746223
 40
0.5486596844
 40
0.6864073324
 40
0.8366777251
 40
1.0
 40
1.0
 40
1.0
 40
1.0
 10
4.9381224114
 20
2.3591425575
 30
0.0
 10
4.9381224775
 20
2.3597316007
 30
0.0
 10
4.9381788925
 20
2.3609153294
 30
0.0
 10
4.9384317508
 20
2.3626863768
 30
0.0
 10
4.9388526671
 20
2.3644547955
 30
0.0
 10
4.9396491373
 20
2.3668430498
 30
0.0
 10
4.9410931607
 20
2.3698346229
 30
0.0
 10
4.9434614624
 20
2.3733280927
 30
0.0
 10
4.9464817148
 20
2.3767780181
 30
0.0
 10
4.9501455903
 20
2.3801781205
 30
0.0
 10
4.9544419201
 20
2.3835238005
 30
0.0
 10
4.957587925
 20
2.3856246016
 30
0.0
 10
4.9592568273
 20
2.3866684779
 30
0.0
  0
SPLINE
  5
2EB
100
AcDbEntity
  8
ALL_ASSEMBLY_MEMBERS
100
AcDbSpline
 62
7
  6
CONTINUOUS
 70
0
 71
3
 72
49
 73
45
 74
0
 42
0.0000001
 43
0.0000001
 44
0.0000000001
 40
0.0
 40
0.0
 40
0.0
 40
0.0
 40
0.0088307181
 40
0.0182007683
 40
0.0281136903
 40
0.0385701485
 40
0.0495674149
 40
0.0611005368
 40
0.0731625941
 40
0.0857443108
 40
0.0988352494
 40
0.1124231914
 40
0.1410334968
 40
0.1714544326
 40
0.2035472551
 40
0.2371590512
 40
0.2721248262
 40
0.3082694713
 40
0.3454093476
 40
0.3833537126
 40
0.4219061795
 40
0.4608662596
 40
0.5000307151
 40
0.5391948856
 40
0.5781541126
 40
0.6167051636
 40
0.6546475603
 40
0.6917849294
 40
0.7279265452
 40
0.7628887907
 40
0.7964965837
 40
0.828584961
 40
0.8590010439
 40
0.8876061312
 40
0.9011913444
 40
0.9142794807
 40
0.9268583333
 40
0.9389174712
 40
0.9504476276
 40
0.9614418965
 40
0.9718953343
 40
0.9818052305
 40
0.9911722665
 40
1.0
 40
1.0
 40
1.0
 40
1.0
 10
5.5137988582
 20
2.5293418121
 30
0.0
 10
5.5123006467
 20
2.5303325284
 30
0.0
 10
5.5091591311
 20
2.5322942029
 30
0.0
 10
5.5041767917
 20
2.5351036147
 30
0.0
 10
5.4987922851
 20
2.5378630586
 30
0.0
 10
5.4930130156
 20
2.5405683847
 30
0.0
 10
5.48684694
 20
2.5432161119
 30
0.0
 10
5.4803025418
 20
2.5458025084
 30
0.0
 10
5.4733888328
 20
2.5483238324
 30
0.0
 10
5.4661154595
 20
2.5507767733
 30
0.0
 10
5.4584924738
 20
2.553157729
 30
0.0
 10
5.4476898729
 20
2.5562858446
 30
0.0
 10
5.4333835268
 20
2.5599745329
 30
0.0
 10
5.4152866789
 20
2.5639921153
 30
0.0
 10
5.3960774722
 20
2.5676505406
 30
0.0
 10
5.3758631217
 20
2.5709290376
 30
0.0
 10
5.3547563131
 20
2.5738089727
 30
0.0
 10
5.3328749361
 20
2.5762739803
 30
0.0
 10
5.3103412545
 20
2.5783100351
 30
0.0
 10
5.2872812678
 20
2.5799055569
 30
0.0
 10
5.2638239759
 20
2.5810515413
 30
0.0
 10
5.2401006227
 20
2.5817414982
 30
0.0
 10
5.2162439509
 20
2.5819715037
 30
0.0
 10
5.192387465
 20
2.5817402154
 30
0.0
 10
5.1686646685
 20
2.5810489828
 30
0.0
 10
5.145208301
 20
2.5799017371
 30
0.0
 10
5.122149601
 20
2.5783049758
 30
0.0
 10
5.0996175611
 20
2.5762677106
 30
0.0
 10
5.0777381718
 20
2.5738015276
 30
0.0
 10
5.0566336854
 20
2.5709204594
 30
0.0
 10
5.0364219781
 20
2.5676408783
 30
0.0
 10
5.0172157202
 20
2.5639814242
 30
0.0
 10
4.9991221103
 20
2.5599628738
 30
0.0
 10
4.9848186535
 20
2.5562733994
 30
0.0
 10
4.9740185021
 20
2.5531446842
 30
0.0
 10
4.9663974332
 20
2.5507633179
 30
0.0
 10
4.959126034
 20
2.5483099866
 30
0.0
 10
4.952214354
 20
2.5457882914
 30
0.0
 10
4.945672037
 20
2.5432015426
 30
0.0
 10
4.939508091
 20
2.5405534851
 30
0.0
 10
4.9337309973
 20
2.5378478478
 30
0.0
 10
4.9283487086
 20
2.535088114
 30
0.0
 10
4.9233686259
 20
2.5322784345
 30
0.0
 10
4.9202286627
 20
2.5303165745
 30
0.0
 10
4.9187312374
 20
2.52932577
 30
0.0
  0
SPLINE
  5
2EC
100
AcDbEntity
  8
ALL_ASSEMBLY_MEMBERS
100
AcDbSpline
 62
7
  6
CONTINUOUS
 70
0
 71
3
 72
12
 73
8
 74
0
 42
0.0000001
 43
0.0000001
 44
0.0000000001
 40
0.0
 40
0.0
 40
0.0
 40
0.0
 40
0.243481676
 40
0.3665426722
 40
0.4906979942
 40
0.742584107
 40
1.0
 40
1.0
 40
1.0
 40
1.0
 10
5.5137881417
 20
2.5293522969
 30
0.0
 10
5.5162890208
 20
2.527698406
 30
0.0
 10
5.5199903943
 20
2.5251101243
 30
0.0
 10
5.5247933786
 20
2.5214424715
 30
0.0
 10
5.5295680048
 20
2.517571163
 30
0.0
 10
5.5353955307
 20
2.5123774299
 30
0.0
 10
5.5397863372
 20
2.5078904962
 30
0.0
 10
5.541919521
 20
2.505545785
 30
0.0
  0
SPLINE
  5
2ED
100
AcDbEntity
  8
ALL_ASSEMBLY_MEMBERS
100
AcDbSpline
 62
7
  6
CONTINUOUS
 70
0
 71
3
 72
16
 73
12
 74
0
 42
0.0000001
 43
0.0000001
 44
0.0000000001
 40
0.0
 40
0.0
 40
0.0
 40
0.0
 40
0.1079763442
 40
0.165053353
 40
0.2241015403
 40
0.347469246
 40
0.4764018236
 40
0.608504416
 40
0.7412140035
 40
0.8722707012
 40
1.0
 40
1.0
 40
1.0
 40
1.0
 10
4.8710325198
 20
2.4766840999
 30
0.0
 10
4.8696380632
 20
2.4737830828
 30
0.0
 10
4.8678508521
 20
2.4691745288
 30
0.0
 10
4.8660906843
 20
2.4627268831
 30
0.0
 10
4.8646782422
 20
2.4557234656
 30
0.0
 10
4.8637456692
 20
2.446462589
 30
0.0
 10
4.8639642308
 20
2.4349811629
 30
0.0
 10
4.8654882289
 20
2.4233200748
 30
0.0
 10
4.8682285326
 20
2.4118209777
 30
0.0
 10
4.8720424768
 20
2.4007730776
 30
0.0
 10
4.87523959
 20
2.3937382119
 30
0.0
 10
4.8769729788
 20
2.3903480618
 30
0.0
  0
SPLINE
  5
2EE
100
AcDbEntity
  8
ALL_ASSEMBLY_MEMBERS
100
AcDbSpline
 62
7
  6
CONTINUOUS
 70
0
 71
3
 72
11
 73
7
 74
0
 42
0.0000001
 43
0.0000001
 44
0.0000000001
 40
0.0
 40
0.0
 40
0.0
 40
0.0
 40
0.2575931679
 40
0.5093412738
 40
0.7564004681
 40
1.0
 40
1.0
 40
1.0
 40
1.0
 10
4.8906248379
 20
2.5055330935
 30
0.0
 10
4.8927581067
 20
2.507877362
 30
0.0
 10
4.8971457354
 20
2.512361223
 30
0.0
 10
4.9040930881
 20
2.5185640616
 30
0.0
 10
4.9112789576
 20
2.5242130819
 30
0.0
 10
4.9162315546
 20
2.5276716581
 30
0.0
 10
4.9187312345
 20
2.5293257874
 30
0.0
  0
SPLINE
  5
2EF
100
AcDbEntity
  8
ALL_ASSEMBLY_MEMBERS
100
AcDbSpline
 62
7
  6
CONTINUOUS
 70
0
 71
3
 72
13
 73
9
 74
0
 42
0.0000001
 43
0.0000001
 44
0.0000000001
 40
0.0
 40
0.0
 40
0.0
 40
0.0
 40
0.1197651094
 40
0.2430057188
 40
0.3687868621
 40
0.4960467334
 40
0.7506278761
 40
1.0
 40
1.0
 40
1.0
 40
1.0
 10
4.8613116173
 20
2.4452718999
 30
0.0
 10
4.8609134608
 20
2.4426343031
 30
0.0
 10
4.8603815894
 20
2.4372375034
 30
0.0
 10
4.8603684506
 20
2.4290122618
 30
0.0
 10
4.8611260446
 20
2.4206539575
 30
0.0
 10
4.8631304307
 20
2.4095146958
 30
0.0
 10
4.8673450247
 20
2.396035314
 30
0.0
 10
4.8723062929
 20
2.3859160585
 30
0.0
 10
4.8751039964
 20
2.3811179773
 30
0.0
  0
SPLINE
  5
2F0
100
AcDbEntity
  8
ALL_ASSEMBLY_MEMBERS
100
AcDbSpline
 62
7
  6
CONTINUOUS
 70
0
 71
3
 72
9
 73
5
 74
0
 42
0.0000001
 43
0.0000001
 44
0.0000000001
 40
0.0
 40
0.0
 40
0.0
 40
0.0
 40
0.4928891126
 40
1.0
 40
1.0
 40
1.0
 40
1.0
 10
4.8613089329
 20
2.4130902633
 30
0.0
 10
4.8609141284
 20
2.41570977
 30
0.0
 10
4.8603852469
 20
2.4210682759
 30
0.0
 10
4.8603725815
 20
2.4264516092
 30
0.0
 10
4.8604893755
 20
2.4291746339
 30
0.0
  0
SPLINE
  5
2F1
100
AcDbEntity
  8
ALL_ASSEMBLY_MEMBERS
100
AcDbSpline
 62
7
  6
CONTINUOUS
 70
0
 71
3
 72
9
 73
5
 74
0
 42
0.0000001
 43
0.0000001
 44
0.0000000001
 40
0.0
 40
0.0
 40
0.0
 40
0.0
 40
0.5015873166
 40
1.0
 40
1.0
 40
1.0
 40
1.0
 10
4.8640307483
 20
2.4002953705
 30
0.0
 10
4.8650241739
 20
2.3966989345
 30
0.0
 10
4.8674347581
 20
2.3896416276
 30
0.0
 10
4.8706160144
 20
2.3828998886
 30
0.0
 10
4.8723727082
 20
2.3796349826
 30
0.0
  0
SPLINE
  5
2F2
100
AcDbEntity
  8
ALL_ASSEMBLY_MEMBERS
100
AcDbSpline
 62
7
  6
CONTINUOUS
 70
0
 71
3
 72
12
 73
8
 74
0
 42
0.0000001
 43
0.0000001
 44
0.0000000001
 40
0.0
 40
0.0
 40
0.0
 40
0.0
 40
0.243481676
 40
0.3665426722
 40
0.4906979942
 40
0.742584107
 40
1.0
 40
1.0
 40
1.0
 40
1.0
 10
4.9187662061
 20
2.3289920639
 30
0.0
 10
4.916265327
 20
2.3306459548
 30
0.0
 10
4.9125639535
 20
2.3332342364
 30
0.0
 10
4.9077609692
 20
2.3369018892
 30
0.0
 10
4.9029863431
 20
2.3407731978
 30
0.0
 10
4.8971588171
 20
2.3459669309
 30
0.0
 10
4.8927680106
 20
2.3504538646
 30
0.0
 10
4.8906348268
 20
2.3527985757
 30
0.0
  0
SPLINE
  5
2F3
100
AcDbEntity
  8
ALL_ASSEMBLY_MEMBERS
100
AcDbSpline
 62
7
  6
CONTINUOUS
 70
0
 71
3
 72
49
 73
45
 74
0
 42
0.0000001
 43
0.0000001
 44
0.0000000001
 40
0.0
 40
0.0
 40
0.0
 40
0.0
 40
0.0088277335
 40
0.0181947695
 40
0.0281046657
 40
0.0385581035
 40
0.0495523724
 40
0.0610825288
 40
0.0731416667
 40
0.0857205193
 40
0.0988086556
 40
0.1123938688
 40
0.1409989561
 40
0.171415039
 40
0.2035034163
 40
0.2371112093
 40
0.2720734548
 40
0.3082150706
 40
0.3453524397
 40
0.3832948364
 40
0.4218458874
 40
0.4608051144
 40
0.4999692849
 40
0.5391337404
 40
0.5780938205
 40
0.6166462874
 40
0.6545906524
 40
0.6917305287
 40
0.7278751738
 40
0.7628409488
 40
0.7964527449
 40
0.8285455674
 40
0.8589665032
 40
0.8875768086
 40
0.9011647506
 40
0.9142556892
 40
0.9268374059
 40
0.9388994632
 40
0.9504325851
 40
0.9614298515
 40
0.9718863097
 40
0.9817992317
 40
0.9911692819
 40
1.0
 40
1.0
 40
1.0
 40
1.0
 10
5.5138231105
 20
2.3290185907
 30
0.0
 10
5.5123256851
 20
2.3280277862
 30
0.0
 10
5.5091857219
 20
2.3260659263
 30
0.0
 10
5.5042056392
 20
2.3232562468
 30
0.0
 10
5.4988233506
 20
2.320496513
 30
0.0
 10
5.4930462569
 20
2.3177908757
 30
0.0
 10
5.4868823108
 20
2.3151428182
 30
0.0
 10
5.4803399938
 20
2.3125560694
 30
0.0
 10
5.4734283138
 20
2.3100343742
 30
0.0
 10
5.4661569147
 20
2.3075810429
 30
0.0
 10
5.4585358458
 20
2.3051996766
 30
0.0
 10
5.4477356943
 20
2.3020709613
 30
0.0
 10
5.4334322375
 20
2.298381487
 30
0.0
 10
5.4153386276
 20
2.2943629365
 30
0.0
 10
5.3961323697
 20
2.2907034824
 30
0.0
 10
5.3759206625
 20
2.2874239013
 30
0.0
 10
5.3548161761
 20
2.2845428331
 30
0.0
 10
5.3329367867
 20
2.2820766502
 30
0.0
 10
5.3104047469
 20
2.280039385
 30
0.0
 10
5.2873460469
 20
2.2784426237
 30
0.0
 10
5.2638896793
 20
2.277295378
 30
0.0
 10
5.2401668828
 20
2.2766041453
 30
0.0
 10
5.216310397
 20
2.2763728571
 30
0.0
 10
5.1924537251
 20
2.2766028626
 30
0.0
 10
5.1687303719
 20
2.2772928195
 30
0.0
 10
5.14527308
 20
2.2784388039
 30
0.0
 10
5.1222130933
 20
2.2800343257
 30
0.0
 10
5.0996794117
 20
2.2820703804
 30
0.0
 10
5.0777980347
 20
2.2845353881
 30
0.0
 10
5.0566912261
 20
2.2874153232
 30
0.0
 10
5.0364768757
 20
2.2906938201
 30
0.0
 10
5.0172676689
 20
2.2943522455
 30
0.0
 10
4.999170821
 20
2.2983698278
 30
0.0
 10
4.9848644749
 20
2.3020585161
 30
0.0
 10
4.9740618741
 20
2.3051866317
 30
0.0
 10
4.9664388884
 20
2.3075675874
 30
0.0
 10
4.959165515
 20
2.3100205284
 30
0.0
 10
4.952251806
 20
2.3125418524
 30
0.0
 10
4.9457074078
 20
2.3151282489
 30
0.0
 10
4.9395413322
 20
2.3177759761
 30
0.0
 10
4.9337620628
 20
2.3204813021
 30
0.0
 10
4.9283775562
 20
2.3232407461
 30
0.0
 10
4.9233952168
 20
2.3260501578
 30
0.0
 10
4.9202537011
 20
2.3280118323
 30
0.0
 10
4.9187554896
 20
2.3290025486
 30
0.0
  0
SPLINE
  5
2F4
100
AcDbEntity
  8
ALL_ASSEMBLY_MEMBERS
100
AcDbSpline
 62
7
  6
CONTINUOUS
 70
0
 71
3
 72
11
 73
7
 74
0
 42
0.0000001
 43
0.0000001
 44
0.0000000001
 40
0.0
 40
0.0
 40
0.0
 40
0.0
 40
0.2575931679
 40
0.5093412738
 40
0.7564004681
 40
1.0
 40
1.0
 40
1.0
 40
1.0
 10
5.5419295099
 20
2.3528112672
 30
0.0
 10
5.5397962412
 20
2.3504669987
 30
0.0
 10
5.5354086124
 20
2.3459831377
 30
0.0
 10
5.5284612597
 20
2.3397802992
 30
0.0
 10
5.5212753903
 20
2.3341312788
 30
0.0
 10
5.5163227932
 20
2.3306727026
 30
0.0
 10
5.5138231133
 20
2.3290185733
 30
0.0
  0
SPLINE
  5
2F5
100
AcDbEntity
  8
ALL_ASSEMBLY_MEMBERS
100
AcDbSpline
 62
7
  6
CONTINUOUS
 70
0
 71
3
 72
9
 73
5
 74
0
 42
0.0000001
 43
0.0000001
 44
0.0000000001
 40
0.0
 40
0.0
 40
0.0
 40
0.0
 40
0.4966425346
 40
1.0
 40
1.0
 40
1.0
 40
1.0
 10
5.555581369
 20
2.3718878928
 30
0.0
 10
5.5584124036
 20
2.3762322246
 30
0.0
 10
5.563498486
 20
2.3853972979
 30
0.0
 10
5.5671284966
 20
2.395242331
 30
0.0
 10
5.5685271444
 20
2.4003082724
 30
0.0
  0
SPLINE
  5
2F6
100
AcDbEntity
  8
ALL_ASSEMBLY_MEMBERS
100
AcDbSpline
 62
7
  6
CONTINUOUS
 70
0
 71
3
 72
9
 73
5
 74
0
 42
0.0000001
 43
0.0000001
 44
0.0000000001
 40
0.0
 40
0.0
 40
0.0
 40
0.0
 40
0.4780737216
 40
1.0
 40
1.0
 40
1.0
 40
1.0
 10
4.9592568273
 20
2.3866684779
 30
0.0
 10
4.9616013076
 20
2.3880575894
 30
0.0
 10
4.9666147344
 20
2.3907801849
 30
0.0
 10
4.9717796217
 20
2.3931988447
 30
0.0
 10
4.9745036384
 20
2.3943950112
 30
0.0
  0
SPLINE
  5
2F7
100
AcDbEntity
  8
ALL_ASSEMBLY_MEMBERS
100
AcDbSpline
 62
7
  6
CONTINUOUS
 70
0
 71
3
 72
9
 73
5
 74
0
 42
0.0000001
 43
0.0000001
 44
0.0000000001
 40
0.0
 40
0.0
 40
0.0
 40
0.0
 40
0.2496190767
 40
1.0
 40
1.0
 40
1.0
 40
1.0
 10
5.5638609304
 20
2.4711547186
 30
0.0
 10
5.5643249111
 20
2.4700937539
 30
0.0
 10
5.5661107103
 20
2.4658119941
 30
0.0
 10
5.5675967639
 20
2.4614043521
 30
0.0
 10
5.5685235986
 20
2.4580489899
 30
0.0
  0
SPLINE
  5
2F8
100
AcDbEntity
  8
ALL_ASSEMBLY_MEMBERS
100
AcDbSpline
 62
7
  6
CONTINUOUS
 70
0
 71
3
 72
16
 73
12
 74
0
 42
0.0000001
 43
0.0000001
 44
0.0000000001
 40
0.0
 40
0.0
 40
0.0
 40
0.0
 40
0.1277374828
 40
0.2588025947
 40
0.3251041119
 40
0.3915603938
 40
0.5236667247
 40
0.6526006269
 40
0.7759671486
 40
0.8920255062
 40
1.0
 40
1.0
 40
1.0
 40
1.0
 10
5.555581369
 20
2.3903480618
 30
0.0
 10
5.5573149943
 20
2.3937386744
 30
0.0
 10
5.560512399
 20
2.400774172
 30
0.0
 10
5.5636800146
 20
2.4099505945
 30
0.0
 10
5.5656926368
 20
2.4175569455
 30
0.0
 10
5.5673232279
 20
2.425285773
 30
0.0
 10
5.5685905367
 20
2.4349870018
 30
0.0
 10
5.5688085722
 20
2.4464696202
 30
0.0
 10
5.5677041502
 20
2.4574246036
 30
0.0
 10
5.5653389334
 20
2.4675378555
 30
0.0
 10
5.5629130378
 20
2.4737908531
 30
0.0
 10
5.5615181006
 20
2.4766918364
 30
0.0
  0
SPLINE
  5
2F9
100
AcDbEntity
  8
ALL_ASSEMBLY_MEMBERS
100
AcDbSpline
 62
7
  6
CONTINUOUS
 70
0
 71
3
 72
20
 73
16
 74
0
 42
0.0000001
 43
0.0000001
 44
0.0000000001
 40
0.0
 40
0.0
 40
0.0
 40
0.0
 40
0.1317927304
 40
0.2682475974
 40
0.4064665692
 40
0.4750762129
 40
0.5426359046
 40
0.6086319686
 40
0.6726009977
 40
0.7341595593
 40
0.7930277116
 40
0.8490412832
 40
0.9021526396
 40
0.9524215572
 40
1.0
 40
1.0
 40
1.0
 40
1.0
 10
5.5499948989
 20
2.3994770195
 30
0.0
 10
5.5517490433
 20
2.4034924671
 30
0.0
 10
5.5549280021
 20
2.4118426198
 30
0.0
 10
5.5585020835
 20
2.4248966124
 30
0.0
 10
5.5603985868
 20
2.4361749223
 30
0.0
 10
5.5611804127
 20
2.4452681824
 30
0.0
 10
5.5613798668
 20
2.4519906957
 30
0.0
 10
5.5611894999
 20
2.4585592052
 30
0.0
 10
5.5606132205
 20
2.4649051744
 30
0.0
 10
5.5596628122
 20
2.4709665108
 30
0.0
 10
5.5583568934
 20
2.476690677
 30
0.0
 10
5.5567193858
 20
2.4820361974
 30
0.0
 10
5.554777606
 20
2.4869733577
 30
0.0
 10
5.5525611164
 20
2.4914828137
 30
0.0
 10
5.5508756169
 20
2.4942713702
 30
0.0
 10
5.5499948989
 20
2.4955854257
 30
0.0
  0
SPLINE
  5
2FA
100
AcDbEntity
  8
ALL_ASSEMBLY_MEMBERS
100
AcDbSpline
 62
7
  6
CONTINUOUS
 70
0
 71
3
 72
20
 73
16
 74
0
 42
0.0000001
 43
0.0000001
 44
0.0000000001
 40
0.0
 40
0.0
 40
0.0
 40
0.0
 40
0.1317486851
 40
0.2690973123
 40
0.4088064106
 40
0.4782317819
 40
0.5465665854
 40
0.6132219033
 40
0.6776575391
 40
0.7394146077
 40
0.798141822
 40
0.8536101845
 40
0.9057158283
 40
0.9544728164
 40
1.0
 40
1.0
 40
1.0
 40
1.0
 10
5.5407521475
 20
2.4084048317
 30
0.0
 10
5.5422207386
 20
2.4124816802
 30
0.0
 10
5.5448757455
 20
2.4209370005
 30
0.0
 10
5.5478482682
 20
2.4340646599
 30
0.0
 10
5.5494246497
 20
2.4453673047
 30
0.0
 10
5.5500758796
 20
2.4544728541
 30
0.0
 10
5.5502421793
 20
2.4611968041
 30
0.0
 10
5.5500839217
 20
2.4677568548
 30
0.0
 10
5.5496044073
 20
2.4740845866
 30
0.0
 10
5.5488135251
 20
2.4801183385
 30
0.0
 10
5.5477268378
 20
2.4858061958
 30
0.0
 10
5.5463642972
 20
2.4911074955
 30
0.0
 10
5.5447486346
 20
2.4959934617
 30
0.0
 10
5.5429043434
 20
2.5004458277
 30
0.0
 10
5.5414918524
 20
2.5032112798
 30
0.0
 10
5.5407521475
 20
2.504513238
 30
0.0
  0
SPLINE
  5
2FB
100
AcDbEntity
  8
ALL_ASSEMBLY_MEMBERS
100
AcDbSpline
 62
7
  6
CONTINUOUS
 70
0
 71
3
 72
20
 73
16
 74
0
 42
0.0000001
 43
0.0000001
 44
0.0000000001
 40
0.0
 40
0.0
 40
0.0
 40
0.0
 40
0.1316862725
 40
0.2698143381
 40
0.4108393993
 40
0.4809899967
 40
0.5500183879
 40
0.617269831
 40
0.682136329
 40
0.7440912402
 40
0.8027173821
 40
0.8577231255
 40
0.9089462752
 40
0.9563478033
 40
1.0
 40
1.0
 40
1.0
 40
1.0
 10
5.5279543805
 20
2.4170336835
 30
0.0
 10
5.5291182609
 20
2.4211625444
 30
0.0
 10
5.5312175283
 20
2.4297052462
 30
0.0
 10
5.5335592501
 20
2.4428911323
 30
0.0
 10
5.5348005074
 20
2.4542120461
 30
0.0
 10
5.5353142328
 20
2.4633270661
 30
0.0
 10
5.5354455259
 20
2.4700520445
 30
0.0
 10
5.5353208811
 20
2.4766050322
 30
0.0
 10
5.5349429428
 20
2.4829176535
 30
0.0
 10
5.5343195839
 20
2.4889285435
 30
0.0
 10
5.5334631587
 20
2.4945862259
 30
0.0
 10
5.5323894854
 20
2.4998506344
 30
0.0
 10
5.5311165792
 20
2.5046936901
 30
0.0
 10
5.5296637624
 20
2.5090980383
 30
0.0
 10
5.5285430292
 20
2.5118476497
 30
0.0
 10
5.5279543805
 20
2.5131420897
 30
0.0
  0
SPLINE
  5
2FC
100
AcDbEntity
  8
ALL_ASSEMBLY_MEMBERS
100
AcDbSpline
 62
7
  6
CONTINUOUS
 70
0
 71
3
 72
21
 73
17
 74
0
 42
0.0000001
 43
0.0000001
 44
0.0000000001
 40
0.0
 40
0.0
 40
0.0
 40
0.0
 40
0.1316265876
 40
0.2703889058
 40
0.3413163779
 40
0.4124901786
 40
0.4832312839
 40
0.5528264558
 40
0.6205658805
 40
0.6857949744
 40
0.7479205848
 40
0.8064803032
 40
0.8611135006
 40
0.9116348958
 40
0.9579332584
 40
1.0
 40
1.0
 40
1.0
 40
1.0
 10
5.5117418127
 20
2.4252690353
 30
0.0
 10
5.512585182
 20
2.4294389105
 30
0.0
 10
5.5141031492
 20
2.4380492398
 30
0.0
 10
5.5155008332
 20
2.4489964748
 30
0.0
 10
5.5163247271
 20
2.4580375831
 30
0.0
 10
5.5167797052
 20
2.4649025629
 30
0.0
 10
5.5170569233
 20
2.4717339257
 30
0.0
 10
5.5171521778
 20
2.4784593021
 30
0.0
 10
5.517061895
 20
2.48500664
 30
0.0
 10
5.5167897116
 20
2.4913073894
 30
0.0
 10
5.5163396225
 20
2.4973005397
 30
0.0
 10
5.5157224386
 20
2.5029345295
 30
0.0
 10
5.5149479848
 20
2.5081703417
 30
0.0
 10
5.5140304803
 20
2.5129803702
 30
0.0
 10
5.512982885
 20
2.5173471173
 30
0.0
 10
5.5121701681
 20
2.5200870407
 30
0.0
 10
5.5117418127
 20
2.5213774415
 30
0.0
  0
SPLINE
  5
2FD
100
AcDbEntity
  8
ALL_ASSEMBLY_MEMBERS
100
AcDbSpline
 62
7
  6
CONTINUOUS
 70
0
 71
3
 72
21
 73
17
 74
0
 42
0.0000001
 43
0.0000001
 44
0.0000000001
 40
0.0
 40
0.0
 40
0.0
 40
0.0
 40
0.1315784606
 40
0.2707826507
 40
0.3420641074
 40
0.4136419062
 40
0.4848063428
 40
0.5548100063
 40
0.6229080267
 40
0.6883987421
 40
0.7506603021
 40
0.8091802146
 40
0.8635719355
 40
0.9135782152
 40
0.9590634363
 40
1.0
 40
1.0
 40
1.0
 40
1.0
 10
5.4922920725
 20
2.4330206588
 30
0.0
 10
5.4928030191
 20
2.4372187503
 30
0.0
 10
5.4937213557
 20
2.4458748563
 30
0.0
 10
5.4945644757
 20
2.4568383951
 30
0.0
 10
5.4950623038
 20
2.4658908154
 30
0.0
 10
5.4953369968
 20
2.4727645515
 30
0.0
 10
5.495504749
 20
2.4796006494
 30
0.0
 10
5.4955620859
 20
2.4863267412
 30
0.0
 10
5.4955078304
 20
2.4928705177
 30
0.0
 10
5.4953431931
 20
2.4991635592
 30
0.0
 10
5.4950716571
 20
2.5051447827
 30
0.0
 10
5.494698688
 20
2.510763121
 30
0.0
 10
5.4942312796
 20
2.5159790856
 30
0.0
 10
5.4936774463
 20
2.5207651773
 30
0.0
 10
5.4930457276
 20
2.5251050383
 30
0.0
 10
5.4925527139
 20
2.5278393948
 30
0.0
 10
5.4922920725
 20
2.529129065
 30
0.0
  0
SPLINE
  5
2FE
100
AcDbEntity
  8
ALL_ASSEMBLY_MEMBERS
100
AcDbSpline
 62
7
  6
CONTINUOUS
 70
0
 71
3
 72
17
 73
13
 74
0
 42
0.0000001
 43
0.0000001
 44
0.0000000001
 40
0.0
 40
0.0
 40
0.0
 40
0.0
 40
0.1315546698
 40
0.2709914102
 40
0.4142421477
 40
0.5558413587
 40
0.6897531504
 40
0.8105875152
 40
0.8648518744
 40
0.9145981589
 40
0.9596660931
 40
1.0
 40
1.0
 40
1.0
 40
1.0
 10
5.4698182553
 20
2.4402036257
 30
0.0
 10
5.4699894076
 20
2.4444161951
 30
0.0
 10
5.47029679
 20
2.4530956145
 30
0.0
 10
5.4706376286
 20
2.4663670087
 30
0.0
 10
5.4708538749
 20
2.479962993
 30
0.0
 10
5.4709305163
 20
2.4933834471
 30
0.0
 10
5.4708619462
 20
2.5060855525
 30
0.0
 10
5.4706833776
 20
2.515987439
 30
0.0
 10
5.4704672812
 20
2.5231900728
 30
0.0
 10
5.4702821226
 20
2.5279642048
 30
0.0
 10
5.4700709987
 20
2.5322903387
 30
0.0
 10
5.469905773
 20
2.5350223829
 30
0.0
 10
5.4698182553
 20
2.5363120319
 30
0.0
  0
SPLINE
  5
2FF
100
AcDbEntity
  8
ALL_ASSEMBLY_MEMBERS
100
AcDbSpline
 62
7
  6
CONTINUOUS
 70
0
 71
3
 72
17
 73
13
 74
0
 42
0.0000001
 43
0.0000001
 44
0.0000000001
 40
0.0
 40
0.0
 40
0.0
 40
0.0
 40
0.040332708
 40
0.0854002609
 40
0.1351457609
 40
0.1894100372
 40
0.3102448128
 40
0.4441584269
 40
0.585760344
 40
0.7290118435
 40
0.8684475774
 40
1.0
 40
1.0
 40
1.0
 40
1.0
 10
4.9627360925
 20
2.5363120319
 30
0.0
 10
4.9626485774
 20
2.5350224212
 30
0.0
 10
4.962483355
 20
2.5322904276
 30
0.0
 10
4.9622722319
 20
2.5279643695
 30
0.0
 10
4.9620870751
 20
2.5231902775
 30
0.0
 10
4.9618709769
 20
2.5159876583
 30
0.0
 10
4.9616924076
 20
2.506085703
 30
0.0
 10
4.9616238229
 20
2.4933834394
 30
0.0
 10
4.9617004789
 20
2.4799628158
 30
0.0
 10
4.9619167258
 20
2.4663667526
 30
0.0
 10
4.9622575632
 20
2.4530954383
 30
0.0
 10
4.9625649432
 20
2.4444161232
 30
0.0
 10
4.9627360925
 20
2.4402036257
 30
0.0
  0
SPLINE
  5
300
100
AcDbEntity
  8
ALL_ASSEMBLY_MEMBERS
100
AcDbSpline
 62
7
  6
CONTINUOUS
 70
0
 71
3
 72
21
 73
17
 74
0
 42
0.0000001
 43
0.0000001
 44
0.0000000001
 40
0.0
 40
0.0
 40
0.0
 40
0.0
 40
0.0409353491
 40
0.0864201941
 40
0.1364256876
 40
0.1908173293
 40
0.2493373603
 40
0.3115992178
 40
0.377090426
 40
0.4451897805
 40
0.5151950916
 40
0.5863605789
 40
0.6579389712
 40
0.7292205963
 40
0.8684237837
 40
1.0
 40
1.0
 40
1.0
 40
1.0
 10
4.9402622753
 20
2.529129065
 30
0.0
 10
4.9400016417
 20
2.527839433
 30
0.0
 10
4.9395086375
 20
2.5251051269
 30
0.0
 10
4.9388769215
 20
2.5207653427
 30
0.0
 10
4.9383230938
 20
2.5159792905
 30
0.0
 10
4.9378556819
 20
2.5107633504
 30
0.0
 10
4.9374827142
 20
2.5051450011
 30
0.0
 10
4.9372111694
 20
2.4991637489
 30
0.0
 10
4.9370465134
 20
2.4928706397
 30
0.0
 10
4.9369922476
 20
2.4863267515
 30
0.0
 10
4.9370495945
 20
2.4796005301
 30
0.0
 10
4.9372173653
 20
2.4727643269
 30
0.0
 10
4.9374920667
 20
2.4658905329
 30
0.0
 10
4.9379898934
 20
2.4568381203
 30
0.0
 10
4.9388330086
 20
2.4458746805
 30
0.0
 10
4.9397513375
 20
2.4372186787
 30
0.0
 10
4.9402622753
 20
2.4330206588
 30
0.0
  0
SPLINE
  5
301
100
AcDbEntity
  8
ALL_ASSEMBLY_MEMBERS
100
AcDbSpline
 62
7
  6
CONTINUOUS
 70
0
 71
3
 72
21
 73
17
 74
0
 42
0.0000001
 43
0.0000001
 44
0.0000000001
 40
0.0
 40
0.0
 40
0.0
 40
0.0
 40
0.042066702
 40
0.0883650419
 40
0.138886534
 40
0.1935198195
 40
0.2520795129
 40
0.3142050749
 40
0.3794341321
 40
0.4471735444
 40
0.5167687042
 40
0.587509767
 40
0.6586834969
 40
0.7296109457
 40
0.8683734958
 40
1.0
 40
1.0
 40
1.0
 40
1.0
 10
4.9208125351
 20
2.5213774415
 30
0.0
 10
4.9203841801
 20
2.5200870419
 30
0.0
 10
4.9195714629
 20
2.5173471207
 30
0.0
 10
4.9185238674
 20
2.5129803724
 30
0.0
 10
4.9176063637
 20
2.5081703385
 30
0.0
 10
4.9168319083
 20
2.5029345213
 30
0.0
 10
4.9162147236
 20
2.4973005311
 30
0.0
 10
4.9157646362
 20
2.4913073843
 30
0.0
 10
4.9154924528
 20
2.485006638
 30
0.0
 10
4.9154021701
 20
2.4784593021
 30
0.0
 10
4.9154974245
 20
2.4717339279
 30
0.0
 10
4.9157746425
 20
2.4649025691
 30
0.0
 10
4.9162296191
 20
2.4580375936
 30
0.0
 10
4.9170535146
 20
2.448996481
 30
0.0
 10
4.9184511975
 20
2.4380492418
 30
0.0
 10
4.9199691664
 20
2.4294389078
 30
0.0
 10
4.9208125351
 20
2.4252690353
 30
0.0
  0
SPLINE
  5
302
100
AcDbEntity
  8
ALL_ASSEMBLY_MEMBERS
100
AcDbSpline
 62
7
  6
CONTINUOUS
 70
0
 71
3
 72
20
 73
16
 74
0
 42
0.0000001
 43
0.0000001
 44
0.0000000001
 40
0.0
 40
0.0
 40
0.0
 40
0.0
 40
0.0436509108
 40
0.0910520847
 40
0.1422744405
 40
0.1972801213
 40
0.2559063862
 40
0.3178616154
 40
0.3827286321
 40
0.4499814042
 40
0.5190114175
 40
0.5891630539
 40
0.7301888784
 40
0.8683159595
 40
1.0
 40
1.0
 40
1.0
 40
1.0
 10
4.9045999674
 20
2.5131420897
 30
0.0
 10
4.904011336
 20
2.5118476879
 30
0.0
 10
4.9028906243
 20
2.5090981259
 30
0.0
 10
4.901437815
 20
2.5046938588
 30
0.0
 10
4.9001649209
 20
2.4998508407
 30
0.0
 10
4.8990912399
 20
2.4945864583
 30
0.0
 10
4.8982348175
 20
2.488928763
 30
0.0
 10
4.8976114389
 20
2.4829178443
 30
0.0
 10
4.8972334576
 20
2.476605155
 30
0.0
 10
4.897108789
 20
2.4700520544
 30
0.0
 10
4.8972401051
 20
2.463326946
 30
0.0
 10
4.8977538863
 20
2.4542118179
 30
0.0
 10
4.8989951428
 20
2.4428908786
 30
0.0
 10
4.9013368569
 20
2.429705072
 30
0.0
 10
4.9034361067
 20
2.4211624743
 30
0.0
 10
4.9045999674
 20
2.4170336835
 30
0.0
  0
SPLINE
  5
303
100
AcDbEntity
  8
ALL_ASSEMBLY_MEMBERS
100
AcDbSpline
 62
7
  6
CONTINUOUS
 70
0
 71
3
 72
20
 73
16
 74
0
 42
0.0000001
 43
0.0000001
 44
0.0000000001
 40
0.0
 40
0.0
 40
0.0
 40
0.0
 40
0.0455258481
 40
0.0942824965
 40
0.1463873403
 40
0.2018556518
 40
0.2605829923
 40
0.322340394
 40
0.3867765681
 40
0.4534332119
 40
0.5217696189
 40
0.5911960203
 40
0.7309058826
 40
0.8682535379
 40
1.0
 40
1.0
 40
1.0
 40
1.0
 10
4.8918022003
 20
2.504513238
 30
0.0
 10
4.8910625171
 20
2.503211318
 30
0.0
 10
4.889650053
 20
2.5004459148
 30
0.0
 10
4.8878057725
 20
2.4959936327
 30
0.0
 10
4.8861901245
 20
2.4911077029
 30
0.0
 10
4.8848275746
 20
2.4858064305
 30
0.0
 10
4.8837408905
 20
2.4801185589
 30
0.0
 10
4.8829499835
 20
2.4740847781
 30
0.0
 10
4.8824704147
 20
2.4677569783
 30
0.0
 10
4.8823121268
 20
2.4611968137
 30
0.0
 10
4.8824784556
 20
2.4544727335
 30
0.0
 10
4.8831297562
 20
2.4453670778
 30
0.0
 10
4.8847061367
 20
2.4340644077
 30
0.0
 10
4.8876786498
 20
2.4209368276
 30
0.0
 10
4.890333634
 20
2.4124816112
 30
0.0
 10
4.8918022003
 20
2.4084048317
 30
0.0
  0
SPLINE
  5
304
100
AcDbEntity
  8
ALL_ASSEMBLY_MEMBERS
100
AcDbSpline
 62
7
  6
CONTINUOUS
 70
0
 71
3
 72
20
 73
16
 74
0
 42
0.0000001
 43
0.0000001
 44
0.0000000001
 40
0.0
 40
0.0
 40
0.0
 40
0.0
 40
0.0475770528
 40
0.0978456455
 40
0.1509561947
 40
0.2069697281
 40
0.2658380104
 40
0.3273969226
 40
0.3913665127
 40
0.4573638999
 40
0.5249251739
 40
0.5935358371
 40
0.731755573
 40
0.8682094824
 40
1.0
 40
1.0
 40
1.0
 40
1.0
 10
4.8825594489
 20
2.4955854257
 30
0.0
 10
4.8816787567
 20
2.4942714086
 30
0.0
 10
4.879993289
 20
2.4914829005
 30
0.0
 10
4.8777768133
 20
2.4869735313
 30
0.0
 10
4.8758350504
 20
2.4820364063
 30
0.0
 10
4.8741975321
 20
2.4766909144
 30
0.0
 10
4.8728916167
 20
2.4709667324
 30
0.0
 10
4.871941179
 20
2.464905367
 30
0.0
 10
4.8713648343
 20
2.4585593294
 30
0.0
 10
4.871174431
 20
2.4519907048
 30
0.0
 10
4.87137392
 20
2.4452680611
 30
0.0
 10
4.8721558308
 20
2.4361746969
 30
0.0
 10
4.8740523326
 20
2.4248963621
 30
0.0
 10
4.8776264026
 20
2.4118424485
 30
0.0
 10
4.8808053341
 20
2.4034923994
 30
0.0
 10
4.8825594489
 20
2.3994770195
 30
0.0
  0
SPLINE
  5
305
100
AcDbEntity
  8
ALL_ASSEMBLY_MEMBERS
100
AcDbSpline
 62
7
  6
CONTINUOUS
 70
0
 71
3
 72
13
 73
9
 74
0
 42
0.0000001
 43
0.0000001
 44
0.0000000001
 40
0.0
 40
0.0
 40
0.0
 40
0.0
 40
0.2493664534
 40
0.5039421035
 40
0.6312012046
 40
0.7569837382
 40
0.8802282982
 40
1.0
 40
1.0
 40
1.0
 40
1.0
 10
5.5574503514
 20
2.3811179773
 30
0.0
 10
5.5602472393
 20
2.3859146597
 30
0.0
 10
5.5652072637
 20
2.3960308433
 30
0.0
 10
5.5694215481
 20
2.4095060204
 30
0.0
 10
5.5714266035
 20
2.4206419514
 30
0.0
 10
5.5721851814
 20
2.428997995
 30
0.0
 10
5.5721734844
 20
2.4372212855
 30
0.0
 10
5.5716428747
 20
2.4426169728
 30
0.0
 10
5.5712454163
 20
2.4452540982
 30
0.0
  0
SPLINE
  5
306
100
AcDbEntity
  8
ALL_ASSEMBLY_MEMBERS
100
AcDbSpline
 62
7
  6
CONTINUOUS
 70
0
 71
3
 72
16
 73
12
 74
0
 42
0.0000001
 43
0.0000001
 44
0.0000000001
 40
0.0
 40
0.0
 40
0.0
 40
0.0
 40
0.1367236791
 40
0.204136953
 40
0.2707935882
 40
0.4015214748
 40
0.5285519448
 40
0.6517327385
 40
0.7711522012
 40
0.8870969149
 40
1.0
 40
1.0
 40
1.0
 40
1.0
 10
5.5713196358
 20
2.4432068454
 30
0.0
 10
5.571577888
 20
2.4406326246
 30
0.0
 10
5.57178747
 20
2.4367679446
 30
0.0
 10
5.5716925681
 20
2.4316432085
 30
0.0
 10
5.5713539603
 20
2.4266422803
 30
0.0
 10
5.5704816026
 20
2.4205542812
 30
0.0
 10
5.5687237074
 20
2.4135501786
 30
0.0
 10
5.5663061195
 20
2.4069726112
 30
0.0
 10
5.5632857547
 20
2.4008823843
 30
0.0
 10
5.5597274955
 20
2.3953208131
 30
0.0
 10
5.5570075267
 20
2.391938746
 30
0.0
 10
5.555581369
 20
2.3903480618
 30
0.0
  0
SPLINE
  5
307
100
AcDbEntity
  8
ALL_ASSEMBLY_MEMBERS
100
AcDbSpline
 62
7
  6
CONTINUOUS
 70
0
 71
3
 72
9
 73
5
 74
0
 42
0.0000001
 43
0.0000001
 44
0.0000000001
 40
0.0
 40
0.0
 40
0.0
 40
0.0
 40
0.488103212
 40
1.0
 40
1.0
 40
1.0
 40
1.0
 10
4.8769729788
 20
2.3718878928
 30
0.0
 10
4.8758469371
 20
2.3733703981
 30
0.0
 10
4.8736996451
 20
2.3765317396
 30
0.0
 10
4.8718823323
 20
2.3798929613
 30
0.0
 10
4.8710362471
 20
2.3816525242
 30
0.0
  0
SPLINE
  5
308
100
AcDbEntity
  8
ALL_ASSEMBLY_MEMBERS
100
AcDbSpline
 62
7
  6
CONTINUOUS
 70
0
 71
3
 72
50
 73
46
 74
0
 42
0.0000001
 43
0.0000001
 44
0.0000000001
 40
0.0
 40
0.0
 40
0.0
 40
0.0
 40
0.0053398951
 40
0.0107826343
 40
0.0164222888
 40
0.0223431952
 40
0.0254332785
 40
0.0286196244
 40
0.0353066709
 40
0.0424529403
 40
0.0500941687
 40
0.0582574405
 40
0.0669619018
 40
0.0762210219
 40
0.0860430931
 40
0.0964319062
 40
0.1073882826
 40
0.1189095451
 40
0.1309906419
 40
0.143624549
 40
0.1568017496
 40
0.1705114972
 40
0.1847412781
 40
0.2147025124
 40
0.2465609704
 40
0.2801734801
 40
0.3153820771
 40
0.3520162588
 40
0.3898949786
 40
0.4288282601
 40
0.4686186404
 40
0.5090627452
 40
0.5499528416
 40
0.5910782038
 40
0.6322264849
 40
0.6731852099
 40
0.7137432015
 40
0.7536919255
 40
0.7928269243
 40
0.8309494055
 40
0.8678676488
 40
0.9033984755
 40
0.9373689258
 40
0.9696182893
 40
1.0
 40
1.0
 40
1.0
 40
1.0
 10
5.5357771739
 20
2.359142558
 30
0.0
 10
5.5357771739
 20
2.3601704186
 30
0.0
 10
5.5356261917
 20
2.362248901
 30
0.0
 10
5.5349511393
 20
2.365346917
 30
0.0
 10
5.5338298989
 20
2.3684314299
 30
0.0
 10
5.5325454244
 20
2.3709495656
 30
0.0
 10
5.5313117808
 20
2.3729481555
 30
0.0
 10
5.5298923256
 20
2.3750016352
 30
0.0
 10
5.5278318835
 20
2.3775551229
 30
0.0
 10
5.5249690887
 20
2.3805426272
 30
0.0
 10
5.5216812274
 20
2.3834986682
 30
0.0
 10
5.5179727511
 20
2.3864194279
 30
0.0
 10
5.5138487348
 20
2.3893018439
 30
0.0
 10
5.5093144967
 20
2.3921421258
 30
0.0
 10
5.5043760567
 20
2.3949366038
 30
0.0
 10
5.4990400894
 20
2.3976817737
 30
0.0
 10
5.4933136646
 20
2.4003736616
 30
0.0
 10
5.4872046198
 20
2.4030087957
 30
0.0
 10
5.480721254
 20
2.4055835476
 30
0.0
 10
5.473872383
 20
2.4080942059
 30
0.0
 10
5.4666674529
 20
2.4105375225
 30
0.0
 10
5.4591163052
 20
2.4129099734
 30
0.0
 10
5.4484155207
 20
2.4160280698
 30
0.0
 10
5.4342432349
 20
2.4197075568
 30
0.0
 10
5.4163141733
 20
2.4237193974
 30
0.0
 10
5.3972802884
 20
2.4273774973
 30
0.0
 10
5.377246558
 20
2.4306613529
 30
0.0
 10
5.3563233286
 20
2.4335525182
 30
0.0
 10
5.3346260656
 20
2.4360347573
 30
0.0
 10
5.312274561
 20
2.4380941018
 30
0.0
 10
5.2893923143
 20
2.4397190041
 30
0.0
 10
5.2661058102
 20
2.440900399
 30
0.0
 10
5.2425437851
 20
2.4416316703
 30
0.0
 10
5.2188365134
 20
2.4419086931
 30
0.0
 10
5.1951150894
 20
2.4417299003
 30
0.0
 10
5.1715106844
 20
2.4410963361
 30
0.0
 10
5.1481538106
 20
2.4400115521
 30
0.0
 10
5.1251736065
 20
2.4384816
 30
0.0
 10
5.102697101
 20
2.4365150218
 30
0.0
 10
5.0808484835
 20
2.4341228882
 30
0.0
 10
5.0597484006
 20
2.4313186272
 30
0.0
 10
5.0395133466
 20
2.4281179737
 30
0.0
 10
5.0202547748
 20
2.4245388634
 30
0.0
 10
5.002079034
 20
2.4206015152
 30
0.0
 10
4.9903844377
 20
2.4176607308
 30
0.0
 10
4.9847416515
 20
2.4161248041
 30
0.0
  0
SPLINE
  5
309
100
AcDbEntity
  8
ALL_ASSEMBLY_MEMBERS
100
AcDbSpline
 62
7
  6
CONTINUOUS
 70
0
 71
3
 72
9
 73
5
 74
0
 42
0.0000001
 43
0.0000001
 44
0.0000000001
 40
0.0
 40
0.0
 40
0.0
 40
0.0
 40
0.5177527747
 40
1.0
 40
1.0
 40
1.0
 40
1.0
 10
4.9758772257
 20
2.4136103339
 30
0.0
 10
4.9714648346
 20
2.4123057985
 30
0.0
 10
4.9629849635
 20
2.4096396985
 30
0.0
 10
4.954618965
 20
2.4066321315
 30
0.0
 10
4.9506226328
 20
2.4050841522
 30
0.0
  0
SPLINE
  5
30A
100
AcDbEntity
  8
ALL_ASSEMBLY_MEMBERS
100
AcDbSpline
 62
7
  6
CONTINUOUS
 70
0
 71
3
 72
23
 73
19
 74
0
 42
0.0000001
 43
0.0000001
 44
0.0000000001
 40
0.0
 40
0.0
 40
0.0
 40
0.0
 40
0.0896651997
 40
0.1752743275
 40
0.2568277395
 40
0.3343419258
 40
0.4078528214
 40
0.4774258948
 40
0.5431541056
 40
0.6051637469
 40
0.6636265918
 40
0.71876155
 40
0.7708439846
 40
0.8202197706
 40
0.867305346
 40
0.9125884071
 40
0.9566196763
 40
1.0
 40
1.0
 40
1.0
 40
1.0
 10
4.9395802415
 20
2.4004880554
 30
0.0
 10
4.9378761925
 20
2.3997241408
 30
0.0
 10
4.9345654688
 20
2.3981849432
 30
0.0
 10
4.9297861029
 20
2.3957811765
 30
0.0
 10
4.9253127396
 20
2.3933382959
 30
0.0
 10
4.9211500795
 20
2.3908588829
 30
0.0
 10
4.9173025468
 20
2.3883452932
 30
0.0
 10
4.9137740198
 20
2.3858002183
 30
0.0
 10
4.9105681029
 20
2.3832261549
 30
0.0
 10
4.9076882888
 20
2.3806253342
 30
0.0
 10
4.9051374523
 20
2.3780003207
 30
0.0
 10
4.9029183418
 20
2.3753534031
 30
0.0
 10
4.9010338424
 20
2.3726865698
 30
0.0
 10
4.8994863979
 20
2.3700020666
 30
0.0
 10
4.8982786443
 20
2.3673021754
 30
0.0
 10
4.8974136367
 20
2.3645894974
 30
0.0
 10
4.896893363
 20
2.3618685791
 30
0.0
 10
4.8967771739
 20
2.3600460338
 30
0.0
 10
4.8967771739
 20
2.359142558
 30
0.0
  0
SPLINE
  5
30B
100
AcDbEntity
  8
ALL_ASSEMBLY_MEMBERS
100
AcDbSpline
 62
7
  6
CONTINUOUS
 70
0
 71
3
 72
17
 73
13
 74
0
 42
0.0000001
 43
0.0000001
 44
0.0000000001
 40
0.0
 40
0.0
 40
0.0
 40
0.0
 40
0.0497340646
 40
0.0998536896
 40
0.1507184213
 40
0.2026711054
 40
0.3110210935
 40
0.4272419797
 40
0.553112265
 40
0.6899491821
 40
0.8386980676
 40
1.0
 40
1.0
 40
1.0
 40
1.0
 10
5.5357771739
 20
2.359142558
 30
0.0
 10
5.5357771739
 20
2.3584997631
 30
0.0
 10
5.5357187515
 20
2.3572084435
 30
0.0
 10
5.5354565638
 20
2.3552757508
 30
0.0
 10
5.5350200006
 20
2.3533453077
 30
0.0
 10
5.5341948941
 20
2.3507408454
 30
0.0
 10
5.532700257
 20
2.347477524
 30
0.0
 10
5.5302435276
 20
2.3436575433
 30
0.0
 10
5.5271083739
 20
2.3398816714
 30
0.0
 10
5.5233039202
 20
2.3361547528
 30
0.0
 10
5.5188384128
 20
2.3324821045
 30
0.0
 10
5.515561741
 20
2.3301689939
 30
0.0
 10
5.5138231105
 20
2.3290185907
 30
0.0
  0
SPLINE
  5
30C
100
AcDbEntity
  8
ALL_ASSEMBLY_MEMBERS
100
AcDbSpline
 62
7
  6
CONTINUOUS
 70
0
 71
3
 72
33
 73
29
 74
0
 42
0.0000001
 43
0.0000001
 44
0.0000000001
 40
0.0
 40
0.0
 40
0.0
 40
0.0
 40
0.0972319333
 40
0.1912628728
 40
0.2815647626
 40
0.3677240452
 40
0.4493613417
 40
0.5261185309
 40
0.5625656571
 40
0.597678681
 40
0.6314269884
 40
0.6637823066
 40
0.6947225569
 40
0.7242318374
 40
0.7522980584
 40
0.7789142062
 40
0.8040834253
 40
0.8278184457
 40
0.8501407527
 40
0.8710835694
 40
0.8906985635
 40
0.909056407
 40
0.9262487927
 40
0.9423938087
 40
0.9576426468
 40
0.97217904
 40
0.9862177382
 40
1.0
 40
1.0
 40
1.0
 40
1.0
 10
5.1098228014
 20
2.2926317684
 30
0.0
 10
5.103611475
 20
2.2932977286
 30
0.0
 10
5.0914070478
 20
2.2947406421
 30
0.0
 10
5.073495089
 20
2.2972836889
 30
0.0
 10
5.0563542775
 20
2.3001601627
 30
0.0
 10
5.0400799218
 20
2.3033527716
 30
0.0
 10
5.0247582795
 20
2.3068448646
 30
0.0
 10
5.0126516526
 20
2.3100402874
 30
0.0
 10
5.0035138429
 20
2.3127447703
 30
0.0
 10
4.9970673429
 20
2.3148005845
 30
0.0
 10
4.9909174946
 20
2.3169160715
 30
0.0
 10
4.9850726882
 20
2.3190886345
 30
0.0
 10
4.9795407349
 20
2.3213153187
 30
0.0
 10
4.9743288333
 20
2.3235929123
 30
0.0
 10
4.9694439398
 20
2.3259183453
 30
0.0
 10
4.9648927774
 20
2.3282888361
 30
0.0
 10
4.9606812775
 20
2.330701147
 30
0.0
 10
4.9568147198
 20
2.3331519564
 30
0.0
 10
4.9532981607
 20
2.3356381619
 30
0.0
 10
4.9501365248
 20
2.3381571128
 30
0.0
 10
4.9473337539
 20
2.3407056821
 30
0.0
 10
4.9448932638
 20
2.3432809366
 30
0.0
 10
4.9428185502
 20
2.3458803228
 30
0.0
 10
4.941113611
 20
2.3485017405
 30
0.0
 10
4.9397816506
 20
2.3511422709
 30
0.0
 10
4.9388260227
 20
2.3537989574
 30
0.0
 10
4.9382505311
 20
2.3564670963
 30
0.0
 10
4.9381223121
 20
2.3582570792
 30
0.0
 10
4.9381224114
 20
2.3591425575
 30
0.0
  0
LINE
  5
30D
100
AcDbEntity
  8
ALL_ASSEMBLY_MEMBERS
100
AcDbLine
 62
7
  6
CONTINUOUS
 10
5.4838340209
 20
2.3781959907
 11
5.4868094483
 21
2.3751358179
  0
LINE
  5
30E
100
AcDbEntity
  8
ALL_ASSEMBLY_MEMBERS
100
AcDbLine
 62
7
  6
CONTINUOUS
 10
5.4868094483
 20
2.3751358179
 11
5.4894649809
 21
2.3717549673
  0
LINE
  5
30F
100
AcDbEntity
  8
ALL_ASSEMBLY_MEMBERS
100
AcDbLine
 62
7
  6
CONTINUOUS
 10
5.4894649809
 20
2.3717549673
 11
5.491489811
 21
2.3683447179
  0
LINE
  5
310
100
AcDbEntity
  8
ALL_ASSEMBLY_MEMBERS
100
AcDbLine
 62
7
  6
CONTINUOUS
 10
5.491489811
 20
2.3683447179
 11
5.4928822792
 21
2.36490515
  0
SPLINE
  5
311
100
AcDbEntity
  8
ALL_ASSEMBLY_MEMBERS
100
AcDbSpline
 62
7
  6
CONTINUOUS
 70
0
 71
3
 72
11
 73
7
 74
0
 42
0.0000001
 43
0.0000001
 44
0.0000000001
 40
0.0
 40
0.0
 40
0.0
 40
0.0
 40
0.2549002286
 40
0.5052579452
 40
0.7529687599
 40
1.0
 40
1.0
 40
1.0
 40
1.0
 10
5.4928822792
 20
2.36490515
 30
0.0
 10
5.4930585553
 20
2.3643384843
 30
0.0
 10
5.4933608123
 20
2.363199848
 30
0.0
 10
5.4936583244
 20
2.3614698724
 30
0.0
 10
5.493794387
 20
2.3597380997
 30
0.0
 10
5.4937774548
 20
2.3585844288
 30
0.0
 10
5.4937424448
 20
2.3580103654
 30
0.0
  0
SPLINE
  5
312
100
AcDbEntity
  8
ALL_ASSEMBLY_MEMBERS
100
AcDbSpline
 62
7
  6
CONTINUOUS
 70
0
 71
3
 72
17
 73
13
 74
0
 42
0.0000001
 43
0.0000001
 44
0.0000000001
 40
0.0
 40
0.0
 40
0.0
 40
0.0
 40
0.0464085371
 40
0.0935362294
 40
0.141810527
 40
0.1916280163
 40
0.2971905713
 40
0.4126489571
 40
0.5397016528
 40
0.6795056814
 40
0.832790671
 40
1.0
 40
1.0
 40
1.0
 40
1.0
 10
5.4937424448
 20
2.3580103654
 30
0.0
 10
5.4937032386
 20
2.3573674973
 30
0.0
 10
5.493556936
 20
2.3560749614
 30
0.0
 10
5.4931386841
 20
2.3541487345
 30
0.0
 10
5.4925211778
 20
2.3522270333
 30
0.0
 10
5.4914119735
 20
2.3496237472
 30
0.0
 10
5.4894907545
 20
2.3463726661
 30
0.0
 10
5.4864525319
 20
2.3426004149
 30
0.0
 10
5.4826491722
 20
2.3388859433
 30
0.0
 10
5.4780924495
 20
2.3352358451
 30
0.0
 10
5.472794733
 20
2.3316561928
 30
0.0
 10
5.4689455865
 20
2.3294207168
 30
0.0
 10
5.4669075798
 20
2.3283109987
 30
0.0
  0
SPLINE
  5
313
100
AcDbEntity
  8
ALL_ASSEMBLY_MEMBERS
100
AcDbSpline
 62
7
  6
CONTINUOUS
 70
0
 71
3
 72
26
 73
22
 74
0
 42
0.0000001
 43
0.0000001
 44
0.0000000001
 40
0.0
 40
0.0
 40
0.0
 40
0.0
 40
0.0192223103
 40
0.0394292799
 40
0.0606184606
 40
0.0827836108
 40
0.1059129395
 40
0.1299920699
 40
0.1809312492
 40
0.2354443519
 40
0.2933368654
 40
0.3543887626
 40
0.4183535087
 40
0.4849672928
 40
0.5539453405
 40
0.6249910495
 40
0.6977913759
 40
0.7720260753
 40
0.8473646461
 40
0.9234712193
 40
1.0
 40
1.0
 40
1.0
 40
1.0
 10
5.4669075798
 20
2.3283109987
 30
0.0
 10
5.4654931915
 20
2.327540848
 30
0.0
 10
5.4625613972
 20
2.3260167538
 30
0.0
 10
5.4579778948
 20
2.3238274575
 30
0.0
 10
5.4531037558
 20
2.321680487
 30
0.0
 10
5.447944718
 20
2.3195786613
 30
0.0
 10
5.4425070684
 20
2.3175241842
 30
0.0
 10
5.4347477794
 20
2.3148000484
 30
0.0
 10
5.4243910462
 20
2.3115467432
 30
0.0
 10
5.4111871983
 20
2.3079386591
 30
0.0
 10
5.3970469967
 20
2.3045742528
 30
0.0
 10
5.3820381906
 20
2.3014702829
 30
0.0
 10
5.366232495
 20
2.2986414312
 30
0.0
 10
5.3497057282
 20
2.2961021173
 30
0.0
 10
5.3325371777
 20
2.2938640501
 30
0.0
 10
5.3148093908
 20
2.2919389077
 30
0.0
 10
5.2966075687
 20
2.2903352332
 30
0.0
 10
5.2780192216
 20
2.2890617021
 30
0.0
 10
5.2591336107
 20
2.2881236512
 30
0.0
 10
5.2400419455
 20
2.2875266013
 30
0.0
 10
5.227254233
 20
2.2873573278
 30
0.0
 10
5.2208425954
 20
2.2873299936
 30
0.0
  0
SPLINE
  5
314
100
AcDbEntity
  8
ALL_ASSEMBLY_MEMBERS
100
AcDbSpline
 62
7
  6
CONTINUOUS
 70
0
 71
3
 72
11
 73
7
 74
0
 42
0.0000001
 43
0.0000001
 44
0.0000000001
 40
0.0
 40
0.0
 40
0.0
 40
0.0
 40
0.252698484
 40
0.5043507387
 40
0.7538664888
 40
1.0
 40
1.0
 40
1.0
 40
1.0
 10
5.216270987
 20
2.2873202634
 30
0.0
 10
5.2099858577
 20
2.2873202985
 30
0.0
 10
5.1974413437
 20
2.2874305798
 30
0.0
 10
5.1786967343
 20
2.287926133
 30
0.0
 10
5.16012711
 20
2.2887498865
 30
0.0
 10
5.1478225702
 20
2.2895205231
 30
0.0
 10
5.1417166175
 20
2.2899613488
 30
0.0
  0
SPLINE
  5
315
100
AcDbEntity
  8
ALL_ASSEMBLY_MEMBERS
100
AcDbSpline
 62
7
  6
CONTINUOUS
 70
0
 71
3
 72
13
 73
9
 74
0
 42
0.0000001
 43
0.0000001
 44
0.0000000001
 40
0.0
 40
0.0
 40
0.0
 40
0.0
 40
0.2687556253
 40
0.5267562399
 40
0.6508613753
 40
0.7712990299
 40
0.8877746321
 40
1.0
 40
1.0
 40
1.0
 40
1.0
 10
5.1417166175
 20
2.2899613488
 30
0.0
 10
5.1324961334
 20
2.2909450993
 30
0.0
 10
5.1144517925
 20
2.2931451011
 30
0.0
 10
5.0922575016
 20
2.2965991131
 30
0.0
 10
5.0752050318
 20
2.2997442421
 30
0.0
 10
5.0630015213
 20
2.3022446364
 30
0.0
 10
5.0512530769
 20
2.3049106549
 30
0.0
 10
5.0435987305
 20
2.3068315954
 30
0.0
 10
5.0398553054
 20
2.3078214555
 30
0.0
  0
SPLINE
  5
316
100
AcDbEntity
  8
ALL_ASSEMBLY_MEMBERS
100
AcDbSpline
 62
7
  6
CONTINUOUS
 70
0
 71
3
 72
9
 73
5
 74
0
 42
0.0000001
 43
0.0000001
 44
0.0000000001
 40
0.0
 40
0.0
 40
0.0
 40
0.0
 40
0.4981736422
 40
1.0
 40
1.0
 40
1.0
 40
1.0
 10
5.5499948989
 20
2.4955854257
 30
0.0
 10
5.5519218077
 20
2.4928957844
 30
0.0
 10
5.5555368693
 20
2.4873105639
 30
0.0
 10
5.558573883
 20
2.4813885981
 30
0.0
 10
5.5599338493
 20
2.4783457768
 30
0.0
  0
SPLINE
  5
317
100
AcDbEntity
  8
ALL_ASSEMBLY_MEMBERS
100
AcDbSpline
 62
7
  6
CONTINUOUS
 70
0
 71
3
 72
20
 73
16
 74
0
 42
0.0000001
 43
0.0000001
 44
0.0000000001
 40
0.0
 40
0.0
 40
0.0
 40
0.0
 40
0.1340366739
 40
0.2670917392
 40
0.3980103494
 40
0.4623848795
 40
0.5258733284
 40
0.5884088305
 40
0.6499529075
 40
0.7105015028
 40
0.7700803896
 40
0.8287402224
 40
0.8865521833
 40
0.9436100231
 40
1.0
 40
1.0
 40
1.0
 40
1.0
 10
5.5609372949
 20
2.4760155962
 30
0.0
 10
5.5623367842
 20
2.4726385561
 30
0.0
 10
5.5647260309
 20
2.4657339125
 30
0.0
 10
5.5669436277
 20
2.4550779322
 30
0.0
 10
5.567561098
 20
2.4461113661
 30
0.0
 10
5.5672785756
 20
2.439054044
 30
0.0
 10
5.5666888972
 20
2.4338899418
 30
0.0
 10
5.5657279803
 20
2.4288605909
 30
0.0
 10
5.5644080289
 20
2.4239962576
 30
0.0
 10
5.5627458847
 20
2.4193235145
 30
0.0
 10
5.5607609874
 20
2.4148645029
 30
0.0
 10
5.5584751129
 20
2.4106368625
 30
0.0
 10
5.5559114144
 20
2.406653342
 30
0.0
 10
5.5530937199
 20
2.4029231157
 30
0.0
 10
5.5510504131
 20
2.4005955205
 30
0.0
 10
5.5499948989
 20
2.3994770195
 30
0.0
  0
SPLINE
  5
318
100
AcDbEntity
  8
ALL_ASSEMBLY_MEMBERS
100
AcDbSpline
 62
7
  6
CONTINUOUS
 70
0
 71
3
 72
9
 73
5
 74
0
 42
0.0000001
 43
0.0000001
 44
0.0000000001
 40
0.0
 40
0.0
 40
0.0
 40
0.0
 40
0.2494676516
 40
1.0
 40
1.0
 40
1.0
 40
1.0
 10
5.5407521475
 20
2.504513238
 30
0.0
 10
5.5413899899
 20
2.5036920082
 30
0.0
 10
5.5438959909
 20
2.5003610333
 30
0.0
 10
5.5461922041
 20
2.4968713717
 30
0.0
 10
5.5477774464
 20
2.494174371
 30
0.0
  0
SPLINE
  5
319
100
AcDbEntity
  8
ALL_ASSEMBLY_MEMBERS
100
AcDbSpline
 62
7
  6
CONTINUOUS
 70
0
 71
3
 72
21
 73
17
 74
0
 42
0.0000001
 43
0.0000001
 44
0.0000000001
 40
0.0
 40
0.0
 40
0.0
 40
0.0
 40
0.1318400644
 40
0.2631590945
 40
0.3283586728
 40
0.393049101
 40
0.457116179
 40
0.5204658214
 40
0.5830320026
 40
0.6447815933
 40
0.7057135067
 40
0.7658581129
 40
0.8252749612
 40
0.8840411944
 40
0.9422526683
 40
1.0
 40
1.0
 40
1.0
 40
1.0
 10
5.5477774464
 20
2.494174371
 30
0.0
 10
5.5498424559
 20
2.4906611338
 30
0.0
 10
5.5535071151
 20
2.4833666577
 30
0.0
 10
5.5567287886
 20
2.4736990542
 30
0.0
 10
5.5583706314
 20
2.4657861435
 30
0.0
 10
5.559112719
 20
2.4598300608
 30
0.0
 10
5.5593550202
 20
2.4538899663
 30
0.0
 10
5.5590929524
 20
2.4480161282
 30
0.0
 10
5.5583309077
 20
2.4422581653
 30
0.0
 10
5.557081545
 20
2.4366624582
 30
0.0
 10
5.5553647417
 20
2.4312706252
 30
0.0
 10
5.5532066868
 20
2.4261180331
 30
0.0
 10
5.5506381581
 20
2.4212331423
 30
0.0
 10
5.5476925746
 20
2.416637057
 30
0.0
 10
5.5444049266
 20
2.4123448829
 30
0.0
 10
5.5419994074
 20
2.4096817295
 30
0.0
 10
5.5407521475
 20
2.4084048317
 30
0.0
  0
SPLINE
  5
31A
100
AcDbEntity
  8
ALL_ASSEMBLY_MEMBERS
100
AcDbSpline
 62
7
  6
CONTINUOUS
 70
0
 71
3
 72
23
 73
19
 74
0
 42
0.0000001
 43
0.0000001
 44
0.0000000001
 40
0.0
 40
0.0
 40
0.0
 40
0.0
 40
0.0650430332
 40
0.1301180161
 40
0.1951352185
 40
0.2599969436
 40
0.3245942247
 40
0.3888164782
 40
0.4525591578
 40
0.5157349882
 40
0.5782828726
 40
0.6401743126
 40
0.7014155693
 40
0.7620452348
 40
0.8221295689
 40
0.8817530574
 40
0.9410121052
 40
1.0
 40
1.0
 40
1.0
 40
1.0
 10
5.5279543805
 20
2.5131420897
 30
0.0
 10
5.5294246741
 20
2.5113743728
 30
0.0
 10
5.5322430225
 20
2.5077333878
 30
0.0
 10
5.536052301
 20
2.5019748638
 30
0.0
 10
5.539395053
 20
2.4959396073
 30
0.0
 10
5.5422195616
 20
2.4896628548
 30
0.0
 10
5.5444772569
 20
2.4831895487
 30
0.0
 10
5.5461254477
 20
2.4765748733
 30
0.0
 10
5.5471304379
 20
2.4698825499
 30
0.0
 10
5.5474703255
 20
2.4631824473
 30
0.0
 10
5.5471370851
 20
2.4565471853
 30
0.0
 10
5.5461376222
 20
2.4500482382
 30
0.0
 10
5.5444930025
 20
2.4437520832
 30
0.0
 10
5.5422365059
 20
2.437716968
 30
0.0
 10
5.5394108685
 20
2.4319908264
 30
0.0
 10
5.5360650296
 20
2.4266099183
 30
0.0
 10
5.5322514418
 20
2.421600001
 30
0.0
 10
5.5294262055
 20
2.418510786
 30
0.0
 10
5.5279543805
 20
2.4170336835
 30
0.0
  0
SPLINE
  5
31B
100
AcDbEntity
  8
ALL_ASSEMBLY_MEMBERS
100
AcDbSpline
 62
7
  6
CONTINUOUS
 70
0
 71
3
 72
21
 73
17
 74
0
 42
0.0000001
 43
0.0000001
 44
0.0000000001
 40
0.0
 40
0.0
 40
0.0
 40
0.0
 40
0.064652745
 40
0.1292647257
 40
0.2577994791
 40
0.3217246604
 40
0.3853015534
 40
0.4484751348
 40
0.5112087605
 40
0.573490921
 40
0.6353368259
 40
0.6967770383
 40
0.7578650363
 40
0.818661941
 40
0.8792706366
 40
1.0
 40
1.0
 40
1.0
 40
1.0
 10
5.5117418127
 20
2.5213774415
 30
0.0
 10
5.5132609881
 20
2.5196526397
 30
0.0
 10
5.5161744601
 20
2.5160916318
 30
0.0
 10
5.5214211823
 20
2.5085700512
 30
0.0
 10
5.5257190489
 20
2.5004421944
 30
0.0
 10
5.5288367189
 20
2.4918790242
 30
0.0
 10
5.5305439985
 20
2.485307322
 30
0.0
 10
5.531582074
 20
2.4786400652
 30
0.0
 10
5.5319344513
 20
2.4719471015
 30
0.0
 10
5.5315870306
 20
2.4653009159
 30
0.0
 10
5.5305530023
 20
2.4587730343
 30
0.0
 10
5.5288483956
 20
2.4524315502
 30
0.0
 10
5.526514017
 20
2.4463346599
 30
0.0
 10
5.5235884245
 20
2.4405312939
 30
0.0
 10
5.5189815985
 20
2.4332482074
 30
0.0
 10
5.5147817961
 20
2.4282988445
 30
0.0
 10
5.5117418127
 20
2.4252690353
 30
0.0
  0
SPLINE
  5
31C
100
AcDbEntity
  8
ALL_ASSEMBLY_MEMBERS
100
AcDbSpline
 62
7
  6
CONTINUOUS
 70
0
 71
3
 72
23
 73
19
 74
0
 42
0.0000001
 43
0.0000001
 44
0.0000000001
 40
0.0
 40
0.0
 40
0.0
 40
0.0
 40
0.0641294925
 40
0.1280988115
 40
0.1918671329
 40
0.2554003678
 40
0.3186670829
 40
0.3816451824
 40
0.4443243713
 40
0.5067101875
 40
0.5688246638
 40
0.630704852
 40
0.6923992324
 40
0.7539627169
 40
0.815452858
 40
0.8769241022
 40
0.938427225
 40
1.0
 40
1.0
 40
1.0
 40
1.0
 10
5.4922920725
 20
2.529129065
 30
0.0
 10
5.4938449182
 20
2.5274465437
 30
0.0
 10
5.496822923
 20
2.5239685456
 30
0.0
 10
5.5008550588
 20
2.5184216943
 30
0.0
 10
5.504393735
 20
2.5125710255
 30
0.0
 10
5.5073839351
 20
2.5064488746
 30
0.0
 10
5.5097739625
 20
2.5000975469
 30
0.0
 10
5.5115183287
 20
2.4935701208
 30
0.0
 10
5.5125811555
 20
2.486928899
 30
0.0
 10
5.5129392223
 20
2.4802431252
 30
0.0
 10
5.5125842291
 20
2.4735855831
 30
0.0
 10
5.5115238909
 20
2.4670285911
 30
0.0
 10
5.5097810202
 20
2.4606399944
 30
0.0
 10
5.5073913284
 20
2.4544797937
 30
0.0
 10
5.5044003815
 20
2.4485979584
 30
0.0
 10
5.5008601106
 20
2.4430330125
 30
0.0
 10
5.4968259093
 20
2.4378131236
 30
0.0
 10
5.4938453263
 20
2.4345762775
 30
0.0
 10
5.4922920725
 20
2.4330206588
 30
0.0
  0
SPLINE
  5
31D
100
AcDbEntity
  8
ALL_ASSEMBLY_MEMBERS
100
AcDbSpline
 62
7
  6
CONTINUOUS
 70
0
 71
3
 72
17
 73
13
 74
0
 42
0.0000001
 43
0.0000001
 44
0.0000000001
 40
0.0
 40
0.0
 40
0.0
 40
0.0
 40
0.1613247586
 40
0.3100898707
 40
0.4469360078
 40
0.5728083899
 40
0.6890243991
 40
0.7973632588
 40
0.8493084896
 40
0.900164811
 40
0.9502753586
 40
1.0
 40
1.0
 40
1.0
 40
1.0
 10
4.9187554896
 20
2.3290025486
 30
0.0
 10
4.9170149847
 20
2.3301534852
 30
0.0
 10
4.9137347811
 20
2.3324676796
 30
0.0
 10
4.9092643664
 20
2.3361421651
 30
0.0
 10
4.90545571
 20
2.3398710071
 30
0.0
 10
4.902317071
 20
2.3436488774
 30
0.0
 10
4.8998575901
 20
2.3474709277
 30
0.0
 10
4.8983612428
 20
2.3507361023
 30
0.0
 10
4.8975351987
 20
2.3533420516
 30
0.0
 10
4.8970981449
 20
2.3552735759
 30
0.0
 10
4.8968356622
 20
2.3572073546
 30
0.0
 10
4.8967771739
 20
2.3584994032
 30
0.0
 10
4.8967771739
 20
2.359142558
 30
0.0
  0
SPLINE
  5
31E
100
AcDbEntity
  8
ALL_ASSEMBLY_MEMBERS
100
AcDbSpline
 62
7
  6
CONTINUOUS
 70
0
 71
3
 72
23
 73
19
 74
0
 42
0.0000001
 43
0.0000001
 44
0.0000000001
 40
0.0
 40
0.0
 40
0.0
 40
0.0
 40
0.0634451651
 40
0.1267072064
 40
0.1897705888
 40
0.2526309769
 40
0.3152900381
 40
0.3777600329
 40
0.4400634895
 40
0.5022340283
 40
0.5643140018
 40
0.6263508223
 40
0.6883925973
 40
0.7504838491
 40
0.8126636514
 40
0.8749624683
 40
0.9374043824
 40
1.0
 40
1.0
 40
1.0
 40
1.0
 10
5.4698182553
 20
2.5363120319
 30
0.0
 10
5.4713878033
 20
2.5346723918
 30
0.0
 10
5.474398473
 20
2.5312761507
 30
0.0
 10
5.4784761144
 20
2.5258382731
 30
0.0
 10
5.4820547765
 20
2.5200827499
 30
0.0
 10
5.4850786915
 20
2.5140404747
 30
0.0
 10
5.4874954687
 20
2.5077524497
 30
0.0
 10
5.4892590206
 20
2.5012707022
 30
0.0
 10
5.4903330488
 20
2.4946567974
 30
0.0
 10
5.4906941491
 20
2.4879795903
 30
0.0
 10
5.4903340957
 20
2.4813118209
 30
0.0
 10
5.4892609065
 20
2.4747260778
 30
0.0
 10
5.4874978504
 20
2.4682907562
 30
0.0
 10
5.4850811727
 20
2.4620666573
 30
0.0
 10
5.4820569896
 20
2.4561047732
 30
0.0
 10
5.4784777761
 20
2.4504448402
 30
0.0
 10
5.474399429
 20
2.4451163574
 30
0.0
 10
5.4713879236
 20
2.4418008092
 30
0.0
 10
5.4698182553
 20
2.4402036257
 30
0.0
  0
SPLINE
  5
31F
100
AcDbEntity
  8
ALL_ASSEMBLY_MEMBERS
100
AcDbSpline
 62
7
  6
CONTINUOUS
 70
0
 71
3
 72
23
 73
19
 74
0
 42
0.0000001
 43
0.0000001
 44
0.0000000001
 40
0.0
 40
0.0
 40
0.0
 40
0.0
 40
0.0625955507
 40
0.1250373473
 40
0.1873360807
 40
0.2495157821
 40
0.3116069457
 40
0.3736486326
 40
0.4356853707
 40
0.4977653052
 40
0.5599358805
 40
0.6222394186
 40
0.6847095013
 40
0.7473686506
 40
0.8102291401
 40
0.8732926068
 40
0.936554767
 40
1.0
 40
1.0
 40
1.0
 40
1.0
 10
5.444566589
 20
2.5428476441
 30
0.0
 10
5.4461362556
 20
2.5412504623
 30
0.0
 10
5.4491477569
 20
2.5379349193
 30
0.0
 10
5.4532260987
 20
2.5326064445
 30
0.0
 10
5.4568053092
 20
2.5269465225
 30
0.0
 10
5.4598294908
 20
2.5209846486
 30
0.0
 10
5.4622461694
 20
2.5147605608
 30
0.0
 10
5.4640092263
 20
2.5083252489
 30
0.0
 10
5.4650824182
 20
2.5017395141
 30
0.0
 10
5.4654424827
 20
2.4950717485
 30
0.0
 10
5.4650813937
 20
2.4883945378
 30
0.0
 10
5.4640073681
 20
2.4817806249
 30
0.0
 10
5.462243817
 20
2.4752988676
 30
0.0
 10
5.4598270407
 20
2.4690108317
 30
0.0
 10
5.4568031243
 20
2.4629685462
 30
0.0
 10
5.4532244592
 20
2.4572130119
 30
0.0
 10
5.4491468124
 20
2.4517751261
 30
0.0
 10
5.4461361386
 20
2.4483788798
 30
0.0
 10
5.444566589
 20
2.4467392379
 30
0.0
  0
SPLINE
  5
320
100
AcDbEntity
  8
ALL_ASSEMBLY_MEMBERS
100
AcDbSpline
 62
7
  6
CONTINUOUS
 70
0
 71
3
 72
17
 73
13
 74
0
 42
0.0000001
 43
0.0000001
 44
0.0000000001
 40
0.0
 40
0.0
 40
0.0
 40
0.0
 40
0.1315546698
 40
0.2709914102
 40
0.4142421477
 40
0.5558413587
 40
0.6897531504
 40
0.8105875152
 40
0.8648518744
 40
0.9145981589
 40
0.9596660931
 40
1.0
 40
1.0
 40
1.0
 40
1.0
 10
5.444566589
 20
2.4467392379
 30
0.0
 10
5.4443954368
 20
2.4509518073
 30
0.0
 10
5.4440880543
 20
2.4596312267
 30
0.0
 10
5.4437472158
 20
2.4729026208
 30
0.0
 10
5.4435309695
 20
2.4864986052
 30
0.0
 10
5.4434543281
 20
2.4999190593
 30
0.0
 10
5.4435228982
 20
2.5126211647
 30
0.0
 10
5.4437014667
 20
2.5225230511
 30
0.0
 10
5.4439175632
 20
2.529725685
 30
0.0
 10
5.4441027218
 20
2.534499817
 30
0.0
 10
5.4443138457
 20
2.5388259508
 30
0.0
 10
5.4444790714
 20
2.5415579951
 30
0.0
 10
5.444566589
 20
2.5428476441
 30
0.0
  0
SPLINE
  5
321
100
AcDbEntity
  8
ALL_ASSEMBLY_MEMBERS
100
AcDbSpline
 62
7
  6
CONTINUOUS
 70
0
 71
3
 72
23
 73
19
 74
0
 42
0.0000001
 43
0.0000001
 44
0.0000000001
 40
0.0
 40
0.0
 40
0.0
 40
0.0
 40
0.0615727091
 40
0.1230757161
 40
0.1845468772
 40
0.2460369177
 40
0.3076003137
 40
0.3692946055
 40
0.4311747101
 40
0.4932891447
 40
0.5556749951
 40
0.6183542649
 40
0.6813324524
 40
0.7445992559
 40
0.8081325932
 40
0.8719009996
 40
0.9358704389
 40
1.0
 40
1.0
 40
1.0
 40
1.0
 10
5.4168137361
 20
2.548664296
 30
0.0
 10
5.4183669882
 20
2.5471086789
 30
0.0
 10
5.4213475672
 20
2.543871838
 30
0.0
 10
5.4253817632
 20
2.538651957
 30
0.0
 10
5.4289220311
 20
2.533087022
 30
0.0
 10
5.4319129766
 20
2.5272051969
 30
0.0
 10
5.4343026693
 20
2.5210450072
 30
0.0
 10
5.4360455408
 20
2.5146564203
 30
0.0
 10
5.4371058816
 20
2.5080994366
 30
0.0
 10
5.437460886
 20
2.5014418986
 30
0.0
 10
5.4371028302
 20
2.4947561213
 30
0.0
 10
5.436040006
 20
2.4881148916
 30
0.0
 10
5.4342956406
 20
2.4815874558
 30
0.0
 10
5.4319056141
 20
2.4752361172
 30
0.0
 10
5.4289154125
 20
2.469113956
 30
0.0
 10
5.4253767333
 20
2.463263276
 30
0.0
 10
5.4213445922
 20
2.4577164164
 30
0.0
 10
5.4183665835
 20
2.4542384129
 30
0.0
 10
5.4168137361
 20
2.4525558898
 30
0.0
  0
SPLINE
  5
322
100
AcDbEntity
  8
ALL_ASSEMBLY_MEMBERS
100
AcDbSpline
 62
7
  6
CONTINUOUS
 70
0
 71
3
 72
21
 73
17
 74
0
 42
0.0000001
 43
0.0000001
 44
0.0000000001
 40
0.0
 40
0.0
 40
0.0
 40
0.0
 40
0.1315784606
 40
0.2707826507
 40
0.3420641074
 40
0.4136419062
 40
0.4848063428
 40
0.5548100063
 40
0.6229080267
 40
0.6883987421
 40
0.7506603021
 40
0.8091802146
 40
0.8635719355
 40
0.9135782152
 40
0.9590634363
 40
1.0
 40
1.0
 40
1.0
 40
1.0
 10
5.4168137361
 20
2.4525558898
 30
0.0
 10
5.4163027896
 20
2.4567539813
 30
0.0
 10
5.4153844529
 20
2.4654100873
 30
0.0
 10
5.414541333
 20
2.476373626
 30
0.0
 10
5.4140435049
 20
2.4854260463
 30
0.0
 10
5.4137688119
 20
2.4922997825
 30
0.0
 10
5.4136010596
 20
2.4991358803
 30
0.0
 10
5.4135437228
 20
2.5058619722
 30
0.0
 10
5.4135979783
 20
2.5124057487
 30
0.0
 10
5.4137626155
 20
2.5186987901
 30
0.0
 10
5.4140341515
 20
2.5246800136
 30
0.0
 10
5.4144071207
 20
2.530298352
 30
0.0
 10
5.414874529
 20
2.5355143165
 30
0.0
 10
5.4154283623
 20
2.5403004083
 30
0.0
 10
5.416060081
 20
2.5446402693
 30
0.0
 10
5.4165530948
 20
2.5473746257
 30
0.0
 10
5.4168137361
 20
2.548664296
 30
0.0
  0
SPLINE
  5
323
100
AcDbEntity
  8
ALL_ASSEMBLY_MEMBERS
100
AcDbSpline
 62
7
  6
CONTINUOUS
 70
0
 71
3
 72
21
 73
17
 74
0
 42
0.0000001
 43
0.0000001
 44
0.0000000001
 40
0.0
 40
0.0
 40
0.0
 40
0.0
 40
0.1207291927
 40
0.1813377598
 40
0.2421345902
 40
0.3032226116
 40
0.3646628372
 40
0.4265088024
 40
0.4887910346
 40
0.5515247775
 40
0.6146984626
 40
0.6782754104
 40
0.7422006353
 40
0.8707353776
 40
0.9353472936
 40
1.0
 40
1.0
 40
1.0
 40
1.0
 10
5.3868637627
 20
2.5536982592
 30
0.0
 10
5.3899037417
 20
2.5506684542
 30
0.0
 10
5.3941035388
 20
2.5457191009
 30
0.0
 10
5.3987103594
 20
2.5384360268
 30
0.0
 10
5.4016359526
 20
2.5326326683
 30
0.0
 10
5.4039703324
 20
2.5265357799
 30
0.0
 10
5.4056749471
 20
2.5201942943
 30
0.0
 10
5.4067089759
 20
2.5136664076
 30
0.0
 10
5.4070564028
 20
2.5070202133
 30
0.0
 10
5.4067040222
 20
2.5003272393
 30
0.0
 10
5.4056659499
 20
2.4936599721
 30
0.0
 10
5.4039586664
 20
2.4870882634
 30
0.0
 10
5.4008409947
 20
2.4785250905
 30
0.0
 10
5.3965431276
 20
2.4703972353
 30
0.0
 10
5.3912964079
 20
2.4628756579
 30
0.0
 10
5.3883829371
 20
2.4593146537
 30
0.0
 10
5.3868637627
 20
2.4575898529
 30
0.0
  0
SPLINE
  5
324
100
AcDbEntity
  8
ALL_ASSEMBLY_MEMBERS
100
AcDbSpline
 62
7
  6
CONTINUOUS
 70
0
 71
3
 72
21
 73
17
 74
0
 42
0.0000001
 43
0.0000001
 44
0.0000000001
 40
0.0
 40
0.0
 40
0.0
 40
0.0
 40
0.1316266789
 40
0.2703891486
 40
0.3413166022
 40
0.4124903676
 40
0.4832313845
 40
0.552826453
 40
0.6205657857
 40
0.685794797
 40
0.7479203907
 40
0.8064801018
 40
0.8611133554
 40
0.9116348263
 40
0.9579332377
 40
1.0
 40
1.0
 40
1.0
 40
1.0
 10
5.3868637627
 20
2.4575898529
 30
0.0
 10
5.3860203928
 20
2.461759731
 30
0.0
 10
5.3845024245
 20
2.4703700681
 30
0.0
 10
5.3831047402
 20
2.4813173104
 30
0.0
 10
5.3822808463
 20
2.4903584219
 30
0.0
 10
5.3818258697
 20
2.4972233971
 30
0.0
 10
5.3815486512
 20
2.5040547527
 30
0.0
 10
5.381453398
 20
2.5107801199
 30
0.0
 10
5.3815436795
 20
2.5173274487
 30
0.0
 10
5.3818158634
 20
2.523628192
 30
0.0
 10
5.3822659509
 20
2.5296213389
 30
0.0
 10
5.3828831346
 20
2.5352553297
 30
0.0
 10
5.3836575884
 20
2.5404911461
 30
0.0
 10
5.3845750935
 20
2.5453011804
 30
0.0
 10
5.3856226898
 20
2.5496679321
 30
0.0
 10
5.3864354071
 20
2.5524078578
 30
0.0
 10
5.3868637627
 20
2.5536982592
 30
0.0
  0
SPLINE
  5
325
100
AcDbEntity
  8
ALL_ASSEMBLY_MEMBERS
100
AcDbSpline
 62
7
  6
CONTINUOUS
 70
0
 71
3
 72
23
 73
19
 74
0
 42
0.0000001
 43
0.0000001
 44
0.0000000001
 40
0.0
 40
0.0
 40
0.0
 40
0.0
 40
0.0589878314
 40
0.1182467669
 40
0.1778701728
 40
0.2379544061
 40
0.2985839813
 40
0.3598251475
 40
0.4217165007
 40
0.4842643375
 40
0.547440198
 40
0.6111829583
 40
0.6754053009
 40
0.7400026721
 40
0.8048645018
 40
0.8698817915
 40
0.9349568971
 40
1.0
 40
1.0
 40
1.0
 40
1.0
 10
5.3550448068
 20
2.5578943805
 30
0.0
 10
5.3565166302
 20
2.5564172796
 30
0.0
 10
5.3593418628
 20
2.5533280696
 30
0.0
 10
5.3631554455
 20
2.5483181599
 30
0.0
 10
5.3665012816
 20
2.5429372625
 30
0.0
 10
5.3693269177
 20
2.537211131
 30
0.0
 10
5.3715834152
 20
2.5311760268
 30
0.0
 10
5.3732280356
 20
2.5248798817
 30
0.0
 10
5.374227501
 20
2.5183809432
 30
0.0
 10
5.3745607519
 20
2.5117456856
 30
0.0
 10
5.3742208747
 20
2.50504558
 30
0.0
 10
5.373215887
 20
2.498353249
 30
0.0
 10
5.3715676969
 20
2.491738564
 30
0.0
 10
5.3693100025
 20
2.4852652469
 30
0.0
 10
5.3664854926
 20
2.4789884841
 30
0.0
 10
5.3631427378
 20
2.4729532164
 30
0.0
 10
5.3593334542
 20
2.4671946838
 30
0.0
 10
5.3565151021
 20
2.463553693
 30
0.0
 10
5.3550448068
 20
2.4617859742
 30
0.0
  0
SPLINE
  5
326
100
AcDbEntity
  8
ALL_ASSEMBLY_MEMBERS
100
AcDbSpline
 62
7
  6
CONTINUOUS
 70
0
 71
3
 72
20
 73
16
 74
0
 42
0.0000001
 43
0.0000001
 44
0.0000000001
 40
0.0
 40
0.0
 40
0.0
 40
0.0
 40
0.1316862725
 40
0.2698143381
 40
0.4108393993
 40
0.4809899967
 40
0.5500183879
 40
0.617269831
 40
0.682136329
 40
0.7440912402
 40
0.8027173821
 40
0.8577231255
 40
0.9089462752
 40
0.9563478033
 40
1.0
 40
1.0
 40
1.0
 40
1.0
 10
5.3550448068
 20
2.4617859742
 30
0.0
 10
5.3538809264
 20
2.4659148351
 30
0.0
 10
5.351781659
 20
2.4744575369
 30
0.0
 10
5.3494399372
 20
2.4876434231
 30
0.0
 10
5.3481986799
 20
2.4989643368
 30
0.0
 10
5.3476849545
 20
2.5080793568
 30
0.0
 10
5.3475536614
 20
2.5148043352
 30
0.0
 10
5.3476783062
 20
2.5213573229
 30
0.0
 10
5.3480562445
 20
2.5276699443
 30
0.0
 10
5.3486796034
 20
2.5336808342
 30
0.0
 10
5.3495360286
 20
2.5393385167
 30
0.0
 10
5.3506097019
 20
2.5446029251
 30
0.0
 10
5.3518826081
 20
2.5494459809
 30
0.0
 10
5.3533354249
 20
2.553850329
 30
0.0
 10
5.3544561581
 20
2.5565999405
 30
0.0
 10
5.3550448068
 20
2.5578943805
 30
0.0
  0
SPLINE
  5
327
100
AcDbEntity
  8
ALL_ASSEMBLY_MEMBERS
100
AcDbSpline
 62
7
  6
CONTINUOUS
 70
0
 71
3
 72
21
 73
17
 74
0
 42
0.0000001
 43
0.0000001
 44
0.0000000001
 40
0.0
 40
0.0
 40
0.0
 40
0.0
 40
0.0574356873
 40
0.1154029783
 40
0.174021686
 40
0.2334048008
 40
0.2936406531
 40
0.3547841156
 40
0.4168465862
 40
0.4797926076
 40
0.5435405379
 40
0.6079691392
 40
0.6729291308
 40
0.7382568222
 40
0.8692706554
 40
1.0
 40
1.0
 40
1.0
 40
1.0
 10
5.3217054838
 20
2.5612066863
 30
0.0
 10
5.3231131719
 20
2.5597655481
 30
0.0
 10
5.3258155315
 20
2.556743374
 30
0.0
 10
5.3294549221
 20
2.5518325921
 30
0.0
 10
5.3326472969
 20
2.5465388456
 30
0.0
 10
5.3353426454
 20
2.5408868069
 30
0.0
 10
5.3374944575
 20
2.5349116593
 30
0.0
 10
5.3390622207
 20
2.528660292
 30
0.0
 10
5.3400144747
 20
2.5221899891
 30
0.0
 10
5.3403313739
 20
2.5155664381
 30
0.0
 10
5.3400064493
 20
2.5088605645
 30
0.0
 10
5.3390474211
 20
2.5021449354
 30
0.0
 10
5.3374749042
 20
2.4954893374
 30
0.0
 10
5.3346016123
 20
2.4867759736
 30
0.0
 10
5.3296657765
 20
2.4763634046
 30
0.0
 10
5.324518163
 20
2.468719639
 30
0.0
 10
5.3217054838
 20
2.4650982801
 30
0.0
  0
SPLINE
  5
328
100
AcDbEntity
  8
ALL_ASSEMBLY_MEMBERS
100
AcDbSpline
 62
7
  6
CONTINUOUS
 70
0
 71
3
 72
20
 73
16
 74
0
 42
0.0000001
 43
0.0000001
 44
0.0000000001
 40
0.0
 40
0.0
 40
0.0
 40
0.0
 40
0.1317486851
 40
0.2690973123
 40
0.4088064106
 40
0.4782317819
 40
0.5465665854
 40
0.6132219033
 40
0.6776575391
 40
0.7394146077
 40
0.798141822
 40
0.8536101845
 40
0.9057158283
 40
0.9544728164
 40
1.0
 40
1.0
 40
1.0
 40
1.0
 10
5.3217054838
 20
2.4650982801
 30
0.0
 10
5.3202368927
 20
2.4691751285
 30
0.0
 10
5.3175818858
 20
2.4776304489
 30
0.0
 10
5.3146093631
 20
2.4907581082
 30
0.0
 10
5.3130329816
 20
2.502060753
 30
0.0
 10
5.3123817517
 20
2.5111663025
 30
0.0
 10
5.312215452
 20
2.5178902525
 30
0.0
 10
5.3123737096
 20
2.5244503031
 30
0.0
 10
5.312853224
 20
2.5307780349
 30
0.0
 10
5.3136441062
 20
2.5368117868
 30
0.0
 10
5.3147307936
 20
2.5424996442
 30
0.0
 10
5.3160933341
 20
2.5478009439
 30
0.0
 10
5.3177089968
 20
2.5526869101
 30
0.0
 10
5.3195532879
 20
2.5571392761
 30
0.0
 10
5.3209657789
 20
2.5599047281
 30
0.0
 10
5.3217054838
 20
2.5612066863
 30
0.0
  0
SPLINE
  5
329
100
AcDbEntity
  8
ALL_ASSEMBLY_MEMBERS
100
AcDbSpline
 62
7
  6
CONTINUOUS
 70
0
 71
3
 72
21
 73
17
 74
0
 42
0.0000001
 43
0.0000001
 44
0.0000000001
 40
0.0
 40
0.0
 40
0.0
 40
0.0
 40
0.055699955
 40
0.1122533263
 40
0.1698032646
 40
0.2284730125
 40
0.288345462
 40
0.3494527595
 40
0.4117667192
 40
0.475197797
 40
0.5395997993
 40
0.6047815765
 40
0.6705239371
 40
0.7365979619
 40
0.8687891247
 40
1.0
 40
1.0
 40
1.0
 40
1.0
 10
5.2872110661
 20
2.5635988864
 30
0.0
 10
5.2885398174
 20
2.5621908431
 30
0.0
 10
5.2910905975
 20
2.55922995
 30
0.0
 10
5.294515486
 20
2.5544130352
 30
0.0
 10
5.2975189635
 20
2.5492020604
 30
0.0
 10
5.3000540969
 20
2.5436206723
 30
0.0
 10
5.3020773809
 20
2.5377029806
 30
0.0
 10
5.3035509999
 20
2.5314947966
 30
0.0
 10
5.3044456382
 20
2.525052397
 30
0.0
 10
5.3047428263
 20
2.5184406399
 30
0.0
 10
5.30443657
 20
2.5117299156
 30
0.0
 10
5.3035340991
 20
2.5049926312
 30
0.0
 10
5.3020547296
 20
2.4982988629
 30
0.0
 10
5.2993537137
 20
2.4895201343
 30
0.0
 10
5.2947206298
 20
2.478997954
 30
0.0
 10
5.2898671088
 20
2.47119787
 30
0.0
 10
5.2872110661
 20
2.4674904802
 30
0.0
  0
SPLINE
  5
32A
100
AcDbEntity
  8
ALL_ASSEMBLY_MEMBERS
100
AcDbSpline
 62
7
  6
CONTINUOUS
 70
0
 71
3
 72
20
 73
16
 74
0
 42
0.0000001
 43
0.0000001
 44
0.0000000001
 40
0.0
 40
0.0
 40
0.0
 40
0.0
 40
0.1317927304
 40
0.2682475974
 40
0.4064665692
 40
0.4750762129
 40
0.5426359046
 40
0.6086319686
 40
0.6726009977
 40
0.7341595593
 40
0.7930277116
 40
0.8490412832
 40
0.9021526396
 40
0.9524215572
 40
1.0
 40
1.0
 40
1.0
 40
1.0
 10
5.2872110661
 20
2.4674904802
 30
0.0
 10
5.2854569218
 20
2.4715059277
 30
0.0
 10
5.2822779629
 20
2.4798560805
 30
0.0
 10
5.2787038815
 20
2.4929100731
 30
0.0
 10
5.2768073782
 20
2.5041883829
 30
0.0
 10
5.2760255523
 20
2.5132816431
 30
0.0
 10
5.2758260982
 20
2.5200041563
 30
0.0
 10
5.2760164651
 20
2.5265726659
 30
0.0
 10
5.2765927445
 20
2.5329186351
 30
0.0
 10
5.2775431528
 20
2.5389799715
 30
0.0
 10
5.2788490716
 20
2.5447041376
 30
0.0
 10
5.2804865792
 20
2.5500496581
 30
0.0
 10
5.2824283591
 20
2.5549868184
 30
0.0
 10
5.2846448486
 20
2.5594962743
 30
0.0
 10
5.2863303481
 20
2.5622848309
 30
0.0
 10
5.2872110661
 20
2.5635988864
 30
0.0
  0
SPLINE
  5
32B
100
AcDbEntity
  8
ALL_ASSEMBLY_MEMBERS
100
AcDbSpline
 62
7
  6
CONTINUOUS
 70
0
 71
3
 72
19
 73
15
 74
0
 42
0.0000001
 43
0.0000001
 44
0.0000000001
 40
0.0
 40
0.0
 40
0.0
 40
0.0
 40
0.0538200363
 40
0.1088762334
 40
0.1653295827
 40
0.2233051629
 40
0.2828699342
 40
0.3440218
 40
0.4066815272
 40
0.4706949438
 40
0.6017476623
 40
0.7350922751
 40
0.8684467922
 40
1.0
 40
1.0
 40
1.0
 40
1.0
 10
5.2519394819
 20
2.5650447713
 30
0.0
 10
5.2531752407
 20
2.5636664509
 30
0.0
 10
5.2555470437
 20
2.5607602171
 30
0.0
 10
5.2587193983
 20
2.5560310385
 30
0.0
 10
5.2615006247
 20
2.550897722
 30
0.0
 10
5.2638474652
 20
2.5453829126
 30
0.0
 10
5.2657199271
 20
2.5395195967
 30
0.0
 10
5.2670833008
 20
2.5333525885
 30
0.0
 10
5.2679106225
 20
2.5269366939
 30
0.0
 10
5.2682794579
 20
2.5180703731
 30
0.0
 10
5.267316377
 20
2.5067609358
 30
0.0
 10
5.2640526559
 20
2.493423956
 30
0.0
 10
5.2589166099
 20
2.4806795889
 30
0.0
 10
5.2544099098
 20
2.4727273322
 30
0.0
 10
5.2519394819
 20
2.468936365
 30
0.0
  0
SPLINE
  5
32C
100
AcDbEntity
  8
ALL_ASSEMBLY_MEMBERS
100
AcDbSpline
 62
7
  6
CONTINUOUS
 70
0
 71
3
 72
19
 73
15
 74
0
 42
0.0000001
 43
0.0000001
 44
0.0000000001
 40
0.0
 40
0.0
 40
0.0
 40
0.0
 40
0.1318060072
 40
0.2672954778
 40
0.3356959822
 40
0.4039930517
 40
0.5384237498
 40
0.6037425158
 40
0.6672471519
 40
0.7876002411
 40
0.8442294303
 40
0.8984306319
 40
0.9502977162
 40
1.0
 40
1.0
 40
1.0
 40
1.0
 10
5.2519394819
 20
2.468936365
 30
0.0
 10
5.2499217147
 20
2.4728827003
 30
0.0
 10
5.2462565
 20
2.4811115231
 30
0.0
 10
5.2428153944
 20
2.4918893147
 30
0.0
 10
5.2407987186
 20
2.5008224999
 30
0.0
 10
5.2393298153
 20
2.5098247472
 30
0.0
 10
5.2387079646
 20
2.5188472702
 30
0.0
 10
5.239004993
 20
2.527701292
 30
0.0
 10
5.2398785385
 20
2.5360396528
 30
0.0
 10
5.241600369
 20
2.5439812522
 30
0.0
 10
5.2441790333
 20
2.5513231241
 30
0.0
 10
5.2464263158
 20
2.5563192357
 30
0.0
 10
5.2489909685
 20
2.5608941324
 30
0.0
 10
5.2509285549
 20
2.5637138218
 30
0.0
 10
5.2519394819
 20
2.5650447713
 30
0.0
  0
SPLINE
  5
32D
100
AcDbEntity
  8
ALL_ASSEMBLY_MEMBERS
100
AcDbSpline
 62
7
  6
CONTINUOUS
 70
0
 71
3
 72
23
 73
19
 74
0
 42
0.0000001
 43
0.0000001
 44
0.0000000001
 40
0.0
 40
0.0
 40
0.0
 40
0.0
 40
0.051769965
 40
0.1052508596
 40
0.1605719905
 40
0.2178326181
 40
0.2771025333
 40
0.3383243531
 40
0.4013633843
 40
0.4659849395
 40
0.5318960745
 40
0.5987462211
 40
0.6661609627
 40
0.7337678376
 40
0.8012187138
 40
0.8682468818
 40
0.9345902827
 40
1.0
 40
1.0
 40
1.0
 40
1.0
 10
5.2162771739
 20
2.5655284995
 30
0.0
 10
5.2174063567
 20
2.5641764511
 30
0.0
 10
5.2195727127
 20
2.5613169649
 30
0.0
 10
5.2224584108
 20
2.5566686831
 30
0.0
 10
5.2249864454
 20
2.5516062522
 30
0.0
 10
5.2271196528
 20
2.5461533664
 30
0.0
 10
5.2288195917
 20
2.5403409431
 30
0.0
 10
5.2300590363
 20
2.5342127636
 30
0.0
 10
5.2308090572
 20
2.5278225772
 30
0.0
 10
5.2310588862
 20
2.5212340778
 30
0.0
 10
5.230799138
 20
2.5145165557
 30
0.0
 10
5.230040017
 20
2.5077417725
 30
0.0
 10
5.2287933827
 20
2.5009812477
 30
0.0
 10
5.227088451
 20
2.4943008284
 30
0.0
 10
5.2249532627
 20
2.4877594411
 30
0.0
 10
5.2224261824
 20
2.4814057856
 30
0.0
 10
5.2195443859
 20
2.4752822406
 30
0.0
 10
5.2173982744
 20
2.4713427885
 30
0.0
 10
5.2162771739
 20
2.4694200933
 30
0.0
  0
SPLINE
  5
32E
100
AcDbEntity
  8
ALL_ASSEMBLY_MEMBERS
100
AcDbSpline
 62
7
  6
CONTINUOUS
 70
0
 71
3
 72
23
 73
19
 74
0
 42
0.0000001
 43
0.0000001
 44
0.0000000001
 40
0.0
 40
0.0
 40
0.0
 40
0.0
 40
0.0654097643
 40
0.1317532033
 40
0.1987812776
 40
0.2662320458
 40
0.3338389392
 40
0.4012537438
 40
0.4681039223
 40
0.5340150606
 40
0.5986366198
 40
0.6616756796
 40
0.7228975488
 40
0.782167484
 40
0.8394280233
 40
0.8947490707
 40
0.9482299958
 40
1.0
 40
1.0
 40
1.0
 40
1.0
 10
5.2162771739
 20
2.4694200933
 30
0.0
 10
5.2151560726
 20
2.4713427899
 30
0.0
 10
5.213009961
 20
2.4752822452
 30
0.0
 10
5.2101281648
 20
2.48140579
 30
0.0
 10
5.2076010834
 20
2.487759439
 30
0.0
 10
5.2054658985
 20
2.494300821
 30
0.0
 10
5.2037609689
 20
2.5009812397
 30
0.0
 10
5.2025143311
 20
2.5077417678
 30
0.0
 10
5.2017552098
 20
2.5145165544
 30
0.0
 10
5.2014954616
 20
2.5212340778
 30
0.0
 10
5.2017452906
 20
2.5278225784
 30
0.0
 10
5.2024953116
 20
2.5342127677
 30
0.0
 10
5.20373476
 20
2.5403409498
 30
0.0
 10
5.2054346968
 20
2.5461533729
 30
0.0
 10
5.2075679005
 20
2.5516062548
 30
0.0
 10
5.2100959367
 20
2.5566686795
 30
0.0
 10
5.2129816344
 20
2.5613169608
 30
0.0
 10
5.2151479903
 20
2.5641764501
 30
0.0
 10
5.2162771739
 20
2.5655284995
 30
0.0
  0
SPLINE
  5
32F
100
AcDbEntity
  8
ALL_ASSEMBLY_MEMBERS
100
AcDbSpline
 62
7
  6
CONTINUOUS
 70
0
 71
3
 72
19
 73
15
 74
0
 42
0.0000001
 43
0.0000001
 44
0.0000000001
 40
0.0
 40
0.0
 40
0.0
 40
0.0
 40
0.0497008375
 40
0.1015676114
 40
0.1557679979
 40
0.2123971629
 40
0.3327507654
 40
0.3962559886
 40
0.4615760763
 40
0.5960093328
 40
0.6643069904
 40
0.7327076647
 40
0.8681961936
 40
1.0
 40
1.0
 40
1.0
 40
1.0
 10
5.180614866
 20
2.5650447713
 30
0.0
 10
5.1816257635
 20
2.5637138606
 30
0.0
 10
5.1835633137
 20
2.5608942192
 30
0.0
 10
5.1861279488
 20
2.5563194121
 30
0.0
 10
5.1883752131
 20
2.5513233351
 30
0.0
 10
5.1909538973
 20
2.5439814819
 30
0.0
 10
5.1926757251
 20
2.5360398476
 30
0.0
 10
5.1935493709
 20
2.5277014174
 30
0.0
 10
5.1938464559
 20
2.5188472446
 30
0.0
 10
5.1932244919
 20
2.5098245757
 30
0.0
 10
5.1917555383
 20
2.5008222262
 30
0.0
 10
5.189738868
 20
2.4918890467
 30
0.0
 10
5.1862977815
 20
2.4811113541
 30
0.0
 10
5.1826325993
 20
2.4728826342
 30
0.0
 10
5.180614866
 20
2.468936365
 30
0.0
  0
SPLINE
  5
330
100
AcDbEntity
  8
ALL_ASSEMBLY_MEMBERS
100
AcDbSpline
 62
7
  6
CONTINUOUS
 70
0
 71
3
 72
19
 73
15
 74
0
 42
0.0000001
 43
0.0000001
 44
0.0000000001
 40
0.0
 40
0.0
 40
0.0
 40
0.0
 40
0.1315553823
 40
0.26491081
 40
0.3982546608
 40
0.5293049013
 40
0.5933169964
 40
0.65597608
 40
0.7171275351
 40
0.7766921638
 40
0.8346677418
 40
0.8911219244
 40
0.946178407
 40
1.0
 40
1.0
 40
1.0
 40
1.0
 10
5.180614866
 20
2.468936365
 30
0.0
 10
5.1781443969
 20
2.4727273952
 30
0.0
 10
5.1736376568
 20
2.4806797541
 30
0.0
 10
5.168501594
 20
2.4934241981
 30
0.0
 10
5.1652378839
 20
2.506761109
 30
0.0
 10
5.1642749807
 20
2.5180703999
 30
0.0
 10
5.1646437437
 20
2.526936567
 30
0.0
 10
5.165470973
 20
2.5333523923
 30
0.0
 10
5.1668343059
 20
2.5395193699
 30
0.0
 10
5.1687067707
 20
2.5453826651
 30
0.0
 10
5.171053598
 20
2.5508975065
 30
0.0
 10
5.173834846
 20
2.5560308556
 30
0.0
 10
5.1770072248
 20
2.5607601291
 30
0.0
 10
5.1793790713
 20
2.5636664109
 30
0.0
 10
5.180614866
 20
2.5650447713
 30
0.0
  0
SPLINE
  5
331
100
AcDbEntity
  8
ALL_ASSEMBLY_MEMBERS
100
AcDbSpline
 62
7
  6
CONTINUOUS
 70
0
 71
3
 72
20
 73
16
 74
0
 42
0.0000001
 43
0.0000001
 44
0.0000000001
 40
0.0
 40
0.0
 40
0.0
 40
0.0
 40
0.0475770528
 40
0.0978456455
 40
0.1509561947
 40
0.2069697281
 40
0.2658380104
 40
0.3273969226
 40
0.3913665127
 40
0.4573638999
 40
0.5249251739
 40
0.5935358371
 40
0.731755573
 40
0.8682094824
 40
1.0
 40
1.0
 40
1.0
 40
1.0
 10
5.1453432817
 20
2.5635988864
 30
0.0
 10
5.1462239739
 20
2.5622848693
 30
0.0
 10
5.1479094417
 20
2.5594963612
 30
0.0
 10
5.1501259173
 20
2.5549869919
 30
0.0
 10
5.1520676802
 20
2.550049867
 30
0.0
 10
5.1537051986
 20
2.544704375
 30
0.0
 10
5.1550111139
 20
2.5389801931
 30
0.0
 10
5.1559615516
 20
2.5329188276
 30
0.0
 10
5.1565378964
 20
2.5265727901
 30
0.0
 10
5.1567282996
 20
2.5200041654
 30
0.0
 10
5.1565288106
 20
2.5132815218
 30
0.0
 10
5.1557468999
 20
2.5041881576
 30
0.0
 10
5.153850398
 20
2.4929098228
 30
0.0
 10
5.150276328
 20
2.4798559092
 30
0.0
 10
5.1470973965
 20
2.4715058601
 30
0.0
 10
5.1453432817
 20
2.4674904802
 30
0.0
  0
SPLINE
  5
332
100
AcDbEntity
  8
ALL_ASSEMBLY_MEMBERS
100
AcDbSpline
 62
7
  6
CONTINUOUS
 70
0
 71
3
 72
21
 73
17
 74
0
 42
0.0000001
 43
0.0000001
 44
0.0000000001
 40
0.0
 40
0.0
 40
0.0
 40
0.0
 40
0.1312130354
 40
0.2634050946
 40
0.3294789504
 40
0.395220734
 40
0.460401548
 40
0.5248020619
 40
0.5882318168
 40
0.6505451039
 40
0.7116519711
 40
0.7715242743
 40
0.8301940083
 40
0.8877447899
 40
0.9442984372
 40
1.0
 40
1.0
 40
1.0
 40
1.0
 10
5.1453432817
 20
2.4674904802
 30
0.0
 10
5.142687195
 20
2.4711979314
 30
0.0
 10
5.1378336297
 20
2.4789981158
 30
0.0
 10
5.1332005201
 20
2.4895203944
 30
0.0
 10
5.1304994973
 20
2.4982991276
 30
0.0
 10
5.1290201719
 20
2.5049928472
 30
0.0
 10
5.1281178009
 20
2.5117300399
 30
0.0
 10
5.1278115988
 20
2.5184406332
 30
0.0
 10
5.1281087295
 20
2.5250522695
 30
0.0
 10
5.1290032678
 20
2.5314945989
 30
0.0
 10
5.1304768433
 20
2.5377027516
 30
0.0
 10
5.1325001299
 20
2.543620421
 30
0.0
 10
5.1350352495
 20
2.549201842
 30
0.0
 10
5.1380387496
 20
2.5544128488
 30
0.0
 10
5.1414636655
 20
2.559229861
 30
0.0
 10
5.1440144919
 20
2.5621908024
 30
0.0
 10
5.1453432817
 20
2.5635988864
 30
0.0
  0
SPLINE
  5
333
100
AcDbEntity
  8
ALL_ASSEMBLY_MEMBERS
100
AcDbSpline
 62
7
  6
CONTINUOUS
 70
0
 71
3
 72
20
 73
16
 74
0
 42
0.0000001
 43
0.0000001
 44
0.0000000001
 40
0.0
 40
0.0
 40
0.0
 40
0.0
 40
0.0455258481
 40
0.0942824965
 40
0.1463873403
 40
0.2018556518
 40
0.2605829923
 40
0.322340394
 40
0.3867765681
 40
0.4534332119
 40
0.5217696189
 40
0.5911960203
 40
0.7309058826
 40
0.8682535379
 40
1.0
 40
1.0
 40
1.0
 40
1.0
 10
5.110848864
 20
2.5612066863
 30
0.0
 10
5.1115885472
 20
2.5599047664
 30
0.0
 10
5.1130010113
 20
2.5571393632
 30
0.0
 10
5.1148452919
 20
2.552687081
 30
0.0
 10
5.1164609398
 20
2.5478011513
 30
0.0
 10
5.1178234897
 20
2.5424998788
 30
0.0
 10
5.1189101739
 20
2.5368120072
 30
0.0
 10
5.1197010809
 20
2.5307782265
 30
0.0
 10
5.1201806497
 20
2.5244504266
 30
0.0
 10
5.1203389375
 20
2.517890262
 30
0.0
 10
5.1201726087
 20
2.5111661819
 30
0.0
 10
5.1195213081
 20
2.5020605261
 30
0.0
 10
5.1179449277
 20
2.490757856
 30
0.0
 10
5.1149724146
 20
2.477630276
 30
0.0
 10
5.1123174303
 20
2.4691750596
 30
0.0
 10
5.110848864
 20
2.4650982801
 30
0.0
  0
SPLINE
  5
334
100
AcDbEntity
  8
ALL_ASSEMBLY_MEMBERS
100
AcDbSpline
 62
7
  6
CONTINUOUS
 70
0
 71
3
 72
21
 73
17
 74
0
 42
0.0000001
 43
0.0000001
 44
0.0000000001
 40
0.0
 40
0.0
 40
0.0
 40
0.0
 40
0.1307314889
 40
0.261746205
 40
0.3270737282
 40
0.3920331485
 40
0.4564608042
 40
0.5202072687
 40
0.5831519631
 40
0.645213732
 40
0.7063567447
 40
0.7665924471
 40
0.8259755372
 40
0.8845950983
 40
0.9425626577
 40
1.0
 40
1.0
 40
1.0
 40
1.0
 10
5.110848864
 20
2.4650982801
 30
0.0
 10
5.1080361383
 20
2.4687196988
 30
0.0
 10
5.1028884774
 20
2.4763635637
 30
0.0
 10
5.0979526144
 20
2.4867762307
 30
0.0
 10
5.0950793152
 20
2.4954895986
 30
0.0
 10
5.093506845
 20
2.5021451497
 30
0.0
 10
5.0925479231
 20
2.5088606895
 30
0.0
 10
5.0922230561
 20
2.5155664322
 30
0.0
 10
5.0925398939
 20
2.5221898609
 30
0.0
 10
5.093492042
 20
2.5286600927
 30
0.0
 10
5.0950597593
 20
2.5349114277
 30
0.0
 10
5.0972115735
 20
2.5408865515
 30
0.0
 10
5.099906908
 20
2.546538624
 30
0.0
 10
5.1030993062
 20
2.5518324022
 30
0.0
 10
5.1067387269
 20
2.5567432835
 30
0.0
 10
5.1094411352
 20
2.5597655064
 30
0.0
 10
5.110848864
 20
2.5612066863
 30
0.0
  0
SPLINE
  5
335
100
AcDbEntity
  8
ALL_ASSEMBLY_MEMBERS
100
AcDbSpline
 62
7
  6
CONTINUOUS
 70
0
 71
3
 72
20
 73
16
 74
0
 42
0.0000001
 43
0.0000001
 44
0.0000000001
 40
0.0
 40
0.0
 40
0.0
 40
0.0
 40
0.0436509108
 40
0.0910520847
 40
0.1422744405
 40
0.1972801213
 40
0.2559063862
 40
0.3178616154
 40
0.3827286321
 40
0.4499814042
 40
0.5190114175
 40
0.5891630539
 40
0.7301888784
 40
0.8683159595
 40
1.0
 40
1.0
 40
1.0
 40
1.0
 10
5.077509541
 20
2.5578943805
 30
0.0
 10
5.0780981724
 20
2.5565999786
 30
0.0
 10
5.079218884
 20
2.5538504166
 30
0.0
 10
5.0806716933
 20
2.5494461495
 30
0.0
 10
5.0819445874
 20
2.5446031314
 30
0.0
 10
5.0830182685
 20
2.5393387491
 30
0.0
 10
5.0838746909
 20
2.5336810537
 30
0.0
 10
5.0844980695
 20
2.5276701351
 30
0.0
 10
5.0848760508
 20
2.5213574457
 30
0.0
 10
5.0850007193
 20
2.5148043451
 30
0.0
 10
5.0848694033
 20
2.5080792368
 30
0.0
 10
5.0843556221
 20
2.4989641086
 30
0.0
 10
5.0831143655
 20
2.4876431694
 30
0.0
 10
5.0807726514
 20
2.4744573627
 30
0.0
 10
5.0786734017
 20
2.465914765
 30
0.0
 10
5.077509541
 20
2.4617859742
 30
0.0
  0
SPLINE
  5
336
100
AcDbEntity
  8
ALL_ASSEMBLY_MEMBERS
100
AcDbSpline
 62
7
  6
CONTINUOUS
 70
0
 71
3
 72
23
 73
19
 74
0
 42
0.0000001
 43
0.0000001
 44
0.0000000001
 40
0.0
 40
0.0
 40
0.0
 40
0.0
 40
0.0650449735
 40
0.1301203407
 40
0.1951385649
 40
0.2600003332
 40
0.3245975367
 40
0.3888193144
 40
0.4525611474
 40
0.5157355629
 40
0.5782820662
 40
0.6401726883
 40
0.7014133858
 40
0.762042807
 40
0.8221270056
 40
0.8817512743
 40
0.9410104718
 40
1.0
 40
1.0
 40
1.0
 40
1.0
 10
5.077509541
 20
2.4617859742
 30
0.0
 10
5.0760392033
 20
2.4635537441
 30
0.0
 10
5.0732208012
 20
2.4671947931
 30
0.0
 10
5.0694114846
 20
2.4729534346
 30
0.0
 10
5.0660687063
 20
2.4789887363
 30
0.0
 10
5.0632442092
 20
2.4852655331
 30
0.0
 10
5.0609865155
 20
2.4917388213
 30
0.0
 10
5.0593383754
 20
2.4983534615
 30
0.0
 10
5.0583334989
 20
2.5050457056
 30
0.0
 10
5.057993682
 20
2.5117456805
 30
0.0
 10
5.0583268683
 20
2.5183808144
 30
0.0
 10
5.0593262229
 20
2.5248796807
 30
0.0
 10
5.0609707957
 20
2.5311757924
 30
0.0
 10
5.0632272948
 20
2.5372108716
 30
0.0
 10
5.0660529166
 20
2.5429370374
 30
0.0
 10
5.0693987768
 20
2.5483179664
 30
0.0
 10
5.0732123918
 20
2.5533279774
 30
0.0
 10
5.0760376751
 20
2.5564172369
 30
0.0
 10
5.077509541
 20
2.5578943805
 30
0.0
  0
SPLINE
  5
337
100
AcDbEntity
  8
ALL_ASSEMBLY_MEMBERS
100
AcDbSpline
 62
7
  6
CONTINUOUS
 70
0
 71
3
 72
21
 73
17
 74
0
 42
0.0000001
 43
0.0000001
 44
0.0000000001
 40
0.0
 40
0.0
 40
0.0
 40
0.0
 40
0.0420667225
 40
0.0883651097
 40
0.1388866728
 40
0.193520011
 40
0.2520796978
 40
0.3142052445
 40
0.3794342229
 40
0.4471735471
 40
0.5167686077
 40
0.5875095864
 40
0.6586832833
 40
0.7296107149
 40
0.8683734067
 40
1.0
 40
1.0
 40
1.0
 40
1.0
 10
5.0456905852
 20
2.5536982592
 30
0.0
 10
5.0461189404
 20
2.552407859
 30
0.0
 10
5.0469316579
 20
2.5496679356
 30
0.0
 10
5.0479792544
 20
2.5453011829
 30
0.0
 10
5.0488967586
 20
2.5404911434
 30
0.0
 10
5.0496712141
 20
2.5352553224
 30
0.0
 10
5.0502883985
 20
2.5296213312
 30
0.0
 10
5.0507384845
 20
2.5236281875
 30
0.0
 10
5.0510106683
 20
2.5173274471
 30
0.0
 10
5.0511009498
 20
2.5107801199
 30
0.0
 10
5.0510056966
 20
2.5040547544
 30
0.0
 10
5.0507284782
 20
2.4972234026
 30
0.0
 10
5.050273503
 20
2.4903584314
 30
0.0
 10
5.0494496075
 20
2.4813173158
 30
0.0
 10
5.0480519244
 20
2.4703700697
 30
0.0
 10
5.0465339545
 20
2.4617597283
 30
0.0
 10
5.0456905852
 20
2.4575898529
 30
0.0
  0
SPLINE
  5
338
100
AcDbEntity
  8
ALL_ASSEMBLY_MEMBERS
100
AcDbSpline
 62
7
  6
CONTINUOUS
 70
0
 71
3
 72
21
 73
17
 74
0
 42
0.0000001
 43
0.0000001
 44
0.0000000001
 40
0.0
 40
0.0
 40
0.0
 40
0.0
 40
0.0646527508
 40
0.129264707
 40
0.2577992676
 40
0.3217245075
 40
0.3853015119
 40
0.4484752226
 40
0.5112089644
 40
0.5734911959
 40
0.6353371856
 40
0.6967774633
 40
0.7578655002
 40
0.8186622378
 40
0.8792707278
 40
1.0
 40
1.0
 40
1.0
 40
1.0
 10
5.0456905852
 20
2.4575898529
 30
0.0
 10
5.0441714096
 20
2.4593146548
 30
0.0
 10
5.0412579386
 20
2.4628756627
 30
0.0
 10
5.0360112205
 20
2.4703972368
 30
0.0
 10
5.0317133523
 20
2.4785250866
 30
0.0
 10
5.0285956862
 20
2.4870882573
 30
0.0
 10
5.0268883981
 20
2.4936599683
 30
0.0
 10
5.0258503254
 20
2.5003272385
 30
0.0
 10
5.0254979452
 20
2.5070202133
 30
0.0
 10
5.0258453717
 20
2.5136664083
 30
0.0
 10
5.0268794009
 20
2.5201942979
 30
0.0
 10
5.0285840201
 20
2.5265357856
 30
0.0
 10
5.030918397
 20
2.5326326738
 30
0.0
 10
5.0338439857
 20
2.5384360288
 30
0.0
 10
5.0384508103
 20
2.5457190965
 30
0.0
 10
5.0426506041
 20
2.5506684522
 30
0.0
 10
5.0456905852
 20
2.5536982592
 30
0.0
  0
SPLINE
  5
339
100
AcDbEntity
  8
ALL_ASSEMBLY_MEMBERS
100
AcDbSpline
 62
7
  6
CONTINUOUS
 70
0
 71
3
 72
21
 73
17
 74
0
 42
0.0000001
 43
0.0000001
 44
0.0000000001
 40
0.0
 40
0.0
 40
0.0
 40
0.0
 40
0.0409353491
 40
0.0864201941
 40
0.1364256876
 40
0.1908173293
 40
0.2493373603
 40
0.3115992178
 40
0.377090426
 40
0.4451897805
 40
0.5151950916
 40
0.5863605789
 40
0.6579389712
 40
0.7292205963
 40
0.8684237837
 40
1.0
 40
1.0
 40
1.0
 40
1.0
 10
5.0157406117
 20
2.548664296
 30
0.0
 10
5.0160012453
 20
2.547374664
 30
0.0
 10
5.0164942495
 20
2.5446403579
 30
0.0
 10
5.0171259655
 20
2.5403005737
 30
0.0
 10
5.0176797932
 20
2.5355145215
 30
0.0
 10
5.0181472051
 20
2.5302985814
 30
0.0
 10
5.0185201728
 20
2.5246802321
 30
0.0
 10
5.0187917176
 20
2.5186989799
 30
0.0
 10
5.0189563736
 20
2.5124058707
 30
0.0
 10
5.0190106394
 20
2.5058619825
 30
0.0
 10
5.0189532925
 20
2.4991357611
 30
0.0
 10
5.0187855217
 20
2.4922995579
 30
0.0
 10
5.0185108204
 20
2.4854257639
 30
0.0
 10
5.0180129936
 20
2.4763733513
 30
0.0
 10
5.0171698785
 20
2.4654099114
 30
0.0
 10
5.0162515495
 20
2.4567539097
 30
0.0
 10
5.0157406117
 20
2.4525558898
 30
0.0
  0
SPLINE
  5
33A
100
AcDbEntity
  8
ALL_ASSEMBLY_MEMBERS
100
AcDbSpline
 62
7
  6
CONTINUOUS
 70
0
 71
3
 72
23
 73
19
 74
0
 42
0.0000001
 43
0.0000001
 44
0.0000000001
 40
0.0
 40
0.0
 40
0.0
 40
0.0
 40
0.0641314033
 40
0.1281010927
 40
0.1918704136
 40
0.255403689
 40
0.3186703281
 40
0.381647969
 40
0.4443263536
 40
0.5067107961
 40
0.5688238786
 40
0.6307031973
 40
0.6923969875
 40
0.7539602233
 40
0.815450215
 40
0.8769222592
 40
0.9384255225
 40
1.0
 40
1.0
 40
1.0
 40
1.0
 10
5.0157406117
 20
2.4525558898
 30
0.0
 10
5.0141877195
 20
2.4542384615
 30
0.0
 10
5.0112096581
 20
2.4577165202
 30
0.0
 10
5.0071774816
 20
2.4632634875
 30
0.0
 10
5.0036387777
 20
2.4691141998
 30
0.0
 10
5.0006485897
 20
2.4752363958
 30
0.0
 10
4.9982585639
 20
2.4815877059
 30
0.0
 10
4.9965142512
 20
2.4881151005
 30
0.0
 10
4.9954515453
 20
2.4947562478
 30
0.0
 10
4.995093553
 20
2.5014418951
 30
0.0
 10
4.9954484883
 20
2.5080993071
 30
0.0
 10
4.9965087125
 20
2.5146562157
 30
0.0
 10
4.9982515341
 20
2.5210447664
 30
0.0
 10
5.0006412276
 20
2.5272049291
 30
0.0
 10
5.0036321588
 20
2.5330867893
 30
0.0
 10
5.0071724515
 20
2.5386517559
 30
0.0
 10
5.0112066828
 20
2.5438717416
 30
0.0
 10
5.0141873148
 20
2.547108634
 30
0.0
 10
5.0157406117
 20
2.548664296
 30
0.0
  0
SPLINE
  5
33B
100
AcDbEntity
  8
ALL_ASSEMBLY_MEMBERS
100
AcDbSpline
 62
7
  6
CONTINUOUS
 70
0
 71
3
 72
17
 73
13
 74
0
 42
0.0000001
 43
0.0000001
 44
0.0000000001
 40
0.0
 40
0.0
 40
0.0
 40
0.0
 40
0.040332708
 40
0.0854002609
 40
0.1351457609
 40
0.1894100372
 40
0.3102448128
 40
0.4441584269
 40
0.585760344
 40
0.7290118435
 40
0.8684475774
 40
1.0
 40
1.0
 40
1.0
 40
1.0
 10
4.9879877588
 20
2.5428476441
 30
0.0
 10
4.9880752738
 20
2.5415580334
 30
0.0
 10
4.9882404963
 20
2.5388260397
 30
0.0
 10
4.9884516193
 20
2.5344999817
 30
0.0
 10
4.9886367761
 20
2.5297258897
 30
0.0
 10
4.9888528744
 20
2.5225232705
 30
0.0
 10
4.9890314437
 20
2.5126213152
 30
0.0
 10
4.9891000284
 20
2.4999190515
 30
0.0
 10
4.9890233724
 20
2.486498428
 30
0.0
 10
4.9888071255
 20
2.4729023648
 30
0.0
 10
4.988466288
 20
2.4596310505
 30
0.0
 10
4.9881589081
 20
2.4509517353
 30
0.0
 10
4.9879877588
 20
2.4467392379
 30
0.0
  0
SPLINE
  5
33C
100
AcDbEntity
  8
ALL_ASSEMBLY_MEMBERS
100
AcDbSpline
 62
7
  6
CONTINUOUS
 70
0
 71
3
 72
23
 73
19
 74
0
 42
0.0000001
 43
0.0000001
 44
0.0000000001
 40
0.0
 40
0.0
 40
0.0
 40
0.0
 40
0.0634470552
 40
0.1267094622
 40
0.1897738333
 40
0.2526342627
 40
0.3152932496
 40
0.3777627975
 40
0.4400654735
 40
0.5022346564
 40
0.5643132264
 40
0.6263491528
 40
0.688390324
 40
0.7504813248
 40
0.8126609727
 40
0.8749605991
 40
0.9374026522
 40
1.0
 40
1.0
 40
1.0
 40
1.0
 10
4.9879877588
 20
2.4467392379
 30
0.0
 10
4.9864181639
 20
2.4483789271
 30
0.0
 10
4.9834074369
 20
2.4517752272
 30
0.0
 10
4.9793297542
 20
2.4572132198
 30
0.0
 10
4.9757510642
 20
2.4629687858
 30
0.0
 10
4.9727271615
 20
2.4690111063
 30
0.0
 10
4.9703103857
 20
2.4752991141
 30
0.0
 10
4.9685468881
 20
2.4817808319
 30
0.0
 10
4.9674729824
 20
2.4883946645
 30
0.0
 10
4.9671119572
 20
2.4950717459
 30
0.0
 10
4.9674719517
 20
2.5017393844
 30
0.0
 10
4.9685450259
 20
2.5083250424
 30
0.0
 10
4.9703080326
 20
2.5147603165
 30
0.0
 10
4.9727247118
 20
2.5209843766
 30
0.0
 10
4.9757488791
 20
2.5269462857
 30
0.0
 10
4.9793281144
 20
2.5326062397
 30
0.0
 10
4.9834064921
 20
2.5379348205
 30
0.0
 10
4.9864180469
 20
2.5412504162
 30
0.0
 10
4.9879877588
 20
2.5428476441
 30
0.0
  0
SPLINE
  5
33D
100
AcDbEntity
  8
ALL_ASSEMBLY_MEMBERS
100
AcDbSpline
 62
7
  6
CONTINUOUS
 70
0
 71
3
 72
23
 73
19
 74
0
 42
0.0000001
 43
0.0000001
 44
0.0000000001
 40
0.0
 40
0.0
 40
0.0
 40
0.0
 40
0.0625974156
 40
0.1250395748
 40
0.187339286
 40
0.2495190314
 40
0.3116101234
 40
0.3736513768
 40
0.4356873598
 40
0.4977659544
 40
0.559935114
 40
0.6222377346
 40
0.6847072011
 40
0.747366097
 40
0.8102264284
 40
0.8732907139
 40
0.9365530135
 40
1.0
 40
1.0
 40
1.0
 40
1.0
 10
4.9627360925
 20
2.4402036257
 30
0.0
 10
4.9611663789
 20
2.4418008553
 30
0.0
 10
4.9581548202
 20
2.4451164558
 30
0.0
 10
4.9540764373
 20
2.4504450444
 30
0.0
 10
4.9504971988
 20
2.4561050087
 30
0.0
 10
4.9474730296
 20
2.4620669279
 30
0.0
 10
4.9450563522
 20
2.4682909991
 30
0.0
 10
4.9432933497
 20
2.474726283
 30
0.0
 10
4.9422202806
 20
2.4813119477
 30
0.0
 10
4.9418602909
 20
2.4879795885
 30
0.0
 10
4.9422213209
 20
2.4946566677
 30
0.0
 10
4.9432952317
 20
2.5012704937
 30
0.0
 10
4.9450587335
 20
2.5077522019
 30
0.0
 10
4.947475511
 20
2.5140401986
 30
0.0
 10
4.9504994119
 20
2.5200825089
 30
0.0
 10
4.9540780986
 20
2.5258380647
 30
0.0
 10
4.9581557762
 20
2.5312760494
 30
0.0
 10
4.9611664993
 20
2.5346723445
 30
0.0
 10
4.9627360925
 20
2.5363120319
 30
0.0
  0
SPLINE
  5
33E
100
AcDbEntity
  8
ALL_ASSEMBLY_MEMBERS
100
AcDbSpline
 62
7
  6
CONTINUOUS
 70
0
 71
3
 72
9
 73
5
 74
0
 42
0.0000001
 43
0.0000001
 44
0.0000000001
 40
0.0
 40
0.0
 40
0.0
 40
0.0
 40
0.5119092395
 40
1.0
 40
1.0
 40
1.0
 40
1.0
 10
5.5615218282
 20
2.3816602606
 30
0.0
 10
5.5606753326
 20
2.3798992183
 30
0.0
 10
5.5588570088
 20
2.3765352762
 30
0.0
 10
5.5567082261
 20
2.3733714716
 30
0.0
 10
5.555581369
 20
2.3718878928
 30
0.0
  0
SPLINE
  5
33F
100
AcDbEntity
  8
ALL_ASSEMBLY_MEMBERS
100
AcDbSpline
 62
7
  6
CONTINUOUS
 70
0
 71
3
 72
23
 73
19
 74
0
 42
0.0000001
 43
0.0000001
 44
0.0000000001
 40
0.0
 40
0.0
 40
0.0
 40
0.0
 40
0.0615745442
 40
0.1230779122
 40
0.1845500405
 40
0.2460401295
 40
0.3076034571
 40
0.3692973308
 40
0.4311767076
 40
0.4932898161
 40
0.5556742364
 40
0.6183525666
 40
0.6813301266
 40
0.7445966744
 40
0.8081298508
 40
0.8718990853
 40
0.9358686661
 40
1.0
 40
1.0
 40
1.0
 40
1.0
 10
4.9402622753
 20
2.4330206588
 30
0.0
 10
4.9387089767
 20
2.4345763224
 30
0.0
 10
4.9357283408
 20
2.4378132196
 30
0.0
 10
4.9316941044
 20
2.443033213
 30
0.0
 10
4.9281538085
 20
2.4485981897
 30
0.0
 10
4.9251628756
 20
2.4544800601
 30
0.0
 10
4.9227731838
 20
2.4606402339
 30
0.0
 10
4.9210303663
 20
2.4670287944
 30
0.0
 10
4.9199701472
 20
2.4735857099
 30
0.0
 10
4.9196152166
 20
2.4802431243
 30
0.0
 10
4.9199732137
 20
2.4869287695
 30
0.0
 10
4.9210359246
 20
2.4935699104
 30
0.0
 10
4.9227802414
 20
2.5000972955
 30
0.0
 10
4.9251702689
 20
2.5064485945
 30
0.0
 10
4.9281604552
 20
2.5125707803
 30
0.0
 10
4.9316991558
 20
2.5184214822
 30
0.0
 10
4.9357313272
 20
2.5239684415
 30
0.0
 10
4.9387093848
 20
2.5274464951
 30
0.0
 10
4.9402622753
 20
2.529129065
 30
0.0
  0
SPLINE
  5
340
100
AcDbEntity
  8
ALL_ASSEMBLY_MEMBERS
100
AcDbSpline
 62
7
  6
CONTINUOUS
 70
0
 71
3
 72
21
 73
17
 74
0
 42
0.0000001
 43
0.0000001
 44
0.0000000001
 40
0.0
 40
0.0
 40
0.0
 40
0.0
 40
0.120729448
 40
0.181338072
 40
0.2421348873
 40
0.3032228989
 40
0.3646631605
 40
0.426509085
 40
0.48879124
 40
0.5515248599
 40
0.614698462
 40
0.6782754078
 40
0.7422006017
 40
0.8707351851
 40
0.9353472096
 40
1.0
 40
1.0
 40
1.0
 40
1.0
 10
4.9208125351
 20
2.4252690353
 30
0.0
 10
4.9177725496
 20
2.4282988466
 30
0.0
 10
4.9135727502
 20
2.4332482122
 30
0.0
 10
4.9089659201
 20
2.4405312928
 30
0.0
 10
4.9060403321
 20
2.4463346555
 30
0.0
 10
4.9037059564
 20
2.4524315457
 30
0.0
 10
4.9020013456
 20
2.4587730316
 30
0.0
 10
4.9009673168
 20
2.4653009155
 30
0.0
 10
4.9006198968
 20
2.4719471015
 30
0.0
 10
4.9009722735
 20
2.4786400654
 30
0.0
 10
4.9020103494
 20
2.4853073248
 30
0.0
 10
4.9037176332
 20
2.4918790289
 30
0.0
 10
4.9068352978
 20
2.5004421971
 30
0.0
 10
4.9111331653
 20
2.5085700491
 30
0.0
 10
4.9163798863
 20
2.5160916268
 30
0.0
 10
4.9192933587
 20
2.5196526385
 30
0.0
 10
4.9208125351
 20
2.5213774415
 30
0.0
  0
SPLINE
  5
341
100
AcDbEntity
  8
ALL_ASSEMBLY_MEMBERS
100
AcDbSpline
 62
7
  6
CONTINUOUS
 70
0
 71
3
 72
23
 73
19
 74
0
 42
0.0000001
 43
0.0000001
 44
0.0000000001
 40
0.0
 40
0.0
 40
0.0
 40
0.0
 40
0.0589895924
 40
0.1182488914
 40
0.1778732433
 40
0.2379575394
 40
0.2985870549
 40
0.3598278397
 40
0.4217185237
 40
0.484265056
 40
0.5474394513
 40
0.6111812309
 40
0.6754029272
 40
0.7400000378
 40
0.8048617049
 40
0.8698798406
 40
0.9349550971
 40
1.0
 40
1.0
 40
1.0
 40
1.0
 10
4.9045999674
 20
2.4170336835
 30
0.0
 10
4.9031280998
 20
2.4185108287
 30
0.0
 10
4.9003028129
 20
2.4216000928
 30
0.0
 10
4.896489193
 20
2.4266101112
 30
0.0
 10
4.8931433299
 20
2.4319910501
 30
0.0
 10
4.8903177063
 20
2.437717226
 30
0.0
 10
4.8880612089
 20
2.4437523165
 30
0.0
 10
4.8864166401
 20
2.4500484381
 30
0.0
 10
4.8854172902
 20
2.4565473114
 30
0.0
 10
4.8850841084
 20
2.4631824481
 30
0.0
 10
4.8854239298
 20
2.4698824211
 30
0.0
 10
4.886428811
 20
2.476574659
 30
0.0
 10
4.888076955
 20
2.4831892899
 30
0.0
 10
4.8903346503
 20
2.4896625672
 30
0.0
 10
4.8931591457
 20
2.4959393537
 30
0.0
 10
4.896501921
 20
2.5019746449
 30
0.0
 10
4.9003112328
 20
2.5077332781
 30
0.0
 10
4.9031296312
 20
2.5113743218
 30
0.0
 10
4.9045999674
 20
2.5131420897
 30
0.0
  0
SPLINE
  5
342
100
AcDbEntity
  8
ALL_ASSEMBLY_MEMBERS
100
AcDbSpline
 62
7
  6
CONTINUOUS
 70
0
 71
3
 72
11
 73
7
 74
0
 42
0.0000001
 43
0.0000001
 44
0.0000000001
 40
0.0
 40
0.0
 40
0.0
 40
0.0
 40
0.2310833736
 40
0.4741051301
 40
0.7303717677
 40
1.0
 40
1.0
 40
1.0
 40
1.0
 10
4.8751039964
 20
2.3811179773
 30
0.0
 10
4.8733643481
 20
2.3832009781
 30
0.0
 10
4.8701029255
 20
2.3877412215
 30
0.0
 10
4.8661224777
 20
2.3953699966
 30
0.0
 10
4.8630769712
 20
2.4038998466
 30
0.0
 10
4.8617808614
 20
2.4099590437
 30
0.0
 10
4.8613089329
 20
2.4130902633
 30
0.0
  0
SPLINE
  5
343
100
AcDbEntity
  8
ALL_ASSEMBLY_MEMBERS
100
AcDbSpline
 62
7
  6
CONTINUOUS
 70
0
 71
3
 72
21
 73
17
 74
0
 42
0.0000001
 43
0.0000001
 44
0.0000000001
 40
0.0
 40
0.0
 40
0.0
 40
0.0
 40
0.0574374049
 40
0.115405064
 40
0.1740247081
 40
0.2334078962
 40
0.2936436946
 40
0.3547867972
 40
0.4168486302
 40
0.4797933551
 40
0.5435398003
 40
0.6079674026
 40
0.6729267407
 40
0.7382541696
 40
0.8692686936
 40
1.0
 40
1.0
 40
1.0
 40
1.0
 10
4.8918022003
 20
2.4084048317
 30
0.0
 10
4.8903944699
 20
2.4098460132
 30
0.0
 10
4.8876920581
 20
2.4128682407
 30
0.0
 10
4.8840526327
 20
2.4177791293
 30
0.0
 10
4.8808602316
 20
2.4230729173
 30
0.0
 10
4.8781648956
 20
2.4287249998
 30
0.0
 10
4.876013083
 20
2.4347001349
 30
0.0
 10
4.8744453694
 20
2.4409514799
 30
0.0
 10
4.8734932259
 20
2.4474217189
 30
0.0
 10
4.8731763923
 20
2.4540451505
 30
0.0
 10
4.8735012636
 20
2.4607508915
 30
0.0
 10
4.8744601901
 20
2.4674664252
 30
0.0
 10
4.876032664
 20
2.474121967
 30
0.0
 10
4.8789059652
 20
2.4828353206
 30
0.0
 10
4.8838418244
 20
2.4932479709
 30
0.0
 10
4.8889894785
 20
2.5008918244
 30
0.0
 10
4.8918022003
 20
2.504513238
 30
0.0
  0
SPLINE
  5
344
100
AcDbEntity
  8
ALL_ASSEMBLY_MEMBERS
100
AcDbSpline
 62
7
  6
CONTINUOUS
 70
0
 71
3
 72
11
 73
7
 74
0
 42
0.0000001
 43
0.0000001
 44
0.0000000001
 40
0.0
 40
0.0
 40
0.0
 40
0.0
 40
0.2696196688
 40
0.5258831717
 40
0.7689081443
 40
1.0
 40
1.0
 40
1.0
 40
1.0
 10
5.5712427292
 20
2.4130724615
 30
0.0
 10
5.5707703292
 20
2.4099430478
 30
0.0
 10
5.5694736395
 20
2.4038873622
 30
0.0
 10
5.5664283742
 20
2.3953624598
 30
0.0
 10
5.5624491614
 20
2.387737903
 30
0.0
 10
5.5591891765
 20
2.3831999924
 30
0.0
 10
5.5574503514
 20
2.3811179773
 30
0.0
  0
SPLINE
  5
345
100
AcDbEntity
  8
ALL_ASSEMBLY_MEMBERS
100
AcDbSpline
 62
7
  6
CONTINUOUS
 70
0
 71
3
 72
19
 73
15
 74
0
 42
0.0000001
 43
0.0000001
 44
0.0000000001
 40
0.0
 40
0.0
 40
0.0
 40
0.0
 40
0.0564320283
 40
0.1135236973
 40
0.1713626605
 40
0.2300395439
 40
0.2896248225
 40
0.3501705149
 40
0.4117021601
 40
0.4742170333
 40
0.6019455978
 40
0.7328284164
 40
0.8658907347
 40
1.0
 40
1.0
 40
1.0
 40
1.0
 10
4.8825594489
 20
2.3994770195
 30
0.0
 10
4.8815135451
 20
2.4005853367
 30
0.0
 10
4.8794882717
 20
2.4028908477
 30
0.0
 10
4.8766929498
 20
2.4065836919
 30
0.0
 10
4.874146617
 20
2.4105253321
 30
0.0
 10
4.8718724474
 20
2.4147069532
 30
0.0
 10
4.869892952
 20
2.4191162772
 30
0.0
 10
4.868229469
 20
2.4237363003
 30
0.0
 10
4.8669011199
 20
2.4285459758
 30
0.0
 10
4.8655891696
 20
2.4352227198
 30
0.0
 10
4.8648810414
 20
2.4438997167
 30
0.0
 10
4.8655359457
 20
2.4544900852
 30
0.0
 10
4.8676486907
 20
2.4650602814
 30
0.0
 10
4.8699571273
 20
2.4719183197
 30
0.0
 10
4.8713143102
 20
2.4752759145
 30
0.0
  0
SPLINE
  5
346
100
AcDbEntity
  8
ALL_ASSEMBLY_MEMBERS
100
AcDbSpline
 62
7
  6
CONTINUOUS
 70
0
 71
3
 72
9
 73
5
 74
0
 42
0.0000001
 43
0.0000001
 44
0.0000000001
 40
0.0
 40
0.0
 40
0.0
 40
0.0
 40
0.5018529734
 40
1.0
 40
1.0
 40
1.0
 40
1.0
 10
4.8722310144
 20
2.477462081
 30
0.0
 10
4.8736236294
 20
2.4806670028
 30
0.0
 10
4.8767620639
 20
2.4869005443
 30
0.0
 10
4.880539383
 20
2.4927657527
 30
0.0
 10
4.8825594489
 20
2.4955854257
 30
0.0
  0
SPLINE
  5
347
100
AcDbEntity
  8
ALL_ASSEMBLY_MEMBERS
100
AcDbSpline
 62
7
  6
CONTINUOUS
 70
0
 71
3
 72
16
 73
12
 74
0
 42
0.0000001
 43
0.0000001
 44
0.0000000001
 40
0.0
 40
0.0
 40
0.0
 40
0.0
 40
0.1127823659
 40
0.2286442612
 40
0.3480276049
 40
0.4712195044
 40
0.5983000736
 40
0.7290998216
 40
0.795792534
 40
0.8632391581
 40
1.0
 40
1.0
 40
1.0
 40
1.0
 10
4.8769729788
 20
2.3903480618
 30
0.0
 10
4.8755290612
 20
2.3919585548
 30
0.0
 10
4.8727768615
 20
2.3953853905
 30
0.0
 10
4.8691841635
 20
2.4010259213
 30
0.0
 10
4.8661444548
 20
2.4072072911
 30
0.0
 10
4.8637248875
 20
2.4138859656
 30
0.0
 10
4.8619839449
 20
2.4209979206
 30
0.0
 10
4.8611421301
 20
2.4271775392
 30
0.0
 10
4.8608371462
 20
2.4322513557
 30
0.0
 10
4.8607831051
 20
2.4374481515
 30
0.0
 10
4.8610295955
 20
2.4413646256
 30
0.0
 10
4.8613150179
 20
2.4439719262
 30
0.0
  0
SPLINE
  5
348
100
AcDbEntity
  8
ALL_ASSEMBLY_MEMBERS
100
AcDbSpline
 62
7
  6
CONTINUOUS
 70
0
 71
3
 72
21
 73
17
 74
0
 42
0.0000001
 43
0.0000001
 44
0.0000000001
 40
0.0
 40
0.0
 40
0.0
 40
0.0
 40
0.1599743892
 40
0.3123003248
 40
0.385130015
 40
0.4555337236
 40
0.5233675018
 40
0.5884947406
 40
0.6507840818
 40
0.7101195865
 40
0.7664065319
 40
0.8195608407
 40
0.869520613
 40
0.9162501264
 40
0.9597349374
 40
1.0
 40
1.0
 40
1.0
 40
1.0
 10
5.1098228014
 20
2.2926317684
 30
0.0
 10
5.1013463523
 20
2.2936404082
 30
0.0
 10
5.0848269771
 20
2.2958577109
 30
0.0
 10
5.0645569407
 20
2.2992698411
 30
0.0
 10
5.0490848852
 20
2.3023310014
 30
0.0
 10
5.0380818315
 20
2.3047386742
 30
0.0
 10
5.0275328251
 20
2.3072871031
 30
0.0
 10
5.0174644379
 20
2.3099695997
 30
0.0
 10
5.0079025923
 20
2.3127799542
 30
0.0
 10
4.9988717764
 20
2.3157116422
 30
0.0
 10
4.9903945925
 20
2.3187568311
 30
0.0
 10
4.9824923857
 20
2.3219086451
 30
0.0
 10
4.9751849765
 20
2.3251596057
 30
0.0
 10
4.9684900388
 20
2.3285013218
 30
0.0
 10
4.9624247149
 20
2.3319264132
 30
0.0
 10
4.9586673803
 20
2.3343527024
 30
0.0
 10
4.9569057268
 20
2.3355826755
 30
0.0
  0
LINE
  5
349
100
AcDbEntity
  8
ALL_ASSEMBLY_MEMBERS
100
AcDbLine
 62
7
  6
CONTINUOUS
 10
4.955205506
 20
2.3368007526
 11
4.951089343
 21
2.3400551497
  0
SPLINE
  5
34A
100
AcDbEntity
  8
ALL_ASSEMBLY_MEMBERS
100
AcDbSpline
 62
7
  6
CONTINUOUS
 70
0
 71
3
 72
14
 73
10
 74
0
 42
0.0000001
 43
0.0000001
 44
0.0000000001
 40
0.0
 40
0.0
 40
0.0
 40
0.0
 40
0.1473012868
 40
0.2871824815
 40
0.4200483509
 40
0.5463907952
 40
0.7817773484
 40
0.892597576
 40
1.0
 40
1.0
 40
1.0
 40
1.0
 10
4.9506489162
 20
2.3404346358
 30
0.0
 10
4.9498432006
 20
2.3411353404
 30
0.0
 10
4.9483067298
 20
2.3425418526
 30
0.0
 10
4.9461822425
 20
2.3447255467
 30
0.0
 10
4.9443004317
 20
2.3469262484
 30
0.0
 10
4.9421686059
 20
2.3498110183
 30
0.0
 10
4.9404532889
 20
2.3527999794
 30
0.0
 10
4.9392409571
 20
2.3558612082
 30
0.0
 10
4.938808716
 20
2.3573865115
 30
0.0
 10
4.9386371383
 20
2.3581459287
 30
0.0
  0
SPLINE
  5
34B
100
AcDbEntity
  8
ALL_ASSEMBLY_MEMBERS
100
AcDbSpline
 62
7
  6
CONTINUOUS
 70
0
 71
3
 72
16
 73
12
 74
0
 42
0.0000001
 43
0.0000001
 44
0.0000000001
 40
0.0
 40
0.0
 40
0.0
 40
0.0
 40
0.2508168249
 40
0.5014579938
 40
0.6264909093
 40
0.75125207
 40
0.8135276011
 40
0.8757372248
 40
0.9378898315
 40
0.968949167
 40
1.0
 40
1.0
 40
1.0
 40
1.0
 10
3.0243325691
 20
5.8848199054
 30
0.0
 10
3.0109669792
 20
5.8812294311
 30
0.0
 10
2.9843482572
 20
5.8736732321
 30
0.0
 10
2.95111609
 20
5.8641535893
 30
0.0
 10
2.9244396814
 20
5.8570195147
 30
0.0
 10
2.907724697
 20
5.852876648
 30
0.0
 10
2.8943157481
 20
5.8498188358
 30
0.0
 10
2.8842435033
 20
5.8476715699
 30
0.0
 10
2.875828523
 20
5.8460163579
 30
0.0
 10
2.8690840156
 20
5.8447817011
 30
0.0
 10
2.8657074338
 20
5.8441951312
 30
0.0
 10
2.8640179057
 20
5.8439106653
 30
0.0
  0
SPLINE
  5
34C
100
AcDbEntity
  8
ALL_ASSEMBLY_MEMBERS
100
AcDbSpline
 62
7
  6
CONTINUOUS
 70
0
 71
3
 72
16
 73
12
 74
0
 42
0.0000001
 43
0.0000001
 44
0.0000000001
 40
0.0
 40
0.0
 40
0.0
 40
0.0
 40
0.2508168146
 40
0.5014579883
 40
0.6264909078
 40
0.7512520713
 40
0.8135276029
 40
0.8757372265
 40
0.9378898325
 40
0.9689491675
 40
1.0
 40
1.0
 40
1.0
 40
1.0
 10
3.0243337499
 20
6.0954034178
 30
0.0
 10
3.0109680588
 20
6.0989939073
 30
0.0
 10
2.9843491377
 20
6.1065501528
 30
0.0
 10
2.9511167275
 20
6.1160698738
 30
0.0
 10
2.9244401242
 20
6.123204012
 30
0.0
 10
2.9077250177
 20
6.1273469163
 30
0.0
 10
2.8943159705
 20
6.1304047557
 30
0.0
 10
2.884243652
 20
6.1325520403
 30
0.0
 10
2.8758286099
 20
6.1342072661
 30
0.0
 10
2.8690840529
 20
6.1354419327
 30
0.0
 10
2.8657074463
 20
6.136028507
 30
0.0
 10
2.8640179057
 20
6.136312975
 30
0.0
  0
SPLINE
  5
34D
100
AcDbEntity
  8
ALL_ASSEMBLY_MEMBERS
100
AcDbSpline
 62
7
  6
CONTINUOUS
 70
0
 71
3
 72
14
 73
10
 74
0
 42
0.0000001
 43
0.0000001
 44
0.0000000001
 40
0.0
 40
0.0
 40
0.0
 40
0.0
 40
0.1208358161
 40
0.2430861935
 40
0.4915085187
 40
0.6174733464
 40
0.7443859772
 40
0.872002624
 40
1.0
 40
1.0
 40
1.0
 40
1.0
 10
2.9825121561
 20
5.9556111958
 30
0.0
 10
2.9821843156
 20
5.956986131
 30
0.0
 10
2.9815058054
 20
5.9597475814
 30
0.0
 10
2.9801235329
 20
5.9653281027
 30
0.0
 10
2.9788055692
 20
5.9709881522
 30
0.0
 10
2.9777417494
 20
5.9767561667
 30
0.0
 10
2.9771178457
 20
5.981164722
 30
0.0
 10
2.9767194713
 20
5.9856237619
 30
0.0
 10
2.9766281596
 20
5.9886145674
 30
0.0
 10
2.9766279649
 20
5.9901118202
 30
0.0
  0
SPLINE
  5
34E
100
AcDbEntity
  8
ALL_ASSEMBLY_MEMBERS
100
AcDbSpline
 62
7
  6
CONTINUOUS
 70
0
 71
3
 72
11
 73
7
 74
0
 42
0.0000001
 43
0.0000001
 44
0.0000000001
 40
0.0
 40
0.0
 40
0.0
 40
0.0
 40
0.2386034559
 40
0.4893400357
 40
0.7456511838
 40
1.0
 40
1.0
 40
1.0
 40
1.0
 10
3.0028673909
 20
6.0216951513
 30
0.0
 10
3.0012281408
 20
6.0217130746
 30
0.0
 10
2.9978669079
 20
6.0218765241
 30
0.0
 10
2.9927733336
 20
6.0224532256
 30
0.0
 10
2.9876170394
 20
6.0233528322
 30
0.0
 10
2.9841996513
 20
6.0241583626
 30
0.0
 10
2.9825121479
 20
6.0246124406
 30
0.0
  0
SPLINE
  5
34F
100
AcDbEntity
  8
ALL_ASSEMBLY_MEMBERS
100
AcDbSpline
 62
7
  6
CONTINUOUS
 70
0
 71
3
 72
11
 73
7
 74
0
 42
0.0000001
 43
0.0000001
 44
0.0000000001
 40
0.0
 40
0.0
 40
0.0
 40
0.0
 40
0.2385999561
 40
0.4893361877
 40
0.7456489294
 40
1.0
 40
1.0
 40
1.0
 40
1.0
 10
3.0028692175
 20
5.9585286872
 30
0.0
 10
3.0012298444
 20
5.9585107975
 30
0.0
 10
2.9978683338
 20
5.9583473833
 30
0.0
 10
2.992774315
 20
5.9577706619
 30
0.0
 10
2.9876175357
 20
5.9568709664
 30
0.0
 10
2.9841998209
 20
5.9560653349
 30
0.0
 10
2.982512156
 20
5.9556111959
 30
0.0
  0
SPLINE
  5
350
100
AcDbEntity
  8
ALL_ASSEMBLY_MEMBERS
100
AcDbSpline
 62
7
  6
CONTINUOUS
 70
0
 71
3
 72
16
 73
12
 74
0
 42
0.0000001
 43
0.0000001
 44
0.0000000001
 40
0.0
 40
0.0
 40
0.0
 40
0.0
 40
0.0452234896
 40
0.0928050231
 40
0.1949185839
 40
0.3062859275
 40
0.4269176951
 40
0.5568328432
 40
0.6959518705
 40
0.8439307429
 40
1.0
 40
1.0
 40
1.0
 40
1.0
 10
3.0200729272
 20
5.8944428675
 30
0.0
 10
3.0191540476
 20
5.8950574432
 30
0.0
 10
3.0173065929
 20
5.8963766523
 30
0.0
 10
3.0135888155
 20
5.8993597505
 30
0.0
 10
3.0089444675
 20
5.9037544223
 30
0.0
 10
3.0035848274
 20
5.9099328085
 30
0.0
 10
2.9984297986
 20
5.9171378918
 30
0.0
 10
2.9935996194
 20
5.9253618741
 30
0.0
 10
2.9892182882
 20
5.9345800922
 30
0.0
 10
2.9854143756
 20
5.9447363842
 30
0.0
 10
2.9833970043
 20
5.9519002116
 30
0.0
 10
2.9825121561
 20
5.9556111958
 30
0.0
  0
SPLINE
  5
351
100
AcDbEntity
  8
ALL_ASSEMBLY_MEMBERS
100
AcDbSpline
 62
7
  6
CONTINUOUS
 70
0
 71
3
 72
16
 73
12
 74
0
 42
0.0000001
 43
0.0000001
 44
0.0000000001
 40
0.0
 40
0.0
 40
0.0
 40
0.0
 40
0.1560669958
 40
0.3040442057
 40
0.4431625159
 40
0.5730772607
 40
0.6937088016
 40
0.8050767122
 40
0.9071918929
 40
0.9547749436
 40
1.0
 40
1.0
 40
1.0
 40
1.0
 10
2.9825121532
 20
6.0246124461
 30
0.0
 10
2.9833969589
 20
6.0283232558
 30
0.0
 10
2.9854142319
 20
6.035486758
 30
0.0
 10
2.9892179139
 20
6.0456426362
 30
0.0
 10
2.9935989823
 20
6.0548605343
 30
0.0
 10
2.9984288663
 20
6.0630842896
 30
0.0
 10
3.0035835856
 20
6.0702892355
 30
0.0
 10
3.008942925
 20
6.0764675916
 30
0.0
 10
3.0135870514
 20
6.0808623235
 30
0.0
 10
3.0173046821
 20
6.0838455396
 30
0.0
 10
3.0191520846
 20
6.085164824
 30
0.0
 10
3.0200709393
 20
6.0857794411
 30
0.0
  0
SPLINE
  5
352
100
AcDbEntity
  8
ALL_ASSEMBLY_MEMBERS
100
AcDbSpline
 62
7
  6
CONTINUOUS
 70
0
 71
3
 72
14
 73
10
 74
0
 42
0.0000001
 43
0.0000001
 44
0.0000000001
 40
0.0
 40
0.0
 40
0.0
 40
0.0
 40
0.1279973593
 40
0.255614
 40
0.3825266325
 40
0.5084914574
 40
0.7569137884
 40
0.8791641906
 40
1.0
 40
1.0
 40
1.0
 40
1.0
 10
2.976627958
 20
5.9901118202
 30
0.0
 10
2.9766281554
 20
5.9916090727
 30
0.0
 10
2.976719464
 20
5.994599878
 30
0.0
 10
2.9771178475
 20
5.9990589171
 30
0.0
 10
2.9777417597
 20
6.003467471
 30
0.0
 10
2.9788055898
 20
6.0092354836
 30
0.0
 10
2.9801235471
 20
6.0148955346
 30
0.0
 10
2.9815057963
 20
6.0204760619
 30
0.0
 10
2.9821843123
 20
6.0232375111
 30
0.0
 10
2.9825121532
 20
6.0246124461
 30
0.0
  0
SPLINE
  5
353
100
AcDbEntity
  8
ALL_ASSEMBLY_MEMBERS
100
AcDbSpline
 62
7
  6
CONTINUOUS
 70
0
 71
3
 72
16
 73
12
 74
0
 42
0.0000001
 43
0.0000001
 44
0.0000000001
 40
0.0
 40
0.0
 40
0.0
 40
0.0
 40
0.2508168249
 40
0.5014579938
 40
0.6264909093
 40
0.75125207
 40
0.8135276011
 40
0.8757372248
 40
0.9378898315
 40
0.968949167
 40
1.0
 40
1.0
 40
1.0
 40
1.0
 10
7.4107217787
 20
6.0954037349
 30
0.0
 10
7.4240873686
 20
6.0989942092
 30
0.0
 10
7.4507060906
 20
6.1065504082
 30
0.0
 10
7.4839382578
 20
6.116070051
 30
0.0
 10
7.5106146664
 20
6.1232041256
 30
0.0
 10
7.5273296508
 20
6.1273469924
 30
0.0
 10
7.5407385998
 20
6.1304048045
 30
0.0
 10
7.5508108445
 20
6.1325520704
 30
0.0
 10
7.5592258248
 20
6.1342072824
 30
0.0
 10
7.5659703322
 20
6.1354419392
 30
0.0
 10
7.569346914
 20
6.1360285091
 30
0.0
 10
7.5710364421
 20
6.136312975
 30
0.0
  0
SPLINE
  5
354
100
AcDbEntity
  8
ALL_ASSEMBLY_MEMBERS
100
AcDbSpline
 62
7
  6
CONTINUOUS
 70
0
 71
3
 72
16
 73
12
 74
0
 42
0.0000001
 43
0.0000001
 44
0.0000000001
 40
0.0
 40
0.0
 40
0.0
 40
0.0
 40
0.2508168146
 40
0.5014579883
 40
0.6264909078
 40
0.7512520713
 40
0.8135276029
 40
0.8757372265
 40
0.9378898325
 40
0.9689491675
 40
1.0
 40
1.0
 40
1.0
 40
1.0
 10
7.4107205979
 20
5.8848202226
 30
0.0
 10
7.424086289
 20
5.8812297331
 30
0.0
 10
7.4507052101
 20
5.8736734875
 30
0.0
 10
7.4839376203
 20
5.8641537665
 30
0.0
 10
7.5106142236
 20
5.8570196283
 30
0.0
 10
7.5273293302
 20
5.852876724
 30
0.0
 10
7.5407383773
 20
5.8498188846
 30
0.0
 10
7.5508106958
 20
5.8476716
 30
0.0
 10
7.5592257379
 20
5.8460163743
 30
0.0
 10
7.5659702949
 20
5.8447817076
 30
0.0
 10
7.5693469016
 20
5.8441951333
 30
0.0
 10
7.5710364421
 20
5.8439106653
 30
0.0
  0
SPLINE
  5
355
100
AcDbEntity
  8
ALL_ASSEMBLY_MEMBERS
100
AcDbSpline
 62
7
  6
CONTINUOUS
 70
0
 71
3
 72
14
 73
10
 74
0
 42
0.0000001
 43
0.0000001
 44
0.0000000001
 40
0.0
 40
0.0
 40
0.0
 40
0.0
 40
0.1208358161
 40
0.2430861935
 40
0.4915085187
 40
0.6174733464
 40
0.7443859772
 40
0.872002624
 40
1.0
 40
1.0
 40
1.0
 40
1.0
 10
7.4525421917
 20
6.0246124446
 30
0.0
 10
7.4528700322
 20
6.0232375093
 30
0.0
 10
7.4535485424
 20
6.0204760589
 30
0.0
 10
7.4549308149
 20
6.0148955377
 30
0.0
 10
7.4562487786
 20
6.0092354882
 30
0.0
 10
7.4573125984
 20
6.0034674736
 30
0.0
 10
7.4579365021
 20
5.9990589183
 30
0.0
 10
7.4583348766
 20
5.9945998784
 30
0.0
 10
7.4584261882
 20
5.9916090729
 30
0.0
 10
7.4584263829
 20
5.9901118202
 30
0.0
  0
SPLINE
  5
356
100
AcDbEntity
  8
ALL_ASSEMBLY_MEMBERS
100
AcDbSpline
 62
7
  6
CONTINUOUS
 70
0
 71
3
 72
11
 73
7
 74
0
 42
0.0000001
 43
0.0000001
 44
0.0000000001
 40
0.0
 40
0.0
 40
0.0
 40
0.0
 40
0.2386034559
 40
0.4893400357
 40
0.7456511838
 40
1.0
 40
1.0
 40
1.0
 40
1.0
 10
7.4321869569
 20
5.958528489
 30
0.0
 10
7.433826207
 20
5.9585105657
 30
0.0
 10
7.4371874399
 20
5.9583471162
 30
0.0
 10
7.4422810142
 20
5.9577704147
 30
0.0
 10
7.4474373084
 20
5.9568708081
 30
0.0
 10
7.4508546966
 20
5.9560652777
 30
0.0
 10
7.4525421999
 20
5.9556111997
 30
0.0
  0
SPLINE
  5
357
100
AcDbEntity
  8
ALL_ASSEMBLY_MEMBERS
100
AcDbSpline
 62
7
  6
CONTINUOUS
 70
0
 71
3
 72
11
 73
7
 74
0
 42
0.0000001
 43
0.0000001
 44
0.0000000001
 40
0.0
 40
0.0
 40
0.0
 40
0.0
 40
0.2385999561
 40
0.4893361877
 40
0.7456489294
 40
1.0
 40
1.0
 40
1.0
 40
1.0
 10
7.4321851303
 20
6.0216949531
 30
0.0
 10
7.4338245034
 20
6.0217128428
 30
0.0
 10
7.437186014
 20
6.021876257
 30
0.0
 10
7.4422800328
 20
6.0224529785
 30
0.0
 10
7.4474368121
 20
6.0233526739
 30
0.0
 10
7.4508545269
 20
6.0241583054
 30
0.0
 10
7.4525421918
 20
6.0246124445
 30
0.0
  0
SPLINE
  5
358
100
AcDbEntity
  8
ALL_ASSEMBLY_MEMBERS
100
AcDbSpline
 62
7
  6
CONTINUOUS
 70
0
 71
3
 72
16
 73
12
 74
0
 42
0.0000001
 43
0.0000001
 44
0.0000000001
 40
0.0
 40
0.0
 40
0.0
 40
0.0
 40
0.0452234896
 40
0.0928050231
 40
0.1949185839
 40
0.3062859275
 40
0.4269176951
 40
0.5568328432
 40
0.6959518705
 40
0.8439307429
 40
1.0
 40
1.0
 40
1.0
 40
1.0
 10
7.4149814206
 20
6.0857807729
 30
0.0
 10
7.4159003002
 20
6.0851661971
 30
0.0
 10
7.417747755
 20
6.083846988
 30
0.0
 10
7.4214655323
 20
6.0808638898
 30
0.0
 10
7.4261098803
 20
6.076469218
 30
0.0
 10
7.4314695204
 20
6.0702908318
 30
0.0
 10
7.4366245493
 20
6.0630857485
 30
0.0
 10
7.4414547285
 20
6.0548617663
 30
0.0
 10
7.4458360596
 20
6.0456435481
 30
0.0
 10
7.4496399722
 20
6.0354872561
 30
0.0
 10
7.4516573435
 20
6.0283234287
 30
0.0
 10
7.4525421917
 20
6.0246124446
 30
0.0
  0
SPLINE
  5
359
100
AcDbEntity
  8
ALL_ASSEMBLY_MEMBERS
100
AcDbSpline
 62
7
  6
CONTINUOUS
 70
0
 71
3
 72
16
 73
12
 74
0
 42
0.0000001
 43
0.0000001
 44
0.0000000001
 40
0.0
 40
0.0
 40
0.0
 40
0.0
 40
0.1560669958
 40
0.3040442057
 40
0.4431625159
 40
0.5730772607
 40
0.6937088016
 40
0.8050767122
 40
0.9071918929
 40
0.9547749436
 40
1.0
 40
1.0
 40
1.0
 40
1.0
 10
7.4525421946
 20
5.9556111942
 30
0.0
 10
7.451657389
 20
5.9519003845
 30
0.0
 10
7.4496401159
 20
5.9447368823
 30
0.0
 10
7.4458364339
 20
5.9345810041
 30
0.0
 10
7.4414553656
 20
5.925363106
 30
0.0
 10
7.4366254815
 20
5.9171393507
 30
0.0
 10
7.4314707622
 20
5.9099344049
 30
0.0
 10
7.4261114228
 20
5.9037560488
 30
0.0
 10
7.4214672964
 20
5.8993613168
 30
0.0
 10
7.4177496657
 20
5.8963781007
 30
0.0
 10
7.4159022632
 20
5.8950588163
 30
0.0
 10
7.4149834085
 20
5.8944441993
 30
0.0
  0
SPLINE
  5
35A
100
AcDbEntity
  8
ALL_ASSEMBLY_MEMBERS
100
AcDbSpline
 62
7
  6
CONTINUOUS
 70
0
 71
3
 72
14
 73
10
 74
0
 42
0.0000001
 43
0.0000001
 44
0.0000000001
 40
0.0
 40
0.0
 40
0.0
 40
0.0
 40
0.1279973593
 40
0.255614
 40
0.3825266325
 40
0.5084914574
 40
0.7569137884
 40
0.8791641906
 40
1.0
 40
1.0
 40
1.0
 40
1.0
 10
7.4584263898
 20
5.9901118202
 30
0.0
 10
7.4584261925
 20
5.9886145676
 30
0.0
 10
7.4583348839
 20
5.9856237623
 30
0.0
 10
7.4579365003
 20
5.9811647232
 30
0.0
 10
7.4573125882
 20
5.9767561693
 30
0.0
 10
7.456248758
 20
5.9709881567
 30
0.0
 10
7.4549308007
 20
5.9653281058
 30
0.0
 10
7.4535485515
 20
5.9597475785
 30
0.0
 10
7.4528700355
 20
5.9569861293
 30
0.0
 10
7.4525421946
 20
5.9556111942
 30
0.0
  0
SPLINE
  5
35B
100
AcDbEntity
  8
ALL_ASSEMBLY_MEMBERS
100
AcDbSpline
 62
7
  6
CONTINUOUS
 70
0
 71
3
 72
28
 73
24
 74
0
 42
0.0000001
 43
0.0000001
 44
0.0000000001
 40
0.0
 40
0.0
 40
0.0
 40
0.0
 40
0.0910221711
 40
0.1813364583
 40
0.2699935093
 40
0.3562025591
 40
0.4392365016
 40
0.5183861036
 40
0.5929632172
 40
0.6623593271
 40
0.7260407523
 40
0.7835702547
 40
0.8346327928
 40
0.8576870054
 40
0.8790879771
 40
0.8988553721
 40
0.9170286473
 40
0.9336807268
 40
0.9489274634
 40
0.9629302173
 40
0.9759077577
 40
0.988147231
 40
1.0
 40
1.0
 40
1.0
 40
1.0
 10
5.2162771739
 20
2.4118769384
 30
0.0
 10
5.2096238997
 20
2.4118769384
 30
0.0
 10
5.1963684877
 20
2.4117082092
 30
0.0
 10
5.1766455468
 20
2.4109558332
 30
0.0
 10
5.1573000539
 20
2.4097073499
 30
0.0
 10
5.1385258311
 20
2.4079776412
 30
0.0
 10
5.1204999603
 20
2.4057821107
 30
0.0
 10
5.1033928412
 20
2.4031445282
 30
0.0
 10
5.0873685015
 20
2.4000889778
 30
0.0
 10
5.0725806938
 20
2.3966466195
 30
0.0
 10
5.0591684617
 20
2.3928516089
 30
0.0
 10
5.0472583799
 20
2.3887404201
 30
0.0
 10
5.0383928679
 20
2.3849681237
 30
0.0
 10
5.0321756688
 20
2.3817852541
 30
0.0
 10
5.0281143844
 20
2.3794257917
 30
0.0
 10
5.0245028179
 20
2.3770176453
 30
0.0
 10
5.0213497664
 20
2.3745649887
 30
0.0
 10
5.0186626678
 20
2.3720719981
 30
0.0
 10
5.0164467791
 20
2.3695432369
 30
0.0
 10
5.0147080881
 20
2.3669818743
 30
0.0
 10
5.0134548236
 20
2.3643901733
 30
0.0
 10
5.012697998
 20
2.3617742197
 30
0.0
 10
5.0125282037
 20
2.3600089372
 30
0.0
 10
5.0125282037
 20
2.359142558
 30
0.0
  0
SPLINE
  5
35C
100
AcDbEntity
  8
ALL_ASSEMBLY_MEMBERS
100
AcDbSpline
 62
7
  6
CONTINUOUS
 70
0
 71
3
 72
20
 73
16
 74
0
 42
0.0000001
 43
0.0000001
 44
0.0000000001
 40
0.0
 40
0.0
 40
0.0
 40
0.0
 40
0.152423754
 40
0.3020982176
 40
0.4460938689
 40
0.5151678681
 40
0.581882623
 40
0.6459396979
 40
0.7070515702
 40
0.7649427262
 40
0.8193581535
 40
0.8701580331
 40
0.9172730933
 40
0.9606225983
 40
1.0
 40
1.0
 40
1.0
 40
1.0
 10
5.2162771739
 20
2.2904261015
 30
0.0
 10
5.2287501262
 20
2.2904261015
 30
0.0
 10
5.2534735746
 20
2.2908759465
 30
0.0
 10
5.2899302469
 20
2.2928874035
 30
0.0
 10
5.3194915853
 20
2.2956812064
 30
0.0
 10
5.3422035649
 20
2.2985832278
 30
0.0
 10
5.3583747369
 20
2.3010293718
 30
0.0
 10
5.3738386502
 20
2.3037634051
 30
0.0
 10
5.3885154652
 20
2.3067718079
 30
0.0
 10
5.4023278729
 20
2.3100382055
 30
0.0
 10
5.415207199
 20
2.3135520083
 30
0.0
 10
5.427101583
 20
2.3172926027
 30
0.0
 10
5.4379723411
 20
2.3212363782
 30
0.0
 10
5.4477725718
 20
2.3253527536
 30
0.0
 10
5.4538492777
 20
2.3283512367
 30
0.0
 10
5.4566780009
 20
2.3298944254
 30
0.0
  0
SPLINE
  5
35D
100
AcDbEntity
  8
ALL_ASSEMBLY_MEMBERS
100
AcDbSpline
 62
7
  6
CONTINUOUS
 70
0
 71
3
 72
9
 73
5
 74
0
 42
0.0000001
 43
0.0000001
 44
0.0000000001
 40
0.0
 40
0.0
 40
0.0
 40
0.0
 40
0.2622564612
 40
1.0
 40
1.0
 40
1.0
 40
1.0
 10
5.4636053102
 20
2.3340350106
 30
0.0
 10
5.4641819929
 20
2.3344155491
 30
0.0
 10
5.4663619725
 20
2.3358947963
 30
0.0
 10
5.4684641306
 20
2.3374908458
 30
0.0
 10
5.4699501324
 20
2.3387436016
 30
0.0
  0
SPLINE
  5
35E
100
AcDbEntity
  8
ALL_ASSEMBLY_MEMBERS
100
AcDbSpline
 62
7
  6
CONTINUOUS
 70
0
 71
3
 72
21
 73
17
 74
0
 42
0.0000001
 43
0.0000001
 44
0.0000000001
 40
0.0
 40
0.0
 40
0.0
 40
0.0
 40
0.1562564008
 40
0.3093786905
 40
0.3836761761
 40
0.4559716825
 40
0.5259083038
 40
0.5931415002
 40
0.6573338013
 40
0.7181663025
 40
0.7753718528
 40
0.8287058175
 40
0.8779539936
 40
0.9229721304
 40
0.9636629244
 40
1.0
 40
1.0
 40
1.0
 40
1.0
 10
5.2162771739
 20
2.2904261015
 30
0.0
 10
5.2030658333
 20
2.2904261015
 30
0.0
 10
5.1769055646
 20
2.2909308878
 30
0.0
 10
5.1445119536
 20
2.2928243195
 30
0.0
 10
5.1192726592
 20
2.2951081267
 30
0.0
 10
5.1010790036
 20
2.2971601182
 30
0.0
 10
5.0835303334
 20
2.2995587642
 30
0.0
 10
5.066723608
 20
2.302288293
 30
0.0
 10
5.0507537647
 20
2.3053329933
 30
0.0
 10
5.0357112088
 20
2.3086783491
 30
0.0
 10
5.0216792322
 20
2.3123026153
 30
0.0
 10
5.0087350293
 20
2.3161847512
 30
0.0
 10
4.9969505249
 20
2.3203057957
 30
0.0
 10
4.9863880251
 20
2.3246399078
 30
0.0
 10
4.9771043397
 20
2.3291620024
 30
0.0
 10
4.9714849802
 20
2.3324751799
 30
0.0
 10
4.9689252578
 20
2.3341741942
 30
0.0
  0
SPLINE
  5
35F
100
AcDbEntity
  8
ALL_ASSEMBLY_MEMBERS
100
AcDbSpline
 62
7
  6
CONTINUOUS
 70
0
 71
3
 72
9
 73
5
 74
0
 42
0.0000001
 43
0.0000001
 44
0.0000000001
 40
0.0
 40
0.0
 40
0.0
 40
0.0
 40
0.5218931071
 40
1.0
 40
1.0
 40
1.0
 40
1.0
 10
4.9689252578
 20
2.3341741942
 30
0.0
 10
4.9673751114
 20
2.3352031029
 30
0.0
 10
4.9644676822
 20
2.3372719325
 30
0.0
 10
4.9617343767
 20
2.3395691604
 30
0.0
 10
4.9604864348
 20
2.3407300931
 30
0.0
  0
SPLINE
  5
360
100
AcDbEntity
  8
ALL_ASSEMBLY_MEMBERS
100
AcDbSpline
 62
7
  6
CONTINUOUS
 70
0
 71
3
 72
9
 73
5
 74
0
 42
0.0000001
 43
0.0000001
 44
0.0000000001
 40
0.0
 40
0.0
 40
0.0
 40
0.0
 40
0.2660229863
 40
1.0
 40
1.0
 40
1.0
 40
1.0
 10
4.9519390769
 20
2.3815803777
 30
0.0
 10
4.9514369078
 20
2.3810039997
 30
0.0
 10
4.9496096021
 20
2.3787870802
 30
0.0
 10
4.9480388592
 20
2.3763467839
 30
0.0
 10
4.9471233341
 20
2.3744466681
 30
0.0
  0
SPLINE
  5
361
100
AcDbEntity
  8
ALL_ASSEMBLY_MEMBERS
100
AcDbSpline
 62
7
  6
CONTINUOUS
 70
0
 71
3
 72
15
 73
11
 74
0
 42
0.0000001
 43
0.0000001
 44
0.0000000001
 40
0.0
 40
0.0
 40
0.0
 40
0.0
 40
0.1178741576
 40
0.2312634224
 40
0.3436346274
 40
0.4585520716
 40
0.5792297278
 40
0.7083604121
 40
0.8480729987
 40
1.0
 40
1.0
 40
1.0
 40
1.0
 10
4.9466813811
 20
2.3734773979
 30
0.0
 10
4.9461927816
 20
2.3723414903
 30
0.0
 10
4.9454033825
 20
2.3700334925
 30
0.0
 10
4.9448517796
 20
2.3664513942
 30
0.0
 10
4.9449761722
 20
2.362858493
 30
0.0
 10
4.9457759126
 20
2.3592770705
 30
0.0
 10
4.9472355638
 20
2.355722741
 30
0.0
 10
4.9493416075
 20
2.3522056931
 30
0.0
 10
4.9520829978
 20
2.3487334391
 30
0.0
 10
4.9542334008
 20
2.3465489736
 30
0.0
 10
4.9554002053
 20
2.3454633259
 30
0.0
  0
LINE
  5
362
100
AcDbEntity
  8
ALL_ASSEMBLY_MEMBERS
100
AcDbLine
 62
7
  6
CONTINUOUS
 10
5.4802667037
 20
2.3489655661
 11
5.4843533061
 21
2.3527478355
  0
SPLINE
  5
363
100
AcDbEntity
  8
ALL_ASSEMBLY_MEMBERS
100
AcDbSpline
 62
7
  6
CONTINUOUS
 70
0
 71
3
 72
28
 73
24
 74
0
 42
0.0000001
 43
0.0000001
 44
0.0000000001
 40
0.0
 40
0.0
 40
0.0
 40
0.0
 40
0.011852769
 40
0.0240922423
 40
0.0370697827
 40
0.0510725366
 40
0.0663192732
 40
0.0829713527
 40
0.1011446279
 40
0.1209120229
 40
0.1423129946
 40
0.1653672072
 40
0.2164297453
 40
0.2739592477
 40
0.3376406729
 40
0.4070367828
 40
0.4816138964
 40
0.5607634984
 40
0.6437974409
 40
0.7300064907
 40
0.8186635417
 40
0.9089778289
 40
1.0
 40
1.0
 40
1.0
 40
1.0
 10
5.4200261442
 20
2.359142558
 30
0.0
 10
5.4200261442
 20
2.3600089372
 30
0.0
 10
5.4198563498
 20
2.3617742197
 30
0.0
 10
5.4190995242
 20
2.3643901733
 30
0.0
 10
5.4178462598
 20
2.3669818743
 30
0.0
 10
5.4161075687
 20
2.3695432369
 30
0.0
 10
5.4138916801
 20
2.3720719981
 30
0.0
 10
5.4112045814
 20
2.3745649887
 30
0.0
 10
5.40805153
 20
2.3770176453
 30
0.0
 10
5.4044399635
 20
2.3794257917
 30
0.0
 10
5.400378679
 20
2.3817852541
 30
0.0
 10
5.3941614799
 20
2.3849681237
 30
0.0
 10
5.385295968
 20
2.3887404201
 30
0.0
 10
5.3733858861
 20
2.3928516089
 30
0.0
 10
5.359973654
 20
2.3966466195
 30
0.0
 10
5.3451858464
 20
2.4000889778
 30
0.0
 10
5.3291615066
 20
2.4031445282
 30
0.0
 10
5.3120543875
 20
2.4057821107
 30
0.0
 10
5.2940285168
 20
2.4079776412
 30
0.0
 10
5.2752542939
 20
2.4097073499
 30
0.0
 10
5.255908801
 20
2.4109558332
 30
0.0
 10
5.2361858601
 20
2.4117082092
 30
0.0
 10
5.2229304481
 20
2.4118769384
 30
0.0
 10
5.2162771739
 20
2.4118769384
 30
0.0
  0
SPLINE
  5
364
100
AcDbEntity
  8
ALL_ASSEMBLY_MEMBERS
100
AcDbSpline
 62
7
  6
CONTINUOUS
 70
0
 71
3
 72
20
 73
16
 74
0
 42
0.0000001
 43
0.0000001
 44
0.0000000001
 40
0.0
 40
0.0
 40
0.0
 40
0.0
 40
0.1519983872
 40
0.3012267051
 40
0.444948503
 40
0.5139236269
 40
0.5805813721
 40
0.6446406571
 40
0.7058249202
 40
0.7638642614
 40
0.8185063364
 40
0.8695701322
 40
0.9169153674
 40
0.9604219091
 40
1.0
 40
1.0
 40
1.0
 40
1.0
 10
5.2162771739
 20
2.5824190358
 30
0.0
 10
5.201458221
 20
2.5824190358
 30
0.0
 10
5.172087486
 20
2.5818840975
 30
0.0
 10
5.1287633164
 20
2.5795146412
 30
0.0
 10
5.0936197553
 20
2.576230735
 30
0.0
 10
5.0665981751
 20
2.572808635
 30
0.0
 10
5.0473425269
 20
2.5699230691
 30
0.0
 10
5.0289110421
 20
2.5666995145
 30
0.0
 10
5.0113949494
 20
2.5631540246
 30
0.0
 10
4.9948844305
 20
2.5593032125
 30
0.0
 10
4.9794638128
 20
2.5551598913
 30
0.0
 10
4.9652053826
 20
2.5507476461
 30
0.0
 10
4.9521708747
 20
2.5460918634
 30
0.0
 10
4.9404202355
 20
2.5412167921
 30
0.0
 10
4.9331313791
 20
2.5376662839
 30
0.0
 10
4.9297306574
 20
2.535843063
 30
0.0
  0
SPLINE
  5
365
100
AcDbEntity
  8
ALL_ASSEMBLY_MEMBERS
100
AcDbSpline
 62
7
  6
CONTINUOUS
 70
0
 71
3
 72
27
 73
23
 74
0
 42
0.0000001
 43
0.0000001
 44
0.0000000001
 40
0.0
 40
0.0
 40
0.0
 40
0.0
 40
0.013639853
 40
0.027548924
 40
0.0419699865
 40
0.0571188306
 40
0.073179895
 40
0.0903062849
 40
0.1281817837
 40
0.1714215704
 40
0.2203679164
 40
0.2470321743
 40
0.275154244
 40
0.3357336087
 40
0.40200274
 40
0.4737336837
 40
0.5506315994
 40
0.6323714506
 40
0.7186050895
 40
0.8089658067
 40
0.902960278
 40
1.0
 40
1.0
 40
1.0
 40
1.0
 10
5.4821206623
 20
2.3594552788
 30
0.0
 10
5.48212037
 20
2.3603148746
 30
0.0
 10
5.4819927479
 20
2.3620534934
 30
0.0
 10
5.481424492
 20
2.3646449752
 30
0.0
 10
5.4804820704
 20
2.3672260843
 30
0.0
 10
5.4791689234
 20
2.3697917226
 30
0.0
 10
5.4774881838
 20
2.3723389037
 30
0.0
 10
5.4746644737
 20
2.3758226965
 30
0.0
 10
5.4701488479
 20
2.3800969297
 30
0.0
 10
5.4635121442
 20
2.3849329218
 30
0.0
 10
5.4570419575
 20
2.3887272477
 30
0.0
 10
5.4512211531
 20
2.3917049322
 30
0.0
 10
5.4446327626
 20
2.3947829052
 30
0.0
 10
5.4355857087
 20
2.3984782879
 30
0.0
 10
5.4237597417
 20
2.4025867915
 30
0.0
 10
5.4107774833
 20
2.4064572012
 30
0.0
 10
5.3967142161
 20
2.4100745212
 30
0.0
 10
5.3816466289
 20
2.4134202371
 30
0.0
 10
5.3656518846
 20
2.4164691184
 30
0.0
 10
5.3488159584
 20
2.4191927124
 30
0.0
 10
5.3312418502
 20
2.4215792675
 30
0.0
 10
5.3192768648
 20
2.4229239356
 30
0.0
 10
5.3131926889
 20
2.4235424209
 30
0.0
  0
SPLINE
  5
366
100
AcDbEntity
  8
ALL_ASSEMBLY_MEMBERS
100
AcDbSpline
 62
7
  6
CONTINUOUS
 70
0
 71
3
 72
9
 73
5
 74
0
 42
0.0000001
 43
0.0000001
 44
0.0000000001
 40
0.0
 40
0.0
 40
0.0
 40
0.0
 40
0.5268009007
 40
1.0
 40
1.0
 40
1.0
 40
1.0
 10
4.9604864348
 20
2.3407300931
 30
0.0
 10
4.9591221769
 20
2.3419992321
 30
0.0
 10
4.9566608666
 20
2.3445537523
 30
0.0
 10
4.9545921066
 20
2.3474452757
 30
0.0
 10
4.9537495254
 20
2.3488914372
 30
0.0
  0
SPLINE
  5
367
100
AcDbEntity
  8
ALL_ASSEMBLY_MEMBERS
100
AcDbSpline
 62
7
  6
CONTINUOUS
 70
0
 71
3
 72
11
 73
7
 74
0
 42
0.0000001
 43
0.0000001
 44
0.0000000001
 40
0.0
 40
0.0
 40
0.0
 40
0.0
 40
0.2649776799
 40
0.51347902
 40
0.7549972789
 40
1.0
 40
1.0
 40
1.0
 40
1.0
 10
4.9537495254
 20
2.3488914372
 30
0.0
 10
4.9530394548
 20
2.3501101647
 30
0.0
 10
4.9518468309
 20
2.3525884387
 30
0.0
 10
4.9508299725
 20
2.3565055826
 30
0.0
 10
4.9506810983
 20
2.3604462189
 30
0.0
 10
4.951155781
 20
2.3630153164
 30
0.0
 10
4.9515181876
 20
2.3642681187
 30
0.0
  0
SPLINE
  5
368
100
AcDbEntity
  8
ALL_ASSEMBLY_MEMBERS
100
AcDbSpline
 62
7
  6
CONTINUOUS
 70
0
 71
3
 72
9
 73
5
 74
0
 42
0.0000001
 43
0.0000001
 44
0.0000000001
 40
0.0
 40
0.0
 40
0.0
 40
0.0
 40
0.2423156742
 40
1.0
 40
1.0
 40
1.0
 40
1.0
 10
4.9515181876
 20
2.3642681187
 30
0.0
 10
4.951632309
 20
2.3646626246
 30
0.0
 10
4.9521534928
 20
2.3662760303
 30
0.0
 10
4.9528698995
 20
2.3678239666
 30
0.0
 10
4.9534944898
 20
2.3689459702
 30
0.0
  0
SPLINE
  5
369
100
AcDbEntity
  8
ALL_ASSEMBLY_MEMBERS
100
AcDbSpline
 62
7
  6
CONTINUOUS
 70
0
 71
3
 72
11
 73
7
 74
0
 42
0.0000001
 43
0.0000001
 44
0.0000000001
 40
0.0
 40
0.0
 40
0.0
 40
0.0
 40
0.2140775492
 40
0.4503502322
 40
0.7117198168
 40
1.0
 40
1.0
 40
1.0
 40
1.0
 10
4.9537495254
 20
2.3693936787
 30
0.0
 10
4.9545244039
 20
2.370723639
 30
0.0
 10
4.9563975161
 20
2.3733831122
 30
0.0
 10
4.959895596
 20
2.3771342122
 30
0.0
 10
4.9641907769
 20
2.3808206865
 30
0.0
 10
4.9674145875
 20
2.383115383
 30
0.0
 10
4.9691450622
 20
2.3842563293
 30
0.0
  0
LINE
  5
36A
100
AcDbEntity
  8
ALL_ASSEMBLY_MEMBERS
100
AcDbLine
 62
7
  6
CONTINUOUS
 10
4.9713687385
 20
2.3856757876
 11
4.9770699395
 21
2.388957511
  0
SPLINE
  5
36B
100
AcDbEntity
  8
ALL_ASSEMBLY_MEMBERS
100
AcDbSpline
 62
7
  6
CONTINUOUS
 70
0
 71
3
 72
21
 73
17
 74
0
 42
0.0000001
 43
0.0000001
 44
0.0000000001
 40
0.0
 40
0.0
 40
0.0
 40
0.0
 40
0.0410758532
 40
0.085871225
 40
0.1342967122
 40
0.1862241018
 40
0.2414764088
 40
0.2998606382
 40
0.3611683588
 40
0.4251514362
 40
0.4915463053
 40
0.5600851079
 40
0.6304916085
 40
0.7024830753
 40
0.8500393305
 40
1.0
 40
1.0
 40
1.0
 40
1.0
 10
4.9816620546
 20
2.391308754
 30
0.0
 10
4.9846025492
 20
2.3927451437
 30
0.0
 10
4.9908511816
 20
2.3955425052
 30
0.0
 10
5.0008386443
 20
2.3993914193
 30
0.0
 10
5.0118096579
 20
2.403058593
 30
0.0
 10
5.0237150541
 20
2.4065258019
 30
0.0
 10
5.036500552
 20
2.4097794341
 30
0.0
 10
5.050108542
 20
2.4128037342
 30
0.0
 10
5.0644776384
 20
2.415582628
 30
0.0
 10
5.0795412127
 20
2.4181052398
 30
0.0
 10
5.0952292826
 20
2.4203602325
 30
0.0
 10
5.1114705564
 20
2.4223354924
 30
0.0
 10
5.1281924591
 20
2.4240223845
 30
0.0
 10
5.1512188877
 20
2.4258933355
 30
0.0
 10
5.1806241059
 20
2.4274444611
 30
0.0
 10
5.2043295948
 20
2.4278590144
 30
0.0
 10
5.2162771739
 20
2.4278590144
 30
0.0
  0
LINE
  5
36C
100
AcDbEntity
  8
ALL_ASSEMBLY_MEMBERS
100
AcDbLine
 62
7
  6
CONTINUOUS
 10
5.4754907843
 20
2.3442170886
 11
5.4784750667
 21
2.34833856
  0
SPLINE
  5
36D
100
AcDbEntity
  8
ALL_ASSEMBLY_MEMBERS
100
AcDbSpline
 62
7
  6
CONTINUOUS
 70
0
 71
3
 72
9
 73
5
 74
0
 42
0.0000001
 43
0.0000001
 44
0.0000000001
 40
0.0
 40
0.0
 40
0.0
 40
0.0
 40
0.2596426705
 40
1.0
 40
1.0
 40
1.0
 40
1.0
 10
5.4784750667
 20
2.34833856
 30
0.0
 10
5.4787182631
 20
2.3487398264
 30
0.0
 10
5.4796164635
 20
2.3503078989
 30
0.0
 10
5.4803519779
 20
2.3519719579
 30
0.0
 10
5.4807737087
 20
2.3532416833
 30
0.0
  0
SPLINE
  5
36E
100
AcDbEntity
  8
ALL_ASSEMBLY_MEMBERS
100
AcDbSpline
 62
7
  6
CONTINUOUS
 70
0
 71
3
 72
9
 73
5
 74
0
 42
0.0000001
 43
0.0000001
 44
0.0000000001
 40
0.0
 40
0.0
 40
0.0
 40
0.0
 40
0.5060381681
 40
1.0
 40
1.0
 40
1.0
 40
1.0
 10
5.4807737087
 20
2.3532416833
 30
0.0
 10
5.4810428559
 20
2.3540520183
 30
0.0
 10
5.481477547
 20
2.3556877811
 30
0.0
 10
5.4816902305
 20
2.3573677131
 30
0.0
 10
5.4817369461
 20
2.3581998894
 30
0.0
  0
SPLINE
  5
36F
100
AcDbEntity
  8
ALL_ASSEMBLY_MEMBERS
100
AcDbSpline
 62
7
  6
CONTINUOUS
 70
0
 71
3
 72
9
 73
5
 74
0
 42
0.0000001
 43
0.0000001
 44
0.0000000001
 40
0.0
 40
0.0
 40
0.0
 40
0.0
 40
0.4973382922
 40
1.0
 40
1.0
 40
1.0
 40
1.0
 10
5.4817369461
 20
2.3581998894
 30
0.0
 10
5.481783092
 20
2.3590219179
 30
0.0
 10
5.4817615942
 20
2.3606832716
 30
0.0
 10
5.4815091188
 20
2.3623252915
 30
0.0
 10
5.4813281163
 20
2.3631375029
 30
0.0
  0
SPLINE
  5
370
100
AcDbEntity
  8
ALL_ASSEMBLY_MEMBERS
100
AcDbSpline
 62
7
  6
CONTINUOUS
 70
0
 71
3
 72
12
 73
8
 74
0
 42
0.0000001
 43
0.0000001
 44
0.0000000001
 40
0.0
 40
0.0
 40
0.0
 40
0.0
 40
0.1033139108
 40
0.2108040835
 40
0.4428687452
 40
0.7042703224
 40
1.0
 40
1.0
 40
1.0
 40
1.0
 10
5.4813281163
 20
2.3631375029
 30
0.0
 10
5.4811503547
 20
2.363935172
 30
0.0
 10
5.4806805037
 20
2.3655405462
 30
0.0
 10
5.4792979724
 20
2.3687668182
 30
0.0
 10
5.4767041409
 20
2.3727919044
 30
0.0
 10
5.4724560105
 20
2.3773954448
 30
0.0
 10
5.4690512558
 20
2.3802129336
 30
0.0
 10
5.4671777641
 20
2.3816137543
 30
0.0
  0
SPLINE
  5
371
100
AcDbEntity
  8
ALL_ASSEMBLY_MEMBERS
100
AcDbSpline
 62
7
  6
CONTINUOUS
 70
0
 71
3
 72
9
 73
5
 74
0
 42
0.0000001
 43
0.0000001
 44
0.0000000001
 40
0.0
 40
0.0
 40
0.0
 40
0.0
 40
0.4797750629
 40
1.0
 40
1.0
 40
1.0
 40
1.0
 10
5.4660294885
 20
2.3824546707
 30
0.0
 10
5.4644527528
 20
2.3835859924
 30
0.0
 10
5.4610748299
 20
2.3858176516
 30
0.0
 10
5.457565042
 20
2.3878329377
 30
0.0
 10
5.4557138123
 20
2.3888332992
 30
0.0
  0
SPLINE
  5
372
100
AcDbEntity
  8
ALL_ASSEMBLY_MEMBERS
100
AcDbSpline
 62
7
  6
CONTINUOUS
 70
0
 71
3
 72
21
 73
17
 74
0
 42
0.0000001
 43
0.0000001
 44
0.0000000001
 40
0.0
 40
0.0
 40
0.0
 40
0.0
 40
0.0394460471
 40
0.0828532832
 40
0.1301336448
 40
0.1811643515
 40
0.2357831747
 40
0.2937813828
 40
0.354935614
 40
0.4189988804
 40
0.4856855602
 40
0.5547009829
 40
0.6257448915
 40
0.6985087808
 40
0.8479206534
 40
1.0
 40
1.0
 40
1.0
 40
1.0
 10
5.4557138123
 20
2.3888332992
 30
0.0
 10
5.4528862731
 20
2.3903612357
 30
0.0
 10
5.4468201067
 20
2.3933375487
 30
0.0
 10
5.4370295404
 20
2.3974204998
 30
0.0
 10
5.426156351
 20
2.4013197419
 30
0.0
 10
5.4142526959
 20
2.4050138052
 30
0.0
 10
5.4013756088
 20
2.4084835808
 30
0.0
 10
5.3875882769
 20
2.4117140271
 30
0.0
 10
5.3729574634
 20
2.4146876311
 30
0.0
 10
5.3575548624
 20
2.4173883644
 30
0.0
 10
5.34145736
 20
2.4198050214
 30
0.0
 10
5.3247447324
 20
2.4219247375
 30
0.0
 10
5.307497948
 20
2.4237356578
 30
0.0
 10
5.2836905052
 20
2.4257464274
 30
0.0
 10
5.2532350881
 20
2.4274141317
 30
0.0
 10
5.2286682161
 20
2.4278590144
 30
0.0
 10
5.2162771739
 20
2.4278590144
 30
0.0
  0
SPLINE
  5
373
100
AcDbEntity
  8
ALL_ASSEMBLY_MEMBERS
100
AcDbSpline
 62
7
  6
CONTINUOUS
 70
0
 71
3
 72
28
 73
24
 74
0
 42
0.0000001
 43
0.0000001
 44
0.0000000001
 40
0.0
 40
0.0
 40
0.0
 40
0.0
 40
0.011852769
 40
0.0240922423
 40
0.0370697827
 40
0.0510725366
 40
0.0663192732
 40
0.0829713527
 40
0.1011446279
 40
0.1209120229
 40
0.1423129946
 40
0.1653672072
 40
0.2164297453
 40
0.2739592477
 40
0.3376406729
 40
0.4070367828
 40
0.4816138964
 40
0.5607634984
 40
0.6437974409
 40
0.7300064907
 40
0.8186635417
 40
0.9089778289
 40
1.0
 40
1.0
 40
1.0
 40
1.0
 10
5.0125282037
 20
2.359142558
 30
0.0
 10
5.0125282037
 20
2.3582761787
 30
0.0
 10
5.012697998
 20
2.3565108962
 30
0.0
 10
5.0134548236
 20
2.3538949426
 30
0.0
 10
5.0147080881
 20
2.3513032417
 30
0.0
 10
5.0164467791
 20
2.348741879
 30
0.0
 10
5.0186626678
 20
2.3462131179
 30
0.0
 10
5.0213497664
 20
2.3437201273
 30
0.0
 10
5.0245028179
 20
2.3412674707
 30
0.0
 10
5.0281143844
 20
2.3388593243
 30
0.0
 10
5.0321756688
 20
2.3364998618
 30
0.0
 10
5.0383928679
 20
2.3333169922
 30
0.0
 10
5.0472583799
 20
2.3295446958
 30
0.0
 10
5.0591684617
 20
2.325433507
 30
0.0
 10
5.0725806938
 20
2.3216384964
 30
0.0
 10
5.0873685015
 20
2.3181961382
 30
0.0
 10
5.1033928412
 20
2.3151405878
 30
0.0
 10
5.1204999603
 20
2.3125030053
 30
0.0
 10
5.1385258311
 20
2.3103074748
 30
0.0
 10
5.1573000539
 20
2.308577766
 30
0.0
 10
5.1766455468
 20
2.3073292828
 30
0.0
 10
5.1963684877
 20
2.3065769068
 30
0.0
 10
5.2096238997
 20
2.3064081775
 30
0.0
 10
5.2162771739
 20
2.3064081775
 30
0.0
  0
SPLINE
  5
374
100
AcDbEntity
  8
ALL_ASSEMBLY_MEMBERS
100
AcDbSpline
 62
7
  6
CONTINUOUS
 70
0
 71
3
 72
28
 73
24
 74
0
 42
0.0000001
 43
0.0000001
 44
0.0000000001
 40
0.0
 40
0.0
 40
0.0
 40
0.0
 40
0.0624815578
 40
0.0937499825
 40
0.1250141627
 40
0.1875082177
 40
0.2500027194
 40
0.2812617582
 40
0.3125206932
 40
0.3750184138
 40
0.40627674
 40
0.4375351272
 40
0.5000329906
 40
0.5625304987
 40
0.6250280967
 40
0.6875247485
 40
0.7187825118
 40
0.7500401932
 40
0.8125362176
 40
0.875027426
 40
0.9062814395
 40
0.9375351583
 40
1.0
 40
1.0
 40
1.0
 40
1.0
 10
5.7846381884
 20
2.99011182
 30
0.0
 10
5.7847366488
 20
3.008729312
 30
0.0
 10
5.7835201839
 20
3.0366960671
 30
0.0
 10
5.7791812788
 20
3.0737039758
 30
0.0
 10
5.7730253714
 20
3.1104602382
 30
0.0
 10
5.7619458416
 20
3.1557643074
 30
0.0
 10
5.7464381347
 20
3.1997491683
 30
0.0
 10
5.7314688947
 20
3.2338742411
 30
0.0
 10
5.7148227195
 20
3.2672129241
 30
0.0
 10
5.6956981218
 20
3.2992653779
 30
0.0
 10
5.6742720864
 20
3.3297524359
 30
0.0
 10
5.651350946
 20
3.3591336848
 30
0.0
 10
5.6199997021
 20
3.3936683722
 30
0.0
 10
5.5784499331
 20
3.4311509807
 30
0.0
 10
5.5333953265
 20
3.4643366871
 30
0.0
 10
5.4932919818
 20
3.488150198
 30
0.0
 10
5.4599363903
 20
3.5047615519
 30
0.0
 10
5.4258029893
 20
3.5197098149
 30
0.0
 10
5.3818266077
 20
3.5352328235
 30
0.0
 10
5.3365482343
 20
3.5463922907
 30
0.0
 10
5.2998190442
 20
3.5526560899
 30
0.0
 10
5.2628401926
 20
3.5571317996
 30
0.0
 10
5.2348899451
 20
3.5584743927
 30
0.0
 10
5.2162771739
 20
3.5584720909
 30
0.0
  0
LINE
  5
375
100
AcDbEntity
  8
ALL_ASSEMBLY_MEMBERS
100
AcDbLine
 62
7
  6
CONTINUOUS
 10
5.7846381884
 20
2.99011182
 11
5.8025264502
 21
2.990476185
  0
SPLINE
  5
376
100
AcDbEntity
  8
ALL_ASSEMBLY_MEMBERS
100
AcDbSpline
 62
7
  6
CONTINUOUS
 70
0
 71
3
 72
28
 73
24
 74
0
 42
0.0000001
 43
0.0000001
 44
0.0000000001
 40
0.0
 40
0.0
 40
0.0
 40
0.0
 40
0.0624588837
 40
0.0937008239
 40
0.1249431238
 40
0.187415759
 40
0.249895207
 40
0.2811467454
 40
0.3124005801
 40
0.3748961787
 40
0.4373998969
 40
0.4999061533
 40
0.5624120688
 40
0.5936742604
 40
0.6249363658
 40
0.6874416004
 40
0.7187043082
 40
0.7499671166
 40
0.8124691047
 40
0.8749707115
 40
0.9062387141
 40
0.9375109611
 40
1.0
 40
1.0
 40
1.0
 40
1.0
 10
5.2162771739
 20
3.5584718269
 30
0.0
 10
5.1976672026
 20
3.5584690081
 30
0.0
 10
5.1697241048
 20
3.5571196439
 30
0.0
 10
5.1327572732
 20
3.5526350736
 30
0.0
 10
5.0960435204
 20
3.5463675939
 30
0.0
 10
5.0507835645
 20
3.5352030186
 30
0.0
 10
5.0068220077
 20
3.519683272
 30
0.0
 10
4.9726982818
 20
3.5047378567
 30
0.0
 10
4.939346625
 20
3.4881307163
 30
0.0
 10
4.899243649
 20
3.4643210629
 30
0.0
 10
4.854183804
 20
3.4311409323
 30
0.0
 10
4.8126242455
 20
3.393663661
 30
0.0
 10
4.781263246
 20
3.359133028
 30
0.0
 10
4.7583340262
 20
3.3297547743
 30
0.0
 10
4.7368998004
 20
3.2992704839
 30
0.0
 10
4.7177668297
 20
3.2672201669
 30
0.0
 10
4.7011125743
 20
3.2338827894
 30
0.0
 10
4.6861355275
 20
3.1997584843
 30
0.0
 10
4.670619127
 20
3.155773387
 30
0.0
 10
4.6595332542
 20
3.110467619
 30
0.0
 10
4.6533741268
 20
3.0737093641
 30
0.0
 10
4.6490333316
 20
3.0366991894
 30
0.0
 10
4.6478169621
 20
3.008730512
 30
0.0
 10
4.6479162175
 20
2.9901118201
 30
0.0
  0
SPLINE
  5
377
100
AcDbEntity
  8
ALL_ASSEMBLY_MEMBERS
100
AcDbSpline
 62
7
  6
CONTINUOUS
 70
0
 71
3
 72
22
 73
18
 74
0
 42
0.0000001
 43
0.0000001
 44
0.0000000001
 40
0.0
 40
0.0
 40
0.0
 40
0.0
 40
0.1249377609
 40
0.1874580689
 40
0.2499622587
 40
0.312459934
 40
0.3749607566
 40
0.4374650149
 40
0.4999693266
 40
0.5624728482
 40
0.6249760331
 40
0.6874795542
 40
0.7499835527
 40
0.8124873772
 40
0.8749916724
 40
0.9374960429
 40
1.0
 40
1.0
 40
1.0
 40
1.0
 10
4.6479161538
 20
2.9901118199
 30
0.0
 10
4.6480415759
 20
2.9670284053
 30
0.0
 10
4.6503270467
 20
2.9323575515
 30
0.0
 10
4.6575135291
 20
2.8867176089
 30
0.0
 10
4.6649644775
 20
2.852857834
 30
0.0
 10
4.6744399123
 20
2.8195141422
 30
0.0
 10
4.6859109479
 20
2.7868025531
 30
0.0
 10
4.6993332047
 20
2.7548409065
 30
0.0
 10
4.7146618589
 20
2.7237477114
 30
0.0
 10
4.7318464153
 20
2.6936407588
 30
0.0
 10
4.7508188021
 20
2.6646273821
 30
0.0
 10
4.7715154107
 20
2.6368174715
 30
0.0
 10
4.793859707
 20
2.6103131343
 30
0.0
 10
4.8177711705
 20
2.5852132298
 30
0.0
 10
4.843168167
 20
2.5616169056
 30
0.0
 10
4.8699513572
 20
2.5396086805
 30
0.0
 10
4.8886708902
 20
2.5260504337
 30
0.0
 10
4.8982262493
 20
2.519565089
 30
0.0
  0
SPLINE
  5
378
100
AcDbEntity
  8
ALL_ASSEMBLY_MEMBERS
100
AcDbSpline
 62
7
  6
CONTINUOUS
 70
0
 71
3
 72
20
 73
16
 74
0
 42
0.0000001
 43
0.0000001
 44
0.0000000001
 40
0.0
 40
0.0
 40
0.0
 40
0.0
 40
0.0395780909
 40
0.0830846326
 40
0.1304298678
 40
0.1814936636
 40
0.2361357386
 40
0.2941750798
 40
0.3553593429
 40
0.4194186279
 40
0.4860763731
 40
0.555051497
 40
0.6987732949
 40
0.8480016128
 40
1.0
 40
1.0
 40
1.0
 40
1.0
 10
5.5028236904
 20
2.535843063
 30
0.0
 10
5.4994229687
 20
2.5376662839
 30
0.0
 10
5.4921341123
 20
2.5412167921
 30
0.0
 10
5.4803834731
 20
2.5460918634
 30
0.0
 10
5.4673489652
 20
2.5507476461
 30
0.0
 10
5.4530905351
 20
2.5551598913
 30
0.0
 10
5.4376699173
 20
2.5593032125
 30
0.0
 10
5.4211593984
 20
2.5631540246
 30
0.0
 10
5.4036433057
 20
2.5666995145
 30
0.0
 10
5.3852118209
 20
2.5699230691
 30
0.0
 10
5.3659561727
 20
2.572808635
 30
0.0
 10
5.3389345926
 20
2.576230735
 30
0.0
 10
5.3037910314
 20
2.5795146412
 30
0.0
 10
5.2604668618
 20
2.5818840975
 30
0.0
 10
5.2310961268
 20
2.5824190358
 30
0.0
 10
5.2162771739
 20
2.5824190358
 30
0.0
  0
LINE
  5
379
100
AcDbEntity
  8
ALL_ASSEMBLY_MEMBERS
100
AcDbLine
 62
7
  6
CONTINUOUS
 10
4.6479161538
 20
2.9901118199
 11
4.630027736
 21
2.9904790432
  0
SPLINE
  5
37A
100
AcDbEntity
  8
ALL_ASSEMBLY_MEMBERS
100
AcDbSpline
 62
7
  6
CONTINUOUS
 70
0
 71
3
 72
22
 73
18
 74
0
 42
0.0000001
 43
0.0000001
 44
0.0000000001
 40
0.0
 40
0.0
 40
0.0
 40
0.0
 40
0.0625040704
 40
0.1250085374
 40
0.1875129083
 40
0.2500167744
 40
0.3125208189
 40
0.3750243866
 40
0.437527596
 40
0.5000311278
 40
0.5625354073
 40
0.6250396282
 40
0.6875404292
 40
0.7500380592
 40
0.8125421709
 40
0.8750623449
 40
1.0
 40
1.0
 40
1.0
 40
1.0
 10
5.5343918691
 20
2.5195121825
 30
0.0
 10
5.5439474113
 20
2.5259979804
 30
0.0
 10
5.5626670226
 20
2.5395575362
 30
0.0
 10
5.5894493871
 20
2.5615687068
 30
0.0
 10
5.6148445643
 20
2.5851687805
 30
0.0
 10
5.6387531641
 20
2.6102730795
 30
0.0
 10
5.6610936452
 20
2.6367821971
 30
0.0
 10
5.6817856355
 20
2.6645970255
 30
0.0
 10
5.7007527404
 20
2.6936152628
 30
0.0
 10
5.7179314975
 20
2.7237268602
 30
0.0
 10
5.7332539942
 20
2.7548243666
 30
0.0
 10
5.7466699569
 20
2.7867898851
 30
0.0
 10
5.7581348699
 20
2.8195048129
 30
0.0
 10
5.7676046236
 20
2.8528512779
 30
0.0
 10
5.7750504845
 20
2.8867132871
 30
0.0
 10
5.7822312171
 20
2.9323556217
 30
0.0
 10
5.7845137876
 20
2.9670276498
 30
0.0
 10
5.7846382278
 20
2.9901118199
 30
0.0
  0
SPLINE
  5
37B
100
AcDbEntity
  8
ALL_ASSEMBLY_MEMBERS
100
AcDbSpline
 62
7
  6
CONTINUOUS
 70
0
 71
3
 72
28
 73
24
 74
0
 42
0.0000001
 43
0.0000001
 44
0.0000000001
 40
0.0
 40
0.0
 40
0.0
 40
0.0
 40
0.0910221711
 40
0.1813364583
 40
0.2699935093
 40
0.3562025591
 40
0.4392365016
 40
0.5183861036
 40
0.5929632172
 40
0.6623593271
 40
0.7260407523
 40
0.7835702547
 40
0.8346327928
 40
0.8576870054
 40
0.8790879771
 40
0.8988553721
 40
0.9170286473
 40
0.9336807268
 40
0.9489274634
 40
0.9629302173
 40
0.9759077577
 40
0.988147231
 40
1.0
 40
1.0
 40
1.0
 40
1.0
 10
5.2162771739
 20
2.3064081775
 30
0.0
 10
5.2229304481
 20
2.3064081775
 30
0.0
 10
5.2361858601
 20
2.3065769068
 30
0.0
 10
5.255908801
 20
2.3073292828
 30
0.0
 10
5.2752542939
 20
2.308577766
 30
0.0
 10
5.2940285168
 20
2.3103074748
 30
0.0
 10
5.3120543875
 20
2.3125030053
 30
0.0
 10
5.3291615066
 20
2.3151405878
 30
0.0
 10
5.3451858464
 20
2.3181961382
 30
0.0
 10
5.359973654
 20
2.3216384964
 30
0.0
 10
5.3733858861
 20
2.325433507
 30
0.0
 10
5.385295968
 20
2.3295446958
 30
0.0
 10
5.3941614799
 20
2.3333169922
 30
0.0
 10
5.400378679
 20
2.3364998618
 30
0.0
 10
5.4044399635
 20
2.3388593243
 30
0.0
 10
5.40805153
 20
2.3412674707
 30
0.0
 10
5.4112045814
 20
2.3437201273
 30
0.0
 10
5.4138916801
 20
2.3462131179
 30
0.0
 10
5.4161075687
 20
2.348741879
 30
0.0
 10
5.4178462598
 20
2.3513032417
 30
0.0
 10
5.4190995242
 20
2.3538949426
 30
0.0
 10
5.4198563498
 20
2.3565108962
 30
0.0
 10
5.4200261442
 20
2.3582761787
 30
0.0
 10
5.4200261442
 20
2.359142558
 30
0.0
  0
SPLINE
  5
37C
100
AcDbEntity
  8
ALL_ASSEMBLY_MEMBERS
100
AcDbSpline
 62
7
  6
CONTINUOUS
 70
0
 71
3
 72
11
 73
7
 74
0
 42
0.0000001
 43
0.0000001
 44
0.0000000001
 40
0.0
 40
0.0
 40
0.0
 40
0.0
 40
0.2690422473
 40
0.5269596606
 40
0.7712632418
 40
1.0
 40
1.0
 40
1.0
 40
1.0
 10
5.3131926889
 20
2.4235424209
 30
0.0
 10
5.321140345
 20
2.4230334176
 30
0.0
 10
5.336694034
 20
2.4218182154
 30
0.0
 10
5.3593968826
 20
2.4193791909
 30
0.0
 10
5.3808325634
 20
2.4164077721
 30
0.0
 10
5.3946305286
 20
2.4139992342
 30
0.0
 10
5.4012741089
 20
2.4126926002
 30
0.0
  0
SPLINE
  5
37D
100
AcDbEntity
  8
ALL_ASSEMBLY_MEMBERS
100
AcDbSpline
 62
7
  6
CONTINUOUS
 70
0
 71
3
 72
20
 73
16
 74
0
 42
0.0000001
 43
0.0000001
 44
0.0000000001
 40
0.0
 40
0.0
 40
0.0
 40
0.0
 40
0.1717821297
 40
0.3335520191
 40
0.4831594497
 40
0.5528576571
 40
0.6188880944
 40
0.6810659219
 40
0.7392189034
 40
0.7932046155
 40
0.8429570738
 40
0.8884546398
 40
0.9297186439
 40
0.9668352137
 40
1.0
 40
1.0
 40
1.0
 40
1.0
 10
5.3131926889
 20
2.4235424209
 30
0.0
 10
5.3229082184
 20
2.422676031
 30
0.0
 10
5.3417465768
 20
2.4206720956
 30
0.0
 10
5.3689032109
 20
2.4167282309
 30
0.0
 10
5.3901680675
 20
2.4126755022
 30
0.0
 10
5.4059517902
 20
2.4090102553
 30
0.0
 10
5.4168219493
 20
2.4061537014
 30
0.0
 10
5.4269664795
 20
2.4031356476
 30
0.0
 10
5.4363462767
 20
2.3999670159
 30
0.0
 10
5.4449254786
 20
2.3966569057
 30
0.0
 10
5.4526754567
 20
2.3932200516
 30
0.0
 10
5.4595721763
 20
2.3896705029
 30
0.0
 10
5.4655934745
 20
2.3860205704
 30
0.0
 10
5.4707172323
 20
2.3822828135
 30
0.0
 10
5.4736800435
 20
2.3795918106
 30
0.0
 10
5.4749811006
 20
2.3782303713
 30
0.0
  0
LINE
  5
37E
100
AcDbEntity
  8
ALL_ASSEMBLY_MEMBERS
100
AcDbLine
 62
7
  6
CONTINUOUS
 10
5.4759123886
 20
2.3772202436
 11
5.47820012
 21
2.3743395535
  0
SPLINE
  5
37F
100
AcDbEntity
  8
ALL_ASSEMBLY_MEMBERS
100
AcDbSpline
 62
7
  6
CONTINUOUS
 70
0
 71
3
 72
11
 73
7
 74
0
 42
0.0000001
 43
0.0000001
 44
0.0000000001
 40
0.0
 40
0.0
 40
0.0
 40
0.0
 40
0.2699263322
 40
0.5232263308
 40
0.7647058698
 40
1.0
 40
1.0
 40
1.0
 40
1.0
 10
5.4784020361
 20
2.3740475693
 30
0.0
 10
5.4789977863
 20
2.3731742697
 30
0.0
 10
5.4800576028
 20
2.3714129811
 30
0.0
 10
5.4812428679
 20
2.3686513651
 30
0.0
 10
5.4819594614
 20
2.3658712214
 30
0.0
 10
5.4821204375
 20
2.3640003345
 30
0.0
 10
5.4821204334
 20
2.3630788176
 30
0.0
  0
ENDSEC
  0
SECTION
  2
OBJECTS
  0
DICTIONARY
  5
C
100
AcDbDictionary
280
0
281
1
  3
ACAD_GROUP
350
D
  3
ACAD_MLINESTYLE
350
17
  3
ACAD_LAYOUT
350
1A
  3
ACAD_PLOTSETTINGS
350
19
  3
ACAD_PLOTSTYLENAME
350
E
  0
DICTIONARY
  5
D
102
{ACAD_REACTORS
330
C
102
}
100
AcDbDictionary
280
0
281
1
  0
ACDBDICTIONARYWDFLT
  5
E
102
{ACAD_REACTORS
330
C
102
}
100
AcDbDictionary
281
1
  3
Normal
350
F
100
AcDbDictionaryWithDefault
340
F
  0
DICTIONARY
  5
17
102
{ACAD_REACTORS
330
C
102
}
100
AcDbDictionary
280
0
281
1
  3
Standard
350
18
  0
DICTIONARY
  5
19
102
{ACAD_REACTORS
330
C
102
}
100
AcDbDictionary
281
1
  0
DICTIONARY
  5
1A
102
{ACAD_REACTORS
330
C
102
}
100
AcDbDictionary
281
1
  3
Model
350
380
  3
Layout1
350
381
  0
ACDBPLACEHOLDER
  5
F
102
{ACAD_REACTORS
330
E
102
}
  0
MLINESTYLE
  5
18
102
{ACAD_REACTORS
330
17
102
}
100
AcDbMlineStyle
  2
STANDARD
 70
0
  3

 62
256
 51
90.0
 52
90.0
 71
2
 49
0.5
 62
256
  6
BYLAYER
 49
-0.5
 62
256
  6
BYLAYER
  0
LAYOUT
  5
380
102
{ACAD_REACTORS
330
1A
102
}
100
AcDbPlotSettings
  1

  2
none_device
  4
ANSI_A_(11.00_x_8.50_Inches)
  6

 40
0.0
 41
0.0
 42
0.0
 43
0.0
 44
279.4
 45
215.9
 46
0.0
 47
0.0
 48
0.0
 49
0.0
140
0.0
141
0.0
142
1.0
143
1.0
 70
1024
 72
0
 73
0
 74
0
  7

 75
0
147
1.0
148
0.0
149
0.0
100
AcDbLayout
  1
Model
 70
0
 71
0
 10
0.0
 20
0.0
 11
11.0
 21
8.5
 12
0.0
 22
0.0
 32
0.0
 14
0.0
 24
0.0
 34
0.0
 15
0.0
 25
0.0
 35
0.0
146
0.0
 13
0.0
 23
0.0
 33
0.0
 16
1.0
 26
0.0
 36
0.0
 17
0.0
 27
1.0
 37
0.0
 76
0
330
220
345
0
346
0
  0
LAYOUT
  5
381
102
{ACAD_REACTORS
330
1A
102
}
100
AcDbPlotSettings
  1

  2
none_device
  4
ANSI_A_(11.00_x_8.50_Inches)
  6

 40
0.0
 41
0.0
 42
0.0
 43
0.0
 44
279.4
 45
215.9
 46
0.0
 47
0.0
 48
0.0
 49
0.0
140
0.0
141
0.0
142
1.0
143
1.0
 70
0
 72
0
 73
0
 74
0
  7

 75
0
147
1.0
148
0.0
149
0.0
100
AcDbLayout
  1
Layout1
 70
0
 71
1
 10
0.0
 20
0.0
 11
11.0
 21
8.5
 12
0.0
 22
0.0
 32
0.0
 14
0.0
 24
0.0
 34
0.0
 15
0.0
 25
0.0
 35
0.0
146
0.0
 13
0.0
 23
0.0
 33
0.0
 16
1.0
 26
0.0
 36
0.0
 17
0.0
 27
1.0
 37
0.0
 76
0
330
221
345
0
346
0
  0
ENDSEC
  0
EOF
