999
DXF file: 3-2915_RIGHT.dxf
999
Pro/ENGINEER 2018400 by Parametric Technology Corporation
  0
SECTION
  2
HEADER
  9
$ACADVER
  1
AC1027
  9
$DWGCODEPAGE
  3
ANSI_1252
  9
$EXTMAX
 10
11.0
 20
8.5
 30
0.0
  9
$EXTMIN
 10
0.0
 20
0.0
 30
0.0
  9
$LIMMIN
 10
0.0
 20
0.0
  9
$LIMMAX
 10
11.0
 20
8.5
  9
$VIEWCTR
 10
5.5
 20
4.25
  9
$VIEWSIZE
 40
8.5
  9
$CLAYER
  8
0
  9
$LTSCALE
 40
0.605
  9
$CELTYPE
  6
BYLAYER
  9
$DIMSCALE
 40
1.0
  9
$DIMASZ
 40
0.1
  9
$DIMEXO
 40
0.0625
  9
$DIMDLI
 40
0.418
  9
$DIMEXE
 40
0.125
  9
$DIMCEN
 40
0.099
  9
$DIMLFAC
 40
1.0
  9
$DIMBLK
  1
_FILLED
  9
$DIMALT
 70
1
  9
$DIMALTD
 70
2
  9
$DIMALTTD
 70
2
  9
$DIMALTF
 40
25.4
  9
$DIMTXT
 40
0.08
  9
$DIMTOL
 70
1
  9
$DIMLIM
 70
0
  9
$DIMTFAC
 40
1.0
  9
$DIMTP
 40
0.001
  9
$DIMTM
 40
0.001
  9
$DIMGAP
 40
0.09
  9
$DIMDSEP
 70
46
  9
$AUNITS
 70
0
  9
$PDMODE
 70
3
  9
$PDSIZE
 40
0.3125
  9
$HANDSEED
  5
4C6
  9
$TILEMODE
 70
1
  9
$MEASUREMENT
 70
0
  9
$INSUNITS
 70
1
  0
ENDSEC
  0
SECTION
  2
CLASSES
  0
CLASS
  1
ACDBDICTIONARYWDFLT
  2
AcDbDictionaryWithDefault
  3
AutoCAD 2000
 90
0
 91
1
280
0
281
0
  0
CLASS
  1
ACDBPLACEHOLDER
  2
AcDbPlaceHolder
  3
AutoCAD 2000
 90
0
 91
1
280
0
281
0
  0
CLASS
  1
LAYOUT
  2
AcDbLayout
  3
AutoCAD 2000
 90
0
 91
0
280
0
281
0
  0
ENDSEC
  0
SECTION
  2
TABLES
  0
TABLE
  2
VPORT
  5
8
100
AcDbSymbolTable
 70
2
  0
VPORT
  5
1F4
100
AcDbSymbolTableRecord
100
AcDbViewportTableRecord
  2
*ACTIVE
 70
0
 10
0.0
 20
0.0
 11
1.0
 21
1.0
 12
5.5
 22
4.25
 13
0.0
 23
0.0
 14
1.0
 24
1.0
 15
0.0
 25
0.0
 16
0.0
 26
0.0
 36
1.0
 17
0.0
 27
0.0
 37
0.0
 40
8.5
 41
1.2941176471
 42
50.0
 43
0.0
 44
0.0
 50
0.0
 51
0.0
 71
0
 72
100
 73
1
 74
1
 75
0
 76
0
 77
0
 78
0
  0
ENDTAB
  0
TABLE
  2
LTYPE
  5
5
100
AcDbSymbolTable
 70
6
  0
LTYPE
  5
14
100
AcDbSymbolTableRecord
100
AcDbLinetypeTableRecord
  2
BYBLOCK
 70
0
  3

 72
65
 73
0
 40
0.0
  0
LTYPE
  5
15
100
AcDbSymbolTableRecord
100
AcDbLinetypeTableRecord
  2
BYLAYER
 70
0
  3

 72
65
 73
0
 40
0.0
  0
LTYPE
  5
16
100
AcDbSymbolTableRecord
100
AcDbLinetypeTableRecord
  2
CONTINUOUS
 70
64
  3
Solid line
 72
65
 73
0
 40
0.0
  0
LTYPE
  5
1F5
100
AcDbSymbolTableRecord
100
AcDbLinetypeTableRecord
  2
CENTER
 70
64
  3
____ _ ____ _ ____ _ ____ _ ____ _ ____ _ ____
 72
65
 73
4
 40
0.6
 49
0.375
 74
0
 49
-0.075
 74
0
 49
0.075
 74
0
 49
-0.075
 74
0
  0
LTYPE
  5
1F6
100
AcDbSymbolTableRecord
100
AcDbLinetypeTableRecord
  2
HIDDEN
 70
64
  3
- - - - - - - - - - - - - - - - - - - -
 72
65
 73
2
 40
0.2
 49
0.1
 74
0
 49
-0.1
 74
0
  0
LTYPE
  5
1F7
100
AcDbSymbolTableRecord
100
AcDbLinetypeTableRecord
  2
PHANTOM
 70
64
  3
_____ _ _ _____ _ _ _____ _ _ _____
 72
65
 73
6
 40
0.8
 49
0.45
 74
0
 49
-0.05
 74
0
 49
0.1
 74
0
 49
-0.05
 74
0
 49
0.1
 74
0
 49
-0.05
 74
0
  0
LTYPE
  5
1F8
100
AcDbSymbolTableRecord
100
AcDbLinetypeTableRecord
  2
DOT
 70
64
  3
. . . . . . . . . . . . . . . . . . . .
 72
65
 73
2
 40
0.2
 49
0.1
 74
0
 49
-0.1
 74
0
  0
LTYPE
  5
1F9
100
AcDbSymbolTableRecord
100
AcDbLinetypeTableRecord
  2
DASHED
 70
64
  3
- - - - - - - - - - - - - - - - - - - -
 72
65
 73
2
 40
0.2
 49
0.1
 74
0
 49
-0.1
 74
0
  0
ENDTAB
  0
TABLE
  2
LAYER
  5
2
100
AcDbSymbolTable
 70
36
  0
LAYER
  5
10
100
AcDbSymbolTableRecord
100
AcDbLayerTableRecord
  2
0
 70
0
 62
7
  6
CONTINUOUS
370
-3
390
F
  0
LAYER
  5
1FA
100
AcDbSymbolTableRecord
100
AcDbLayerTableRecord
  2
DEFAULT_1
 70
0
 62
7
  6
CENTER
370
-3
390
F
  0
LAYER
  5
1FB
100
AcDbSymbolTableRecord
100
AcDbLayerTableRecord
  2
DEFAULT_2
 70
0
 62
8
  6
HIDDEN
370
-3
390
F
  0
LAYER
  5
1FC
100
AcDbSymbolTableRecord
100
AcDbLayerTableRecord
  2
DEFAULT_3
 70
0
 62
7
  6
PHANTOM
370
-3
390
F
  0
LAYER
  5
1FD
100
AcDbSymbolTableRecord
100
AcDbLayerTableRecord
  2
2201_ASSY_PLANES
 70
0
 62
7
  6
CONTINUOUS
370
-3
390
F
  0
LAYER
  5
1FE
100
AcDbSymbolTableRecord
100
AcDbLayerTableRecord
  2
3-985_ASSY_PLANES
 70
0
 62
7
  6
CONTINUOUS
370
-3
390
F
  0
LAYER
  5
1FF
100
AcDbSymbolTableRecord
100
AcDbLayerTableRecord
  2
ALL_ASSEMBLY_MEMBERS
 70
0
 62
7
  6
CONTINUOUS
370
-3
390
F
  0
LAYER
  5
200
100
AcDbSymbolTableRecord
100
AcDbLayerTableRecord
  2
ALL_FEATURES
 70
0
 62
7
  6
CONTINUOUS
370
-3
390
F
  0
LAYER
  5
201
100
AcDbSymbolTableRecord
100
AcDbLayerTableRecord
  2
AXES_FEATURES
 70
0
 62
7
  6
CONTINUOUS
370
-3
390
F
  0
LAYER
  5
202
100
AcDbSymbolTableRecord
100
AcDbLayerTableRecord
  2
CHAMFER_FEATURES
 70
0
 62
7
  6
CONTINUOUS
370
-3
390
F
  0
LAYER
  5
203
100
AcDbSymbolTableRecord
100
AcDbLayerTableRecord
  2
CUT_FEATURES
 70
0
 62
7
  6
CONTINUOUS
370
-3
390
F
  0
LAYER
  5
204
100
AcDbSymbolTableRecord
100
AcDbLayerTableRecord
  2
DATUM_CURVES
 70
0
 62
7
  6
CONTINUOUS
370
-3
390
F
  0
LAYER
  5
205
100
AcDbSymbolTableRecord
100
AcDbLayerTableRecord
  2
DATUM_PLANES
 70
0
 62
7
  6
CONTINUOUS
370
-3
390
F
  0
LAYER
  5
206
100
AcDbSymbolTableRecord
100
AcDbLayerTableRecord
  2
DATUM_POINTS
 70
0
 62
7
  6
CONTINUOUS
370
-3
390
F
  0
LAYER
  5
207
100
AcDbSymbolTableRecord
100
AcDbLayerTableRecord
  2
DEFAULT_COORDINATE_SYSTEM
 70
0
 62
7
  6
CONTINUOUS
370
-3
390
F
  0
LAYER
  5
208
100
AcDbSymbolTableRecord
100
AcDbLayerTableRecord
  2
DEFAULT_DATUM_AXES
 70
0
 62
7
  6
CONTINUOUS
370
-3
390
F
  0
LAYER
  5
209
100
AcDbSymbolTableRecord
100
AcDbLayerTableRecord
  2
DEFAULT_DATUM_CURVES
 70
0
 62
7
  6
CONTINUOUS
370
-3
390
F
  0
LAYER
  5
20A
100
AcDbSymbolTableRecord
100
AcDbLayerTableRecord
  2
DEFAULT_DATUM_PLANES
 70
0
 62
7
  6
CONTINUOUS
370
-3
390
F
  0
LAYER
  5
20B
100
AcDbSymbolTableRecord
100
AcDbLayerTableRecord
  2
DEFAULT_SURFACES
 70
0
 62
7
  6
CONTINUOUS
370
-3
390
F
  0
LAYER
  5
20C
100
AcDbSymbolTableRecord
100
AcDbLayerTableRecord
  2
DIMENSIONS
 70
0
 62
7
  6
CONTINUOUS
370
-3
390
F
  0
LAYER
  5
20D
100
AcDbSymbolTableRecord
100
AcDbLayerTableRecord
  2
HOLE_FEATURES
 70
0
 62
7
  6
CONTINUOUS
370
-3
390
F
  0
LAYER
  5
20E
100
AcDbSymbolTableRecord
100
AcDbLayerTableRecord
  2
INTF_1
 70
0
 62
7
  6
CONTINUOUS
370
-3
390
F
  0
LAYER
  5
20F
100
AcDbSymbolTableRecord
100
AcDbLayerTableRecord
  2
NONE
 70
0
 62
7
  6
CONTINUOUS
370
-3
390
F
  0
LAYER
  5
210
100
AcDbSymbolTableRecord
100
AcDbLayerTableRecord
  2
PART_REFERENCE_DIMENSIONS
 70
0
 62
7
  6
CONTINUOUS
370
-3
390
F
  0
LAYER
  5
211
100
AcDbSymbolTableRecord
100
AcDbLayerTableRecord
  2
PLATED_SURFACES
 70
0
 62
7
  6
CONTINUOUS
370
-3
390
F
  0
LAYER
  5
212
100
AcDbSymbolTableRecord
100
AcDbLayerTableRecord
  2
POINTS
 70
0
 62
7
  6
CONTINUOUS
370
-3
390
F
  0
LAYER
  5
213
100
AcDbSymbolTableRecord
100
AcDbLayerTableRecord
  2
PROTRUSION_FEATURES
 70
0
 62
7
  6
CONTINUOUS
370
-3
390
F
  0
LAYER
  5
214
100
AcDbSymbolTableRecord
100
AcDbLayerTableRecord
  2
QUILT
 70
0
 62
7
  6
CONTINUOUS
370
-3
390
F
  0
LAYER
  5
215
100
AcDbSymbolTableRecord
100
AcDbLayerTableRecord
  2
QUILTS
 70
0
 62
7
  6
CONTINUOUS
370
-3
390
F
  0
LAYER
  5
216
100
AcDbSymbolTableRecord
100
AcDbLayerTableRecord
  2
REFERENCE_DIMENSIONS
 70
0
 62
7
  6
CONTINUOUS
370
-3
390
F
  0
LAYER
  5
217
100
AcDbSymbolTableRecord
100
AcDbLayerTableRecord
  2
REF_CURVES
 70
0
 62
7
  6
CONTINUOUS
370
-3
390
F
  0
LAYER
  5
218
100
AcDbSymbolTableRecord
100
AcDbLayerTableRecord
  2
RGB(   0_   0_   0 )
 70
0
 62
7
  6
CONTINUOUS
370
-3
390
F
  0
LAYER
  5
219
100
AcDbSymbolTableRecord
100
AcDbLayerTableRecord
  2
ROUND_FEATURES
 70
0
 62
7
  6
CONTINUOUS
370
-3
390
F
  0
LAYER
  5
21A
100
AcDbSymbolTableRecord
100
AcDbLayerTableRecord
  2
SHELL_FEATURES
 70
0
 62
7
  6
CONTINUOUS
370
-3
390
F
  0
LAYER
  5
21B
100
AcDbSymbolTableRecord
100
AcDbLayerTableRecord
  2
SIZE_REF
 70
0
 62
7
  6
CONTINUOUS
370
-3
390
F
  0
LAYER
  5
21C
100
AcDbSymbolTableRecord
100
AcDbLayerTableRecord
  2
SURFACE_FEATURES
 70
0
 62
7
  6
CONTINUOUS
370
-3
390
F
  0
LAYER
  5
21D
100
AcDbSymbolTableRecord
100
AcDbLayerTableRecord
  2
XSEC_DATUMS
 70
0
 62
7
  6
CONTINUOUS
370
-3
390
F
  0
ENDTAB
  0
TABLE
  2
STYLE
  5
3
100
AcDbSymbolTable
 70
1
  0
STYLE
  5
11
100
AcDbSymbolTableRecord
100
AcDbTextStyleTableRecord
  2
STANDARD
 70
0
 40
0.0
 41
0.8
 50
0.0
 71
0
 42
0.2
  3
txt
  4

  0
STYLE
  5
21E
100
AcDbSymbolTableRecord
100
AcDbTextStyleTableRecord
  2
TEXTSTYLE_1
 70
0
 40
0.0
 41
0.8
 50
0.0
 71
0
 42
0.2
  3
gdt
  4

  0
ENDTAB
  0
TABLE
  2
VIEW
  5
6
100
AcDbSymbolTable
 70
0
  0
ENDTAB
  0
TABLE
  2
UCS
  5
7
100
AcDbSymbolTable
 70
0
  0
ENDTAB
  0
TABLE
  2
APPID
  5
9
100
AcDbSymbolTable
 70
1
  0
APPID
  5
21F
100
AcDbSymbolTableRecord
100
AcDbRegAppTableRecord
  2
ACAD
 70
0
  0
ENDTAB
  0
TABLE
  2
BLOCK_RECORD
  5
1
100
AcDbSymbolTable
 70
0
  0
BLOCK_RECORD
  5
220
100
AcDbSymbolTableRecord
100
AcDbBlockTableRecord
  2
*Model_Space
  0
BLOCK_RECORD
  5
221
100
AcDbSymbolTableRecord
100
AcDbBlockTableRecord
  2
*Paper_Space
  0
BLOCK_RECORD
  5
222
100
AcDbSymbolTableRecord
100
AcDbBlockTableRecord
  2
_FILLED
  0
ENDTAB
  0
TABLE
  2
DIMSTYLE
  5
A
100
AcDbSymbolTable
 70
1
100
AcDbDimStyleTable
 71
0
  0
DIMSTYLE
105
223
100
AcDbSymbolTableRecord
100
AcDbDimStyleTableRecord
  2
STANDARD
 70
0
  3

  4

 40
1.0
 41
0.1
 42
0.0625
 43
0.38
 44
0.125
 45
0.0
 46
0.0
 47
0.001
 48
0.001
140
0.08
141
0.09
142
0.0
143
25.4
144
1.0
145
0.0
146
1.0
147
0.09
 71
1.0
 72
0.0
 73
1
 74
1
 75
0
 76
0
 77
0
 78
4
 79
1
170
1
171
2
172
0
173
0
174
0
175
0
176
0
177
0
178
0
270
2
179
3
271
3
272
3
273
2
274
2
275
0
280
0
281
0
282
0
283
1
284
4
285
0
286
0
287
3
288
0
340
11
278
46
341
222
342
222
343
222
344
222
  0
ENDTAB
  0
ENDSEC
  0
SECTION
  2
BLOCKS
  0
BLOCK
  5
20
100
AcDbEntity
  8
0
100
AcDbBlockBegin
  2
*Model_Space
 70
0
 10
0.0
 20
0.0
 30
0.0
  3
*Model_Space
  1

  0
ENDBLK
  5
21
100
AcDbEntity
  8
0
100
AcDbBlockEnd
  0
BLOCK
  5
1C
100
AcDbEntity
  8
0
100
AcDbBlockBegin
  2
*Paper_Space
 70
0
 10
0.0
 20
0.0
 30
0.0
  3
*Paper_Space
  1

  0
ENDBLK
  5
1D
100
AcDbEntity
  8
0
100
AcDbBlockEnd
  0
BLOCK
  5
224
100
AcDbEntity
  8
0
100
AcDbBlockBegin
  2
_FILLED
 70
64
 10
0.0
 20
0.0
  3
_FILLED
  1

  0
SOLID
  5
225
100
AcDbEntity
  8
0
  6
BYBLOCK
 62
0
100
AcDbTrace
 10
0.0
 20
0.0
 11
-1.0
 21
0.2
 12
-1.0
 22
-0.2
 13
-1.0
 23
-0.2
  0
ENDBLK
  5
226
100
AcDbEntity
  8
0
  6
BYBLOCK
 62
0
100
AcDbBlockEnd
  0
ENDSEC
  0
SECTION
  2
ENTITIES
  0
MTEXT
  5
227
100
AcDbEntity
  8
0
100
AcDbMText
 62
2
  6
CONTINUOUS
  7
STANDARD
 71
3
 72
1
 10
3.9448580848
 20
1.8701532892
 30
0.0
 11
1.0
 21
0.0
 31
0.0
 73
2
 44
0.9
  1
SCALE  .500
 40
0.08
 41
0.704
  0
LINE
  5
228
100
AcDbEntity
  8
0
100
AcDbLine
 62
7
  6
CONTINUOUS
 10
0.0
 20
0.0
 11
0.0
 21
8.5
  0
LINE
  5
229
100
AcDbEntity
  8
0
100
AcDbLine
 62
7
  6
CONTINUOUS
 10
0.0
 20
0.0
 11
11.0
 21
0.0
  0
LINE
  5
22A
100
AcDbEntity
  8
0
100
AcDbLine
 62
7
  6
CONTINUOUS
 10
0.0
 20
8.5
 11
11.0
 21
8.5
  0
LINE
  5
22B
100
AcDbEntity
  8
0
100
AcDbLine
 62
7
  6
CONTINUOUS
 10
11.0
 20
0.0
 11
11.0
 21
8.5
  0
LINE
  5
22C
100
AcDbEntity
  8
ALL_ASSEMBLY_MEMBERS
100
AcDbLine
 62
7
  6
CONTINUOUS
 10
3.5547703453
 20
2.4418352429
 11
4.1719969483
 21
2.2764498731
  0
LINE
  5
22D
100
AcDbEntity
  8
ALL_ASSEMBLY_MEMBERS
100
AcDbLine
 62
7
  6
CONTINUOUS
 10
3.5922991069
 20
2.5818944877
 11
4.2095257099
 21
2.4165091179
  0
LINE
  5
22E
100
AcDbEntity
  8
ALL_ASSEMBLY_MEMBERS
100
AcDbLine
 62
7
  6
CONTINUOUS
 10
4.2145677727
 20
2.4177462917
 11
3.6000008
 21
2.5824190157
  0
LINE
  5
22F
100
AcDbEntity
  8
ALL_ASSEMBLY_MEMBERS
100
AcDbLine
 62
7
  6
CONTINUOUS
 10
6.8243086127
 20
2.2776118202
 11
6.8908086127
 21
2.2776118202
  0
LINE
  5
230
100
AcDbEntity
  8
ALL_ASSEMBLY_MEMBERS
100
AcDbLine
 62
7
  6
CONTINUOUS
 10
6.6773086127
 20
2.3636118202
 11
6.6782675226
 21
2.3636118202
  0
LINE
  5
231
100
AcDbEntity
  8
ALL_ASSEMBLY_MEMBERS
100
AcDbLine
 62
7
  6
CONTINUOUS
 10
6.6033086127
 20
2.4038618202
 11
6.5320011985
 21
2.4038618202
  0
LINE
  5
232
100
AcDbEntity
  8
ALL_ASSEMBLY_MEMBERS
100
AcDbLine
 62
7
  6
CONTINUOUS
 10
5.0780248106
 20
2.7873101378
 11
5.1071104524
 21
2.7874710375
  0
LWPOLYLINE
  5
233
100
AcDbEntity
  8
ALL_ASSEMBLY_MEMBERS
100
AcDbPolyline
 62
7
  6
CONTINUOUS
 90
19
 70
0
 10
5.0780248106
 20
2.7873101378
 10
5.1630404884
 20
2.7870677622
 10
5.2597194284
 20
2.7841565309
 10
5.3567467518
 20
2.7784060058
 10
5.4553912808
 20
2.769641758
 10
5.5542051064
 20
2.7578980645
 10
5.647815441
 20
2.7439770994
 10
5.7340119733
 20
2.7287948562
 10
5.8149571287
 20
2.7120867337
 10
5.8918309424
 20
2.6930768776
 10
5.9638642298
 20
2.6721395183
 10
6.031731476
 20
2.6494512518
 10
6.0987607922
 20
2.6241492677
 10
6.1659670489
 20
2.5957970988
 10
6.2320993359
 20
2.5648286591
 10
6.2969642264
 20
2.5313181582
 10
6.3604382426
 20
2.4953372428
 10
6.422457475
 20
2.4569301624
 10
6.474922169
 20
2.4217522271
  0
LINE
  5
234
100
AcDbEntity
  8
ALL_ASSEMBLY_MEMBERS
100
AcDbLine
 62
7
  6
CONTINUOUS
 10
6.4749233473
 20
2.99011182
 11
6.5319994707
 21
2.990476185
  0
LWPOLYLINE
  5
235
100
AcDbEntity
  8
ALL_ASSEMBLY_MEMBERS
100
AcDbPolyline
 62
7
  6
CONTINUOUS
 90
26
 70
0
 10
4.6013867081
 20
3.1563348432
 10
4.5879917733
 20
3.15612845
 10
4.5253684401
 20
3.1555244425
 10
4.4652552265
 20
3.15389956
 10
4.4074445439
 20
3.1490440748
 10
4.3521322724
 20
3.1412762743
 10
4.2994101437
 20
3.1310543876
 10
4.2488966236
 20
3.118552336
 10
4.200937992
 20
3.1041197369
 10
4.1552760496
 20
3.08795934
 10
4.1106540896
 20
3.0697670752
 10
4.0668570725
 20
3.0494590336
 10
4.0242654456
 20
3.0272164396
 10
3.9826021551
 20
3.0028933955
 10
3.9417989946
 20
2.9764003587
 10
3.9021401411
 20
2.9478724896
 10
3.8638904723
 20
2.9174811301
 10
3.827171175
 20
2.8853222071
 10
3.7920340884
 20
2.8514553637
 10
3.758607128
 20
2.8160400412
 10
3.726953275
 20
2.7791814401
 10
3.6971333017
 20
2.7409800689
 10
3.6692399901
 20
2.701592087
 10
3.6433186257
 20
2.6611335455
 10
3.6193910311
 20
2.6196780275
 10
3.6000007288
 20
2.5824190348
  0
LINE
  5
236
100
AcDbEntity
  8
ALL_ASSEMBLY_MEMBERS
100
AcDbLine
 62
7
  6
CONTINUOUS
 10
3.6347998432
 20
2.5705064497
 11
3.6354468908
 21
2.5729212643
  0
LINE
  5
237
100
AcDbEntity
  8
ALL_ASSEMBLY_MEMBERS
100
AcDbLine
 62
7
  6
CONTINUOUS
 10
3.6745134706
 20
2.5363120319
 11
3.6487613007
 21
2.4402036257
  0
LINE
  5
238
100
AcDbEntity
  8
ALL_ASSEMBLY_MEMBERS
100
AcDbLine
 62
7
  6
CONTINUOUS
 10
3.701320668
 20
2.529129065
 11
3.6755684981
 21
2.4330206588
  0
LINE
  5
239
100
AcDbEntity
  8
ALL_ASSEMBLY_MEMBERS
100
AcDbLine
 62
7
  6
CONTINUOUS
 10
3.7302501208
 20
2.5213774415
 11
3.704497951
 21
2.4252690353
  0
LINE
  5
23A
100
AcDbEntity
  8
ALL_ASSEMBLY_MEMBERS
100
AcDbLine
 62
7
  6
CONTINUOUS
 10
3.760984872
 20
2.5131420897
 11
3.7352327022
 21
2.4170336835
  0
LINE
  5
23B
100
AcDbEntity
  8
ALL_ASSEMBLY_MEMBERS
100
AcDbLine
 62
7
  6
CONTINUOUS
 10
3.7931881852
 20
2.504513238
 11
3.7674360154
 21
2.4084048317
  0
LINE
  5
23C
100
AcDbEntity
  8
ALL_ASSEMBLY_MEMBERS
100
AcDbLine
 62
7
  6
CONTINUOUS
 10
3.8265072341
 20
2.4955854257
 11
3.8007550643
 21
2.3994770195
  0
LINE
  5
23D
100
AcDbEntity
  8
ALL_ASSEMBLY_MEMBERS
100
AcDbLine
 62
7
  6
CONTINUOUS
 10
3.8605769682
 20
2.486456468
 11
3.8348247984
 21
2.3903480618
  0
LINE
  5
23E
100
AcDbEntity
  8
ALL_ASSEMBLY_MEMBERS
100
AcDbLine
 62
7
  6
CONTINUOUS
 10
3.8950241125
 20
2.4772263835
 11
3.8692719427
 21
2.3811179773
  0
LINE
  5
23F
100
AcDbEntity
  8
ALL_ASSEMBLY_MEMBERS
100
AcDbLine
 62
7
  6
CONTINUOUS
 10
3.9294712568
 20
2.467996299
 11
3.903719087
 21
2.3718878928
  0
LINE
  5
240
100
AcDbEntity
  8
ALL_ASSEMBLY_MEMBERS
100
AcDbLine
 62
7
  6
CONTINUOUS
 10
3.9635409909
 20
2.4588673413
 11
3.9377888211
 21
2.362758935
  0
LINE
  5
241
100
AcDbEntity
  8
ALL_ASSEMBLY_MEMBERS
100
AcDbLine
 62
7
  6
CONTINUOUS
 10
6.6033086127
 20
3.5763618202
 11
6.5320010844
 21
3.5763618202
  0
LINE
  5
242
100
AcDbEntity
  8
ALL_ASSEMBLY_MEMBERS
100
AcDbLine
 62
7
  6
CONTINUOUS
 10
6.6773086127
 20
3.6166118202
 11
6.6782675226
 21
3.6166118202
  0
LINE
  5
243
100
AcDbEntity
  8
ALL_ASSEMBLY_MEMBERS
100
AcDbLine
 62
7
  6
CONTINUOUS
 10
6.8243086127
 20
3.7026118202
 11
6.8908086127
 21
3.7026118202
  0
LINE
  5
244
100
AcDbEntity
  8
ALL_ASSEMBLY_MEMBERS
100
AcDbLine
 62
7
  6
CONTINUOUS
 10
3.9968600398
 20
2.449939529
 11
3.97110787
 21
2.3538311228
  0
LINE
  5
245
100
AcDbEntity
  8
ALL_ASSEMBLY_MEMBERS
100
AcDbLine
 62
7
  6
CONTINUOUS
 10
4.029063353
 20
2.4413106773
 11
4.0033111832
 21
2.345202271
  0
LINE
  5
246
100
AcDbEntity
  8
ALL_ASSEMBLY_MEMBERS
100
AcDbLine
 62
7
  6
CONTINUOUS
 10
4.0597981042
 20
2.4330753255
 11
4.0340459344
 21
2.3369669193
  0
LINE
  5
247
100
AcDbEntity
  8
ALL_ASSEMBLY_MEMBERS
100
AcDbLine
 62
7
  6
CONTINUOUS
 10
4.0887275571
 20
2.425323702
 11
4.0629753872
 21
2.3292152957
  0
LINE
  5
248
100
AcDbEntity
  8
ALL_ASSEMBLY_MEMBERS
100
AcDbLine
 62
7
  6
CONTINUOUS
 10
4.1155347545
 20
2.4181407351
 11
4.0897825846
 21
2.3220323288
  0
LINE
  5
249
100
AcDbEntity
  8
ALL_ASSEMBLY_MEMBERS
100
AcDbLine
 62
7
  6
CONTINUOUS
 10
4.1670249735
 20
2.4278971559
 11
4.1676720211
 21
2.4303119704
  0
LWPOLYLINE
  5
24A
100
AcDbEntity
  8
ALL_ASSEMBLY_MEMBERS
100
AcDbPolyline
 62
7
  6
CONTINUOUS
 90
33
 70
0
 10
4.2145677715
 20
2.417746292
 10
4.2206672176
 20
2.4380576631
 10
4.2295122066
 20
2.4627300024
 10
4.2396343255
 20
2.4865593701
 10
4.2509009327
 20
2.5093976742
 10
4.2632645473
 20
2.5312822769
 10
4.2768112906
 20
2.5524103356
 10
4.2915056144
 20
2.5727168834
 10
4.3072929968
 20
2.592142317
 10
4.3243091736
 20
2.6108440593
 10
4.3425277108
 20
2.628744229
 10
4.3619201075
 20
2.6457634924
 10
4.3826845077
 20
2.6619890352
 10
4.4048408567
 20
2.6773123303
 10
4.4283432673
 20
2.6915759189
 10
4.4533285199
 20
2.7047143877
 10
4.4798252182
 20
2.716557274
 10
4.5077287235
 20
2.7268597422
 10
4.5369740156
 20
2.7353916257
 10
4.5674161658
 20
2.7420911736
 10
4.5988996816
 20
2.7475288325
 10
4.6313223776
 20
2.7524573348
 10
4.6645718812
 20
2.757195538
 10
4.6986768923
 20
2.7617003862
 10
4.7338285187
 20
2.7659471449
 10
4.770003225
 20
2.7699064208
 10
4.807215105
 20
2.7735546216
 10
4.8457122198
 20
2.7768770296
 10
4.8854839371
 20
2.7798273377
 10
4.9265517771
 20
2.7823641273
 10
4.9692196992
 20
2.784456747
 10
5.0135897271
 20
2.7860498555
 10
5.0252363024
 20
2.7863699452
  0
LINE
  5
24B
100
AcDbEntity
  8
ALL_ASSEMBLY_MEMBERS
100
AcDbLine
 62
7
  6
CONTINUOUS
 10
5.1926281945
 20
6.1627330029
 11
5.1926281913
 21
6.0413586135
  0
LINE
  5
24C
100
AcDbEntity
  8
ALL_ASSEMBLY_MEMBERS
100
AcDbLine
 62
7
  6
CONTINUOUS
 10
5.1926281931
 20
5.9388650197
 11
5.1926281945
 21
5.8174906374
  0
LINE
  5
24D
100
AcDbEntity
  8
ALL_ASSEMBLY_MEMBERS
100
AcDbLine
 62
7
  6
CONTINUOUS
 10
5.1999815135
 20
6.2240961068
 11
5.1999815135
 21
6.0647244821
  0
LINE
  5
24E
100
AcDbEntity
  8
ALL_ASSEMBLY_MEMBERS
100
AcDbLine
 62
7
  6
CONTINUOUS
 10
5.1999815135
 20
5.9154991581
 11
5.1999815135
 21
5.7561275335
  0
LINE
  5
24F
100
AcDbEntity
  8
ALL_ASSEMBLY_MEMBERS
100
AcDbLine
 62
7
  6
CONTINUOUS
 10
5.2249253024
 20
5.7459398393
 11
5.2249253026
 21
5.8686815473
  0
LINE
  5
250
100
AcDbEntity
  8
ALL_ASSEMBLY_MEMBERS
100
AcDbLine
 62
7
  6
CONTINUOUS
 10
5.224925303
 20
6.1115420937
 11
5.2249253024
 21
6.234283801
  0
LWPOLYLINE
  5
251
100
AcDbEntity
  8
ALL_ASSEMBLY_MEMBERS
100
AcDbPolyline
 62
7
  6
CONTINUOUS
 90
27
 70
0
 10
5.1999815135
 20
5.7561275336
 10
5.200036273
 20
5.7555298624
 10
5.2002410054
 20
5.754226618
 10
5.2005585942
 20
5.7529451228
 10
5.2009850311
 20
5.7516955187
 10
5.2015165418
 20
5.7504871584
 10
5.2021499007
 20
5.7493287447
 10
5.2028818714
 20
5.7482297076
 10
5.203708591
 20
5.7472005324
 10
5.2046258664
 20
5.7462514368
 10
5.205626795
 20
5.7453892844
 10
5.2067018368
 20
5.7446185205
 10
5.2078408056
 20
5.7439437994
 10
5.2090334374
 20
5.7433695698
 10
5.2102705488
 20
5.7428997037
 10
5.2115435968
 20
5.7425381277
 10
5.2128435275
 20
5.7422892554
 10
5.2141601421
 20
5.7421577824
 10
5.2154832025
 20
5.7421478305
 10
5.2168028902
 20
5.7422587542
 10
5.2181092418
 20
5.7424868599
 10
5.2193917181
 20
5.7428282094
 10
5.2206398679
 20
5.743278673
 10
5.2218443607
 20
5.743834473
 10
5.2229962558
 20
5.7444923067
 10
5.2240858024
 20
5.7452487474
 10
5.2249253024
 20
5.7459398393
  0
LINE
  5
252
100
AcDbEntity
  8
ALL_ASSEMBLY_MEMBERS
100
AcDbLine
 62
7
  6
CONTINUOUS
 10
5.2549438078
 20
5.7584551309
 11
5.254943813
 21
5.8347600858
  0
LINE
  5
253
100
AcDbEntity
  8
ALL_ASSEMBLY_MEMBERS
100
AcDbLine
 62
7
  6
CONTINUOUS
 10
5.2549438138
 20
6.1454635551
 11
5.2549438085
 21
6.2217685094
  0
LINE
  5
254
100
AcDbEntity
  8
ALL_ASSEMBLY_MEMBERS
100
AcDbLine
 62
7
  6
CONTINUOUS
 10
5.5615523754
 20
5.8606846803
 11
5.5615523751
 21
5.8182494507
  0
LINE
  5
255
100
AcDbEntity
  8
ALL_ASSEMBLY_MEMBERS
100
AcDbLine
 62
7
  6
CONTINUOUS
 10
5.5615523751
 20
6.1619741896
 11
5.5615523753
 21
6.1195389601
  0
LINE
  5
256
100
AcDbEntity
  8
ALL_ASSEMBLY_MEMBERS
100
AcDbLine
 62
7
  6
CONTINUOUS
 10
5.5942050978
 20
6.1663197964
 11
5.5942050964
 21
6.0599380845
  0
LINE
  5
257
100
AcDbEntity
  8
ALL_ASSEMBLY_MEMBERS
100
AcDbLine
 62
7
  6
CONTINUOUS
 10
5.5942050962
 20
5.9202855554
 11
5.5942050978
 21
5.8139038439
  0
LWPOLYLINE
  5
258
100
AcDbEntity
  8
ALL_ASSEMBLY_MEMBERS
100
AcDbPolyline
 62
7
  6
CONTINUOUS
 90
24
 70
0
 10
5.6181972715
 20
6.1516118202
 10
5.618133616
 20
6.1530280695
 10
5.6179445134
 20
6.1544393341
 10
5.6176328225
 20
6.1558353769
 10
5.6172015156
 20
6.1572056655
 10
5.6166536064
 20
6.158539613
 10
5.6159920845
 20
6.1598265491
 10
5.6152197067
 20
6.1610558902
 10
5.6143400048
 20
6.1622156145
 10
5.61335759
 20
6.1632928126
 10
5.6122775533
 20
6.1642768625
 10
5.6111089038
 20
6.1651617172
 10
5.60986282
 20
6.1659416439
 10
5.6085500243
 20
6.1666114582
 10
5.6071812687
 20
6.1671659757
 10
5.6057681696
 20
6.1675997499
 10
5.6043216516
 20
6.1679076806
 10
5.6028530143
 20
6.1680845556
 10
5.6013746718
 20
6.1681252125
 10
5.5998979291
 20
6.1680274639
 10
5.5984341471
 20
6.1677950214
 10
5.5969958618
 20
6.1674327357
 10
5.5955947615
 20
6.1669455736
 10
5.5942050978
 20
6.1663197964
  0
LINE
  5
259
100
AcDbEntity
  8
ALL_ASSEMBLY_MEMBERS
100
AcDbLine
 62
7
  6
CONTINUOUS
 10
5.6181972715
 20
5.8286118202
 11
5.6181972715
 21
6.1516118202
  0
LINE
  5
25A
100
AcDbEntity
  8
ALL_ASSEMBLY_MEMBERS
100
AcDbLine
 62
7
  6
CONTINUOUS
 10
6.7768654699
 20
6.4891749554
 11
6.7608527868
 21
6.455225832
  0
LINE
  5
25B
100
AcDbEntity
  8
ALL_ASSEMBLY_MEMBERS
100
AcDbLine
 62
7
  6
CONTINUOUS
 10
5.8637972715
 20
5.8372318202
 11
5.8637972715
 21
6.1429918202
  0
LINE
  5
25C
100
AcDbEntity
  8
ALL_ASSEMBLY_MEMBERS
100
AcDbLine
 62
7
  6
CONTINUOUS
 10
5.8824172715
 20
5.8186118202
 11
5.8824172715
 21
6.1616118202
  0
LINE
  5
25D
100
AcDbEntity
  8
ALL_ASSEMBLY_MEMBERS
100
AcDbLine
 62
7
  6
CONTINUOUS
 10
5.9582052947
 20
6.2063085476
 11
5.9582052947
 21
5.7739150928
  0
LINE
  5
25E
100
AcDbEntity
  8
ALL_ASSEMBLY_MEMBERS
100
AcDbLine
 62
7
  6
CONTINUOUS
 10
6.006621987
 20
6.2250168175
 11
6.0066219886
 21
6.2255366536
  0
LINE
  5
25F
100
AcDbEntity
  8
ALL_ASSEMBLY_MEMBERS
100
AcDbLine
 62
7
  6
CONTINUOUS
 10
6.0066219867
 20
6.0842949951
 11
6.0066220933
 21
6.0980454558
  0
LINE
  5
260
100
AcDbEntity
  8
ALL_ASSEMBLY_MEMBERS
100
AcDbLine
 62
7
  6
CONTINUOUS
 10
6.0066219867
 20
5.8681518419
 11
6.0066220917
 21
5.8814240864
  0
LINE
  5
261
100
AcDbEntity
  8
ALL_ASSEMBLY_MEMBERS
100
AcDbLine
 62
7
  6
CONTINUOUS
 10
6.0066219927
 20
6.1730016204
 11
6.0066220558
 21
6.1822018343
  0
LINE
  5
262
100
AcDbEntity
  8
ALL_ASSEMBLY_MEMBERS
100
AcDbLine
 62
7
  6
CONTINUOUS
 10
6.0066220161
 20
5.8418675763
 11
6.0066221035
 21
5.8540001038
  0
LINE
  5
263
100
AcDbEntity
  8
ALL_ASSEMBLY_MEMBERS
100
AcDbLine
 62
7
  6
CONTINUOUS
 10
6.0066219869
 20
5.9744697061
 11
6.0066220861
 21
5.9896871503
  0
LINE
  5
264
100
AcDbEntity
  8
ALL_ASSEMBLY_MEMBERS
100
AcDbLine
 62
7
  6
CONTINUOUS
 10
6.0066220094
 20
6.054037719
 11
6.0066220938
 21
6.0685506214
  0
LINE
  5
265
100
AcDbEntity
  8
ALL_ASSEMBLY_MEMBERS
100
AcDbLine
 62
7
  6
CONTINUOUS
 10
6.0066220051
 20
6.1511122309
 11
6.0066220612
 21
6.1618788102
  0
LINE
  5
266
100
AcDbEntity
  8
ALL_ASSEMBLY_MEMBERS
100
AcDbLine
 62
7
  6
CONTINUOUS
 10
6.0066220144
 20
5.9426291324
 11
6.0066221029
 21
5.9576341394
  0
LINE
  5
267
100
AcDbEntity
  8
ALL_ASSEMBLY_MEMBERS
100
AcDbLine
 62
7
  6
CONTINUOUS
 10
6.0066219864
 20
5.7569375924
 11
6.0066219974
 21
5.7595246894
  0
LINE
  5
268
100
AcDbEntity
  8
ALL_ASSEMBLY_MEMBERS
100
AcDbLine
 62
7
  6
CONTINUOUS
 10
6.0066220171
 20
6.1127977136
 11
6.006622053
 21
6.1255296615
  0
LINE
  5
269
100
AcDbEntity
  8
ALL_ASSEMBLY_MEMBERS
100
AcDbLine
 62
7
  6
CONTINUOUS
 10
6.0066220134
 20
6.0066015779
 11
6.0066220563
 21
6.0217480573
  0
LINE
  5
26A
100
AcDbEntity
  8
ALL_ASSEMBLY_MEMBERS
100
AcDbLine
 62
7
  6
CONTINUOUS
 10
6.0066219872
 20
6.1914841048
 11
6.0066220181
 21
6.1989465938
  0
LINE
  5
26B
100
AcDbEntity
  8
ALL_ASSEMBLY_MEMBERS
100
AcDbLine
 62
7
  6
CONTINUOUS
 10
6.0066219996
 20
5.7891810108
 11
6.0066220409
 21
5.797531923
  0
LINE
  5
26C
100
AcDbEntity
  8
ALL_ASSEMBLY_MEMBERS
100
AcDbLine
 62
7
  6
CONTINUOUS
 10
6.006622016
 20
5.8967079408
 11
6.0066220508
 21
5.9108726604
  0
LINE
  5
26D
100
AcDbEntity
  8
ALL_ASSEMBLY_MEMBERS
100
AcDbLine
 62
7
  6
CONTINUOUS
 10
6.006622034
 20
5.8183448397
 11
6.0066220528
 21
5.8291115026
  0
LINE
  5
26E
100
AcDbEntity
  8
ALL_ASSEMBLY_MEMBERS
100
AcDbLine
 62
7
  6
CONTINUOUS
 10
6.0066220607
 20
6.1262236214
 11
6.0066220738
 21
6.1383560994
  0
LINE
  5
26F
100
AcDbEntity
  8
ALL_ASSEMBLY_MEMBERS
100
AcDbLine
 62
7
  6
CONTINUOUS
 10
6.006622064
 20
6.0225895708
 11
6.0066220753
 21
6.037594594
  0
LINE
  5
270
100
AcDbEntity
  8
ALL_ASSEMBLY_MEMBERS
100
AcDbLine
 62
7
  6
CONTINUOUS
 10
6.006622058
 20
5.9116730621
 11
6.0066220669
 21
5.9261860301
  0
LINE
  5
271
100
AcDbEntity
  8
ALL_ASSEMBLY_MEMBERS
100
AcDbLine
 62
7
  6
CONTINUOUS
 10
6.0066220242
 20
5.8077582175
 11
6.0066220276
 21
5.8177649894
  0
LINE
  5
272
100
AcDbEntity
  8
ALL_ASSEMBLY_MEMBERS
100
AcDbLine
 62
7
  6
CONTINUOUS
 10
6.0066219873
 20
5.7552648066
 11
6.0066219864
 21
5.7568218954
  0
LINE
  5
273
100
AcDbEntity
  8
ALL_ASSEMBLY_MEMBERS
100
AcDbLine
 62
7
  6
CONTINUOUS
 10
6.0066219892
 20
5.7684224674
 11
6.0066220077
 21
5.7740082802
  0
LINE
  5
274
100
AcDbEntity
  8
ALL_ASSEMBLY_MEMBERS
100
AcDbLine
 62
7
  6
CONTINUOUS
 10
6.0066219925
 20
6.2120857024
 11
6.0066220025
 21
6.2166918356
  0
LINE
  5
275
100
AcDbEntity
  8
ALL_ASSEMBLY_MEMBERS
100
AcDbLine
 62
7
  6
CONTINUOUS
 10
6.0066220473
 20
5.8297323144
 11
6.0066220088
 21
5.8412085385
  0
LINE
  5
276
100
AcDbEntity
  8
ALL_ASSEMBLY_MEMBERS
100
AcDbLine
 62
7
  6
CONTINUOUS
 10
6.0066220056
 20
5.7743467614
 11
6.0066220091
 21
5.7808861753
  0
LINE
  5
277
100
AcDbEntity
  8
ALL_ASSEMBLY_MEMBERS
100
AcDbLine
 62
7
  6
CONTINUOUS
 10
6.0066220036
 20
5.7635318053
 11
6.0066219876
 21
5.7681379303
  0
LINE
  5
278
100
AcDbEntity
  8
ALL_ASSEMBLY_MEMBERS
100
AcDbLine
 62
7
  6
CONTINUOUS
 10
6.0066220602
 20
5.9270039446
 11
6.0066220073
 21
5.9417973102
  0
LINE
  5
279
100
AcDbEntity
  8
ALL_ASSEMBLY_MEMBERS
100
AcDbLine
 62
7
  6
CONTINUOUS
 10
6.0066219891
 20
5.7546869872
 11
6.0066219873
 21
5.7551196825
  0
LINE
  5
27A
100
AcDbEntity
  8
ALL_ASSEMBLY_MEMBERS
100
AcDbLine
 62
7
  6
CONTINUOUS
 10
6.0066220895
 20
5.9905364843
 11
6.0066220205
 21
6.0057539877
  0
LINE
  5
27B
100
AcDbEntity
  8
ALL_ASSEMBLY_MEMBERS
100
AcDbLine
 62
7
  6
CONTINUOUS
 10
6.0066220683
 20
6.0384262173
 11
6.0066220031
 21
6.0532196207
  0
LINE
  5
27C
100
AcDbEntity
  8
ALL_ASSEMBLY_MEMBERS
100
AcDbLine
 62
7
  6
CONTINUOUS
 10
6.0066220952
 20
5.8821781827
 11
6.0066220235
 21
5.8959287173
  0
LINE
  5
27D
100
AcDbEntity
  8
ALL_ASSEMBLY_MEMBERS
100
AcDbLine
 62
7
  6
CONTINUOUS
 10
6.0066220969
 20
6.0987995437
 11
6.0066220248
 21
6.1120718314
  0
LINE
  5
27E
100
AcDbEntity
  8
ALL_ASSEMBLY_MEMBERS
100
AcDbLine
 62
7
  6
CONTINUOUS
 10
6.0066220669
 20
6.1390149873
 11
6.0066219998
 21
6.1504913029
  0
LINE
  5
27F
100
AcDbEntity
  8
ALL_ASSEMBLY_MEMBERS
100
AcDbLine
 62
7
  6
CONTINUOUS
 10
6.0066219976
 20
6.2062153769
 11
6.0066219948
 21
6.2118011703
  0
LINE
  5
280
100
AcDbEntity
  8
ALL_ASSEMBLY_MEMBERS
100
AcDbLine
 62
7
  6
CONTINUOUS
 10
6.0066220126
 20
5.7812770455
 11
6.0066220033
 21
5.7887395643
  0
LINE
  5
281
100
AcDbEntity
  8
ALL_ASSEMBLY_MEMBERS
100
AcDbLine
 62
7
  6
CONTINUOUS
 10
6.0066221006
 20
5.9584755164
 11
6.0066219885
 21
5.9736220193
  0
LINE
  5
282
100
AcDbEntity
  8
ALL_ASSEMBLY_MEMBERS
100
AcDbLine
 62
7
  6
CONTINUOUS
 10
6.0066220583
 20
6.1624585919
 11
6.0066219896
 21
6.1724654152
  0
LINE
  5
283
100
AcDbEntity
  8
ALL_ASSEMBLY_MEMBERS
100
AcDbLine
 62
7
  6
CONTINUOUS
 10
6.0066220917
 20
6.069350901
 11
6.0066219879
 21
6.0835156686
  0
LINE
  5
284
100
AcDbEntity
  8
ALL_ASSEMBLY_MEMBERS
100
AcDbLine
 62
7
  6
CONTINUOUS
 10
6.006622101
 20
5.8546939432
 11
6.006621988
 21
5.8674258691
  0
LINE
  5
285
100
AcDbEntity
  8
ALL_ASSEMBLY_MEMBERS
100
AcDbLine
 62
7
  6
CONTINUOUS
 10
6.0066219959
 20
5.7596975518
 11
6.0066220026
 21
5.7633025805
  0
LINE
  5
286
100
AcDbEntity
  8
ALL_ASSEMBLY_MEMBERS
100
AcDbLine
 62
7
  6
CONTINUOUS
 10
6.0066219865
 20
6.2234017448
 11
6.0066219875
 21
6.2249588334
  0
LINE
  5
287
100
AcDbEntity
  8
ALL_ASSEMBLY_MEMBERS
100
AcDbLine
 62
7
  6
CONTINUOUS
 10
6.0066220024
 20
6.2169210601
 11
6.0066219922
 21
6.2205260912
  0
LINE
  5
288
100
AcDbEntity
  8
ALL_ASSEMBLY_MEMBERS
100
AcDbLine
 62
7
  6
CONTINUOUS
 10
6.0066220163
 20
6.1993374526
 11
6.0066219952
 21
6.2058768823
  0
LINE
  5
289
100
AcDbEntity
  8
ALL_ASSEMBLY_MEMBERS
100
AcDbLine
 62
7
  6
CONTINUOUS
 10
6.0066220463
 20
5.7980218068
 11
6.0066220303
 21
5.8072220909
  0
LINE
  5
28A
100
AcDbEntity
  8
ALL_ASSEMBLY_MEMBERS
100
AcDbLine
 62
7
  6
CONTINUOUS
 10
6.0066220543
 20
6.1826916927
 11
6.0066219861
 21
6.1910426303
  0
LINE
  5
28B
100
AcDbEntity
  8
ALL_ASSEMBLY_MEMBERS
100
AcDbLine
 62
7
  6
CONTINUOUS
 10
6.0066219937
 20
6.2206989561
 11
6.0066219869
 21
6.2232860475
  0
LINE
  5
28C
100
AcDbEntity
  8
ALL_ASSEMBLY_MEMBERS
100
AcDbLine
 62
7
  6
CONTINUOUS
 10
6.0384294706
 20
5.7663253886
 11
6.0384294706
 21
6.2138982518
  0
LINE
  5
28D
100
AcDbEntity
  8
ALL_ASSEMBLY_MEMBERS
100
AcDbLine
 62
7
  6
CONTINUOUS
 10
6.1863568594
 20
6.2198993648
 11
6.1863568594
 21
5.7603242755
  0
LINE
  5
28E
100
AcDbEntity
  8
ALL_ASSEMBLY_MEMBERS
100
AcDbLine
 62
7
  6
CONTINUOUS
 10
6.3353112426
 20
6.2054108572
 11
6.3353112426
 21
5.7748127831
  0
LINE
  5
28F
100
AcDbEntity
  8
ALL_ASSEMBLY_MEMBERS
100
AcDbLine
 62
7
  6
CONTINUOUS
 10
6.4139219098
 20
6.1957629952
 11
6.4139219098
 21
5.7844606451
  0
LINE
  5
290
100
AcDbEntity
  8
ALL_ASSEMBLY_MEMBERS
100
AcDbLine
 62
7
  6
CONTINUOUS
 10
6.4550042839
 20
6.1973708386
 11
6.4550042839
 21
5.7828528017
  0
LINE
  5
291
100
AcDbEntity
  8
ALL_ASSEMBLY_MEMBERS
100
AcDbLine
 62
7
  6
CONTINUOUS
 10
6.4755399439
 20
6.2106586351
 11
6.4755399439
 21
5.7695650053
  0
LINE
  5
292
100
AcDbEntity
  8
ALL_ASSEMBLY_MEMBERS
100
AcDbLine
 62
7
  6
CONTINUOUS
 10
6.4910507726
 20
6.2443997958
 11
6.4910507726
 21
5.7358238445
  0
LINE
  5
293
100
AcDbEntity
  8
ALL_ASSEMBLY_MEMBERS
100
AcDbLine
 62
7
  6
CONTINUOUS
 10
5.396544517
 20
5.7801780017
 11
5.3949757881
 21
5.7798348304
  0
LINE
  5
294
100
AcDbEntity
  8
ALL_ASSEMBLY_MEMBERS
100
AcDbLine
 62
7
  6
CONTINUOUS
 10
5.3965415458
 20
5.7801915557
 11
5.3949725495
 21
5.7798496664
  0
LINE
  5
295
100
AcDbEntity
  8
ALL_ASSEMBLY_MEMBERS
100
AcDbLine
 62
7
  6
CONTINUOUS
 10
6.6033086127
 20
3.5763618202
 11
6.6033086127
 21
2.4038618202
  0
LINE
  5
296
100
AcDbEntity
  8
ALL_ASSEMBLY_MEMBERS
100
AcDbLine
 62
7
  6
CONTINUOUS
 10
6.6237972533
 20
5.6442516389
 11
6.6237972533
 21
6.3359720015
  0
LINE
  5
297
100
AcDbEntity
  8
ALL_ASSEMBLY_MEMBERS
100
AcDbLine
 62
7
  6
CONTINUOUS
 10
6.6773086127
 20
2.3636118202
 11
6.6773086127
 21
3.6166118202
  0
LINE
  5
298
100
AcDbEntity
  8
ALL_ASSEMBLY_MEMBERS
100
AcDbLine
 62
7
  6
CONTINUOUS
 10
6.6782675226
 20
3.6166118202
 11
6.6782675226
 21
2.3636118202
  0
LINE
  5
299
100
AcDbEntity
  8
ALL_ASSEMBLY_MEMBERS
100
AcDbLine
 62
7
  6
CONTINUOUS
 10
6.6935794925
 20
5.6092875546
 11
6.6935794925
 21
6.3709360857
  0
LWPOLYLINE
  5
29A
100
AcDbEntity
  8
ALL_ASSEMBLY_MEMBERS
100
AcDbPolyline
 62
7
  6
CONTINUOUS
 90
24
 70
0
 10
6.4749225191
 20
3.5584717338
 10
6.4167835166
 20
3.5196404988
 10
6.3515830718
 20
3.479669943
 10
6.2847889102
 20
3.4423681923
 10
6.2164529362
 20
3.4077768688
 10
6.146738438
 20
3.37599688
 10
6.0759333219
 20
3.347152832
 10
6.0056437996
 20
3.3217445503
 10
5.934556655
 20
3.2991478311
 10
5.8584293448
 20
3.2783192045
 10
5.7756771761
 20
3.2596519507
 10
5.6878868097
 20
3.2441309698
 10
5.5955989932
 20
3.2309089053
 10
5.4967710433
 20
3.2181929616
 10
5.3938075754
 20
3.2061535539
 10
5.2941264892
 20
3.1957400755
 10
5.1998852099
 20
3.1869913948
 10
5.1089854783
 20
3.1795684353
 10
5.0225262692
 20
3.1734318432
 10
4.9413341662
 20
3.1684850515
 10
4.8646193592
 20
3.1645363563
 10
4.7910533837
 20
3.1614109107
 10
4.7204317543
 20
3.1590152667
 10
4.6925397963
 20
3.1582340461
  0
LINE
  5
29B
100
AcDbEntity
  8
ALL_ASSEMBLY_MEMBERS
100
AcDbLine
 62
7
  6
CONTINUOUS
 10
6.491585455
 20
5.7338618202
 11
6.6237972533
 21
5.7338618202
  0
LINE
  5
29C
100
AcDbEntity
  8
ALL_ASSEMBLY_MEMBERS
100
AcDbLine
 62
7
  6
CONTINUOUS
 10
5.9929664033
 20
5.7468000403
 11
5.9792849177
 21
5.7468000403
  0
LINE
  5
29D
100
AcDbEntity
  8
ALL_ASSEMBLY_MEMBERS
100
AcDbLine
 62
7
  6
CONTINUOUS
 10
5.9929664033
 20
5.7479344721
 11
5.9792849177
 21
5.7479344721
  0
LINE
  5
29E
100
AcDbEntity
  8
ALL_ASSEMBLY_MEMBERS
100
AcDbLine
 62
7
  6
CONTINUOUS
 10
5.9929664033
 20
5.7501980466
 11
5.9792849177
 21
5.7501980466
  0
LINE
  5
29F
100
AcDbEntity
  8
ALL_ASSEMBLY_MEMBERS
100
AcDbLine
 62
7
  6
CONTINUOUS
 10
5.9929664033
 20
5.7535802097
 11
5.9792849177
 21
5.7535802097
  0
LINE
  5
2A0
100
AcDbEntity
  8
ALL_ASSEMBLY_MEMBERS
100
AcDbLine
 62
7
  6
CONTINUOUS
 10
5.9929664033
 20
5.7580651925
 11
5.9792849177
 21
5.7580651925
  0
LINE
  5
2A1
100
AcDbEntity
  8
ALL_ASSEMBLY_MEMBERS
100
AcDbLine
 62
7
  6
CONTINUOUS
 10
5.9929664033
 20
5.7636320837
 11
5.9792849177
 21
5.7636320837
  0
LINE
  5
2A2
100
AcDbEntity
  8
ALL_ASSEMBLY_MEMBERS
100
AcDbLine
 62
7
  6
CONTINUOUS
 10
5.9929664033
 20
5.770254928
 11
5.9792849177
 21
5.770254928
  0
LINE
  5
2A3
100
AcDbEntity
  8
ALL_ASSEMBLY_MEMBERS
100
AcDbLine
 62
7
  6
CONTINUOUS
 10
5.9929664033
 20
5.7779028467
 11
5.9792849177
 21
5.7779028467
  0
LINE
  5
2A4
100
AcDbEntity
  8
ALL_ASSEMBLY_MEMBERS
100
AcDbLine
 62
7
  6
CONTINUOUS
 10
5.9929664033
 20
5.7865401815
 11
5.9792849177
 21
5.7865401815
  0
LINE
  5
2A5
100
AcDbEntity
  8
ALL_ASSEMBLY_MEMBERS
100
AcDbLine
 62
7
  6
CONTINUOUS
 10
5.9929664033
 20
5.7961266613
 11
5.9792849177
 21
5.7961266613
  0
LINE
  5
2A6
100
AcDbEntity
  8
ALL_ASSEMBLY_MEMBERS
100
AcDbLine
 62
7
  6
CONTINUOUS
 10
5.9929664033
 20
5.8066175894
 11
5.9792849177
 21
5.8066175894
  0
LINE
  5
2A7
100
AcDbEntity
  8
ALL_ASSEMBLY_MEMBERS
100
AcDbLine
 62
7
  6
CONTINUOUS
 10
5.9929664033
 20
5.8179640524
 11
5.9792849177
 21
5.8179640524
  0
LINE
  5
2A8
100
AcDbEntity
  8
ALL_ASSEMBLY_MEMBERS
100
AcDbLine
 62
7
  6
CONTINUOUS
 10
5.9582052947
 20
5.8186118202
 11
5.8824172715
 21
5.8186118202
  0
LINE
  5
2A9
100
AcDbEntity
  8
ALL_ASSEMBLY_MEMBERS
100
AcDbLine
 62
7
  6
CONTINUOUS
 10
5.9653462599
 20
5.8297118315
 11
6.0070225658
 21
5.8297118315
  0
LINE
  5
2AA
100
AcDbEntity
  8
ALL_ASSEMBLY_MEMBERS
100
AcDbLine
 62
7
  6
CONTINUOUS
 10
5.9929664033
 20
5.8301131477
 11
5.9792849177
 21
5.8301131477
  0
LINE
  5
2AB
100
AcDbEntity
  8
ALL_ASSEMBLY_MEMBERS
100
AcDbLine
 62
7
  6
CONTINUOUS
 10
5.9653462599
 20
5.8418061532
 11
6.0070226596
 21
5.8418061532
  0
LINE
  5
2AC
100
AcDbEntity
  8
ALL_ASSEMBLY_MEMBERS
100
AcDbLine
 62
7
  6
CONTINUOUS
 10
5.9929664033
 20
5.8430082307
 11
5.9792849177
 21
5.8430082307
  0
LINE
  5
2AD
100
AcDbEntity
  8
ALL_ASSEMBLY_MEMBERS
100
AcDbLine
 62
7
  6
CONTINUOUS
 10
5.9653462599
 20
5.8545919445
 11
6.0070224359
 21
5.8545919445
  0
LINE
  5
2AE
100
AcDbEntity
  8
ALL_ASSEMBLY_MEMBERS
100
AcDbLine
 62
7
  6
CONTINUOUS
 10
5.9929664033
 20
5.8565891785
 11
5.9792849177
 21
5.8565891785
  0
LINE
  5
2AF
100
AcDbEntity
  8
ALL_ASSEMBLY_MEMBERS
100
AcDbLine
 62
7
  6
CONTINUOUS
 10
5.8637972715
 20
5.8576118202
 11
5.6181972715
 21
5.8576118202
  0
LINE
  5
2B0
100
AcDbEntity
  8
ALL_ASSEMBLY_MEMBERS
100
AcDbLine
 62
7
  6
CONTINUOUS
 10
5.9653462599
 20
5.8680095919
 11
6.0070227222
 21
5.8680095919
  0
LINE
  5
2B1
100
AcDbEntity
  8
ALL_ASSEMBLY_MEMBERS
100
AcDbLine
 62
7
  6
CONTINUOUS
 10
5.9929664033
 20
5.8707926705
 11
5.9792849177
 21
5.8707926705
  0
LINE
  5
2B2
100
AcDbEntity
  8
ALL_ASSEMBLY_MEMBERS
100
AcDbLine
 62
7
  6
CONTINUOUS
 10
5.9653462599
 20
5.8819965363
 11
6.0070224579
 21
5.8819965363
  0
LINE
  5
2B3
100
AcDbEntity
  8
ALL_ASSEMBLY_MEMBERS
100
AcDbLine
 62
7
  6
CONTINUOUS
 10
5.9929664033
 20
5.8855524835
 11
5.9792849177
 21
5.8855524835
  0
LWPOLYLINE
  5
2B4
100
AcDbEntity
  8
ALL_ASSEMBLY_MEMBERS
100
AcDbPolyline
 62
7
  6
CONTINUOUS
 90
24
 70
0
 10
5.5942050978
 20
5.8139038439
 10
5.5955947615
 20
5.8132780667
 10
5.5969958618
 20
5.8127909046
 10
5.5984341471
 20
5.8124286189
 10
5.5998979291
 20
5.8121961764
 10
5.6013746718
 20
5.8120984278
 10
5.6028530143
 20
5.8121390847
 10
5.6043216516
 20
5.8123159597
 10
5.6057681696
 20
5.8126238904
 10
5.6071812687
 20
5.8130576647
 10
5.6085500243
 20
5.8136121821
 10
5.60986282
 20
5.8142819964
 10
5.6111089038
 20
5.8150619231
 10
5.6122775533
 20
5.8159467778
 10
5.61335759
 20
5.8169308277
 10
5.6143400048
 20
5.8180080258
 10
5.6152197067
 20
5.8191677501
 10
5.6159920845
 20
5.8203970912
 10
5.6166536064
 20
5.8216840273
 10
5.6172015156
 20
5.8230179748
 10
5.6176328225
 20
5.8243882634
 10
5.6179445134
 20
5.8257843062
 10
5.618133616
 20
5.8271955708
 10
5.6181972715
 20
5.8286118202
  0
LWPOLYLINE
  5
2B5
100
AcDbEntity
  8
ALL_ASSEMBLY_MEMBERS
100
AcDbPolyline
 62
7
  6
CONTINUOUS
 90
27
 70
0
 10
5.2249253024
 20
6.234283801
 10
5.2240858024
 20
6.234974893
 10
5.2229962558
 20
6.2357313336
 10
5.2218443607
 20
6.2363891673
 10
5.2206398679
 20
6.2369449674
 10
5.2193917181
 20
6.2373954309
 10
5.2181092418
 20
6.2377367804
 10
5.2168028902
 20
6.2379648861
 10
5.2154832025
 20
6.2380758098
 10
5.2141601421
 20
6.2380658579
 10
5.2128435275
 20
6.2379343849
 10
5.2115435968
 20
6.2376855126
 10
5.2102705488
 20
6.2373239366
 10
5.2090334374
 20
6.2368540705
 10
5.2078408056
 20
6.2362798409
 10
5.2067018368
 20
6.2356051198
 10
5.205626795
 20
6.2348343559
 10
5.2046258664
 20
6.2339722035
 10
5.203708591
 20
6.2330231079
 10
5.2028818714
 20
6.2319939328
 10
5.2021499007
 20
6.2308948956
 10
5.2015165418
 20
6.2297364819
 10
5.2009850311
 20
6.2285281216
 10
5.2005585942
 20
6.2272785176
 10
5.2002410054
 20
6.2259970223
 10
5.200036273
 20
6.2246937779
 10
5.1999815135
 20
6.2240961068
  0
LINE
  5
2B6
100
AcDbEntity
  8
ALL_ASSEMBLY_MEMBERS
100
AcDbLine
 62
7
  6
CONTINUOUS
 10
6.7123729268
 20
3.6366956524
 11
6.7123729268
 21
2.3435279879
  0
LINE
  5
2B7
100
AcDbEntity
  8
ALL_ASSEMBLY_MEMBERS
100
AcDbLine
 62
7
  6
CONTINUOUS
 10
6.7608527868
 20
5.5249978083
 11
6.7608527868
 21
6.455225832
  0
LINE
  5
2B8
100
AcDbEntity
  8
ALL_ASSEMBLY_MEMBERS
100
AcDbLine
 62
7
  6
CONTINUOUS
 10
6.7768654699
 20
5.4910486849
 11
6.7768654699
 21
6.4891749554
  0
LINE
  5
2B9
100
AcDbEntity
  8
ALL_ASSEMBLY_MEMBERS
100
AcDbLine
 62
7
  6
CONTINUOUS
 10
6.7980431948
 20
5.4557647879
 11
6.7980431948
 21
6.5244588525
  0
LINE
  5
2BA
100
AcDbEntity
  8
ALL_ASSEMBLY_MEMBERS
100
AcDbLine
 62
7
  6
CONTINUOUS
 10
6.8204725279
 20
5.4391642676
 11
6.8204725279
 21
6.5410593727
  0
LINE
  5
2BB
100
AcDbEntity
  8
ALL_ASSEMBLY_MEMBERS
100
AcDbLine
 62
7
  6
CONTINUOUS
 10
6.8243086127
 20
2.2776118202
 11
6.8243086127
 21
3.7026118202
  0
LINE
  5
2BC
100
AcDbEntity
  8
ALL_ASSEMBLY_MEMBERS
100
AcDbLine
 62
7
  6
CONTINUOUS
 10
5.9653462599
 20
5.896487564
 11
6.0070226412
 21
5.896487564
  0
LINE
  5
2BD
100
AcDbEntity
  8
ALL_ASSEMBLY_MEMBERS
100
AcDbLine
 62
7
  6
CONTINUOUS
 10
5.9929664033
 20
5.9007998003
 11
5.9792849177
 21
5.9007998003
  0
LINE
  5
2BE
100
AcDbEntity
  8
ALL_ASSEMBLY_MEMBERS
100
AcDbLine
 62
7
  6
CONTINUOUS
 10
5.9653462599
 20
5.9114151113
 11
6.007022555
 21
5.9114151113
  0
LINE
  5
2BF
100
AcDbEntity
  8
ALL_ASSEMBLY_MEMBERS
100
AcDbLine
 62
7
  6
CONTINUOUS
 10
5.9929664033
 20
5.916463531
 11
5.9792849177
 21
5.916463531
  0
LINE
  5
2C0
100
AcDbEntity
  8
ALL_ASSEMBLY_MEMBERS
100
AcDbLine
 62
7
  6
CONTINUOUS
 10
5.9653462599
 20
5.9267095789
 11
6.0070225323
 21
5.9267095789
  0
LINE
  5
2C1
100
AcDbEntity
  8
ALL_ASSEMBLY_MEMBERS
100
AcDbLine
 62
7
  6
CONTINUOUS
 10
5.9929664033
 20
5.9324706441
 11
5.9792849177
 21
5.9324706441
  0
LINE
  5
2C2
100
AcDbEntity
  8
ALL_ASSEMBLY_MEMBERS
100
AcDbLine
 62
7
  6
CONTINUOUS
 10
5.9653462599
 20
5.9422996571
 11
6.0070226636
 21
5.9422996571
  0
LINE
  5
2C3
100
AcDbEntity
  8
ALL_ASSEMBLY_MEMBERS
100
AcDbLine
 62
7
  6
CONTINUOUS
 10
5.9929664033
 20
5.9487465069
 11
5.9792849177
 21
5.9487465069
  0
LINE
  5
2C4
100
AcDbEntity
  8
ALL_ASSEMBLY_MEMBERS
100
AcDbLine
 62
7
  6
CONTINUOUS
 10
5.9653462599
 20
5.9581126576
 11
6.0070224371
 21
5.9581126576
  0
LINE
  5
2C5
100
AcDbEntity
  8
ALL_ASSEMBLY_MEMBERS
100
AcDbLine
 62
7
  6
CONTINUOUS
 10
5.9929664033
 20
5.9652152339
 11
5.9792849177
 21
5.9652152339
  0
LINE
  5
2C6
100
AcDbEntity
  8
ALL_ASSEMBLY_MEMBERS
100
AcDbLine
 62
7
  6
CONTINUOUS
 10
5.9653462599
 20
5.974074853
 11
6.0070227213
 21
5.974074853
  0
LINE
  5
2C7
100
AcDbEntity
  8
ALL_ASSEMBLY_MEMBERS
100
AcDbLine
 62
7
  6
CONTINUOUS
 10
5.9929664033
 20
5.9818000403
 11
5.9792849177
 21
5.9818000403
  0
LINE
  5
2C8
100
AcDbEntity
  8
ALL_ASSEMBLY_MEMBERS
100
AcDbLine
 62
7
  6
CONTINUOUS
 10
6.6237972533
 20
5.9901118202
 11
6.4982587414
 21
5.9901118202
  0
LINE
  5
2C9
100
AcDbEntity
  8
ALL_ASSEMBLY_MEMBERS
100
AcDbLine
 62
7
  6
CONTINUOUS
 10
5.6181972715
 20
5.9901118202
 11
5.6061972715
 21
5.9901118202
  0
LINE
  5
2CA
100
AcDbEntity
  8
ALL_ASSEMBLY_MEMBERS
100
AcDbLine
 62
7
  6
CONTINUOUS
 10
5.9653462599
 20
5.9901118202
 11
6.0070224718
 21
5.9901118202
  0
LINE
  5
2CB
100
AcDbEntity
  8
ALL_ASSEMBLY_MEMBERS
100
AcDbLine
 62
7
  6
CONTINUOUS
 10
5.9929664033
 20
5.9984236
 11
5.9792849177
 21
5.9984236
  0
LINE
  5
2CC
100
AcDbEntity
  8
ALL_ASSEMBLY_MEMBERS
100
AcDbLine
 62
7
  6
CONTINUOUS
 10
5.9653462599
 20
6.0061487873
 11
6.0070226483
 21
6.0061487873
  0
LINE
  5
2CD
100
AcDbEntity
  8
ALL_ASSEMBLY_MEMBERS
100
AcDbLine
 62
7
  6
CONTINUOUS
 10
5.9929664033
 20
6.0150084064
 11
5.9792849177
 21
6.0150084064
  0
LINE
  5
2CE
100
AcDbEntity
  8
ALL_ASSEMBLY_MEMBERS
100
AcDbLine
 62
7
  6
CONTINUOUS
 10
5.9653462599
 20
6.0221109827
 11
6.0070225407
 21
6.0221109827
  0
LINE
  5
2CF
100
AcDbEntity
  8
ALL_ASSEMBLY_MEMBERS
100
AcDbLine
 62
7
  6
CONTINUOUS
 10
5.9929664033
 20
6.0314771334
 11
5.9792849177
 21
6.0314771334
  0
LINE
  5
2D0
100
AcDbEntity
  8
ALL_ASSEMBLY_MEMBERS
100
AcDbLine
 62
7
  6
CONTINUOUS
 10
5.9653462599
 20
6.0379239832
 11
6.0070225117
 21
6.0379239832
  0
LINE
  5
2D1
100
AcDbEntity
  8
ALL_ASSEMBLY_MEMBERS
100
AcDbLine
 62
7
  6
CONTINUOUS
 10
5.9929664033
 20
6.0477529962
 11
5.9792849177
 21
6.0477529962
  0
LINE
  5
2D2
100
AcDbEntity
  8
ALL_ASSEMBLY_MEMBERS
100
AcDbLine
 62
7
  6
CONTINUOUS
 10
5.9653462599
 20
6.0535140614
 11
6.007022675
 21
6.0535140614
  0
LINE
  5
2D3
100
AcDbEntity
  8
ALL_ASSEMBLY_MEMBERS
100
AcDbLine
 62
7
  6
CONTINUOUS
 10
5.9929664033
 20
6.0637601093
 11
5.9792849177
 21
6.0637601093
  0
LINE
  5
2D4
100
AcDbEntity
  8
ALL_ASSEMBLY_MEMBERS
100
AcDbLine
 62
7
  6
CONTINUOUS
 10
5.9653462599
 20
6.068808529
 11
6.0070224596
 21
6.068808529
  0
LINE
  5
2D5
100
AcDbEntity
  8
ALL_ASSEMBLY_MEMBERS
100
AcDbLine
 62
7
  6
CONTINUOUS
 10
6.8908086127
 20
2.2776118202
 11
6.8908086127
 21
3.7026118202
  0
LINE
  5
2D6
100
AcDbEntity
  8
ALL_ASSEMBLY_MEMBERS
100
AcDbLine
 62
7
  6
CONTINUOUS
 10
6.8908086127
 20
5.4223179233
 11
6.8908086127
 21
6.557905717
  0
LINE
  5
2D7
100
AcDbEntity
  8
ALL_ASSEMBLY_MEMBERS
100
AcDbLine
 62
7
  6
CONTINUOUS
 10
6.8998086127
 20
2.3738618202
 11
6.8998086127
 21
3.6063618202
  0
LINE
  5
2D8
100
AcDbEntity
  8
ALL_ASSEMBLY_MEMBERS
100
AcDbLine
 62
7
  6
CONTINUOUS
 10
5.9929664033
 20
6.07942384
 11
5.9792849177
 21
6.07942384
  0
LINE
  5
2D9
100
AcDbEntity
  8
ALL_ASSEMBLY_MEMBERS
100
AcDbLine
 62
7
  6
CONTINUOUS
 10
5.9653462599
 20
6.0837360763
 11
6.0070227224
 21
6.0837360763
  0
LINE
  5
2DA
100
AcDbEntity
  8
ALL_ASSEMBLY_MEMBERS
100
AcDbLine
 62
7
  6
CONTINUOUS
 10
5.9929664033
 20
6.0946711569
 11
5.9792849177
 21
6.0946711569
  0
LINE
  5
2DB
100
AcDbEntity
  8
ALL_ASSEMBLY_MEMBERS
100
AcDbLine
 62
7
  6
CONTINUOUS
 10
5.9653462599
 20
6.098227104
 11
6.0070224538
 21
6.098227104
  0
LINE
  5
2DC
100
AcDbEntity
  8
ALL_ASSEMBLY_MEMBERS
100
AcDbLine
 62
7
  6
CONTINUOUS
 10
5.9929664033
 20
6.1094309698
 11
5.9792849177
 21
6.1094309698
  0
LINE
  5
2DD
100
AcDbEntity
  8
ALL_ASSEMBLY_MEMBERS
100
AcDbLine
 62
7
  6
CONTINUOUS
 10
5.9653462599
 20
6.1122140484
 11
6.0070226384
 21
6.1122140484
  0
LINE
  5
2DE
100
AcDbEntity
  8
ALL_ASSEMBLY_MEMBERS
100
AcDbLine
 62
7
  6
CONTINUOUS
 10
5.8637972715
 20
6.1226118202
 11
5.6181972715
 21
6.1226118202
  0
LINE
  5
2DF
100
AcDbEntity
  8
ALL_ASSEMBLY_MEMBERS
100
AcDbLine
 62
7
  6
CONTINUOUS
 10
5.9929664033
 20
6.1236344618
 11
5.9792849177
 21
6.1236344618
  0
LINE
  5
2E0
100
AcDbEntity
  8
ALL_ASSEMBLY_MEMBERS
100
AcDbLine
 62
7
  6
CONTINUOUS
 10
5.9653462599
 20
6.1256316959
 11
6.0070225489
 21
6.1256316959
  0
LINE
  5
2E1
100
AcDbEntity
  8
ALL_ASSEMBLY_MEMBERS
100
AcDbLine
 62
7
  6
CONTINUOUS
 10
5.9929664033
 20
6.1372154097
 11
5.9792849177
 21
6.1372154097
  0
LINE
  5
2E2
100
AcDbEntity
  8
ALL_ASSEMBLY_MEMBERS
100
AcDbLine
 62
7
  6
CONTINUOUS
 10
5.9653462599
 20
6.1384174871
 11
6.0070225154
 21
6.1384174871
  0
LINE
  5
2E3
100
AcDbEntity
  8
ALL_ASSEMBLY_MEMBERS
100
AcDbLine
 62
7
  6
CONTINUOUS
 10
5.9929664033
 20
6.1501104926
 11
5.9792849177
 21
6.1501104926
  0
LINE
  5
2E4
100
AcDbEntity
  8
ALL_ASSEMBLY_MEMBERS
100
AcDbLine
 62
7
  6
CONTINUOUS
 10
5.9653462599
 20
6.1505118088
 11
6.0070226843
 21
6.1505118088
  0
LINE
  5
2E5
100
AcDbEntity
  8
ALL_ASSEMBLY_MEMBERS
100
AcDbLine
 62
7
  6
CONTINUOUS
 10
5.9582052947
 20
6.1616118202
 11
5.8824172715
 21
6.1616118202
  0
LINE
  5
2E6
100
AcDbEntity
  8
ALL_ASSEMBLY_MEMBERS
100
AcDbLine
 62
7
  6
CONTINUOUS
 10
5.9929664033
 20
6.1622595879
 11
5.9792849177
 21
6.1622595879
  0
LINE
  5
2E7
100
AcDbEntity
  8
ALL_ASSEMBLY_MEMBERS
100
AcDbLine
 62
7
  6
CONTINUOUS
 10
5.9929664033
 20
6.1736060509
 11
5.9792849177
 21
6.1736060509
  0
LINE
  5
2E8
100
AcDbEntity
  8
ALL_ASSEMBLY_MEMBERS
100
AcDbLine
 62
7
  6
CONTINUOUS
 10
5.9929664033
 20
6.184096979
 11
5.9792849177
 21
6.184096979
  0
LINE
  5
2E9
100
AcDbEntity
  8
ALL_ASSEMBLY_MEMBERS
100
AcDbLine
 62
7
  6
CONTINUOUS
 10
5.9929664033
 20
6.1936834588
 11
5.9792849177
 21
6.1936834588
  0
LINE
  5
2EA
100
AcDbEntity
  8
ALL_ASSEMBLY_MEMBERS
100
AcDbLine
 62
7
  6
CONTINUOUS
 10
5.9929664033
 20
6.2023207936
 11
5.9792849177
 21
6.2023207936
  0
LINE
  5
2EB
100
AcDbEntity
  8
ALL_ASSEMBLY_MEMBERS
100
AcDbLine
 62
7
  6
CONTINUOUS
 10
5.9929664033
 20
6.2099687123
 11
5.9792849177
 21
6.2099687123
  0
LINE
  5
2EC
100
AcDbEntity
  8
ALL_ASSEMBLY_MEMBERS
100
AcDbLine
 62
7
  6
CONTINUOUS
 10
5.9929664033
 20
6.2165915566
 11
5.9792849177
 21
6.2165915566
  0
LINE
  5
2ED
100
AcDbEntity
  8
ALL_ASSEMBLY_MEMBERS
100
AcDbLine
 62
7
  6
CONTINUOUS
 10
5.9929664033
 20
6.2221584478
 11
5.9792849177
 21
6.2221584478
  0
LINE
  5
2EE
100
AcDbEntity
  8
ALL_ASSEMBLY_MEMBERS
100
AcDbLine
 62
7
  6
CONTINUOUS
 10
5.9929664033
 20
6.2266434306
 11
5.9792849177
 21
6.2266434306
  0
LINE
  5
2EF
100
AcDbEntity
  8
ALL_ASSEMBLY_MEMBERS
100
AcDbLine
 62
7
  6
CONTINUOUS
 10
5.9929664033
 20
6.2300255938
 11
5.9792849177
 21
6.2300255938
  0
LINE
  5
2F0
100
AcDbEntity
  8
ALL_ASSEMBLY_MEMBERS
100
AcDbLine
 62
7
  6
CONTINUOUS
 10
5.9929664033
 20
6.2322891682
 11
5.9792849177
 21
6.2322891682
  0
LINE
  5
2F1
100
AcDbEntity
  8
ALL_ASSEMBLY_MEMBERS
100
AcDbLine
 62
7
  6
CONTINUOUS
 10
5.9929664033
 20
6.2334236
 11
5.9792849177
 21
6.2334236
  0
LINE
  5
2F2
100
AcDbEntity
  8
ALL_ASSEMBLY_MEMBERS
100
AcDbLine
 62
7
  6
CONTINUOUS
 10
6.6237972533
 20
6.2463618202
 11
6.491585455
 21
6.2463618202
  0
LINE
  5
2F3
100
AcDbEntity
  8
ALL_ASSEMBLY_MEMBERS
100
AcDbLine
 62
7
  6
CONTINUOUS
 10
5.3965415458
 20
6.2000320846
 11
5.3949725495
 21
6.200373974
  0
LINE
  5
2F4
100
AcDbEntity
  8
ALL_ASSEMBLY_MEMBERS
100
AcDbLine
 62
7
  6
CONTINUOUS
 10
5.396544517
 20
6.2000456386
 11
5.3949757882
 21
6.2003888099
  0
LINE
  5
2F5
100
AcDbEntity
  8
ALL_ASSEMBLY_MEMBERS
100
AcDbLine
 62
7
  6
CONTINUOUS
 10
6.7768654699
 20
5.4910486849
 11
6.7608527868
 21
5.5249978083
  0
ARC
  5
2F6
100
AcDbEntity
  8
ALL_ASSEMBLY_MEMBERS
100
AcDbCircle
 62
7
  6
CONTINUOUS
 10
5.1110094891
 20
-0.5470782263
 40
3.3345515068
100
AcDbArc
 50
90.5667669793
 51
91.4739564477
  0
ARC
  5
2F7
100
AcDbEntity
  8
ALL_ASSEMBLY_MEMBERS
100
AcDbCircle
 62
7
  6
CONTINUOUS
 10
4.5450905869
 20
2.3321099825
 40
0.6594582447
100
AcDbArc
 50
159.3523668278
 51
159.7877369515
  0
ARC
  5
2F8
100
AcDbEntity
  8
ALL_ASSEMBLY_MEMBERS
100
AcDbCircle
 62
7
  6
CONTINUOUS
 10
3.6250444812
 20
2.498062868
 40
0.09
100
AcDbArc
 50
111.3360575146
 51
131.4426902381
  0
ARC
  5
2F9
100
AcDbEntity
  8
ALL_ASSEMBLY_MEMBERS
100
AcDbCircle
 62
7
  6
CONTINUOUS
 10
3.6250444812
 20
2.498062868
 40
0.09
100
AcDbArc
 50
198.5573097619
 51
218.6639424854
  0
ARC
  5
2FA
100
AcDbEntity
  8
ALL_ASSEMBLY_MEMBERS
100
AcDbCircle
 62
7
  6
CONTINUOUS
 10
4.139251574
 20
2.3602814927
 40
0.09
100
AcDbArc
 50
18.5573097619
 51
38.6639424854
  0
ARC
  5
2FB
100
AcDbEntity
  8
ALL_ASSEMBLY_MEMBERS
100
AcDbCircle
 62
7
  6
CONTINUOUS
 10
4.139251574
 20
2.3602814927
 40
0.09
100
AcDbArc
 50
291.3360575146
 51
311.4426902381
  0
ARC
  5
2FC
100
AcDbEntity
  8
ALL_ASSEMBLY_MEMBERS
100
AcDbCircle
 62
7
  6
CONTINUOUS
 10
4.1392896983
 20
2.3593172607
 40
0.0892986606
100
AcDbArc
 50
320.6168169964
 51
328.9468211076
  0
ARC
  5
2FD
100
AcDbEntity
  8
ALL_ASSEMBLY_MEMBERS
100
AcDbCircle
 62
7
  6
CONTINUOUS
 10
3.6250049422
 20
2.499028097
 40
0.0892969332
100
AcDbArc
 50
140.6154174578
 51
148.9436677979
  0
ARC
  5
2FE
100
AcDbEntity
  8
ALL_ASSEMBLY_MEMBERS
100
AcDbCircle
 62
7
  6
CONTINUOUS
 10
3.6240305896
 20
2.4972013296
 40
0.088799156
100
AcDbArc
 50
181.0297080289
 51
189.4066527106
  0
ARC
  5
2FF
100
AcDbEntity
  8
ALL_ASSEMBLY_MEMBERS
100
AcDbCircle
 62
7
  6
CONTINUOUS
 10
4.1402656673
 20
2.3611430663
 40
0.0887989508
100
AcDbArc
 50
1.0329389137
 51
9.4079769888
  0
ARC
  5
300
100
AcDbEntity
  8
ALL_ASSEMBLY_MEMBERS
100
AcDbCircle
 62
7
  6
CONTINUOUS
 10
4.4702999711
 20
11.6414800262
 40
8.486156352
100
AcDbArc
 50
270.8850902574
 51
271.5006628632
  0
ARC
  5
301
100
AcDbEntity
  8
ALL_ASSEMBLY_MEMBERS
100
AcDbCircle
 62
7
  6
CONTINUOUS
 10
5.2126883986
 20
6.418439023
 40
0.6613352081
100
AcDbArc
 50
273.6633566534
 51
274.9531331822
  0
ARC
  5
302
100
AcDbEntity
  8
ALL_ASSEMBLY_MEMBERS
100
AcDbCircle
 62
7
  6
CONTINUOUS
 10
5.2126883986
 20
5.5617846174
 40
0.6613352081
100
AcDbArc
 50
85.0468668178
 51
86.3366433466
  0
ARC
  5
303
100
AcDbEntity
  8
ALL_ASSEMBLY_MEMBERS
100
AcDbCircle
 62
7
  6
CONTINUOUS
 10
4.5615922546
 20
5.7107496323
 40
0.6399999999
100
AcDbArc
 50
4.0658525017
 51
9.6008178552
  0
ARC
  5
304
100
AcDbEntity
  8
ALL_ASSEMBLY_MEMBERS
100
AcDbCircle
 62
7
  6
CONTINUOUS
 10
4.5615922546
 20
6.269474008
 40
0.6399999999
100
AcDbArc
 50
350.3991821448
 51
355.9341474983
  0
ARC
  5
305
100
AcDbEntity
  8
ALL_ASSEMBLY_MEMBERS
100
AcDbCircle
 62
7
  6
CONTINUOUS
 10
5.2581292353
 20
5.7085567038
 40
0.05
100
AcDbArc
 50
93.6527091028
 51
131.611681525
  0
ARC
  5
306
100
AcDbEntity
  8
ALL_ASSEMBLY_MEMBERS
100
AcDbCircle
 62
7
  6
CONTINUOUS
 10
5.2581292353
 20
6.2716669366
 40
0.05
100
AcDbArc
 50
228.388318475
 51
266.3472908972
  0
ARC
  5
307
100
AcDbEntity
  8
ALL_ASSEMBLY_MEMBERS
100
AcDbCircle
 62
7
  6
CONTINUOUS
 10
6.1332972564
 20
4.9014666117
 40
1.3194999984
100
AcDbArc
 50
81.1934452325
 51
87.6954064276
  0
ARC
  5
308
100
AcDbEntity
  8
ALL_ASSEMBLY_MEMBERS
100
AcDbCircle
 62
7
  6
CONTINUOUS
 10
6.527297252
 20
4.535596347
 40
1.2540000014
100
AcDbArc
 50
95.1872496666
 51
98.8065547675
  0
ARC
  5
309
100
AcDbEntity
  8
ALL_ASSEMBLY_MEMBERS
100
AcDbCircle
 62
7
  6
CONTINUOUS
 10
6.1494624405
 20
5.3031414643
 40
0.917499998
100
AcDbArc
 50
87.6954064276
 51
96.9507921473
  0
ARC
  5
30A
100
AcDbEntity
  8
ALL_ASSEMBLY_MEMBERS
100
AcDbCircle
 62
7
  6
CONTINUOUS
 10
6.5408869546
 20
5.4184297165
 40
0.2444212051
100
AcDbArc
 50
25.8490587855
 51
51.3390445145
  0
ARC
  5
30B
100
AcDbEntity
  8
ALL_ASSEMBLY_MEMBERS
100
AcDbCircle
 62
7
  6
CONTINUOUS
 10
6.5767792905
 20
5.4632932948
 40
0.1869668717
100
AcDbArc
 50
51.3390445145
 51
75.43503933
  0
ARC
  5
30C
100
AcDbEntity
  8
ALL_ASSEMBLY_MEMBERS
100
AcDbCircle
 62
7
  6
CONTINUOUS
 10
6.8243086127
 20
2.4056118202
 40
0.128
100
AcDbArc
 50
209.0144340224
 51
270.0
  0
ARC
  5
30D
100
AcDbEntity
  8
ALL_ASSEMBLY_MEMBERS
100
AcDbCircle
 62
7
  6
CONTINUOUS
 10
6.8243086127
 20
3.5746118202
 40
0.128
100
AcDbArc
 50
90.0
 51
150.9855659776
  0
ARC
  5
30E
100
AcDbEntity
  8
ALL_ASSEMBLY_MEMBERS
100
AcDbCircle
 62
7
  6
CONTINUOUS
 10
6.5320007697
 20
2.5038622035
 40
0.1000001902
100
AcDbArc
 50
235.1952825867
 51
270.000245687
  0
ARC
  5
30F
100
AcDbEntity
  8
ALL_ASSEMBLY_MEMBERS
100
AcDbCircle
 62
7
  6
CONTINUOUS
 10
6.5320011227
 20
3.4763617807
 40
0.0999999395
100
AcDbArc
 50
90.0000219451
 51
124.8048436736
  0
ARC
  5
310
100
AcDbEntity
  8
ALL_ASSEMBLY_MEMBERS
100
AcDbCircle
 62
7
  6
CONTINUOUS
 10
6.6773086127
 20
2.4376118202
 40
0.074
100
AcDbArc
 50
180.0
 51
270.0
  0
ARC
  5
311
100
AcDbEntity
  8
ALL_ASSEMBLY_MEMBERS
100
AcDbCircle
 62
7
  6
CONTINUOUS
 10
6.6773086127
 20
3.5426118202
 40
0.074
100
AcDbArc
 50
90.0
 51
180.0
  0
ARC
  5
312
100
AcDbEntity
  8
ALL_ASSEMBLY_MEMBERS
100
AcDbCircle
 62
7
  6
CONTINUOUS
 10
6.8378217368
 20
5.4860578168
 40
0.05
100
AcDbArc
 50
217.2907938915
 51
249.6970355865
  0
ARC
  5
313
100
AcDbEntity
  8
ALL_ASSEMBLY_MEMBERS
100
AcDbCircle
 62
7
  6
CONTINUOUS
 10
6.6782675226
 20
3.6556118202
 40
0.039
100
AcDbArc
 50
270.0
 51
330.9855659776
  0
ARC
  5
314
100
AcDbEntity
  8
ALL_ASSEMBLY_MEMBERS
100
AcDbCircle
 62
7
  6
CONTINUOUS
 10
6.6782675226
 20
2.3246118202
 40
0.039
100
AcDbArc
 50
29.0144340224
 51
90.0
  0
ARC
  5
315
100
AcDbEntity
  8
ALL_ASSEMBLY_MEMBERS
100
AcDbCircle
 62
7
  6
CONTINUOUS
 10
6.8740586127
 20
3.6063618202
 40
0.02575
100
AcDbArc
 50
0.0
 51
49.366485035
  0
ARC
  5
316
100
AcDbEntity
  8
ALL_ASSEMBLY_MEMBERS
100
AcDbCircle
 62
7
  6
CONTINUOUS
 10
6.8740586127
 20
2.3738618202
 40
0.02575
100
AcDbArc
 50
310.633514965
 51
360.0
  0
CIRCLE
  5
317
100
AcDbEntity
  8
ALL_ASSEMBLY_MEMBERS
100
AcDbCircle
 62
7
  6
CONTINUOUS
 10
5.3961972715
 20
5.9901118202
 40
0.21
  0
CIRCLE
  5
318
100
AcDbEntity
  8
ALL_ASSEMBLY_MEMBERS
100
AcDbCircle
 62
7
  6
CONTINUOUS
 10
5.3961972715
 20
5.9901118202
 40
0.1945238095
  0
ARC
  5
319
100
AcDbEntity
  8
ALL_ASSEMBLY_MEMBERS
100
AcDbCircle
 62
7
  6
CONTINUOUS
 10
5.5716507559
 20
5.7692798407
 40
0.05
100
AcDbArc
 50
63.1865642735
 51
101.6520435845
  0
ARC
  5
31A
100
AcDbEntity
  8
ALL_ASSEMBLY_MEMBERS
100
AcDbCircle
 62
7
  6
CONTINUOUS
 10
5.5716507559
 20
6.2109437996
 40
0.05
100
AcDbArc
 50
258.3479564155
 51
296.8134357265
  0
ARC
  5
31B
100
AcDbEntity
  8
ALL_ASSEMBLY_MEMBERS
100
AcDbCircle
 62
7
  6
CONTINUOUS
 10
5.8824172715
 20
5.8372318202
 40
0.01862
100
AcDbArc
 50
180.0
 51
270.0
  0
ARC
  5
31C
100
AcDbEntity
  8
ALL_ASSEMBLY_MEMBERS
100
AcDbCircle
 62
7
  6
CONTINUOUS
 10
5.9861410575
 20
5.7752525512
 40
0.0292597116
100
AcDbArc
 50
283.4895319841
 51
284.0617018129
  0
ARC
  5
31D
100
AcDbEntity
  8
ALL_ASSEMBLY_MEMBERS
100
AcDbCircle
 62
7
  6
CONTINUOUS
 10
5.9860617692
 20
5.7740528907
 40
0.0280803055
100
AcDbArc
 50
237.7666083444
 51
240.3516466266
  0
ARC
  5
31E
100
AcDbEntity
  8
ALL_ASSEMBLY_MEMBERS
100
AcDbCircle
 62
7
  6
CONTINUOUS
 10
5.9860484502
 20
5.7740314455
 40
0.0280550615
100
AcDbArc
 50
236.4818034339
 51
237.7662573732
  0
ARC
  5
31F
100
AcDbEntity
  8
ALL_ASSEMBLY_MEMBERS
100
AcDbCircle
 62
7
  6
CONTINUOUS
 10
5.9860354264
 20
5.7740118194
 40
0.0280315072
100
AcDbArc
 50
233.9939237966
 51
236.4818451183
  0
ARC
  5
320
100
AcDbEntity
  8
ALL_ASSEMBLY_MEMBERS
100
AcDbCircle
 62
7
  6
CONTINUOUS
 10
5.985923062
 20
5.773858754
 40
0.0278416285
100
AcDbArc
 50
230.148266895
 51
233.9958069232
  0
ARC
  5
321
100
AcDbEntity
  8
ALL_ASSEMBLY_MEMBERS
100
AcDbCircle
 62
7
  6
CONTINUOUS
 10
5.9860823804
 20
5.7737221685
 40
0.0277883206
100
AcDbArc
 50
284.3432732147
 51
286.8240590413
  0
ARC
  5
322
100
AcDbEntity
  8
ALL_ASSEMBLY_MEMBERS
100
AcDbCircle
 62
7
  6
CONTINUOUS
 10
5.9861241673
 20
5.7735888523
 40
0.027648616
100
AcDbArc
 50
286.8211326754
 51
291.6478118466
  0
ARC
  5
323
100
AcDbEntity
  8
ALL_ASSEMBLY_MEMBERS
100
AcDbCircle
 62
7
  6
CONTINUOUS
 10
5.9858536272
 20
5.7732765233
 40
0.0272791513
100
AcDbArc
 50
255.4227519678
 51
256.0664764307
  0
ARC
  5
324
100
AcDbEntity
  8
ALL_ASSEMBLY_MEMBERS
100
AcDbCircle
 62
7
  6
CONTINUOUS
 10
5.9855344795
 20
5.7733962647
 40
0.0272375682
100
AcDbArc
 50
222.1670957466
 51
230.1523734848
  0
ARC
  5
325
100
AcDbEntity
  8
ALL_ASSEMBLY_MEMBERS
100
AcDbCircle
 62
7
  6
CONTINUOUS
 10
5.985537916
 20
5.7733751019
 40
0.0272259148
100
AcDbArc
 50
217.5145797337
 51
222.1292312603
  0
ARC
  5
326
100
AcDbEntity
  8
ALL_ASSEMBLY_MEMBERS
100
AcDbCircle
 62
7
  6
CONTINUOUS
 10
5.9867396471
 20
5.77316503
 40
0.0271430531
100
AcDbArc
 50
315.0530088377
 51
317.0964092389
  0
ARC
  5
327
100
AcDbEntity
  8
ALL_ASSEMBLY_MEMBERS
100
AcDbCircle
 62
7
  6
CONTINUOUS
 10
5.9868164314
 20
5.7730906833
 40
0.0270361968
100
AcDbArc
 50
313.3415043619
 51
317.1010663926
  0
ARC
  5
328
100
AcDbEntity
  8
ALL_ASSEMBLY_MEMBERS
100
AcDbCircle
 62
7
  6
CONTINUOUS
 10
5.9868468424
 20
5.773058902
 40
0.0269922101
100
AcDbArc
 50
313.3408584031
 51
315.0517031682
  0
ARC
  5
329
100
AcDbEntity
  8
ALL_ASSEMBLY_MEMBERS
100
AcDbCircle
 62
7
  6
CONTINUOUS
 10
5.9869004529
 20
5.7730027138
 40
0.0269145505
100
AcDbArc
 50
312.9733304441
 51
313.3399515776
  0
ARC
  5
32A
100
AcDbEntity
  8
ALL_ASSEMBLY_MEMBERS
100
AcDbCircle
 62
7
  6
CONTINUOUS
 10
5.986988261
 20
5.7729071365
 40
0.0267847643
100
AcDbArc
 50
308.7012271191
 51
312.9752648653
  0
ARC
  5
32B
100
AcDbEntity
  8
ALL_ASSEMBLY_MEMBERS
100
AcDbCircle
 62
7
  6
CONTINUOUS
 10
5.9860125455
 20
5.7736556307
 40
0.0266445892
100
AcDbArc
 50
285.1285603637
 51
292.782806794
  0
ARC
  5
32C
100
AcDbEntity
  8
ALL_ASSEMBLY_MEMBERS
100
AcDbCircle
 62
7
  6
CONTINUOUS
 10
5.9859100694
 20
5.7718525904
 40
0.025913759
100
AcDbArc
 50
254.4678918791
 51
255.1872114877
  0
ARC
  5
32D
100
AcDbEntity
  8
ALL_ASSEMBLY_MEMBERS
100
AcDbCircle
 62
7
  6
CONTINUOUS
 10
5.9774361045
 20
5.8264827448
 40
0.034968357
100
AcDbArc
 50
322.6786619969
 51
326.5759668105
  0
ARC
  5
32E
100
AcDbEntity
  8
ALL_ASSEMBLY_MEMBERS
100
AcDbCircle
 62
7
  6
CONTINUOUS
 10
5.9789671262
 20
5.7999259325
 40
0.0335753248
100
AcDbArc
 50
321.7444924741
 51
325.452913398
  0
ARC
  5
32F
100
AcDbEntity
  8
ALL_ASSEMBLY_MEMBERS
100
AcDbCircle
 62
7
  6
CONTINUOUS
 10
5.9804866958
 20
5.7924167948
 40
0.0319675715
100
AcDbArc
 50
318.7098704324
 51
324.8398649064
  0
ARC
  5
330
100
AcDbEntity
  8
ALL_ASSEMBLY_MEMBERS
100
AcDbCircle
 62
7
  6
CONTINUOUS
 10
5.9813573071
 20
5.7864748072
 40
0.0312177039
100
AcDbArc
 50
317.862585971
 51
324.0281473649
  0
ARC
  5
331
100
AcDbEntity
  8
ALL_ASSEMBLY_MEMBERS
100
AcDbCircle
 62
7
  6
CONTINUOUS
 10
6.0206182232
 20
5.7178115919
 40
0.0910290828
100
AcDbArc
 50
98.5895192114
 51
98.8450666621
  0
ARC
  5
332
100
AcDbEntity
  8
ALL_ASSEMBLY_MEMBERS
100
AcDbCircle
 62
7
  6
CONTINUOUS
 10
6.0211748148
 20
5.7417320748
 40
0.0581405463
100
AcDbArc
 50
104.0881356665
 51
104.4963922711
  0
ARC
  5
333
100
AcDbEntity
  8
ALL_ASSEMBLY_MEMBERS
100
AcDbCircle
 62
7
  6
CONTINUOUS
 10
6.0504971946
 20
5.778236593
 40
0.0525851375
100
AcDbArc
 50
145.7659491366
 51
146.5511801904
  0
ARC
  5
334
100
AcDbEntity
  8
ALL_ASSEMBLY_MEMBERS
100
AcDbCircle
 62
7
  6
CONTINUOUS
 10
6.0499582439
 20
5.7686333311
 40
0.0520880453
100
AcDbArc
 50
145.5165882943
 51
146.3044882686
  0
ARC
  5
335
100
AcDbEntity
  8
ALL_ASSEMBLY_MEMBERS
100
AcDbCircle
 62
7
  6
CONTINUOUS
 10
6.0490639033
 20
5.760031876
 40
0.0512391362
100
AcDbArc
 50
145.1339095703
 51
145.9261109281
  0
ARC
  5
336
100
AcDbEntity
  8
ALL_ASSEMBLY_MEMBERS
100
AcDbCircle
 62
7
  6
CONTINUOUS
 10
6.0479798661
 20
5.7523718691
 40
0.050234865
100
AcDbArc
 50
144.6184492436
 51
145.4159294545
  0
ARC
  5
337
100
AcDbEntity
  8
ALL_ASSEMBLY_MEMBERS
100
AcDbCircle
 62
7
  6
CONTINUOUS
 10
6.0466825399
 20
5.7457087152
 40
0.0490480894
100
AcDbArc
 50
143.9585407662
 51
144.7625169887
  0
ARC
  5
338
100
AcDbEntity
  8
ALL_ASSEMBLY_MEMBERS
100
AcDbCircle
 62
7
  6
CONTINUOUS
 10
6.0451370074
 20
5.7401107858
 40
0.0476332628
100
AcDbArc
 50
143.1454973863
 51
143.9568775528
  0
ARC
  5
339
100
AcDbEntity
  8
ALL_ASSEMBLY_MEMBERS
100
AcDbCircle
 62
7
  6
CONTINUOUS
 10
6.0434517983
 20
5.7355359178
 40
0.0461240047
100
AcDbArc
 50
142.1675885352
 51
142.9869593723
  0
ARC
  5
33A
100
AcDbEntity
  8
ALL_ASSEMBLY_MEMBERS
100
AcDbCircle
 62
7
  6
CONTINUOUS
 10
6.0220039672
 20
5.7464843082
 40
0.0453829766
100
AcDbArc
 50
109.2753265833
 51
109.8124507483
  0
ARC
  5
33B
100
AcDbEntity
  8
ALL_ASSEMBLY_MEMBERS
100
AcDbCircle
 62
7
  6
CONTINUOUS
 10
6.0416121291
 20
5.7320252182
 40
0.0445031666
100
AcDbArc
 50
141.0081317638
 51
141.835812774
  0
ARC
  5
33C
100
AcDbEntity
  8
ALL_ASSEMBLY_MEMBERS
100
AcDbCircle
 62
7
  6
CONTINUOUS
 10
6.0396433136
 20
5.7295872179
 40
0.0428034538
100
AcDbArc
 50
139.6498400449
 51
140.4855315962
  0
ARC
  5
33D
100
AcDbEntity
  8
ALL_ASSEMBLY_MEMBERS
100
AcDbCircle
 62
7
  6
CONTINUOUS
 10
6.0376128236
 20
5.728185343
 40
0.0411168132
100
AcDbArc
 50
138.0715926673
 51
138.9142295133
  0
ARC
  5
33E
100
AcDbEntity
  8
ALL_ASSEMBLY_MEMBERS
100
AcDbCircle
 62
7
  6
CONTINUOUS
 10
6.0355560791
 20
5.7277957021
 40
0.0395009259
100
AcDbArc
 50
136.8130317624
 51
137.0957733741
  0
ARC
  5
33F
100
AcDbEntity
  8
ALL_ASSEMBLY_MEMBERS
100
AcDbCircle
 62
7
  6
CONTINUOUS
 10
6.0355455463
 20
5.7278054878
 40
0.0394865481
100
AcDbArc
 50
136.2482547403
 51
137.0957540409
  0
ARC
  5
340
100
AcDbEntity
  8
ALL_ASSEMBLY_MEMBERS
100
AcDbCircle
 62
7
  6
CONTINUOUS
 10
6.0355306656
 20
5.7278195318
 40
0.0394660877
100
AcDbArc
 50
136.5303567162
 51
136.8130060519
  0
ARC
  5
341
100
AcDbEntity
  8
ALL_ASSEMBLY_MEMBERS
100
AcDbCircle
 62
7
  6
CONTINUOUS
 10
6.0230884252
 20
5.7455039146
 40
0.0393809858
100
AcDbArc
 50
114.07658211
 51
114.7174386163
  0
ARC
  5
342
100
AcDbEntity
  8
ALL_ASSEMBLY_MEMBERS
100
AcDbCircle
 62
7
  6
CONTINUOUS
 10
6.0334818819
 20
5.7284054467
 40
0.0379852499
100
AcDbArc
 50
134.1519823606
 51
135.0005869425
  0
ARC
  5
343
100
AcDbEntity
  8
ALL_ASSEMBLY_MEMBERS
100
AcDbCircle
 62
7
  6
CONTINUOUS
 10
6.0339228027
 20
5.7293590938
 40
0.0372399989
100
AcDbArc
 50
83.0492063503
 51
136.2483361684
  0
ARC
  5
344
100
AcDbEntity
  8
ALL_ASSEMBLY_MEMBERS
100
AcDbCircle
 62
7
  6
CONTINUOUS
 10
6.0314265479
 20
5.7299593603
 40
0.0366482093
100
AcDbArc
 50
131.7509491528
 51
132.5963109691
  0
ARC
  5
345
100
AcDbEntity
  8
ALL_ASSEMBLY_MEMBERS
100
AcDbCircle
 62
7
  6
CONTINUOUS
 10
6.0244009167
 20
5.7424970147
 40
0.0364759898
100
AcDbArc
 50
118.4524753913
 51
119.1714047463
  0
ARC
  5
346
100
AcDbEntity
  8
ALL_ASSEMBLY_MEMBERS
100
AcDbCircle
 62
7
  6
CONTINUOUS
 10
6.029468642
 20
5.7323214393
 40
0.0356570018
100
AcDbArc
 50
129.0129555747
 51
129.8469277272
  0
ARC
  5
347
100
AcDbEntity
  8
ALL_ASSEMBLY_MEMBERS
100
AcDbCircle
 62
7
  6
CONTINUOUS
 10
6.0259176909
 20
5.7388959501
 40
0.0352723628
100
AcDbArc
 50
122.390563009
 51
123.1648700277
  0
ARC
  5
348
100
AcDbEntity
  8
ALL_ASSEMBLY_MEMBERS
100
AcDbCircle
 62
7
  6
CONTINUOUS
 10
6.0276225058
 20
5.7353720564
 40
0.0351282549
100
AcDbArc
 50
125.9031929511
 51
126.7148415908
  0
ARC
  5
349
100
AcDbEntity
  8
ALL_ASSEMBLY_MEMBERS
100
AcDbCircle
 62
7
  6
CONTINUOUS
 10
6.0508193251
 20
5.8000493837
 40
0.0528962847
100
AcDbArc
 50
145.8911988649
 51
146.6749426316
  0
ARC
  5
34A
100
AcDbEntity
  8
ALL_ASSEMBLY_MEMBERS
100
AcDbCircle
 62
7
  6
CONTINUOUS
 10
6.0507463701
 20
5.7887523855
 40
0.0528081021
100
AcDbArc
 50
145.891218379
 51
146.6749843283
  0
ARC
  5
34B
100
AcDbEntity
  8
ALL_ASSEMBLY_MEMBERS
100
AcDbCircle
 62
7
  6
CONTINUOUS
 10
6.0504653143
 20
5.8122452647
 40
0.052546269
100
AcDbArc
 50
145.7663697037
 51
146.5515843607
  0
ARC
  5
34C
100
AcDbEntity
  8
ALL_ASSEMBLY_MEMBERS
100
AcDbCircle
 62
7
  6
CONTINUOUS
 10
6.0500632444
 20
5.8250307406
 40
0.0522147103
100
AcDbArc
 50
145.5180179719
 51
146.3057128695
  0
ARC
  5
34D
100
AcDbEntity
  8
ALL_ASSEMBLY_MEMBERS
100
AcDbCircle
 62
7
  6
CONTINUOUS
 10
6.0490419802
 20
5.838733165
 40
0.0512125689
100
AcDbArc
 50
145.133595621
 51
145.925786809
  0
ARC
  5
34E
100
AcDbEntity
  8
ALL_ASSEMBLY_MEMBERS
100
AcDbCircle
 62
7
  6
CONTINUOUS
 10
6.0206161716
 20
5.9318049177
 40
0.0910195647
100
AcDbArc
 50
261.1554016248
 51
261.4109054983
  0
ARC
  5
34F
100
AcDbEntity
  8
ALL_ASSEMBLY_MEMBERS
100
AcDbCircle
 62
7
  6
CONTINUOUS
 10
6.0211975791
 20
5.9110705163
 40
0.058230265
100
AcDbArc
 50
255.5020754679
 51
255.9107774391
  0
ARC
  5
350
100
AcDbEntity
  8
ALL_ASSEMBLY_MEMBERS
100
AcDbCircle
 62
7
  6
CONTINUOUS
 10
6.0481325848
 20
5.8528041299
 40
0.050420622
100
AcDbArc
 50
144.6213414392
 51
145.418483618
  0
ARC
  5
351
100
AcDbEntity
  8
ALL_ASSEMBLY_MEMBERS
100
AcDbCircle
 62
7
  6
CONTINUOUS
 10
6.0467075284
 20
5.8676109857
 40
0.0490789878
100
AcDbArc
 50
143.9586135712
 51
144.7625280421
  0
ARC
  5
352
100
AcDbEntity
  8
ALL_ASSEMBLY_MEMBERS
100
AcDbCircle
 62
7
  6
CONTINUOUS
 10
6.0451891059
 20
5.882808763
 40
0.047697052
100
AcDbArc
 50
143.147943143
 51
143.9590409641
  0
ARC
  5
353
100
AcDbEntity
  8
ALL_ASSEMBLY_MEMBERS
100
AcDbCircle
 62
7
  6
CONTINUOUS
 10
6.043555116
 20
5.898340545
 40
0.0462539918
100
AcDbArc
 50
142.1692101577
 51
142.9883435549
  0
ARC
  5
354
100
AcDbEntity
  8
ALL_ASSEMBLY_MEMBERS
100
AcDbCircle
 62
7
  6
CONTINUOUS
 10
6.0220019252
 20
5.9108434168
 40
0.0453774512
100
AcDbArc
 50
250.1880886098
 51
250.7250125506
  0
ARC
  5
355
100
AcDbEntity
  8
ALL_ASSEMBLY_MEMBERS
100
AcDbCircle
 62
7
  6
CONTINUOUS
 10
6.0416294867
 20
5.9142848505
 40
0.0445248425
100
AcDbArc
 50
141.0092466949
 51
141.8367971823
  0
ARC
  5
356
100
AcDbEntity
  8
ALL_ASSEMBLY_MEMBERS
100
AcDbCircle
 62
7
  6
CONTINUOUS
 10
6.0397947728
 20
5.9302742179
 40
0.0430000547
100
AcDbArc
 50
139.6537842399
 51
140.4890054907
  0
ARC
  5
357
100
AcDbEntity
  8
ALL_ASSEMBLY_MEMBERS
100
AcDbCircle
 62
7
  6
CONTINUOUS
 10
6.0376167096
 20
5.9465969193
 40
0.0411221225
100
AcDbArc
 50
138.0714622797
 51
138.9140467607
  0
ARC
  5
358
100
AcDbEntity
  8
ALL_ASSEMBLY_MEMBERS
100
AcDbCircle
 62
7
  6
CONTINUOUS
 10
6.0356572127
 20
5.9627020963
 40
0.0396388869
100
AcDbArc
 50
136.2521688548
 51
137.0992271132
  0
ARC
  5
359
100
AcDbEntity
  8
ALL_ASSEMBLY_MEMBERS
100
AcDbCircle
 62
7
  6
CONTINUOUS
 10
6.0231104748
 20
5.9179985682
 40
0.0394331154
100
AcDbArc
 50
245.279779311
 51
245.9218450385
  0
ARC
  5
35A
100
AcDbEntity
  8
ALL_ASSEMBLY_MEMBERS
100
AcDbCircle
 62
7
  6
CONTINUOUS
 10
6.0334318402
 20
5.9789453167
 40
0.0379140374
100
AcDbArc
 50
134.1512175297
 51
135.0024019488
  0
ARC
  5
35B
100
AcDbEntity
  8
ALL_ASSEMBLY_MEMBERS
100
AcDbCircle
 62
7
  6
CONTINUOUS
 10
6.0314750077
 20
5.985505529
 40
0.0367191723
100
AcDbArc
 50
227.3984143294
 51
228.2459277557
  0
ARC
  5
35C
100
AcDbEntity
  8
ALL_ASSEMBLY_MEMBERS
100
AcDbCircle
 62
7
  6
CONTINUOUS
 10
6.0244050174
 20
5.9285644938
 40
0.03648392
100
AcDbArc
 50
240.8278335927
 51
241.5468907358
  0
ARC
  5
35D
100
AcDbEntity
  8
ALL_ASSEMBLY_MEMBERS
100
AcDbCircle
 62
7
  6
CONTINUOUS
 10
6.0294754867
 20
5.9700140779
 40
0.0356681705
100
AcDbArc
 50
230.1530296782
 51
230.9873568711
  0
ARC
  5
35E
100
AcDbEntity
  8
ALL_ASSEMBLY_MEMBERS
100
AcDbCircle
 62
7
  6
CONTINUOUS
 10
6.0259412842
 20
5.9412357949
 40
0.0353155983
100
AcDbArc
 50
236.832753164
 51
237.6082902174
  0
ARC
  5
35F
100
AcDbEntity
  8
ALL_ASSEMBLY_MEMBERS
100
AcDbCircle
 62
7
  6
CONTINUOUS
 10
6.0276435998
 20
5.9551909843
 40
0.0351627484
100
AcDbArc
 50
233.2821249194
 51
234.0947620501
  0
ARC
  5
360
100
AcDbEntity
  8
ALL_ASSEMBLY_MEMBERS
100
AcDbCircle
 62
7
  6
CONTINUOUS
 10
5.8824172715
 20
6.1429918202
 40
0.01862
100
AcDbArc
 50
90.0
 51
180.0
  0
ARC
  5
361
100
AcDbEntity
  8
ALL_ASSEMBLY_MEMBERS
100
AcDbCircle
 62
7
  6
CONTINUOUS
 10
6.0206470399
 20
6.0482202732
 40
0.0912204202
100
AcDbArc
 50
98.5897394185
 51
98.8451409588
  0
ARC
  5
362
100
AcDbEntity
  8
ALL_ASSEMBLY_MEMBERS
100
AcDbCircle
 62
7
  6
CONTINUOUS
 10
6.0212067535
 20
6.0691173514
 40
0.0582671673
100
AcDbArc
 50
104.0893017527
 51
104.4963509282
  0
ARC
  5
363
100
AcDbEntity
  8
ALL_ASSEMBLY_MEMBERS
100
AcDbCircle
 62
7
  6
CONTINUOUS
 10
6.0481613826
 20
6.1274403186
 40
0.050456153
100
AcDbArc
 50
214.5818246289
 51
215.3789879871
  0
ARC
  5
364
100
AcDbEntity
  8
ALL_ASSEMBLY_MEMBERS
100
AcDbCircle
 62
7
  6
CONTINUOUS
 10
6.0466536242
 20
6.1125739057
 40
0.049012537
100
AcDbArc
 50
215.2379197576
 51
216.0418905993
  0
ARC
  5
365
100
AcDbEntity
  8
ALL_ASSEMBLY_MEMBERS
100
AcDbCircle
 62
7
  6
CONTINUOUS
 10
6.0453150641
 20
6.0975079912
 40
0.0478537636
100
AcDbArc
 50
216.0397808758
 51
216.8507491427
  0
ARC
  5
366
100
AcDbEntity
  8
ALL_ASSEMBLY_MEMBERS
100
AcDbCircle
 62
7
  6
CONTINUOUS
 10
6.0434765189
 20
6.0818239437
 40
0.0461555216
100
AcDbArc
 50
217.0133972175
 51
217.8327438863
  0
ARC
  5
367
100
AcDbEntity
  8
ALL_ASSEMBLY_MEMBERS
100
AcDbCircle
 62
7
  6
CONTINUOUS
 10
6.0220640209
 20
6.0692050011
 40
0.0455633772
100
AcDbArc
 50
109.2760598206
 51
109.8114969694
  0
ARC
  5
368
100
AcDbEntity
  8
ALL_ASSEMBLY_MEMBERS
100
AcDbCircle
 62
7
  6
CONTINUOUS
 10
6.0417269635
 20
6.066015587
 40
0.0446490445
100
AcDbArc
 50
218.1612046263
 51
218.9885242249
  0
ARC
  5
369
100
AcDbEntity
  8
ALL_ASSEMBLY_MEMBERS
100
AcDbCircle
 62
7
  6
CONTINUOUS
 10
6.039755526
 20
6.0499177644
 40
0.0429495685
100
AcDbArc
 50
219.5126037543
 51
220.3480135384
  0
ARC
  5
36A
100
AcDbEntity
  8
ALL_ASSEMBLY_MEMBERS
100
AcDbCircle
 62
7
  6
CONTINUOUS
 10
6.0376515986
 20
6.0336564539
 40
0.0411680012
100
AcDbArc
 50
221.0843431655
 51
221.9268102817
  0
ARC
  5
36B
100
AcDbEntity
  8
ALL_ASSEMBLY_MEMBERS
100
AcDbCircle
 62
7
  6
CONTINUOUS
 10
6.0356743943
 20
6.0175383694
 40
0.0396629332
100
AcDbArc
 50
222.9011442448
 51
223.7482264219
  0
ARC
  5
36C
100
AcDbEntity
  8
ALL_ASSEMBLY_MEMBERS
100
AcDbCircle
 62
7
  6
CONTINUOUS
 10
6.0230735409
 20
6.0623073839
 40
0.0393428989
100
AcDbArc
 50
114.0779586635
 51
114.7211003362
  0
ARC
  5
36D
100
AcDbEntity
  8
ALL_ASSEMBLY_MEMBERS
100
AcDbCircle
 62
7
  6
CONTINUOUS
 10
6.0334846356
 20
6.0013317195
 40
0.0379890731
100
AcDbArc
 50
224.9993161982
 51
225.847824274
  0
ARC
  5
36E
100
AcDbEntity
  8
ALL_ASSEMBLY_MEMBERS
100
AcDbCircle
 62
7
  6
CONTINUOUS
 10
6.0244753364
 20
6.0515299743
 40
0.0366309533
100
AcDbArc
 50
118.4534390454
 51
119.1688185011
  0
ARC
  5
36F
100
AcDbEntity
  8
ALL_ASSEMBLY_MEMBERS
100
AcDbCircle
 62
7
  6
CONTINUOUS
 10
6.0313411172
 20
5.9948660153
 40
0.0365196031
100
AcDbArc
 50
131.7517713913
 51
132.601046736
  0
ARC
  5
370
100
AcDbEntity
  8
ALL_ASSEMBLY_MEMBERS
100
AcDbCircle
 62
7
  6
CONTINUOUS
 10
6.0293982125
 20
6.0103045338
 40
0.0355458291
100
AcDbArc
 50
129.0124160046
 51
129.8512483534
  0
ARC
  5
371
100
AcDbEntity
  8
ALL_ASSEMBLY_MEMBERS
100
AcDbCircle
 62
7
  6
CONTINUOUS
 10
6.0258799376
 20
6.0390841425
 40
0.035201472
100
AcDbArc
 50
122.3914915266
 51
123.1705753828
  0
ARC
  5
372
100
AcDbEntity
  8
ALL_ASSEMBLY_MEMBERS
100
AcDbCircle
 62
7
  6
CONTINUOUS
 10
6.0276575961
 20
6.0250127341
 40
0.0351870093
100
AcDbArc
 50
125.9044859324
 51
126.7146858979
  0
ARC
  5
373
100
AcDbEntity
  8
ALL_ASSEMBLY_MEMBERS
100
AcDbCircle
 62
7
  6
CONTINUOUS
 10
5.9777963386
 20
6.1635004606
 40
0.0346297222
100
AcDbArc
 50
33.6561955628
 51
37.3825525317
  0
ARC
  5
374
100
AcDbEntity
  8
ALL_ASSEMBLY_MEMBERS
100
AcDbCircle
 62
7
  6
CONTINUOUS
 10
5.9804822596
 20
6.1878031715
 40
0.0319733327
100
AcDbArc
 50
35.1605475008
 51
41.2787176952
  0
ARC
  5
375
100
AcDbEntity
  8
ALL_ASSEMBLY_MEMBERS
100
AcDbCircle
 62
7
  6
CONTINUOUS
 10
5.9813551875
 20
6.1937472575
 40
0.0312203359
100
AcDbArc
 50
35.9721641477
 51
42.1257623484
  0
ARC
  5
376
100
AcDbEntity
  8
ALL_ASSEMBLY_MEMBERS
100
AcDbCircle
 62
7
  6
CONTINUOUS
 10
5.9823333911
 20
6.1986518724
 40
0.030392404
100
AcDbArc
 50
36.9502891359
 51
43.1393250869
  0
ARC
  5
377
100
AcDbEntity
  8
ALL_ASSEMBLY_MEMBERS
100
AcDbCircle
 62
7
  6
CONTINUOUS
 10
5.986144498
 20
6.2049850988
 40
0.0292452859
100
AcDbArc
 50
74.1564895407
 51
76.5106199912
  0
ARC
  5
378
100
AcDbEntity
  8
ALL_ASSEMBLY_MEMBERS
100
AcDbCircle
 62
7
  6
CONTINUOUS
 10
5.9860555216
 20
6.2061810129
 40
0.0280682871
100
AcDbArc
 50
121.3867060682
 51
122.2266671039
  0
ARC
  5
379
100
AcDbEntity
  8
ALL_ASSEMBLY_MEMBERS
100
AcDbCircle
 62
7
  6
CONTINUOUS
 10
5.9860429209
 20
6.2062007041
 40
0.0280449099
100
AcDbArc
 50
122.2263426774
 51
124.7476270405
  0
ARC
  5
37A
100
AcDbEntity
  8
ALL_ASSEMBLY_MEMBERS
100
AcDbCircle
 62
7
  6
CONTINUOUS
 10
5.9860277272
 20
6.2062226108
 40
0.0280182499
100
AcDbArc
 50
124.747630777
 51
126.0156318332
  0
ARC
  5
37B
100
AcDbEntity
  8
ALL_ASSEMBLY_MEMBERS
100
AcDbCircle
 62
7
  6
CONTINUOUS
 10
5.9859078206
 20
6.206383849
 40
0.0278173256
100
AcDbArc
 50
126.0111453734
 51
129.1339642295
  0
ARC
  5
37C
100
AcDbEntity
  8
ALL_ASSEMBLY_MEMBERS
100
AcDbCircle
 62
7
  6
CONTINUOUS
 10
5.9860824886
 20
6.2065019008
 40
0.0277878781
100
AcDbArc
 50
73.1694337141
 51
75.6567237263
  0
ARC
  5
37D
100
AcDbEntity
  8
ALL_ASSEMBLY_MEMBERS
100
AcDbCircle
 62
7
  6
CONTINUOUS
 10
5.9861243476
 20
6.2066353698
 40
0.0276480063
100
AcDbArc
 50
68.3351409986
 51
73.1723785624
  0
ARC
  5
37E
100
AcDbEntity
  8
ALL_ASSEMBLY_MEMBERS
100
AcDbCircle
 62
7
  6
CONTINUOUS
 10
5.9858006686
 20
6.2065165787
 40
0.0276467434
100
AcDbArc
 50
129.1353227001
 51
129.8297337558
  0
ARC
  5
37F
100
AcDbEntity
  8
ALL_ASSEMBLY_MEMBERS
100
AcDbCircle
 62
7
  6
CONTINUOUS
 10
5.985853804
 20
6.2069464032
 40
0.0272798867
100
AcDbArc
 50
103.9335228863
 51
104.5764853485
  0
ARC
  5
380
100
AcDbEntity
  8
ALL_ASSEMBLY_MEMBERS
100
AcDbCircle
 62
7
  6
CONTINUOUS
 10
5.985537916
 20
6.2068485384
 40
0.0272259148
100
AcDbArc
 50
137.8707687397
 51
142.4854202663
  0
ARC
  5
381
100
AcDbEntity
  8
ALL_ASSEMBLY_MEMBERS
100
AcDbCircle
 62
7
  6
CONTINUOUS
 10
5.9854260229
 20
6.2069403972
 40
0.0270813126
100
AcDbArc
 50
129.7953531505
 51
137.8561010577
  0
ARC
  5
382
100
AcDbEntity
  8
ALL_ASSEMBLY_MEMBERS
100
AcDbCircle
 62
7
  6
CONTINUOUS
 10
5.9868622734
 20
6.2071785598
 40
0.0269715729
100
AcDbArc
 50
42.8942565203
 51
48.286731859
  0
ARC
  5
383
100
AcDbEntity
  8
ALL_ASSEMBLY_MEMBERS
100
AcDbCircle
 62
7
  6
CONTINUOUS
 10
5.9860125503
 20
6.2065680291
 40
0.0266445692
100
AcDbArc
 50
67.2148945757
 51
74.8714386756
  0
ARC
  5
384
100
AcDbEntity
  8
ALL_ASSEMBLY_MEMBERS
100
AcDbCircle
 62
7
  6
CONTINUOUS
 10
5.9870835585
 20
6.2074291329
 40
0.0266372803
100
AcDbArc
 50
48.2834057806
 51
51.3223036701
  0
ARC
  5
385
100
AcDbEntity
  8
ALL_ASSEMBLY_MEMBERS
100
AcDbCircle
 62
7
  6
CONTINUOUS
 10
5.9859096887
 20
6.2083724947
 40
0.0259122649
100
AcDbArc
 50
104.8127915332
 51
105.5346005228
  0
ARC
  5
386
100
AcDbEntity
  8
ALL_ASSEMBLY_MEMBERS
100
AcDbCircle
 62
7
  6
CONTINUOUS
 10
6.0508471003
 20
6.1915384681
 40
0.0529292548
100
AcDbArc
 50
213.3241572227
 51
214.1078336768
  0
ARC
  5
387
100
AcDbEntity
  8
ALL_ASSEMBLY_MEMBERS
100
AcDbCircle
 62
7
  6
CONTINUOUS
 10
6.0507408775
 20
6.1801227804
 40
0.0528023679
100
AcDbArc
 50
213.3264460435
 51
214.1103596022
  0
ARC
  5
388
100
AcDbEntity
  8
ALL_ASSEMBLY_MEMBERS
100
AcDbCircle
 62
7
  6
CONTINUOUS
 10
6.050582332
 20
6.168055886
 40
0.0526867376
100
AcDbArc
 50
213.4466329172
 51
214.2316403835
  0
ARC
  5
389
100
AcDbEntity
  8
ALL_ASSEMBLY_MEMBERS
100
AcDbCircle
 62
7
  6
CONTINUOUS
 10
6.0504354037
 20
6.201946045
 40
0.0525109108
100
AcDbArc
 50
213.4497104582
 51
214.235048319
  0
ARC
  5
38A
100
AcDbEntity
  8
ALL_ASSEMBLY_MEMBERS
100
AcDbCircle
 62
7
  6
CONTINUOUS
 10
6.0500041205
 20
6.1551542139
 40
0.0521439792
100
AcDbArc
 50
213.6959018622
 51
214.4837927372
  0
ARC
  5
38B
100
AcDbEntity
  8
ALL_ASSEMBLY_MEMBERS
100
AcDbCircle
 62
7
  6
CONTINUOUS
 10
6.0490981275
 20
6.1415277084
 40
0.0512799907
100
AcDbArc
 50
214.0725618848
 51
214.8646211197
  0
ARC
  5
38C
100
AcDbEntity
  8
ALL_ASSEMBLY_MEMBERS
100
AcDbCircle
 62
7
  6
CONTINUOUS
 10
6.0207134854
 20
6.2630356525
 40
0.0916599068
100
AcDbArc
 50
261.1564431149
 51
261.4098765344
  0
ARC
  5
38D
100
AcDbEntity
  8
ALL_ASSEMBLY_MEMBERS
100
AcDbCircle
 62
7
  6
CONTINUOUS
 10
6.0212099507
 20
6.2386283702
 40
0.0582817958
100
AcDbArc
 50
255.5038349684
 51
255.9110713099
  0
ARC
  5
38E
100
AcDbEntity
  8
ALL_ASSEMBLY_MEMBERS
100
AcDbCircle
 62
7
  6
CONTINUOUS
 10
6.0499301208
 20
6.2115711324
 40
0.05205403
100
AcDbArc
 50
213.6956434361
 51
214.4835206233
  0
ARC
  5
38F
100
AcDbEntity
  8
ALL_ASSEMBLY_MEMBERS
100
AcDbCircle
 62
7
  6
CONTINUOUS
 10
6.0490388068
 20
6.2201746047
 40
0.0512087048
100
AcDbArc
 50
214.0741840152
 51
214.866413363
  0
ARC
  5
390
100
AcDbEntity
  8
ALL_ASSEMBLY_MEMBERS
100
AcDbCircle
 62
7
  6
CONTINUOUS
 10
6.0480138782
 20
6.2278757172
 40
0.0502764736
100
AcDbArc
 50
214.5838768094
 51
215.3813463799
  0
ARC
  5
391
100
AcDbEntity
  8
ALL_ASSEMBLY_MEMBERS
100
AcDbCircle
 62
7
  6
CONTINUOUS
 10
6.0466688848
 20
6.2345053482
 40
0.0490313926
100
AcDbArc
 50
215.237804845
 51
216.041816287
  0
ARC
  5
392
100
AcDbEntity
  8
ALL_ASSEMBLY_MEMBERS
100
AcDbCircle
 62
7
  6
CONTINUOUS
 10
6.0451450387
 20
6.2401186324
 40
0.0476431651
100
AcDbArc
 50
216.0428899805
 51
216.8542601106
  0
ARC
  5
393
100
AcDbEntity
  8
ALL_ASSEMBLY_MEMBERS
100
AcDbCircle
 62
7
  6
CONTINUOUS
 10
6.0434647848
 20
6.2446978123
 40
0.0461404489
100
AcDbArc
 50
217.0130392043
 51
217.8324172674
  0
ARC
  5
394
100
AcDbEntity
  8
ALL_ASSEMBLY_MEMBERS
100
AcDbCircle
 62
7
  6
CONTINUOUS
 10
6.0220980264
 20
6.234004944
 40
0.0456647366
100
AcDbArc
 50
250.1897953722
 51
250.7233296526
  0
ARC
  5
395
100
AcDbEntity
  8
ALL_ASSEMBLY_MEMBERS
100
AcDbCircle
 62
7
  6
CONTINUOUS
 10
6.0416082954
 20
6.2481954368
 40
0.0444983012
100
AcDbArc
 50
218.1643011652
 51
218.9919942108
  0
ARC
  5
396
100
AcDbEntity
  8
ALL_ASSEMBLY_MEMBERS
100
AcDbCircle
 62
7
  6
CONTINUOUS
 10
6.0396436644
 20
6.2506366815
 40
0.0428038895
100
AcDbArc
 50
219.5144346416
 51
220.3501194828
  0
ARC
  5
397
100
AcDbEntity
  8
ALL_ASSEMBLY_MEMBERS
100
AcDbCircle
 62
7
  6
CONTINUOUS
 10
6.0376130186
 20
6.2520384608
 40
0.0411170679
100
AcDbArc
 50
221.0857568375
 51
221.9283946419
  0
ARC
  5
398
100
AcDbEntity
  8
ALL_ASSEMBLY_MEMBERS
100
AcDbCircle
 62
7
  6
CONTINUOUS
 10
6.0355522882
 20
6.2524243988
 40
0.0394957388
100
AcDbArc
 50
222.9042251877
 51
223.1870265506
  0
ARC
  5
399
100
AcDbEntity
  8
ALL_ASSEMBLY_MEMBERS
100
AcDbCircle
 62
7
  6
CONTINUOUS
 10
6.0355505487
 20
6.2524229716
 40
0.0394934941
100
AcDbArc
 50
223.4696922814
 51
223.7517767136
  0
ARC
  5
39A
100
AcDbEntity
  8
ALL_ASSEMBLY_MEMBERS
100
AcDbCircle
 62
7
  6
CONTINUOUS
 10
6.0231347445
 20
6.234821357
 40
0.0394926781
100
AcDbArc
 50
245.2834876623
 51
245.9221952059
  0
ARC
  5
39B
100
AcDbEntity
  8
ALL_ASSEMBLY_MEMBERS
100
AcDbCircle
 62
7
  6
CONTINUOUS
 10
6.0355327675
 20
6.2524060961
 40
0.0394689797
100
AcDbArc
 50
223.1870478325
 51
223.4696716412
  0
ARC
  5
39C
100
AcDbEntity
  8
ALL_ASSEMBLY_MEMBERS
100
AcDbCircle
 62
7
  6
CONTINUOUS
 10
6.0335095292
 20
6.251846567
 40
0.0380248661
100
AcDbArc
 50
225.5655703748
 51
225.8479071696
  0
ARC
  5
39D
100
AcDbEntity
  8
ALL_ASSEMBLY_MEMBERS
100
AcDbCircle
 62
7
  6
CONTINUOUS
 10
6.0334562011
 20
6.2517922402
 40
0.0379487394
100
AcDbArc
 50
224.9991153587
 51
225.5656387557
  0
ARC
  5
39E
100
AcDbEntity
  8
ALL_ASSEMBLY_MEMBERS
100
AcDbCircle
 62
7
  6
CONTINUOUS
 10
6.0339228027
 20
6.2508645465
 40
0.0372399989
100
AcDbArc
 50
223.7516638316
 51
276.9507936497
  0
ARC
  5
39F
100
AcDbEntity
  8
ALL_ASSEMBLY_MEMBERS
100
AcDbCircle
 62
7
  6
CONTINUOUS
 10
6.0314586115
 20
6.2502997024
 40
0.0366959875
100
AcDbArc
 50
227.404251143
 51
228.2485294329
  0
ARC
  5
3A0
100
AcDbEntity
  8
ALL_ASSEMBLY_MEMBERS
100
AcDbCircle
 62
7
  6
CONTINUOUS
 10
6.024467315
 20
6.2378474839
 40
0.0366138718
100
AcDbArc
 50
240.8304099815
 51
241.5463114282
  0
ARC
  5
3A1
100
AcDbEntity
  8
ALL_ASSEMBLY_MEMBERS
100
AcDbCircle
 62
7
  6
CONTINUOUS
 10
6.0295020401
 20
6.2479428471
 40
0.035709602
100
AcDbArc
 50
230.1539590729
 51
230.9864721733
  0
ARC
  5
3A2
100
AcDbEntity
  8
ALL_ASSEMBLY_MEMBERS
100
AcDbCircle
 62
7
  6
CONTINUOUS
 10
6.0259775026
 20
6.2414205483
 40
0.0353828211
100
AcDbArc
 50
236.8361531009
 51
237.6081833309
  0
ARC
  5
3A3
100
AcDbEntity
  8
ALL_ASSEMBLY_MEMBERS
100
AcDbCircle
 62
7
  6
CONTINUOUS
 10
6.0276564017
 20
6.2448976386
 40
0.0351854358
100
AcDbArc
 50
233.285847514
 51
234.0960785595
  0
ARC
  5
3A4
100
AcDbEntity
  8
ALL_ASSEMBLY_MEMBERS
100
AcDbCircle
 62
7
  6
CONTINUOUS
 10
6.1332972564
 20
7.0787570286
 40
1.3194999984
100
AcDbArc
 50
272.3045935724
 51
278.8065547675
  0
ARC
  5
3A5
100
AcDbEntity
  8
ALL_ASSEMBLY_MEMBERS
100
AcDbCircle
 62
7
  6
CONTINUOUS
 10
6.1494624405
 20
6.6770821761
 40
0.917499998
100
AcDbArc
 50
263.0492078527
 51
272.3045935724
  0
ARC
  5
3A6
100
AcDbEntity
  8
ALL_ASSEMBLY_MEMBERS
100
AcDbCircle
 62
7
  6
CONTINUOUS
 10
6.9259281201
 20
5.7242024528
 40
0.3039204648
100
AcDbArc
 50
249.6970355865
 51
263.3643665393
  0
ARC
  5
3A7
100
AcDbEntity
  8
ALL_ASSEMBLY_MEMBERS
100
AcDbCircle
 62
7
  6
CONTINUOUS
 10
6.9259281201
 20
6.2560211876
 40
0.3039204648
100
AcDbArc
 50
96.6356334607
 51
110.3029644135
  0
ARC
  5
3A8
100
AcDbEntity
  8
ALL_ASSEMBLY_MEMBERS
100
AcDbCircle
 62
7
  6
CONTINUOUS
 10
6.2858147252
 20
6.3013836976
 40
0.2130000006
100
AcDbArc
 50
344.4826565545
 51
345.0296784944
  0
ARC
  5
3A9
100
AcDbEntity
  8
ALL_ASSEMBLY_MEMBERS
100
AcDbCircle
 62
7
  6
CONTINUOUS
 10
6.2858147252
 20
5.6788399427
 40
0.2130000006
100
AcDbArc
 50
14.9703215056
 51
15.5173434455
  0
ARC
  5
3AA
100
AcDbEntity
  8
ALL_ASSEMBLY_MEMBERS
100
AcDbCircle
 62
7
  6
CONTINUOUS
 10
6.9467885858
 20
6.4111829955
 40
0.1869668717
100
AcDbArc
 50
142.7092061085
 51
155.3456430447
  0
ARC
  5
3AB
100
AcDbEntity
  8
ALL_ASSEMBLY_MEMBERS
100
AcDbCircle
 62
7
  6
CONTINUOUS
 10
6.9467885858
 20
5.5690406449
 40
0.1869668717
100
AcDbArc
 50
204.6543569553
 51
217.2907938915
  0
ARC
  5
3AC
100
AcDbEntity
  8
ALL_ASSEMBLY_MEMBERS
100
AcDbCircle
 62
7
  6
CONTINUOUS
 10
6.4282972524
 20
6.3541118188
 40
0.1590000013
100
AcDbArc
 50
264.8127503334
 51
279.669738862
  0
ARC
  5
3AD
100
AcDbEntity
  8
ALL_ASSEMBLY_MEMBERS
100
AcDbCircle
 62
7
  6
CONTINUOUS
 10
6.4282972524
 20
5.6261118215
 40
0.1590000013
100
AcDbArc
 50
80.330261138
 51
95.1872496666
  0
ARC
  5
3AE
100
AcDbEntity
  8
ALL_ASSEMBLY_MEMBERS
100
AcDbCircle
 62
7
  6
CONTINUOUS
 10
6.378797253
 20
6.2755670475
 40
0.1165000011
100
AcDbArc
 50
326.140811797
 51
344.4826565545
  0
ARC
  5
3AF
100
AcDbEntity
  8
ALL_ASSEMBLY_MEMBERS
100
AcDbCircle
 62
7
  6
CONTINUOUS
 10
6.378797253
 20
5.7046565928
 40
0.1165000011
100
AcDbArc
 50
15.5173434455
 51
33.859188203
  0
ARC
  5
3B0
100
AcDbEntity
  8
ALL_ASSEMBLY_MEMBERS
100
AcDbCircle
 62
7
  6
CONTINUOUS
 10
6.8378217368
 20
6.4941658236
 40
0.05
100
AcDbArc
 50
110.3029644135
 51
142.7092061085
  0
ARC
  5
3B1
100
AcDbEntity
  8
ALL_ASSEMBLY_MEMBERS
100
AcDbCircle
 62
7
  6
CONTINUOUS
 10
6.4497972523
 20
6.2279304023
 40
0.0310000018
100
AcDbArc
 50
279.669738862
 51
326.140811797
  0
ARC
  5
3B2
100
AcDbEntity
  8
ALL_ASSEMBLY_MEMBERS
100
AcDbCircle
 62
7
  6
CONTINUOUS
 10
6.4497972523
 20
5.752293238
 40
0.0310000018
100
AcDbArc
 50
33.859188203
 51
80.330261138
  0
ARC
  5
3B3
100
AcDbEntity
  8
ALL_ASSEMBLY_MEMBERS
100
AcDbCircle
 62
7
  6
CONTINUOUS
 10
6.527297252
 20
7.4446272934
 40
1.2540000014
100
AcDbArc
 50
261.1934452325
 51
264.8127503334
  0
ARC
  5
3B4
100
AcDbEntity
  8
ALL_ASSEMBLY_MEMBERS
100
AcDbCircle
 62
7
  6
CONTINUOUS
 10
6.5408869546
 20
6.5617939238
 40
0.2444212051
100
AcDbArc
 50
308.6609554855
 51
334.1509412145
  0
ARC
  5
3B5
100
AcDbEntity
  8
ALL_ASSEMBLY_MEMBERS
100
AcDbCircle
 62
7
  6
CONTINUOUS
 10
6.5767792905
 20
6.5169303456
 40
0.1869668717
100
AcDbArc
 50
284.56496067
 51
308.6609554855
  0
SPLINE
  5
3B6
100
AcDbEntity
  8
ALL_ASSEMBLY_MEMBERS
100
AcDbSpline
 62
7
  6
CONTINUOUS
 70
0
 71
3
 72
19
 73
15
 74
0
 42
0.0000001
 43
0.0000001
 44
0.0000000001
 40
0.0
 40
0.0
 40
0.0
 40
0.0
 40
0.1177053919
 40
0.2410809277
 40
0.304661565
 40
0.3692041583
 40
0.4344276946
 40
0.5000001116
 40
0.5655725062
 40
0.6307960201
 40
0.6953385914
 40
0.7589192189
 40
0.8822946508
 40
1.0
 40
1.0
 40
1.0
 40
1.0
 10
4.198819926
 20
2.2928158613
 30
0.0
 10
4.2019134881
 20
2.2955473023
 30
0.0
 10
4.2078455859
 20
2.3016160485
 30
0.0
 10
4.214147563
 20
2.310289934
 30
0.0
 10
4.2185263557
 20
2.3179512459
 30
0.0
 10
4.2214534341
 20
2.3240727283
 30
0.0
 10
4.2239456421
 20
2.3304584948
 30
0.0
 10
4.2259740797
 20
2.3370442788
 30
0.0
 10
4.2275102918
 20
2.3437619533
 30
0.0
 10
4.2285448577
 20
2.3505382912
 30
0.0
 10
4.2290706725
 20
2.3573031879
 30
0.0
 10
4.2291091819
 20
2.3661274702
 30
0.0
 10
4.2279884514
 20
2.3767902584
 30
0.0
 10
4.2258854782
 20
2.3850119906
 30
0.0
 10
4.2245720959
 20
2.3889242675
 30
0.0
  0
SPLINE
  5
3B7
100
AcDbEntity
  8
ALL_ASSEMBLY_MEMBERS
100
AcDbSpline
 62
7
  6
CONTINUOUS
 70
0
 71
3
 72
9
 73
5
 74
0
 42
0.0000001
 43
0.0000001
 44
0.0000000001
 40
0.0
 40
0.0
 40
0.0
 40
0.0
 40
0.5000003223
 40
1.0
 40
1.0
 40
1.0
 40
1.0
 10
4.1970146277
 20
2.2932995895
 30
0.0
 10
4.2092562005
 20
2.3053059855
 30
0.0
 10
4.2267391776
 20
2.3368392745
 30
0.0
 10
4.2273651066
 20
2.3728893867
 30
0.0
 10
4.2227667975
 20
2.3894079957
 30
0.0
  0
SPLINE
  5
3B8
100
AcDbEntity
  8
ALL_ASSEMBLY_MEMBERS
100
AcDbSpline
 62
7
  6
CONTINUOUS
 70
0
 71
3
 72
15
 73
11
 74
0
 42
0.0000001
 43
0.0000001
 44
0.0000000001
 40
0.0
 40
0.0
 40
0.0
 40
0.0
 40
0.2367281257
 40
0.3008942434
 40
0.3664578747
 40
0.5000003312
 40
0.6335426929
 40
0.6991062259
 40
0.7632722362
 40
1.0
 40
1.0
 40
1.0
 40
1.0
 10
4.1916185119
 20
2.2947454743
 30
0.0
 10
4.1970551437
 20
2.3007700782
 30
0.0
 10
4.2029576394
 20
2.3093993647
 30
0.0
 10
4.2085531782
 20
2.320644332
 30
0.0
 10
4.2121038178
 20
2.3289477516
 30
0.0
 10
4.2156780247
 20
2.3398031192
 30
0.0
 10
4.2180103496
 20
2.3509912444
 30
0.0
 10
4.2190871091
 20
2.3599575268
 30
0.0
 10
4.2198637069
 20
2.3724937045
 30
0.0
 10
4.2190666385
 20
2.3829181168
 30
0.0
 10
4.2173706818
 20
2.3908538806
 30
0.0
  0
SPLINE
  5
3B9
100
AcDbEntity
  8
ALL_ASSEMBLY_MEMBERS
100
AcDbSpline
 62
7
  6
CONTINUOUS
 70
0
 71
3
 72
17
 73
13
 74
0
 42
0.0000001
 43
0.0000001
 44
0.0000000001
 40
0.0
 40
0.0
 40
0.0
 40
0.0
 40
0.11256106
 40
0.1726448111
 40
0.2350154664
 40
0.365299598
 40
0.5000003357
 40
0.6347009766
 40
0.7649848985
 40
0.8273554441
 40
0.8874391035
 40
1.0
 40
1.0
 40
1.0
 40
1.0
 10
4.1826906997
 20
2.2971376744
 30
0.0
 10
4.1850482708
 20
2.3001478327
 30
0.0
 10
4.1883969038
 20
2.3049804212
 30
0.0
 10
4.1924294673
 20
2.3118725442
 30
0.0
 10
4.1963847272
 20
2.319496185
 30
0.0
 10
4.2007582322
 20
2.3297403416
 30
0.0
 10
4.2048883369
 20
2.3426942073
 30
0.0
 10
4.2077884884
 20
2.3559776304
 30
0.0
 10
4.2091229931
 20
2.3670360693
 30
0.0
 10
4.2095094553
 20
2.375615952
 30
0.0
 10
4.2094632127
 20
2.3836009749
 30
0.0
 10
4.2089795061
 20
2.3894604271
 30
0.0
 10
4.2084428695
 20
2.3932460807
 30
0.0
  0
SPLINE
  5
3BA
100
AcDbEntity
  8
ALL_ASSEMBLY_MEMBERS
100
AcDbSpline
 62
7
  6
CONTINUOUS
 70
0
 71
3
 72
21
 73
17
 74
0
 42
0.0000001
 43
0.0000001
 44
0.0000000001
 40
0.0
 40
0.0
 40
0.0
 40
0.0
 40
0.0540663898
 40
0.111070841
 40
0.170872747
 40
0.2332353293
 40
0.2978184167
 40
0.3641788591
 40
0.500000339
 40
0.6358217205
 40
0.7021820606
 40
0.7667650365
 40
0.8291275078
 40
0.8889293214
 40
0.9459336709
 40
1.0
 40
1.0
 40
1.0
 40
1.0
 10
4.170329006
 20
2.3004499803
 30
0.0
 10
4.1713360337
 20
2.3019667376
 30
0.0
 10
4.1733299468
 20
2.3051329417
 30
0.0
 10
4.1761769392
 20
2.3101351491
 30
0.0
 10
4.178936047
 20
2.3155026035
 30
0.0
 10
4.1815803268
 20
2.3212099718
 30
0.0
 10
4.1840814068
 20
2.3272215134
 30
0.0
 10
4.1872100325
 20
2.3356440635
 30
0.0
 10
4.1905628377
 20
2.3465327132
 30
0.0
 10
4.1931035445
 20
2.3576389603
 30
0.0
 10
4.1946053453
 20
2.3664974057
 30
0.0
 10
4.1954451137
 20
2.3729540829
 30
0.0
 10
4.1960087822
 20
2.3792189382
 30
0.0
 10
4.1963030503
 20
2.3852468338
 30
0.0
 10
4.1963385859
 20
2.39100236
 30
0.0
 10
4.1961949086
 20
2.3947413243
 30
0.0
 10
4.1960811758
 20
2.3965583865
 30
0.0
  0
SPLINE
  5
3BB
100
AcDbEntity
  8
ALL_ASSEMBLY_MEMBERS
100
AcDbSpline
 62
7
  6
CONTINUOUS
 70
0
 71
3
 72
23
 73
19
 74
0
 42
0.0000001
 43
0.0000001
 44
0.0000000001
 40
0.0
 40
0.0
 40
0.0
 40
0.0
 40
0.0532808145
 40
0.1098243001
 40
0.1694190389
 40
0.2317754747
 40
0.2965478538
 40
0.3632404441
 40
0.4312770845
 40
0.5000001146
 40
0.5687231206
 40
0.6367597356
 40
0.7034523004
 40
0.7682246672
 40
0.8305810553
 40
0.8901757381
 40
0.9467191946
 40
1.0
 40
1.0
 40
1.0
 40
1.0
 10
4.154668868
 20
2.3046461016
 30
0.0
 10
4.1555228801
 20
2.3062094184
 30
0.0
 10
4.1572239599
 20
2.3094644203
 30
0.0
 10
4.1596796362
 20
2.3145697652
 30
0.0
 10
4.1620952423
 20
2.3200278077
 30
0.0
 10
4.1644496272
 20
2.3258106614
 30
0.0
 10
4.1667183557
 20
2.3318816385
 30
0.0
 10
4.1688783554
 20
2.3381931912
 30
0.0
 10
4.1709031818
 20
2.3446878739
 30
0.0
 10
4.1727709971
 20
2.3513000015
 30
0.0
 10
4.1744594848
 20
2.3579601789
 30
0.0
 10
4.1759532739
 20
2.36459715
 30
0.0
 10
4.1772384345
 20
2.3711431129
 30
0.0
 10
4.1783091459
 20
2.3775350947
 30
0.0
 10
4.1791616148
 20
2.3837203815
 30
0.0
 10
4.179798659
 20
2.3896549836
 30
0.0
 10
4.1802246531
 20
2.395304177
 30
0.0
 10
4.1803789756
 20
2.39897363
 30
0.0
 10
4.1804210379
 20
2.4007545078
 30
0.0
  0
SPLINE
  5
3BC
100
AcDbEntity
  8
ALL_ASSEMBLY_MEMBERS
100
AcDbSpline
 62
7
  6
CONTINUOUS
 70
0
 71
3
 72
15
 73
11
 74
0
 42
0.0000001
 43
0.0000001
 44
0.0000000001
 40
0.0
 40
0.0
 40
0.0
 40
0.0
 40
0.1089319683
 40
0.2307305431
 40
0.3625794945
 40
0.5000003435
 40
0.6374210917
 40
0.7692698239
 40
0.8910681925
 40
1.0
 40
1.0
 40
1.0
 40
1.0
 10
4.1358818617
 20
2.3096800648
 30
0.0
 10
4.1373179021
 20
2.3130067618
 30
0.0
 10
4.1401939318
 20
2.3201251614
 30
0.0
 10
4.1442799868
 20
2.3314750141
 30
0.0
 10
4.1482579003
 20
2.343862665
 30
0.0
 10
4.1519695737
 20
2.356873747
 30
0.0
 10
4.1552607081
 20
2.3699975046
 30
0.0
 10
4.1580095535
 20
2.3827144651
 30
0.0
 10
4.160145848
 20
2.3945867343
 30
0.0
 10
4.1612143312
 20
2.402189452
 30
0.0
 10
4.1616340315
 20
2.405788471
 30
0.0
  0
SPLINE
  5
3BD
100
AcDbEntity
  8
ALL_ASSEMBLY_MEMBERS
100
AcDbSpline
 62
7
  6
CONTINUOUS
 70
0
 71
3
 72
15
 73
11
 74
0
 42
0.0000001
 43
0.0000001
 44
0.0000000001
 40
0.0
 40
0.0
 40
0.0
 40
0.0
 40
0.108470174
 40
0.2301934133
 40
0.3622396717
 40
0.5000003445
 40
0.637760916
 40
0.769806954
 40
0.8915299864
 40
1.0
 40
1.0
 40
1.0
 40
1.0
 10
4.1141738213
 20
2.3154967167
 30
0.0
 10
4.1152745756
 20
2.3189229651
 30
0.0
 10
4.1175521847
 20
2.3262129044
 30
0.0
 10
4.1209873119
 20
2.3377298675
 30
0.0
 10
4.1245543354
 20
2.3502206525
 30
0.0
 10
4.1281243637
 20
2.3632630518
 30
0.0
 10
4.1315538259
 20
2.3763431081
 30
0.0
 10
4.1347100804
 20
2.3889439402
 30
0.0
 10
4.1374936497
 20
2.4006354674
 30
0.0
 10
4.1391661492
 20
2.4080875328
 30
0.0
 10
4.1399259911
 20
2.4116051229
 30
0.0
  0
SPLINE
  5
3BE
100
AcDbEntity
  8
ALL_ASSEMBLY_MEMBERS
100
AcDbSpline
 62
7
  6
CONTINUOUS
 70
0
 71
3
 72
15
 73
11
 74
0
 42
0.0000001
 43
0.0000001
 44
0.0000000001
 40
0.0
 40
0.0
 40
0.0
 40
0.0
 40
0.1084680939
 40
0.230190187
 40
0.3622368102
 40
0.4999996283
 40
0.637762593
 40
0.769809429
 40
0.8915317348
 40
1.0
 40
1.0
 40
1.0
 40
1.0
 10
3.6501222339
 20
2.5428476441
 30
0.0
 10
3.6490215007
 20
2.5394214614
 30
0.0
 10
3.646743922
 20
2.5321316247
 30
0.0
 10
3.6433088207
 20
2.520614753
 30
0.0
 10
3.6397417844
 20
2.5081239246
 30
0.0
 10
3.6361716995
 20
2.4950813721
 30
0.0
 10
3.6327422048
 20
2.4820011413
 30
0.0
 10
3.6295859298
 20
2.4694002301
 30
0.0
 10
3.6268023739
 20
2.4577087568
 30
0.0
 10
3.6251298937
 20
2.4502567713
 30
0.0
 10
3.6243700641
 20
2.4467392379
 30
0.0
  0
SPLINE
  5
3BF
100
AcDbEntity
  8
ALL_ASSEMBLY_MEMBERS
100
AcDbSpline
 62
7
  6
CONTINUOUS
 70
0
 71
3
 72
15
 73
11
 74
0
 42
0.0000001
 43
0.0000001
 44
0.0000000001
 40
0.0
 40
0.0
 40
0.0
 40
0.0
 40
0.1089298845
 40
0.2307273164
 40
0.3625766366
 40
0.4999996294
 40
0.637422768
 40
0.7692723001
 40
0.891069944
 40
1.0
 40
1.0
 40
1.0
 40
1.0
 10
3.6284141935
 20
2.548664296
 30
0.0
 10
3.6269781805
 20
2.5453376626
 30
0.0
 10
3.6241021867
 20
2.5382193644
 30
0.0
 10
3.6200161604
 20
2.5268696024
 30
0.0
 10
3.6160382319
 20
2.5144819089
 30
0.0
 10
3.6123264729
 20
2.5014706813
 30
0.0
 10
3.6090353326
 20
2.488346742
 30
0.0
 10
3.6062864681
 20
2.4756297022
 30
0.0
 10
3.6041501847
 20
2.4637574875
 30
0.0
 10
3.6030817173
 20
2.4561548509
 30
0.0
 10
3.6026620237
 20
2.4525558898
 30
0.0
  0
SPLINE
  5
3C0
100
AcDbEntity
  8
ALL_ASSEMBLY_MEMBERS
100
AcDbSpline
 62
7
  6
CONTINUOUS
 70
0
 71
3
 72
23
 73
19
 74
0
 42
0.0000001
 43
0.0000001
 44
0.0000000001
 40
0.0
 40
0.0
 40
0.0
 40
0.0
 40
0.0532807595
 40
0.109824181
 40
0.1694189516
 40
0.2317754309
 40
0.2965477775
 40
0.3632402898
 40
0.4312768783
 40
0.4999998852
 40
0.5687229163
 40
0.6367595305
 40
0.7034520678
 40
0.7682244267
 40
0.8305809542
 40
0.8901757814
 40
0.9467192317
 40
1.0
 40
1.0
 40
1.0
 40
1.0
 10
3.6096271872
 20
2.5536982592
 30
0.0
 10
3.608773176
 20
2.552134944
 30
0.0
 10
3.6070720973
 20
2.5488799459
 30
0.0
 10
3.6046164223
 20
2.5437746037
 30
0.0
 10
3.602200817
 20
2.5383165604
 30
0.0
 10
3.5998464306
 20
2.5325337058
 30
0.0
 10
3.5975777021
 20
2.5264627311
 30
0.0
 10
3.5954177044
 20
2.5201511834
 30
0.0
 10
3.593392879
 20
2.5136565058
 30
0.0
 10
3.5915250636
 20
2.50704438
 30
0.0
 10
3.5898365756
 20
2.5003842026
 30
0.0
 10
3.588342786
 20
2.4937472318
 30
0.0
 10
3.5870576239
 20
2.4872012704
 30
0.0
 10
3.5859869124
 20
2.480809285
 30
0.0
 10
3.5851344427
 20
2.474623989
 30
0.0
 10
3.5844973958
 20
2.4686893778
 30
0.0
 10
3.5840714014
 20
2.4630401811
 30
0.0
 10
3.5839170796
 20
2.4593707295
 30
0.0
 10
3.5838750173
 20
2.4575898529
 30
0.0
  0
SPLINE
  5
3C1
100
AcDbEntity
  8
ALL_ASSEMBLY_MEMBERS
100
AcDbSpline
 62
7
  6
CONTINUOUS
 70
0
 71
3
 72
21
 73
17
 74
0
 42
0.0000001
 43
0.0000001
 44
0.0000000001
 40
0.0
 40
0.0
 40
0.0
 40
0.0
 40
0.0540647483
 40
0.1110687389
 40
0.1708696502
 40
0.2332321002
 40
0.2978152245
 40
0.3641760161
 40
0.499999634
 40
0.6358233945
 40
0.7021842885
 40
0.766767518
 40
0.8291300831
 40
0.8889310879
 40
0.9459351912
 40
1.0
 40
1.0
 40
1.0
 40
1.0
 10
3.5939670492
 20
2.5578943805
 30
0.0
 10
3.5929600521
 20
2.5563776692
 30
0.0
 10
3.5909661779
 20
2.5532115247
 30
0.0
 10
3.5881192236
 20
2.5482094158
 30
0.0
 10
3.5853601408
 20
2.5428420088
 30
0.0
 10
3.5827158652
 20
2.5371346793
 30
0.0
 10
3.5802147839
 20
2.5311231291
 30
0.0
 10
3.5770861069
 20
2.5227005085
 30
0.0
 10
3.5737331783
 20
2.5118117236
 30
0.0
 10
3.5711925014
 20
2.5007052926
 30
0.0
 10
3.5696907016
 20
2.4918467393
 30
0.0
 10
3.5688509232
 20
2.4853900329
 30
0.0
 10
3.5682872661
 20
2.4791251924
 30
0.0
 10
3.5679929964
 20
2.4730973294
 30
0.0
 10
3.5679574764
 20
2.4673418899
 30
0.0
 10
3.5681011498
 20
2.4636029853
 30
0.0
 10
3.5682148794
 20
2.4617859742
 30
0.0
  0
SPLINE
  5
3C2
100
AcDbEntity
  8
ALL_ASSEMBLY_MEMBERS
100
AcDbSpline
 62
7
  6
CONTINUOUS
 70
0
 71
3
 72
17
 73
13
 74
0
 42
0.0000001
 43
0.0000001
 44
0.0000000001
 40
0.0
 40
0.0
 40
0.0
 40
0.0
 40
0.1125589463
 40
0.1726417036
 40
0.2350122349
 40
0.3652967675
 40
0.4999996373
 40
0.6347026474
 40
0.7649873846
 40
0.8273580297
 40
0.8874408794
 40
1.0
 40
1.0
 40
1.0
 40
1.0
 10
3.5816053555
 20
2.5612066863
 30
0.0
 10
3.5792478288
 20
2.5581965847
 30
0.0
 10
3.5758992461
 20
2.5533640904
 30
0.0
 10
3.5718667359
 20
2.5464720639
 30
0.0
 10
3.5679114712
 20
2.5388484527
 30
0.0
 10
3.5635379371
 20
2.528604223
 30
0.0
 10
3.5594076619
 20
2.5156502342
 30
0.0
 10
3.5565075821
 20
2.5023666078
 30
0.0
 10
3.5551730547
 20
2.4913080623
 30
0.0
 10
3.5547866057
 20
2.4827281752
 30
0.0
 10
3.5548328467
 20
2.4747432371
 30
0.0
 10
3.5553165576
 20
2.4688838738
 30
0.0
 10
3.5558531857
 20
2.4650982801
 30
0.0
  0
SPLINE
  5
3C3
100
AcDbEntity
  8
ALL_ASSEMBLY_MEMBERS
100
AcDbSpline
 62
7
  6
CONTINUOUS
 70
0
 71
3
 72
15
 73
11
 74
0
 42
0.0000001
 43
0.0000001
 44
0.0000000001
 40
0.0
 40
0.0
 40
0.0
 40
0.0
 40
0.2367248972
 40
0.3008910586
 40
0.3664550568
 40
0.499999642
 40
0.6335443647
 40
0.6991084626
 40
0.7632747258
 40
1.0
 40
1.0
 40
1.0
 40
1.0
 10
3.5726775433
 20
2.5635988864
 30
0.0
 10
3.5672409858
 20
2.557574365
 30
0.0
 10
3.5613385356
 20
2.548945183
 30
0.0
 10
3.5557430407
 20
2.537700302
 30
0.0
 10
3.5521923361
 20
2.5293968179
 30
0.0
 10
3.548617962
 20
2.5185413257
 30
0.0
 10
3.5462857063
 20
2.5073530045
 30
0.0
 10
3.5452089613
 20
2.4983866128
 30
0.0
 10
3.544432355
 20
2.4858504933
 30
0.0
 10
3.5452294346
 20
2.4754261601
 30
0.0
 10
3.5469253734
 20
2.4674904802
 30
0.0
  0
SPLINE
  5
3C4
100
AcDbEntity
  8
ALL_ASSEMBLY_MEMBERS
100
AcDbSpline
 62
7
  6
CONTINUOUS
 70
0
 71
3
 72
9
 73
5
 74
0
 42
0.0000001
 43
0.0000001
 44
0.0000000001
 40
0.0
 40
0.0
 40
0.0
 40
0.0
 40
0.4999996523
 40
1.0
 40
1.0
 40
1.0
 40
1.0
 10
3.5672814275
 20
2.5650447713
 30
0.0
 10
3.5550398685
 20
2.5530383888
 30
0.0
 10
3.5375568023
 20
2.5215051365
 30
0.0
 10
3.5369309414
 20
2.4854549998
 30
0.0
 10
3.5415292576
 20
2.468936365
 30
0.0
  0
SPLINE
  5
3C5
100
AcDbEntity
  8
ALL_ASSEMBLY_MEMBERS
100
AcDbSpline
 62
7
  6
CONTINUOUS
 70
0
 71
3
 72
19
 73
15
 74
0
 42
0.0000001
 43
0.0000001
 44
0.0000000001
 40
0.0
 40
0.0
 40
0.0
 40
0.0
 40
0.1177052716
 40
0.2410808908
 40
0.3046614989
 40
0.3692040141
 40
0.4344274976
 40
0.4999998883
 40
0.5655723017
 40
0.6307958077
 40
0.6953383446
 40
0.7589189623
 40
0.8822946865
 40
1.0
 40
1.0
 40
1.0
 40
1.0
 10
3.5654761292
 20
2.5655284995
 30
0.0
 10
3.5623825703
 20
2.5627970613
 30
0.0
 10
3.5564504715
 20
2.5567283177
 30
0.0
 10
3.550148498
 20
2.5480544324
 30
0.0
 10
3.545769702
 20
2.5403931234
 30
0.0
 10
3.5428426271
 20
2.5342716455
 30
0.0
 10
3.5403504195
 20
2.5278858848
 30
0.0
 10
3.5383219812
 20
2.5213001033
 30
0.0
 10
3.5367857682
 20
2.5145824294
 30
0.0
 10
3.5357512009
 20
2.5078060926
 30
0.0
 10
3.5352253811
 20
2.5010411981
 30
0.0
 10
3.5351868743
 20
2.492216907
 30
0.0
 10
3.5363075999
 20
2.4815541097
 30
0.0
 10
3.5384105774
 20
2.473332369
 30
0.0
 10
3.5397239593
 20
2.4694200933
 30
0.0
  0
SPLINE
  5
3C6
100
AcDbEntity
  8
ALL_ASSEMBLY_MEMBERS
100
AcDbSpline
 62
7
  6
CONTINUOUS
 70
0
 71
3
 72
23
 73
19
 74
0
 42
0.0000001
 43
0.0000001
 44
0.0000000001
 40
0.0
 40
0.0
 40
0.0
 40
0.0
 40
0.0624739618
 40
0.1249560519
 40
0.1874444683
 40
0.2499417625
 40
0.3124474378
 40
0.3749606017
 40
0.4374788333
 40
0.4999996647
 40
0.5625205344
 40
0.6250388488
 40
0.6875521017
 40
0.7500578662
 40
0.8125552624
 40
0.8750437633
 40
0.9375259713
 40
1.0
 40
1.0
 40
1.0
 40
1.0
 10
4.1399259911
 20
2.4116051229
 30
0.0
 10
4.1410099498
 20
2.4095776863
 30
0.0
 10
4.1430216277
 20
2.4054363511
 30
0.0
 10
4.1455174926
 20
2.3989973483
 30
0.0
 10
4.1474441625
 20
2.3923634423
 30
0.0
 10
4.148755912
 20
2.3855794004
 30
0.0
 10
4.1494130799
 20
2.3786992262
 30
0.0
 10
4.1493851307
 20
2.3717863163
 30
0.0
 10
4.148653596
 20
2.3649110749
 30
0.0
 10
4.1472144202
 20
2.3581478915
 30
0.0
 10
4.1450792011
 20
2.3515712084
 30
0.0
 10
4.1422751084
 20
2.3452512985
 30
0.0
 10
4.1388428563
 20
2.3392505583
 30
0.0
 10
4.1348336431
 20
2.3336207254
 30
0.0
 10
4.1303056096
 20
2.3284014376
 30
0.0
 10
4.1253201057
 20
2.3236196313
 30
0.0
 10
4.1199391145
 20
2.319291217
 30
0.0
 10
4.1161262774
 20
2.3167105502
 30
0.0
 10
4.1141738213
 20
2.3154967167
 30
0.0
  0
SPLINE
  5
3C7
100
AcDbEntity
  8
ALL_ASSEMBLY_MEMBERS
100
AcDbSpline
 62
7
  6
CONTINUOUS
 70
0
 71
3
 72
15
 73
11
 74
0
 42
0.0000001
 43
0.0000001
 44
0.0000000001
 40
0.0
 40
0.0
 40
0.0
 40
0.0
 40
0.108470174
 40
0.2301934133
 40
0.3622396717
 40
0.5000003445
 40
0.637760916
 40
0.769806954
 40
0.8915299864
 40
1.0
 40
1.0
 40
1.0
 40
1.0
 10
4.0897825846
 20
2.3220323288
 30
0.0
 10
4.0905424276
 20
2.3255499242
 30
0.0
 10
4.0922149299
 20
2.3330020014
 30
0.0
 10
4.094998504
 20
2.3446935475
 30
0.0
 10
4.0981547635
 20
2.3572943964
 30
0.0
 10
4.1015842281
 20
2.3703744597
 30
0.0
 10
4.1051542548
 20
2.3834168518
 30
0.0
 10
4.1087212742
 20
2.3959076198
 30
0.0
 10
4.1121563962
 20
2.4074245641
 30
0.0
 10
4.1144340017
 20
2.4147144917
 30
0.0
 10
4.1155347545
 20
2.4181407351
 30
0.0
  0
SPLINE
  5
3C8
100
AcDbEntity
  8
ALL_ASSEMBLY_MEMBERS
100
AcDbSpline
 62
7
  6
CONTINUOUS
 70
0
 71
3
 72
23
 73
19
 74
0
 42
0.0000001
 43
0.0000001
 44
0.0000000001
 40
0.0
 40
0.0
 40
0.0
 40
0.0
 40
0.0624739618
 40
0.1249560519
 40
0.1874444683
 40
0.2499417625
 40
0.3124474378
 40
0.3749606017
 40
0.4374788333
 40
0.4999996647
 40
0.5625205344
 40
0.6250388488
 40
0.6875521017
 40
0.7500578662
 40
0.8125552624
 40
0.8750437633
 40
0.9375259713
 40
1.0
 40
1.0
 40
1.0
 40
1.0
 10
4.1155347545
 20
2.4181407351
 30
0.0
 10
4.1166187131
 20
2.4161132985
 30
0.0
 10
4.1186303911
 20
2.4119719633
 30
0.0
 10
4.1211262559
 20
2.4055329604
 30
0.0
 10
4.1230529259
 20
2.3988990545
 30
0.0
 10
4.1243646754
 20
2.3921150125
 30
0.0
 10
4.1250218433
 20
2.3852348384
 30
0.0
 10
4.124993894
 20
2.3783219285
 30
0.0
 10
4.1242623593
 20
2.3714466871
 30
0.0
 10
4.1228231836
 20
2.3646835037
 30
0.0
 10
4.1206879645
 20
2.3581068205
 30
0.0
 10
4.1178838718
 20
2.3517869106
 30
0.0
 10
4.1144516197
 20
2.3457861705
 30
0.0
 10
4.1104424065
 20
2.3401563376
 30
0.0
 10
4.105914373
 20
2.3349370498
 30
0.0
 10
4.1009288691
 20
2.3301552435
 30
0.0
 10
4.0955478779
 20
2.3258268292
 30
0.0
 10
4.0917350407
 20
2.3232461624
 30
0.0
 10
4.0897825846
 20
2.3220323288
 30
0.0
  0
SPLINE
  5
3C9
100
AcDbEntity
  8
ALL_ASSEMBLY_MEMBERS
100
AcDbSpline
 62
7
  6
CONTINUOUS
 70
0
 71
3
 72
15
 73
11
 74
0
 42
0.0000001
 43
0.0000001
 44
0.0000000001
 40
0.0
 40
0.0
 40
0.0
 40
0.0
 40
0.1089319683
 40
0.2307305431
 40
0.3625794945
 40
0.5000003435
 40
0.6374210917
 40
0.7692698239
 40
0.8910681925
 40
1.0
 40
1.0
 40
1.0
 40
1.0
 10
4.0629753872
 20
2.3292152957
 30
0.0
 10
4.0633950882
 20
2.3328143201
 30
0.0
 10
4.0644635732
 20
2.3404170498
 30
0.0
 10
4.0665998722
 20
2.352289338
 30
0.0
 10
4.0693487235
 20
2.3650063152
 30
0.0
 10
4.072639861
 20
2.3781300795
 30
0.0
 10
4.0763515339
 20
2.3911411541
 30
0.0
 10
4.0803294442
 20
2.4035287877
 30
0.0
 10
4.0844154934
 20
2.4148786217
 30
0.0
 10
4.0872915187
 20
2.4219970099
 30
0.0
 10
4.0887275571
 20
2.425323702
 30
0.0
  0
SPLINE
  5
3CA
100
AcDbEntity
  8
ALL_ASSEMBLY_MEMBERS
100
AcDbSpline
 62
7
  6
CONTINUOUS
 70
0
 71
3
 72
23
 73
19
 74
0
 42
0.0000001
 43
0.0000001
 44
0.0000000001
 40
0.0
 40
0.0
 40
0.0
 40
0.0
 40
0.0623049202
 40
0.1246728764
 40
0.18710208
 40
0.2495926531
 40
0.3121388363
 40
0.374731457
 40
0.4373569929
 40
0.499999664
 40
0.5626423736
 40
0.6252679927
 40
0.6878607027
 40
0.7504069755
 40
0.8128976508
 40
0.8753269391
 40
0.937695013
 40
1.0
 40
1.0
 40
1.0
 40
1.0
 10
4.0887275571
 20
2.425323702
 30
0.0
 10
4.0897953444
 20
2.4232998459
 30
0.0
 10
4.0917758537
 20
2.4191651486
 30
0.0
 10
4.0942283273
 20
2.4127376132
 30
0.0
 10
4.0961168382
 20
2.4061139076
 30
0.0
 10
4.0973962868
 20
2.3993386743
 30
0.0
 10
4.098027616
 20
2.3924657844
 30
0.0
 10
4.0979808337
 20
2.385558488
 30
0.0
 10
4.0972379034
 20
2.3786870362
 30
0.0
 10
4.0957950415
 20
2.3719256725
 30
0.0
 10
4.0936639244
 20
2.3653487223
 30
0.0
 10
4.0908715954
 20
2.3590263965
 30
0.0
 10
4.08745846
 20
2.3530211012
 30
0.0
 10
4.0834752658
 20
2.3473846573
 30
0.0
 10
4.0789796101
 20
2.3421568476
 30
0.0
 10
4.0740322531
 20
2.3373647955
 30
0.0
 10
4.0686945736
 20
2.3330246166
 30
0.0
 10
4.0649120483
 20
2.3304341142
 30
0.0
 10
4.0629753872
 20
2.3292152957
 30
0.0
  0
SPLINE
  5
3CB
100
AcDbEntity
  8
ALL_ASSEMBLY_MEMBERS
100
AcDbSpline
 62
7
  6
CONTINUOUS
 70
0
 71
3
 72
23
 73
19
 74
0
 42
0.0000001
 43
0.0000001
 44
0.0000000001
 40
0.0
 40
0.0
 40
0.0
 40
0.0
 40
0.0532808614
 40
0.1098244357
 40
0.1694192598
 40
0.2317757402
 40
0.2965480891
 40
0.3632406461
 40
0.4312771908
 40
0.5000001116
 40
0.5687230082
 40
0.6367595269
 40
0.7034520585
 40
0.7682243946
 40
0.8305808286
 40
0.890175599
 40
0.9467191465
 40
1.0
 40
1.0
 40
1.0
 40
1.0
 10
4.0340459344
 20
2.3369669193
 30
0.0
 10
4.0340879967
 20
2.3387477989
 30
0.0
 10
4.03424232
 20
2.3424172577
 30
0.0
 10
4.034668315
 20
2.3480664616
 30
0.0
 10
4.0353053611
 20
2.3540010753
 30
0.0
 10
4.0361578321
 20
2.3601863692
 30
0.0
 10
4.0372285444
 20
2.3665783531
 30
0.0
 10
4.0385137064
 20
2.3731243124
 30
0.0
 10
4.0400074942
 20
2.3797612782
 30
0.0
 10
4.041695981
 20
2.3864214459
 30
0.0
 10
4.0435637925
 20
2.3930335627
 30
0.0
 10
4.045588617
 20
2.399528235
 30
0.0
 10
4.0477486137
 20
2.4058397808
 30
0.0
 10
4.0500173409
 20
2.4119107547
 30
0.0
 10
4.052371725
 20
2.4176936082
 30
0.0
 10
4.0547873324
 20
2.4231516535
 30
0.0
 10
4.0572430106
 20
2.4282570024
 30
0.0
 10
4.0589440915
 20
2.4315120075
 30
0.0
 10
4.0597981042
 20
2.4330753255
 30
0.0
  0
SPLINE
  5
3CC
100
AcDbEntity
  8
ALL_ASSEMBLY_MEMBERS
100
AcDbSpline
 62
7
  6
CONTINUOUS
 70
0
 71
3
 72
15
 73
11
 74
0
 42
0.0000001
 43
0.0000001
 44
0.0000000001
 40
0.0
 40
0.0
 40
0.0
 40
0.0
 40
0.1241443485
 40
0.2489472061
 40
0.3743073868
 40
0.4999998884
 40
0.6256924305
 40
0.7510526358
 40
0.8758556019
 40
1.0
 40
1.0
 40
1.0
 40
1.0
 10
4.0597981042
 20
2.4330753255
 30
0.0
 10
4.0618705084
 20
2.4290394528
 30
0.0
 10
4.0654049095
 20
2.4206050213
 30
0.0
 10
4.0684680829
 20
2.4071998472
 30
0.0
 10
4.0689836934
 20
2.3933869875
 30
0.0
 10
4.0667643429
 20
2.3797043991
 30
0.0
 10
4.0618450661
 20
2.3667452524
 30
0.0
 10
4.0544921045
 20
2.3550407626
 30
0.0
 10
4.0451367281
 20
2.3449631218
 30
0.0
 10
4.037858627
 20
2.3394258864
 30
0.0
 10
4.0340459344
 20
2.3369669193
 30
0.0
  0
SPLINE
  5
3CD
100
AcDbEntity
  8
ALL_ASSEMBLY_MEMBERS
100
AcDbSpline
 62
7
  6
CONTINUOUS
 70
0
 71
3
 72
21
 73
17
 74
0
 42
0.0000001
 43
0.0000001
 44
0.0000000001
 40
0.0
 40
0.0
 40
0.0
 40
0.0
 40
0.0540663898
 40
0.111070841
 40
0.170872747
 40
0.2332353293
 40
0.2978184167
 40
0.3641788591
 40
0.500000339
 40
0.6358217205
 40
0.7021820606
 40
0.7667650365
 40
0.8291275078
 40
0.8889293214
 40
0.9459336709
 40
1.0
 40
1.0
 40
1.0
 40
1.0
 10
4.0033111832
 20
2.345202271
 30
0.0
 10
4.0031974503
 20
2.3470193353
 30
0.0
 10
4.0030537729
 20
2.350758305
 30
0.0
 10
4.0030893089
 20
2.3565138399
 30
0.0
 10
4.0033835786
 20
2.3625417457
 30
0.0
 10
4.0039472492
 20
2.3688066115
 30
0.0
 10
4.0047870212
 20
2.3752632992
 30
0.0
 10
4.006288827
 20
2.3841217544
 30
0.0
 10
4.0088295373
 20
2.3952280042
 30
0.0
 10
4.0121823443
 20
2.4061166498
 30
0.0
 10
4.0153109693
 20
2.4145391889
 30
0.0
 10
4.0178120471
 20
2.4205507196
 30
0.0
 10
4.0204563236
 20
2.4262580777
 30
0.0
 10
4.0232154277
 20
2.4316255225
 30
0.0
 10
4.0260624161
 20
2.4366277223
 30
0.0
 10
4.0280563264
 20
2.4397939216
 30
0.0
 10
4.029063353
 20
2.4413106773
 30
0.0
  0
SPLINE
  5
3CE
100
AcDbEntity
  8
ALL_ASSEMBLY_MEMBERS
100
AcDbSpline
 62
7
  6
CONTINUOUS
 70
0
 71
3
 72
23
 73
19
 74
0
 42
0.0000001
 43
0.0000001
 44
0.0000000001
 40
0.0
 40
0.0
 40
0.0
 40
0.0
 40
0.0614730076
 40
0.1232815055
 40
0.185422333
 40
0.2478822953
 40
0.3106287011
 40
0.3736111418
 40
0.4367616344
 40
0.4999996608
 40
0.5632377267
 40
0.6263883039
 40
0.6893708353
 40
0.7521173323
 40
0.8145773982
 40
0.8767183112
 40
0.9385269263
 40
1.0
 40
1.0
 40
1.0
 40
1.0
 10
4.029063353
 20
2.4413106773
 30
0.0
 10
4.0300510116
 20
2.4393044712
 30
0.0
 10
4.0318770335
 20
2.4352025826
 30
0.0
 10
4.0341149225
 20
2.4288318844
 30
0.0
 10
4.0358147784
 20
2.4222587452
 30
0.0
 10
4.0369345939
 20
2.4155271603
 30
0.0
 10
4.0374382779
 20
2.4086903189
 30
0.0
 10
4.037298489
 20
2.4018107358
 30
0.0
 10
4.0364992846
 20
2.3949579171
 30
0.0
 10
4.0350381998
 20
2.3882054191
 30
0.0
 10
4.0329272965
 20
2.3816270356
 30
0.0
 10
4.0301930186
 20
2.3752927095
 30
0.0
 10
4.0268742859
 20
2.3692649114
 30
0.0
 10
4.02301966
 20
2.3635958639
 30
0.0
 10
4.0186840748
 20
2.3583260382
 30
0.0
 10
4.0139253813
 20
2.3534834504
 30
0.0
 10
4.0088019564
 20
2.3490852016
 30
0.0
 10
4.0051696256
 20
2.3464458685
 30
0.0
 10
4.0033111832
 20
2.345202271
 30
0.0
  0
SPLINE
  5
3CF
100
AcDbEntity
  8
ALL_ASSEMBLY_MEMBERS
100
AcDbSpline
 62
7
  6
CONTINUOUS
 70
0
 71
3
 72
17
 73
13
 74
0
 42
0.0000001
 43
0.0000001
 44
0.0000000001
 40
0.0
 40
0.0
 40
0.0
 40
0.0
 40
0.11256106
 40
0.1726448111
 40
0.2350154664
 40
0.365299598
 40
0.5000003357
 40
0.6347009766
 40
0.7649848985
 40
0.8273554441
 40
0.8874391035
 40
1.0
 40
1.0
 40
1.0
 40
1.0
 10
3.97110787
 20
2.3538311228
 30
0.0
 10
3.9705712327
 20
2.3576167818
 30
0.0
 10
3.9700875256
 20
2.3634762428
 30
0.0
 10
3.9700412848
 20
2.3714612781
 30
0.0
 10
3.9704277496
 20
2.3800411747
 30
0.0
 10
3.9717622614
 20
2.391099627
 30
0.0
 10
3.9746624187
 20
2.4043830561
 30
0.0
 10
3.9787925253
 20
2.4173369137
 30
0.0
 10
3.9831660298
 20
2.4275810551
 30
0.0
 10
3.9871212852
 20
2.4352046826
 30
0.0
 10
3.9911538438
 20
2.442096794
 30
0.0
 10
3.9945024722
 20
2.4469293751
 30
0.0
 10
3.9968600398
 20
2.449939529
 30
0.0
  0
SPLINE
  5
3D0
100
AcDbEntity
  8
ALL_ASSEMBLY_MEMBERS
100
AcDbSpline
 62
7
  6
CONTINUOUS
 70
0
 71
3
 72
23
 73
19
 74
0
 42
0.0000001
 43
0.0000001
 44
0.0000000001
 40
0.0
 40
0.0
 40
0.0
 40
0.0
 40
0.0608247746
 40
0.1221999501
 40
0.1841195768
 40
0.2465585024
 40
0.3094618804
 40
0.3727466443
 40
0.4363025961
 40
0.4999996584
 40
0.5636967607
 40
0.6272527982
 40
0.690537654
 40
0.7534411244
 40
0.8158801547
 40
0.8777998675
 40
0.9391751598
 40
1.0
 40
1.0
 40
1.0
 40
1.0
 10
3.9968600398
 20
2.449939529
 30
0.0
 10
3.9977844549
 20
2.4479471518
 30
0.0
 10
3.9994884986
 20
2.4438710795
 30
0.0
 10
4.0015575587
 20
2.4375452542
 30
0.0
 10
4.0031090513
 20
2.4310120415
 30
0.0
 10
4.0041033949
 20
2.4243148931
 30
0.0
 10
4.0045068044
 20
2.4175064354
 30
0.0
 10
4.0042939824
 20
2.4106485952
 30
0.0
 10
4.0034505909
 20
2.4038103085
 30
0.0
 10
4.001975173
 20
2.3970646304
 30
0.0
 10
3.999880092
 20
2.3904849867
 30
0.0
 10
3.9971913473
 20
2.3841411522
 30
0.0
 10
3.9939467345
 20
2.3780956675
 30
0.0
 10
3.9901931406
 20
2.3724010638
 30
0.0
 10
3.9859834357
 20
2.367098325
 30
0.0
 10
3.9813731918
 20
2.3622161329
 30
0.0
 10
3.9764184137
 20
2.3577723306
 30
0.0
 10
3.9729046275
 20
2.3550943658
 30
0.0
 10
3.97110787
 20
2.3538311228
 30
0.0
  0
SPLINE
  5
3D1
100
AcDbEntity
  8
ALL_ASSEMBLY_MEMBERS
100
AcDbSpline
 62
7
  6
CONTINUOUS
 70
0
 71
3
 72
15
 73
11
 74
0
 42
0.0000001
 43
0.0000001
 44
0.0000000001
 40
0.0
 40
0.0
 40
0.0
 40
0.0
 40
0.2367281257
 40
0.3008942434
 40
0.3664578747
 40
0.5000003312
 40
0.6335426929
 40
0.6991062259
 40
0.7632722362
 40
1.0
 40
1.0
 40
1.0
 40
1.0
 10
3.9377888211
 20
2.362758935
 30
0.0
 10
3.9360928618
 20
2.3706947109
 30
0.0
 10
3.9352957938
 20
2.3811191401
 30
0.0
 10
3.9360723987
 20
2.3936553368
 30
0.0
 10
3.9371491645
 20
2.4026216289
 30
0.0
 10
3.9394814942
 20
2.4138097565
 30
0.0
 10
3.9430557043
 20
2.4246651196
 30
0.0
 10
3.9466063444
 20
2.4329685277
 30
0.0
 10
3.9522018799
 20
2.4442134749
 30
0.0
 10
3.9581043674
 20
2.4528427466
 30
0.0
 10
3.9635409909
 20
2.4588673413
 30
0.0
  0
SPLINE
  5
3D2
100
AcDbEntity
  8
ALL_ASSEMBLY_MEMBERS
100
AcDbSpline
 62
7
  6
CONTINUOUS
 70
0
 71
3
 72
23
 73
19
 74
0
 42
0.0000001
 43
0.0000001
 44
0.0000000001
 40
0.0
 40
0.0
 40
0.0
 40
0.0
 40
0.0600384239
 40
0.1208910807
 40
0.1825465152
 40
0.2449631887
 40
0.3080580401
 40
0.3717078218
 40
0.4357514159
 40
0.4999996554
 40
0.5642479358
 40
0.6282916169
 40
0.6919414917
 40
0.7550364372
 40
0.8174532166
 40
0.8791087381
 40
0.9399615111
 40
1.0
 40
1.0
 40
1.0
 40
1.0
 10
3.9635409909
 20
2.4588673413
 30
0.0
 10
3.9643874032
 20
2.4568919082
 30
0.0
 10
3.9659409655
 20
2.4528476161
 30
0.0
 10
3.9678025254
 20
2.4465771383
 30
0.0
 10
3.9691717505
 20
2.4400931662
 30
0.0
 10
3.9700120249
 20
2.4334384451
 30
0.0
 10
3.9702923636
 20
2.426664885
 30
0.0
 10
3.9699899347
 20
2.4198336852
 30
0.0
 10
3.9690923265
 20
2.4130131024
 30
0.0
 10
3.9675992922
 20
2.4062756199
 30
0.0
 10
3.9655235647
 20
2.3996942658
 30
0.0
 10
3.9628906248
 20
2.393338655
 30
0.0
 10
3.959736934
 20
2.387271438
 30
0.0
 10
3.9561073714
 20
2.3815455212
 30
0.0
 10
3.952052308
 20
2.3762024909
 30
0.0
 10
3.9476245329
 20
2.3712718087
 30
0.0
 10
3.9428771292
 20
2.3667721885
 30
0.0
 10
3.939509554
 20
2.3640465055
 30
0.0
 10
3.9377888211
 20
2.362758935
 30
0.0
  0
SPLINE
  5
3D3
100
AcDbEntity
  8
ALL_ASSEMBLY_MEMBERS
100
AcDbSpline
 62
7
  6
CONTINUOUS
 70
0
 71
3
 72
9
 73
5
 74
0
 42
0.0000001
 43
0.0000001
 44
0.0000000001
 40
0.0
 40
0.0
 40
0.0
 40
0.0
 40
0.5000003223
 40
1.0
 40
1.0
 40
1.0
 40
1.0
 10
3.903719087
 20
2.3718878928
 30
0.0
 10
3.8991207719
 20
2.3884065231
 30
0.0
 10
3.8997467141
 20
2.424456641
 30
0.0
 10
3.9172296998
 20
2.4559899185
 30
0.0
 10
3.9294712568
 20
2.467996299
 30
0.0
  0
SPLINE
  5
3D4
100
AcDbEntity
  8
ALL_ASSEMBLY_MEMBERS
100
AcDbSpline
 62
7
  6
CONTINUOUS
 70
0
 71
3
 72
21
 73
17
 74
0
 42
0.0000001
 43
0.0000001
 44
0.0000000001
 40
0.0
 40
0.0
 40
0.0
 40
0.0
 40
0.0591459842
 40
0.1194144034
 40
0.1807844363
 40
0.2431930924
 40
0.3065230506
 40
0.3706040916
 40
0.4999996528
 40
0.6293953427
 40
0.6934764783
 40
0.7568065323
 40
0.8192152957
 40
0.8805854166
 40
0.9408539515
 40
1.0
 40
1.0
 40
1.0
 40
1.0
 10
3.9294712568
 20
2.467996299
 30
0.0
 10
3.9302255747
 20
2.4660407352
 30
0.0
 10
3.9316014521
 20
2.4620339361
 30
0.0
 10
3.9332191796
 20
2.455828788
 30
0.0
 10
3.9343743247
 20
2.4494028856
 30
0.0
 10
3.9350337606
 20
2.442798229
 30
0.0
 10
3.9351696216
 20
2.4360653587
 30
0.0
 10
3.9346249844
 20
2.4269728229
 30
0.0
 10
3.9325567274
 20
2.4156652438
 30
0.0
 10
3.9286941103
 20
2.4048384572
 30
0.0
 10
3.9246195093
 20
2.3966917602
 30
0.0
 10
3.9211354131
 20
2.390928843
 30
0.0
 10
3.9172619926
 20
2.3855387506
 30
0.0
 10
3.9130486515
 20
2.3805513181
 30
0.0
 10
3.9085450779
 20
2.3759863588
 30
0.0
 10
3.9053501291
 20
2.3732043032
 30
0.0
 10
3.903719087
 20
2.3718878928
 30
0.0
  0
SPLINE
  5
3D5
100
AcDbEntity
  8
ALL_ASSEMBLY_MEMBERS
100
AcDbSpline
 62
7
  6
CONTINUOUS
 70
0
 71
3
 72
19
 73
15
 74
0
 42
0.0000001
 43
0.0000001
 44
0.0000000001
 40
0.0
 40
0.0
 40
0.0
 40
0.0
 40
0.0581586389
 40
0.1177834887
 40
0.178841329
 40
0.2412407463
 40
0.369285117
 40
0.4999996985
 40
0.6307143708
 40
0.7587589274
 40
0.8211584406
 40
0.8822163605
 40
0.9418413031
 40
1.0
 40
1.0
 40
1.0
 40
1.0
 10
3.8950241125
 20
2.4772263835
 30
0.0
 10
3.8956730397
 20
2.4752933723
 30
0.0
 10
3.8968456017
 20
2.4713294717
 30
0.0
 10
3.898185943
 20
2.4651989583
 30
0.0
 10
3.8990976795
 20
2.4588391206
 30
0.0
 10
3.8997080789
 20
2.4500361221
 30
0.0
 10
3.8992368714
 20
2.4387418435
 30
0.0
 10
3.8966692644
 20
2.4252812565
 30
0.0
 10
3.8921625877
 20
2.4123402345
 30
0.0
 10
3.8869235267
 20
2.4023234834
 30
0.0
 10
3.8819934013
 20
2.3950050506
 30
0.0
 10
3.878023891
 20
2.3899531293
 30
0.0
 10
3.8737978597
 20
2.3853141133
 30
0.0
 10
3.8708004372
 20
2.3824675519
 30
0.0
 10
3.8692719427
 20
2.3811179773
 30
0.0
  0
SPLINE
  5
3D6
100
AcDbEntity
  8
ALL_ASSEMBLY_MEMBERS
100
AcDbSpline
 62
7
  6
CONTINUOUS
 70
0
 71
3
 72
9
 73
5
 74
0
 42
0.0000001
 43
0.0000001
 44
0.0000000001
 40
0.0
 40
0.0
 40
0.0
 40
0.0
 40
0.4999996523
 40
1.0
 40
1.0
 40
1.0
 40
1.0
 10
3.8605769682
 20
2.486456468
 30
0.0
 10
3.8651752781
 20
2.4699378562
 30
0.0
 10
3.8645494314
 20
2.4338877256
 30
0.0
 10
3.8470663745
 20
2.4023544609
 30
0.0
 10
3.8348247984
 20
2.3903480618
 30
0.0
  0
SPLINE
  5
3D7
100
AcDbEntity
  8
ALL_ASSEMBLY_MEMBERS
100
AcDbSpline
 62
7
  6
CONTINUOUS
 70
0
 71
3
 72
21
 73
17
 74
0
 42
0.0000001
 43
0.0000001
 44
0.0000000001
 40
0.0
 40
0.0
 40
0.0
 40
0.0
 40
0.0591477575
 40
0.1194165793
 40
0.1807875978
 40
0.2431963346
 40
0.3065262342
 40
0.3706068753
 40
0.5000003207
 40
0.6293936774
 40
0.6934742273
 40
0.7568040267
 40
0.8192126598
 40
0.8805835901
 40
0.9408523075
 40
1.0
 40
1.0
 40
1.0
 40
1.0
 10
3.8348247984
 20
2.3903480618
 30
0.0
 10
3.8340704578
 20
2.3923036844
 30
0.0
 10
3.8326945524
 20
2.3963105566
 30
0.0
 10
3.831076826
 20
2.4025158215
 30
0.0
 10
3.8299216706
 20
2.4089417758
 30
0.0
 10
3.8292622565
 20
2.4155464714
 30
0.0
 10
3.8291263916
 20
2.4222793284
 30
0.0
 10
3.8296710728
 20
2.4313717751
 30
0.0
 10
3.8317394656
 20
2.4426791462
 30
0.0
 10
3.8356018753
 20
2.4535058081
 30
0.0
 10
3.8396763928
 20
2.4616524265
 30
0.0
 10
3.8431604822
 20
2.467415308
 30
0.0
 10
3.8470338952
 20
2.4728054252
 30
0.0
 10
3.8512472612
 20
2.4777928777
 30
0.0
 10
3.8557508797
 20
2.4823579246
 30
0.0
 10
3.8589458806
 20
2.4851400208
 30
0.0
 10
3.8605769682
 20
2.486456468
 30
0.0
  0
SPLINE
  5
3D8
100
AcDbEntity
  8
ALL_ASSEMBLY_MEMBERS
100
AcDbSpline
 62
7
  6
CONTINUOUS
 70
0
 71
3
 72
15
 73
11
 74
0
 42
0.0000001
 43
0.0000001
 44
0.0000000001
 40
0.0
 40
0.0
 40
0.0
 40
0.0
 40
0.2367248972
 40
0.3008910586
 40
0.3664550568
 40
0.499999642
 40
0.6335443647
 40
0.6991084626
 40
0.7632747258
 40
1.0
 40
1.0
 40
1.0
 40
1.0
 10
3.8265072341
 20
2.4955854257
 30
0.0
 10
3.8282031702
 20
2.4876497584
 30
0.0
 10
3.8290002511
 20
2.4772254425
 30
0.0
 10
3.8282236513
 20
2.4646893424
 30
0.0
 10
3.8271469096
 20
2.455722962
 30
0.0
 10
3.8248146623
 20
2.4445346429
 30
0.0
 10
3.8212402944
 20
2.4336791447
 30
0.0
 10
3.8176895871
 20
2.4253756491
 30
0.0
 10
3.8120940881
 20
2.4141307481
 30
0.0
 10
3.8061916303
 20
2.4055015505
 30
0.0
 10
3.8007550643
 20
2.3994770195
 30
0.0
  0
SPLINE
  5
3D9
100
AcDbEntity
  8
ALL_ASSEMBLY_MEMBERS
100
AcDbSpline
 62
7
  6
CONTINUOUS
 70
0
 71
3
 72
23
 73
19
 74
0
 42
0.0000001
 43
0.0000001
 44
0.0000000001
 40
0.0
 40
0.0
 40
0.0
 40
0.0
 40
0.0600402223
 40
0.1208932737
 40
0.1825496941
 40
0.2449664408
 40
0.3080612317
 40
0.3717106059
 40
0.4357534595
 40
0.5000003171
 40
0.5642471488
 40
0.6282899417
 40
0.6919392269
 40
0.7550339195
 40
0.817450564
 40
0.879106897
 40
0.9399598434
 40
1.0
 40
1.0
 40
1.0
 40
1.0
 10
3.8007550643
 20
2.3994770195
 30
0.0
 10
3.7999086266
 20
2.4014525119
 30
0.0
 10
3.7983550329
 20
2.4054968773
 30
0.0
 10
3.7964934715
 20
2.4117674739
 30
0.0
 10
3.7951242344
 20
2.4182514975
 30
0.0
 10
3.7942839826
 20
2.4249062582
 30
0.0
 10
3.7940036402
 20
2.4316798044
 30
0.0
 10
3.7943061058
 20
2.4385109619
 30
0.0
 10
3.7952037938
 20
2.445331444
 30
0.0
 10
3.7966968555
 20
2.4520687875
 30
0.0
 10
3.7987725011
 20
2.4586500257
 30
0.0
 10
3.801405324
 20
2.4650055727
 30
0.0
 10
3.8045589607
 20
2.471072751
 30
0.0
 10
3.8081885159
 20
2.4767986315
 30
0.0
 10
3.8122435714
 20
2.4821416876
 30
0.0
 10
3.816671372
 20
2.4870723887
 30
0.0
 10
3.8214188234
 20
2.4915720972
 30
0.0
 10
3.8247864532
 20
2.4942978193
 30
0.0
 10
3.8265072341
 20
2.4955854257
 30
0.0
  0
SPLINE
  5
3DA
100
AcDbEntity
  8
ALL_ASSEMBLY_MEMBERS
100
AcDbSpline
 62
7
  6
CONTINUOUS
 70
0
 71
3
 72
17
 73
13
 74
0
 42
0.0000001
 43
0.0000001
 44
0.0000000001
 40
0.0
 40
0.0
 40
0.0
 40
0.0
 40
0.1125589463
 40
0.1726417036
 40
0.2350122349
 40
0.3652967675
 40
0.4999996373
 40
0.6347026474
 40
0.7649873846
 40
0.8273580297
 40
0.8874408794
 40
1.0
 40
1.0
 40
1.0
 40
1.0
 10
3.7931881852
 20
2.504513238
 30
0.0
 10
3.7937248124
 20
2.5007276502
 30
0.0
 10
3.7942085229
 20
2.494868296
 30
0.0
 10
3.794254766
 20
2.4868833708
 30
0.0
 10
3.7938683201
 20
2.4783034976
 30
0.0
 10
3.7925337968
 20
2.4672449673
 30
0.0
 10
3.7896337257
 20
2.4539613463
 30
0.0
 10
3.7855034552
 20
2.4410073485
 30
0.0
 10
3.7811299171
 20
2.4307631035
 30
0.0
 10
3.7771746483
 20
2.4231394788
 30
0.0
 10
3.7731421333
 20
2.4162474401
 30
0.0
 10
3.7697935457
 20
2.411414938
 30
0.0
 10
3.7674360154
 20
2.4084048317
 30
0.0
  0
SPLINE
  5
3DB
100
AcDbEntity
  8
ALL_ASSEMBLY_MEMBERS
100
AcDbSpline
 62
7
  6
CONTINUOUS
 70
0
 71
3
 72
23
 73
19
 74
0
 42
0.0000001
 43
0.0000001
 44
0.0000000001
 40
0.0
 40
0.0
 40
0.0
 40
0.0
 40
0.0608265938
 40
0.1222021557
 40
0.1841227675
 40
0.2465617583
 40
0.3094650724
 40
0.3727494206
 40
0.4363046249
 40
0.500000314
 40
0.5636959779
 40
0.6272511227
 40
0.6905353836
 40
0.7534386015
 40
0.8158774911
 40
0.8777980161
 40
0.9391734726
 40
1.0
 40
1.0
 40
1.0
 40
1.0
 10
3.7674360154
 20
2.4084048317
 30
0.0
 10
3.7665115725
 20
2.4103972688
 30
0.0
 10
3.7648074946
 20
2.4144734145
 30
0.0
 10
3.7627384308
 20
2.4207993603
 30
0.0
 10
3.7611869248
 20
2.4273326241
 30
0.0
 10
3.7601926044
 20
2.4340298127
 30
0.0
 10
3.7597891913
 20
2.4408382558
 30
0.0
 10
3.7600020527
 20
2.4476960533
 30
0.0
 10
3.7608455303
 20
2.4545342383
 30
0.0
 10
3.7623209794
 20
2.4612797758
 30
0.0
 10
3.7644159753
 20
2.4678593037
 30
0.0
 10
3.7671045973
 20
2.4742030767
 30
0.0
 10
3.7703491538
 20
2.4802485237
 30
0.0
 10
3.7741027398
 20
2.4859430903
 30
0.0
 10
3.7783124366
 20
2.4912458558
 30
0.0
 10
3.7829227066
 20
2.4961280658
 30
0.0
 10
3.7878775347
 20
2.500571957
 30
0.0
 10
3.7913913777
 20
2.5032499597
 30
0.0
 10
3.7931881852
 20
2.504513238
 30
0.0
  0
SPLINE
  5
3DC
100
AcDbEntity
  8
ALL_ASSEMBLY_MEMBERS
100
AcDbSpline
 62
7
  6
CONTINUOUS
 70
0
 71
3
 72
21
 73
17
 74
0
 42
0.0000001
 43
0.0000001
 44
0.0000000001
 40
0.0
 40
0.0
 40
0.0
 40
0.0
 40
0.0540647483
 40
0.1110687389
 40
0.1708696502
 40
0.2332321002
 40
0.2978152245
 40
0.3641760161
 40
0.499999634
 40
0.6358233945
 40
0.7021842885
 40
0.766767518
 40
0.8291300831
 40
0.8889310879
 40
0.9459351912
 40
1.0
 40
1.0
 40
1.0
 40
1.0
 10
3.760984872
 20
2.5131420897
 30
0.0
 10
3.7610986015
 20
2.5113250807
 30
0.0
 10
3.761242275
 20
2.507586182
 30
0.0
 10
3.7612067552
 20
2.5018307514
 30
0.0
 10
3.7609124875
 20
2.4958028992
 30
0.0
 10
3.7603488326
 20
2.4895380691
 30
0.0
 10
3.7595090575
 20
2.4830813732
 30
0.0
 10
3.7580072609
 20
2.4742228314
 30
0.0
 10
3.7554665898
 20
2.4631164027
 30
0.0
 10
3.752113665
 20
2.4522276129
 30
0.0
 10
3.7489849852
 20
2.4438049808
 30
0.0
 10
3.7464839014
 20
2.4377934198
 30
0.0
 10
3.7438396225
 20
2.4320860802
 30
0.0
 10
3.7410805361
 20
2.4267186629
 30
0.0
 10
3.7382335776
 20
2.421716546
 30
0.0
 10
3.7362397004
 20
2.4185503965
 30
0.0
 10
3.7352327022
 20
2.4170336835
 30
0.0
  0
SPLINE
  5
3DD
100
AcDbEntity
  8
ALL_ASSEMBLY_MEMBERS
100
AcDbSpline
 62
7
  6
CONTINUOUS
 70
0
 71
3
 72
23
 73
19
 74
0
 42
0.0000001
 43
0.0000001
 44
0.0000000001
 40
0.0
 40
0.0
 40
0.0
 40
0.0
 40
0.0614748439
 40
0.1232837216
 40
0.1854255336
 40
0.2478855545
 40
0.3106318938
 40
0.3736139115
 40
0.4367636508
 40
0.5000003115
 40
0.5632369473
 40
0.6263866281
 40
0.6893685603
 40
0.7521148047
 40
0.8145747255
 40
0.8767164511
 40
0.938525223
 40
1.0
 40
1.0
 40
1.0
 40
1.0
 10
3.7352327022
 20
2.4170336835
 30
0.0
 10
3.734245014
 20
2.4190399497
 30
0.0
 10
3.7324189556
 20
2.4231419119
 30
0.0
 10
3.7301810608
 20
2.4295127321
 30
0.0
 10
3.7284811907
 20
2.436085922
 30
0.0
 10
3.7273613987
 20
2.4428175476
 30
0.0
 10
3.7268577112
 20
2.4496543736
 30
0.0
 10
3.7269975418
 20
2.4565339138
 30
0.0
 10
3.7277968374
 20
2.4633866301
 30
0.0
 10
3.7292579564
 20
2.4701389861
 30
0.0
 10
3.7313687719
 20
2.476717254
 30
0.0
 10
3.7341029226
 20
2.4830515204
 30
0.0
 10
3.7374215971
 20
2.4890792816
 30
0.0
 10
3.7412762149
 20
2.4947482913
 30
0.0
 10
3.7456117916
 20
2.5000181443
 30
0.0
 10
3.7503705116
 20
2.5048607494
 30
0.0
 10
3.7554939887
 20
2.5092590875
 30
0.0
 10
3.7591263779
 20
2.5118984577
 30
0.0
 10
3.760984872
 20
2.5131420897
 30
0.0
  0
SPLINE
  5
3DE
100
AcDbEntity
  8
ALL_ASSEMBLY_MEMBERS
100
AcDbSpline
 62
7
  6
CONTINUOUS
 70
0
 71
3
 72
23
 73
19
 74
0
 42
0.0000001
 43
0.0000001
 44
0.0000000001
 40
0.0
 40
0.0
 40
0.0
 40
0.0
 40
0.0532808064
 40
0.1098243154
 40
0.169419167
 40
0.2317756877
 40
0.2965480058
 40
0.3632404878
 40
0.4312769853
 40
0.499999888
 40
0.568722815
 40
0.6367593388
 40
0.7034518459
 40
0.7682241765
 40
0.8305807442
 40
0.8901756502
 40
0.9467191859
 40
1.0
 40
1.0
 40
1.0
 40
1.0
 10
3.7302501208
 20
2.5213774415
 30
0.0
 10
3.7302080585
 20
2.5195965637
 30
0.0
 10
3.7300537362
 20
2.5159271089
 30
0.0
 10
3.7296277414
 20
2.5102779081
 30
0.0
 10
3.7289906944
 20
2.5043432944
 30
0.0
 10
3.7281382241
 20
2.4981579992
 30
0.0
 10
3.7270675131
 20
2.4917660172
 30
0.0
 10
3.7257823519
 20
2.485220063
 30
0.0
 10
3.7242885656
 20
2.4785831016
 30
0.0
 10
3.7226000796
 20
2.471922935
 30
0.0
 10
3.7207322682
 20
2.4653108175
 30
0.0
 10
3.7187074442
 20
2.4588161447
 30
0.0
 10
3.7165474493
 20
2.4525045991
 30
0.0
 10
3.7142787205
 20
2.4464336222
 30
0.0
 10
3.7119243325
 20
2.4406507607
 30
0.0
 10
3.7095087232
 20
2.4351927068
 30
0.0
 10
3.7070530438
 20
2.4300873554
 30
0.0
 10
3.705351963
 20
2.4268323521
 30
0.0
 10
3.704497951
 20
2.4252690353
 30
0.0
  0
SPLINE
  5
3DF
100
AcDbEntity
  8
ALL_ASSEMBLY_MEMBERS
100
AcDbSpline
 62
7
  6
CONTINUOUS
 70
0
 71
3
 72
15
 73
11
 74
0
 42
0.0000001
 43
0.0000001
 44
0.0000000001
 40
0.0
 40
0.0
 40
0.0
 40
0.0
 40
0.1241444719
 40
0.248947233
 40
0.3743075217
 40
0.5000001118
 40
0.6256926617
 40
0.7510529255
 40
0.8758555789
 40
1.0
 40
1.0
 40
1.0
 40
1.0
 10
3.704497951
 20
2.4252690353
 30
0.0
 10
3.7024255447
 20
2.429304912
 30
0.0
 10
3.6988911459
 20
2.4377393454
 30
0.0
 10
3.6958279693
 20
2.4511445237
 30
0.0
 10
3.695312363
 20
2.4649573876
 30
0.0
 10
3.6975317174
 20
2.478639983
 30
0.0
 10
3.7024510012
 20
2.4915991331
 30
0.0
 10
3.7098039615
 20
2.5033036132
 30
0.0
 10
3.719159336
 20
2.5133812437
 30
0.0
 10
3.7264374275
 20
2.5189184739
 30
0.0
 10
3.7302501208
 20
2.5213774415
 30
0.0
  0
SPLINE
  5
3E0
100
AcDbEntity
  8
ALL_ASSEMBLY_MEMBERS
100
AcDbSpline
 62
7
  6
CONTINUOUS
 70
0
 71
3
 72
15
 73
11
 74
0
 42
0.0000001
 43
0.0000001
 44
0.0000000001
 40
0.0
 40
0.0
 40
0.0
 40
0.0
 40
0.1089298845
 40
0.2307273164
 40
0.3625766366
 40
0.4999996294
 40
0.637422768
 40
0.7692723001
 40
0.891069944
 40
1.0
 40
1.0
 40
1.0
 40
1.0
 10
3.701320668
 20
2.529129065
 30
0.0
 10
3.700900975
 20
2.5255301096
 30
0.0
 10
3.6998325096
 20
2.5179274856
 30
0.0
 10
3.6976962312
 20
2.5060552901
 30
0.0
 10
3.6949473716
 20
2.4933382686
 30
0.0
 10
3.6916562353
 20
2.4802143356
 30
0.0
 10
3.6879444769
 20
2.4672031005
 30
0.0
 10
3.6839665434
 20
2.4548153887
 30
0.0
 10
3.6798805118
 20
2.4434656075
 30
0.0
 10
3.6770045134
 20
2.4363472974
 30
0.0
 10
3.6755684981
 20
2.4330206588
 30
0.0
  0
SPLINE
  5
3E1
100
AcDbEntity
  8
ALL_ASSEMBLY_MEMBERS
100
AcDbSpline
 62
7
  6
CONTINUOUS
 70
0
 71
3
 72
23
 73
19
 74
0
 42
0.0000001
 43
0.0000001
 44
0.0000000001
 40
0.0
 40
0.0
 40
0.0
 40
0.0
 40
0.0623067787
 40
0.1246751061
 40
0.1871052935
 40
0.2495959166
 40
0.3121420298
 40
0.3747342185
 40
0.4373589934
 40
0.5000003083
 40
0.5626415987
 40
0.6252663165
 40
0.6878584215
 40
0.7504044419
 40
0.8128949661
 40
0.8753250679
 40
0.9376932889
 40
1.0
 40
1.0
 40
1.0
 40
1.0
 10
3.6755684981
 20
2.4330206588
 30
0.0
 10
3.6745006788
 20
2.4350445755
 30
0.0
 10
3.6725201302
 20
2.4391793464
 30
0.0
 10
3.6700676482
 20
2.4456070056
 30
0.0
 10
3.6681791218
 20
2.4522307616
 30
0.0
 10
3.6668996974
 20
2.4590060363
 30
0.0
 10
3.6662683648
 20
2.4658789098
 30
0.0
 10
3.6663151913
 20
2.472786163
 30
0.0
 10
3.6670582196
 20
2.4796575115
 30
0.0
 10
3.6685011196
 20
2.4864187314
 30
0.0
 10
3.6706321455
 20
2.4929955662
 30
0.0
 10
3.6734243414
 20
2.4993178347
 30
0.0
 10
3.6768374165
 20
2.5053230941
 30
0.0
 10
3.680820602
 20
2.5109594993
 30
0.0
 10
3.685316249
 20
2.5161873374
 30
0.0
 10
3.690263633
 20
2.5209794057
 30
0.0
 10
3.6956013672
 20
2.5253196744
 30
0.0
 10
3.6993839531
 20
2.5279102127
 30
0.0
 10
3.701320668
 20
2.529129065
 30
0.0
  0
SPLINE
  5
3E2
100
AcDbEntity
  8
ALL_ASSEMBLY_MEMBERS
100
AcDbSpline
 62
7
  6
CONTINUOUS
 70
0
 71
3
 72
15
 73
11
 74
0
 42
0.0000001
 43
0.0000001
 44
0.0000000001
 40
0.0
 40
0.0
 40
0.0
 40
0.0
 40
0.1084680939
 40
0.230190187
 40
0.3622368102
 40
0.4999996283
 40
0.637762593
 40
0.769809429
 40
0.8915317348
 40
1.0
 40
1.0
 40
1.0
 40
1.0
 10
3.6745134706
 20
2.5363120319
 30
0.0
 10
3.6737536422
 20
2.532794504
 30
0.0
 10
3.6720811649
 20
2.525342531
 30
0.0
 10
3.669297614
 20
2.5136510768
 30
0.0
 10
3.6661413439
 20
2.501050184
 30
0.0
 10
3.6627118518
 20
2.4879699597
 30
0.0
 10
3.6591417659
 20
2.4749274002
 30
0.0
 10
3.6555747246
 20
2.4624365535
 30
0.0
 10
3.6521396182
 20
2.4509196626
 30
0.0
 10
3.6498620357
 20
2.4436298138
 30
0.0
 10
3.6487613007
 20
2.4402036257
 30
0.0
  0
SPLINE
  5
3E3
100
AcDbEntity
  8
ALL_ASSEMBLY_MEMBERS
100
AcDbSpline
 62
7
  6
CONTINUOUS
 70
0
 71
3
 72
23
 73
19
 74
0
 42
0.0000001
 43
0.0000001
 44
0.0000000001
 40
0.0
 40
0.0
 40
0.0
 40
0.0
 40
0.0624758248
 40
0.1249582844
 40
0.1874476845
 40
0.249945027
 40
0.3124506316
 40
0.3749633615
 40
0.4374808305
 40
0.5000003076
 40
0.5625197604
 40
0.6250371725
 40
0.6875498192
 40
0.7500553314
 40
0.8125525752
 40
0.8750418898
 40
0.937524243
 40
1.0
 40
1.0
 40
1.0
 40
1.0
 10
3.6487613007
 20
2.4402036257
 30
0.0
 10
3.6476773096
 20
2.442231123
 30
0.0
 10
3.6456655918
 20
2.4463725318
 30
0.0
 10
3.6431697181
 20
2.4528116589
 30
0.0
 10
3.6412430323
 20
2.4594456151
 30
0.0
 10
3.6399313071
 20
2.4662296986
 30
0.0
 10
3.6392741358
 20
2.4731098562
 30
0.0
 10
3.6393021299
 20
2.4800227228
 30
0.0
 10
3.6400337638
 20
2.4868978608
 30
0.0
 10
3.6414729785
 20
2.4936609
 30
0.0
 10
3.6436081057
 20
2.5002374677
 30
0.0
 10
3.6464120642
 20
2.5065573208
 30
0.0
 10
3.6498442555
 20
2.5125580253
 30
0.0
 10
3.6538534599
 20
2.5181878193
 30
0.0
 10
3.6583814846
 20
2.5234071356
 30
0.0
 10
3.6633670157
 20
2.528188958
 30
0.0
 10
3.6687480621
 20
2.5325174622
 30
0.0
 10
3.6725609602
 20
2.5350981646
 30
0.0
 10
3.6745134706
 20
2.5363120319
 30
0.0
  0
SPLINE
  5
3E4
100
AcDbEntity
  8
ALL_ASSEMBLY_MEMBERS
100
AcDbSpline
 62
7
  6
CONTINUOUS
 70
0
 71
3
 72
23
 73
19
 74
0
 42
0.0000001
 43
0.0000001
 44
0.0000000001
 40
0.0
 40
0.0
 40
0.0
 40
0.0
 40
0.0624758248
 40
0.1249582844
 40
0.1874476845
 40
0.249945027
 40
0.3124506316
 40
0.3749633615
 40
0.4374808305
 40
0.5000003076
 40
0.5625197604
 40
0.6250371725
 40
0.6875498192
 40
0.7500553314
 40
0.8125525752
 40
0.8750418898
 40
0.937524243
 40
1.0
 40
1.0
 40
1.0
 40
1.0
 10
3.6243700641
 20
2.4467392379
 30
0.0
 10
3.623286073
 20
2.4487667352
 30
0.0
 10
3.6212743551
 20
2.452908144
 30
0.0
 10
3.6187784814
 20
2.4593472711
 30
0.0
 10
3.6168517957
 20
2.4659812273
 30
0.0
 10
3.6155400704
 20
2.4727653108
 30
0.0
 10
3.6148828992
 20
2.4796454683
 30
0.0
 10
3.6149108932
 20
2.4865583349
 30
0.0
 10
3.6156425272
 20
2.4934334729
 30
0.0
 10
3.6170817419
 20
2.5001965122
 30
0.0
 10
3.619216869
 20
2.5067730799
 30
0.0
 10
3.6220208276
 20
2.513092933
 30
0.0
 10
3.6254530188
 20
2.5190936374
 30
0.0
 10
3.6294622233
 20
2.5247234315
 30
0.0
 10
3.633990248
 20
2.5299427478
 30
0.0
 10
3.638975779
 20
2.5347245701
 30
0.0
 10
3.6443568254
 20
2.5390530744
 30
0.0
 10
3.6481697236
 20
2.5416337768
 30
0.0
 10
3.6501222339
 20
2.5428476441
 30
0.0
  0
SPLINE
  5
3E5
100
AcDbEntity
  8
ALL_ASSEMBLY_MEMBERS
100
AcDbSpline
 62
7
  6
CONTINUOUS
 70
0
 71
3
 72
23
 73
19
 74
0
 42
0.0000001
 43
0.0000001
 44
0.0000000001
 40
0.0
 40
0.0
 40
0.0
 40
0.0
 40
0.0623067787
 40
0.1246751061
 40
0.1871052935
 40
0.2495959166
 40
0.3121420298
 40
0.3747342185
 40
0.4373589934
 40
0.5000003083
 40
0.5626415987
 40
0.6252663165
 40
0.6878584215
 40
0.7504044419
 40
0.8128949661
 40
0.8753250679
 40
0.9376932889
 40
1.0
 40
1.0
 40
1.0
 40
1.0
 10
3.6026620237
 20
2.4525558898
 30
0.0
 10
3.6015942044
 20
2.4545798065
 30
0.0
 10
3.5996136557
 20
2.4587145773
 30
0.0
 10
3.5971611738
 20
2.4651422366
 30
0.0
 10
3.5952726473
 20
2.4717659925
 30
0.0
 10
3.5939932229
 20
2.4785412672
 30
0.0
 10
3.5933618903
 20
2.4854141408
 30
0.0
 10
3.5934087169
 20
2.492321394
 30
0.0
 10
3.5941517452
 20
2.4991927425
 30
0.0
 10
3.5955946451
 20
2.5059539624
 30
0.0
 10
3.597725671
 20
2.5125307971
 30
0.0
 10
3.600517867
 20
2.5188530657
 30
0.0
 10
3.6039309421
 20
2.524858325
 30
0.0
 10
3.6079141275
 20
2.5304947303
 30
0.0
 10
3.6124097745
 20
2.5357225683
 30
0.0
 10
3.6173571585
 20
2.5405146366
 30
0.0
 10
3.6226948928
 20
2.5448549053
 30
0.0
 10
3.6264774786
 20
2.5474454437
 30
0.0
 10
3.6284141935
 20
2.548664296
 30
0.0
  0
SPLINE
  5
3E6
100
AcDbEntity
  8
ALL_ASSEMBLY_MEMBERS
100
AcDbSpline
 62
7
  6
CONTINUOUS
 70
0
 71
3
 72
15
 73
11
 74
0
 42
0.0000001
 43
0.0000001
 44
0.0000000001
 40
0.0
 40
0.0
 40
0.0
 40
0.0
 40
0.1241445548
 40
0.2489474476
 40
0.3743076884
 40
0.5000001092
 40
0.6256924892
 40
0.7510527043
 40
0.8758554924
 40
1.0
 40
1.0
 40
1.0
 40
1.0
 10
3.5838750173
 20
2.4575898529
 30
0.0
 10
3.5818026097
 20
2.4616257323
 30
0.0
 10
3.5782682087
 20
2.4700601734
 30
0.0
 10
3.575205033
 20
2.4834653584
 30
0.0
 10
3.5746894316
 20
2.4972782192
 30
0.0
 10
3.5769087845
 20
2.5109608001
 30
0.0
 10
3.5818280623
 20
2.5239199369
 30
0.0
 10
3.5891810166
 20
2.5356244171
 30
0.0
 10
3.5985363938
 20
2.5457020538
 30
0.0
 10
3.6058144912
 20
2.5512392898
 30
0.0
 10
3.6096271872
 20
2.5536982592
 30
0.0
  0
SPLINE
  5
3E7
100
AcDbEntity
  8
ALL_ASSEMBLY_MEMBERS
100
AcDbSpline
 62
7
  6
CONTINUOUS
 70
0
 71
3
 72
23
 73
19
 74
0
 42
0.0000001
 43
0.0000001
 44
0.0000000001
 40
0.0
 40
0.0
 40
0.0
 40
0.0
 40
0.0614748439
 40
0.1232837216
 40
0.1854255336
 40
0.2478855545
 40
0.3106318938
 40
0.3736139115
 40
0.4367636508
 40
0.5000003115
 40
0.5632369473
 40
0.6263866281
 40
0.6893685603
 40
0.7521148047
 40
0.8145747255
 40
0.8767164511
 40
0.938525223
 40
1.0
 40
1.0
 40
1.0
 40
1.0
 10
3.5682148794
 20
2.4617859742
 30
0.0
 10
3.5672271912
 20
2.4637922405
 30
0.0
 10
3.5654011328
 20
2.4678942026
 30
0.0
 10
3.563163238
 20
2.4742650228
 30
0.0
 10
3.5614633679
 20
2.4808382128
 30
0.0
 10
3.5603435759
 20
2.4875698383
 30
0.0
 10
3.5598398884
 20
2.4944066643
 30
0.0
 10
3.559979719
 20
2.5012862045
 30
0.0
 10
3.5607790146
 20
2.5081389209
 30
0.0
 10
3.5622401336
 20
2.5148912768
 30
0.0
 10
3.5643509491
 20
2.5214695447
 30
0.0
 10
3.5670850998
 20
2.5278038111
 30
0.0
 10
3.5704037743
 20
2.5338315723
 30
0.0
 10
3.5742583921
 20
2.5395005821
 30
0.0
 10
3.5785939688
 20
2.5447704351
 30
0.0
 10
3.5833526889
 20
2.5496130401
 30
0.0
 10
3.5884761659
 20
2.5540113782
 30
0.0
 10
3.5921085551
 20
2.5566507484
 30
0.0
 10
3.5939670492
 20
2.5578943805
 30
0.0
  0
SPLINE
  5
3E8
100
AcDbEntity
  8
ALL_ASSEMBLY_MEMBERS
100
AcDbSpline
 62
7
  6
CONTINUOUS
 70
0
 71
3
 72
23
 73
19
 74
0
 42
0.0000001
 43
0.0000001
 44
0.0000000001
 40
0.0
 40
0.0
 40
0.0
 40
0.0
 40
0.0608265938
 40
0.1222021557
 40
0.1841227675
 40
0.2465617583
 40
0.3094650724
 40
0.3727494206
 40
0.4363046249
 40
0.500000314
 40
0.5636959779
 40
0.6272511227
 40
0.6905353836
 40
0.7534386015
 40
0.8158774911
 40
0.8777980161
 40
0.9391734726
 40
1.0
 40
1.0
 40
1.0
 40
1.0
 10
3.5558531857
 20
2.4650982801
 30
0.0
 10
3.5549287428
 20
2.4670907171
 30
0.0
 10
3.5532246649
 20
2.4711668628
 30
0.0
 10
3.5511556011
 20
2.4774928087
 30
0.0
 10
3.5496040951
 20
2.4840260725
 30
0.0
 10
3.5486097747
 20
2.4907232611
 30
0.0
 10
3.5482063616
 20
2.4975317041
 30
0.0
 10
3.548419223
 20
2.5043895016
 30
0.0
 10
3.5492627006
 20
2.5112276866
 30
0.0
 10
3.5507381497
 20
2.5179732241
 30
0.0
 10
3.5528331456
 20
2.5245527521
 30
0.0
 10
3.5555217676
 20
2.530896525
 30
0.0
 10
3.5587663241
 20
2.536941972
 30
0.0
 10
3.5625199101
 20
2.5426365387
 30
0.0
 10
3.5667296069
 20
2.5479393041
 30
0.0
 10
3.5713398769
 20
2.5528215141
 30
0.0
 10
3.576294705
 20
2.5572654054
 30
0.0
 10
3.579808548
 20
2.5599434081
 30
0.0
 10
3.5816053555
 20
2.5612066863
 30
0.0
  0
SPLINE
  5
3E9
100
AcDbEntity
  8
ALL_ASSEMBLY_MEMBERS
100
AcDbSpline
 62
7
  6
CONTINUOUS
 70
0
 71
3
 72
23
 73
19
 74
0
 42
0.0000001
 43
0.0000001
 44
0.0000000001
 40
0.0
 40
0.0
 40
0.0
 40
0.0
 40
0.0600402223
 40
0.1208932737
 40
0.1825496941
 40
0.2449664408
 40
0.3080612317
 40
0.3717106059
 40
0.4357534595
 40
0.5000003171
 40
0.5642471488
 40
0.6282899417
 40
0.6919392269
 40
0.7550339195
 40
0.817450564
 40
0.879106897
 40
0.9399598434
 40
1.0
 40
1.0
 40
1.0
 40
1.0
 10
3.5469253734
 20
2.4674904802
 30
0.0
 10
3.5460789358
 20
2.4694659726
 30
0.0
 10
3.5445253421
 20
2.473510338
 30
0.0
 10
3.5426637806
 20
2.4797809346
 30
0.0
 10
3.5412945436
 20
2.4862649582
 30
0.0
 10
3.5404542917
 20
2.4929197189
 30
0.0
 10
3.5401739494
 20
2.4996932651
 30
0.0
 10
3.540476415
 20
2.5065244226
 30
0.0
 10
3.541374103
 20
2.5133449047
 30
0.0
 10
3.5428671646
 20
2.5200822482
 30
0.0
 10
3.5449428103
 20
2.5266634863
 30
0.0
 10
3.5475756331
 20
2.5330190334
 30
0.0
 10
3.5507292698
 20
2.5390862116
 30
0.0
 10
3.554358825
 20
2.5448120922
 30
0.0
 10
3.5584138806
 20
2.5501551482
 30
0.0
 10
3.5628416812
 20
2.5550858494
 30
0.0
 10
3.5675891326
 20
2.5595855579
 30
0.0
 10
3.5709567624
 20
2.56231128
 30
0.0
 10
3.5726775433
 20
2.5635988864
 30
0.0
  0
SPLINE
  5
3EA
100
AcDbEntity
  8
ALL_ASSEMBLY_MEMBERS
100
AcDbSpline
 62
7
  6
CONTINUOUS
 70
0
 71
3
 72
21
 73
17
 74
0
 42
0.0000001
 43
0.0000001
 44
0.0000000001
 40
0.0
 40
0.0
 40
0.0
 40
0.0
 40
0.0591477575
 40
0.1194165793
 40
0.1807875978
 40
0.2431963346
 40
0.3065262342
 40
0.3706068753
 40
0.5000003207
 40
0.6293936774
 40
0.6934742273
 40
0.7568040267
 40
0.8192126598
 40
0.8805835901
 40
0.9408523075
 40
1.0
 40
1.0
 40
1.0
 40
1.0
 10
3.5415292576
 20
2.468936365
 30
0.0
 10
3.540774917
 20
2.4708919877
 30
0.0
 10
3.5393990116
 20
2.4748988599
 30
0.0
 10
3.5377812852
 20
2.4811041248
 30
0.0
 10
3.5366261298
 20
2.4875300791
 30
0.0
 10
3.5359667158
 20
2.4941347747
 30
0.0
 10
3.5358308508
 20
2.5008676317
 30
0.0
 10
3.536375532
 20
2.5099600784
 30
0.0
 10
3.5384439248
 20
2.5212674495
 30
0.0
 10
3.5423063345
 20
2.5320941114
 30
0.0
 10
3.546380852
 20
2.5402407298
 30
0.0
 10
3.5498649414
 20
2.5460036113
 30
0.0
 10
3.5537383545
 20
2.5513937285
 30
0.0
 10
3.5579517204
 20
2.556381181
 30
0.0
 10
3.5624553389
 20
2.5609462279
 30
0.0
 10
3.5656503398
 20
2.5637283241
 30
0.0
 10
3.5672814275
 20
2.5650447713
 30
0.0
  0
SPLINE
  5
3EB
100
AcDbEntity
  8
ALL_ASSEMBLY_MEMBERS
100
AcDbSpline
 62
7
  6
CONTINUOUS
 70
0
 71
3
 72
21
 73
17
 74
0
 42
0.0000001
 43
0.0000001
 44
0.0000000001
 40
0.0
 40
0.0
 40
0.0
 40
0.0
 40
0.0591459842
 40
0.1194144034
 40
0.1807844363
 40
0.2431930924
 40
0.3065230506
 40
0.3706040916
 40
0.4999996528
 40
0.6293953427
 40
0.6934764783
 40
0.7568065323
 40
0.8192152957
 40
0.8805854166
 40
0.9408539515
 40
1.0
 40
1.0
 40
1.0
 40
1.0
 10
4.2227667975
 20
2.3894079957
 30
0.0
 10
4.2235211154
 20
2.3874524319
 30
0.0
 10
4.2248969928
 20
2.3834456329
 30
0.0
 10
4.2265147204
 20
2.3772404847
 30
0.0
 10
4.2276698654
 20
2.3708145823
 30
0.0
 10
4.2283293014
 20
2.3642099257
 30
0.0
 10
4.2284651623
 20
2.3574770555
 30
0.0
 10
4.2279205252
 20
2.3483845196
 30
0.0
 10
4.2258522681
 20
2.3370769405
 30
0.0
 10
4.221989651
 20
2.3262501539
 30
0.0
 10
4.21791505
 20
2.318103457
 30
0.0
 10
4.2144309539
 20
2.3123405397
 30
0.0
 10
4.2105575334
 20
2.3069504473
 30
0.0
 10
4.2063441922
 20
2.3019630148
 30
0.0
 10
4.2018406187
 20
2.2973980555
 30
0.0
 10
4.1986456699
 20
2.2946159999
 30
0.0
 10
4.1970146277
 20
2.2932995895
 30
0.0
  0
SPLINE
  5
3EC
100
AcDbEntity
  8
ALL_ASSEMBLY_MEMBERS
100
AcDbSpline
 62
7
  6
CONTINUOUS
 70
0
 71
3
 72
23
 73
19
 74
0
 42
0.0000001
 43
0.0000001
 44
0.0000000001
 40
0.0
 40
0.0
 40
0.0
 40
0.0
 40
0.0600384239
 40
0.1208910807
 40
0.1825465152
 40
0.2449631887
 40
0.3080580401
 40
0.3717078218
 40
0.4357514159
 40
0.4999996554
 40
0.5642479358
 40
0.6282916169
 40
0.6919414917
 40
0.7550364372
 40
0.8174532166
 40
0.8791087381
 40
0.9399615111
 40
1.0
 40
1.0
 40
1.0
 40
1.0
 10
4.2173706818
 20
2.3908538806
 30
0.0
 10
4.218217094
 20
2.3888784475
 30
0.0
 10
4.2197706563
 20
2.3848341555
 30
0.0
 10
4.2216322162
 20
2.3785636776
 30
0.0
 10
4.2230014413
 20
2.3720797055
 30
0.0
 10
4.2238417158
 20
2.3654249844
 30
0.0
 10
4.2241220544
 20
2.3586514243
 30
0.0
 10
4.2238196255
 20
2.3518202245
 30
0.0
 10
4.2229220173
 20
2.3449996417
 30
0.0
 10
4.2214289831
 20
2.3382621592
 30
0.0
 10
4.2193532555
 20
2.3316808052
 30
0.0
 10
4.2167203156
 20
2.3253251943
 30
0.0
 10
4.2135666248
 20
2.3192579774
 30
0.0
 10
4.2099370622
 20
2.3135320605
 30
0.0
 10
4.2058819988
 20
2.3081890302
 30
0.0
 10
4.2014542237
 20
2.303258348
 30
0.0
 10
4.19670682
 20
2.2987587278
 30
0.0
 10
4.1933392448
 20
2.2960330449
 30
0.0
 10
4.1916185119
 20
2.2947454743
 30
0.0
  0
SPLINE
  5
3ED
100
AcDbEntity
  8
ALL_ASSEMBLY_MEMBERS
100
AcDbSpline
 62
7
  6
CONTINUOUS
 70
0
 71
3
 72
23
 73
19
 74
0
 42
0.0000001
 43
0.0000001
 44
0.0000000001
 40
0.0
 40
0.0
 40
0.0
 40
0.0
 40
0.0608247746
 40
0.1221999501
 40
0.1841195768
 40
0.2465585024
 40
0.3094618804
 40
0.3727466443
 40
0.4363025961
 40
0.4999996584
 40
0.5636967607
 40
0.6272527982
 40
0.690537654
 40
0.7534411244
 40
0.8158801547
 40
0.8777998675
 40
0.9391751598
 40
1.0
 40
1.0
 40
1.0
 40
1.0
 10
4.2084428695
 20
2.3932460807
 30
0.0
 10
4.2093672846
 20
2.3912537035
 30
0.0
 10
4.2110713283
 20
2.3871776312
 30
0.0
 10
4.2131403883
 20
2.3808518059
 30
0.0
 10
4.214691881
 20
2.3743185931
 30
0.0
 10
4.2156862246
 20
2.3676214447
 30
0.0
 10
4.2160896341
 20
2.360812987
 30
0.0
 10
4.2158768121
 20
2.3539551469
 30
0.0
 10
4.2150334206
 20
2.3471168602
 30
0.0
 10
4.2135580027
 20
2.3403711821
 30
0.0
 10
4.2114629217
 20
2.3337915384
 30
0.0
 10
4.208774177
 20
2.3274477039
 30
0.0
 10
4.2055295641
 20
2.3214022192
 30
0.0
 10
4.2017759703
 20
2.3157076154
 30
0.0
 10
4.1975662653
 20
2.3104048766
 30
0.0
 10
4.1929560215
 20
2.3055226845
 30
0.0
 10
4.1880012434
 20
2.3010788822
 30
0.0
 10
4.1844874572
 20
2.2984009175
 30
0.0
 10
4.1826906997
 20
2.2971376744
 30
0.0
  0
SPLINE
  5
3EE
100
AcDbEntity
  8
ALL_ASSEMBLY_MEMBERS
100
AcDbSpline
 62
7
  6
CONTINUOUS
 70
0
 71
3
 72
23
 73
19
 74
0
 42
0.0000001
 43
0.0000001
 44
0.0000000001
 40
0.0
 40
0.0
 40
0.0
 40
0.0
 40
0.0614730076
 40
0.1232815055
 40
0.185422333
 40
0.2478822953
 40
0.3106287011
 40
0.3736111418
 40
0.4367616344
 40
0.4999996608
 40
0.5632377267
 40
0.6263883039
 40
0.6893708353
 40
0.7521173323
 40
0.8145773982
 40
0.8767183112
 40
0.9385269263
 40
1.0
 40
1.0
 40
1.0
 40
1.0
 10
4.1960811758
 20
2.3965583865
 30
0.0
 10
4.1970688344
 20
2.3945521804
 30
0.0
 10
4.1988948563
 20
2.3904502918
 30
0.0
 10
4.2011327453
 20
2.3840795936
 30
0.0
 10
4.2028326012
 20
2.3775064544
 30
0.0
 10
4.2039524167
 20
2.3707748696
 30
0.0
 10
4.2044561007
 20
2.3639380282
 30
0.0
 10
4.2043163117
 20
2.3570584451
 30
0.0
 10
4.2035171074
 20
2.3502056264
 30
0.0
 10
4.2020560226
 20
2.3434531284
 30
0.0
 10
4.1999451193
 20
2.3368747449
 30
0.0
 10
4.1972108414
 20
2.3305404188
 30
0.0
 10
4.1938921087
 20
2.3245126207
 30
0.0
 10
4.1900374828
 20
2.3188435731
 30
0.0
 10
4.1857018976
 20
2.3135737475
 30
0.0
 10
4.1809432041
 20
2.3087311597
 30
0.0
 10
4.1758197792
 20
2.3043329109
 30
0.0
 10
4.1721874484
 20
2.3016935778
 30
0.0
 10
4.170329006
 20
2.3004499803
 30
0.0
  0
SPLINE
  5
3EF
100
AcDbEntity
  8
ALL_ASSEMBLY_MEMBERS
100
AcDbSpline
 62
7
  6
CONTINUOUS
 70
0
 71
3
 72
15
 73
11
 74
0
 42
0.0000001
 43
0.0000001
 44
0.0000000001
 40
0.0
 40
0.0
 40
0.0
 40
0.0
 40
0.1241444327
 40
0.2489474163
 40
0.3743075518
 40
0.4999998908
 40
0.6256922711
 40
0.7510524318
 40
0.875855521
 40
1.0
 40
1.0
 40
1.0
 40
1.0
 10
4.1804210379
 20
2.4007545078
 30
0.0
 10
4.1824934435
 20
2.3967186324
 30
0.0
 10
4.1860278465
 20
2.3882841934
 30
0.0
 10
4.1890910192
 20
2.3748790127
 30
0.0
 10
4.1896066248
 20
2.3610661559
 30
0.0
 10
4.1873872756
 20
2.3473835814
 30
0.0
 10
4.1824680045
 20
2.3344244473
 30
0.0
 10
4.1751150485
 20
2.3227199577
 30
0.0
 10
4.1657596696
 20
2.312642311
 30
0.0
 10
4.1584815631
 20
2.3071050704
 30
0.0
 10
4.154668868
 20
2.3046461016
 30
0.0
  0
SPLINE
  5
3F0
100
AcDbEntity
  8
ALL_ASSEMBLY_MEMBERS
100
AcDbSpline
 62
7
  6
CONTINUOUS
 70
0
 71
3
 72
23
 73
19
 74
0
 42
0.0000001
 43
0.0000001
 44
0.0000000001
 40
0.0
 40
0.0
 40
0.0
 40
0.0
 40
0.0623049202
 40
0.1246728764
 40
0.18710208
 40
0.2495926531
 40
0.3121388363
 40
0.374731457
 40
0.4373569929
 40
0.499999664
 40
0.5626423736
 40
0.6252679927
 40
0.6878607027
 40
0.7504069755
 40
0.8128976508
 40
0.8753269391
 40
0.937695013
 40
1.0
 40
1.0
 40
1.0
 40
1.0
 10
4.1616340315
 20
2.405788471
 30
0.0
 10
4.1627018189
 20
2.4037646149
 30
0.0
 10
4.1646823282
 20
2.3996299177
 30
0.0
 10
4.1671348018
 20
2.3932023823
 30
0.0
 10
4.1690233127
 20
2.3865786767
 30
0.0
 10
4.1703027612
 20
2.3798034434
 30
0.0
 10
4.1709340905
 20
2.3729305534
 30
0.0
 10
4.1708873082
 20
2.366023257
 30
0.0
 10
4.1701443778
 20
2.3591518052
 30
0.0
 10
4.1687015159
 20
2.3523904416
 30
0.0
 10
4.1665703988
 20
2.3458134913
 30
0.0
 10
4.1637780699
 20
2.3394911655
 30
0.0
 10
4.1603649344
 20
2.3334858703
 30
0.0
 10
4.1563817403
 20
2.3278494264
 30
0.0
 10
4.1518860845
 20
2.3226216166
 30
0.0
 10
4.1469387276
 20
2.3178295645
 30
0.0
 10
4.1416010481
 20
2.3134893857
 30
0.0
 10
4.1378185228
 20
2.3108988832
 30
0.0
 10
4.1358818617
 20
2.3096800648
 30
0.0
  0
SPLINE
  5
3F1
100
AcDbEntity
  8
ALL_ASSEMBLY_MEMBERS
100
AcDbSpline
 62
7
  6
CONTINUOUS
 70
0
 71
3
 72
19
 73
15
 74
0
 42
0.0000001
 43
0.0000001
 44
0.0000000001
 40
0.0
 40
0.0
 40
0.0
 40
0.0
 40
0.058158681
 40
0.1177834955
 40
0.1788412436
 40
0.2412405985
 40
0.3692852552
 40
0.5000003243
 40
0.6307153027
 40
0.7587597636
 40
0.8211590134
 40
0.8822166725
 40
0.9418413831
 40
1.0
 40
1.0
 40
1.0
 40
1.0
 10
3.8692719427
 20
2.3811179773
 30
0.0
 10
3.868623015
 20
2.3830509899
 30
0.0
 10
3.8674504532
 20
2.3870148907
 30
0.0
 10
3.8661101125
 20
2.3931454012
 30
0.0
 10
3.8651983768
 20
2.3995052322
 30
0.0
 10
3.8645879755
 20
2.4083082353
 30
0.0
 10
3.8650591855
 20
2.4196025391
 30
0.0
 10
3.8676268059
 20
2.4330631623
 30
0.0
 10
3.8721334973
 20
2.4460042055
 30
0.0
 10
3.8773725704
 20
2.4560209483
 30
0.0
 10
3.8823026898
 20
2.4633393588
 30
0.0
 10
3.8862721867
 20
2.4683912567
 30
0.0
 10
3.8904982053
 20
2.4730302572
 30
0.0
 10
3.8934956201
 20
2.4758768108
 30
0.0
 10
3.8950241125
 20
2.4772263835
 30
0.0
  0
SPLINE
  5
3F2
100
AcDbEntity
  8
ALL_ASSEMBLY_MEMBERS
100
AcDbSpline
 62
7
  6
CONTINUOUS
 70
0
 71
3
 72
17
 73
13
 74
0
 42
0.0000001
 43
0.0000001
 44
0.0000000001
 40
0.0
 40
0.0
 40
0.0
 40
0.0
 40
0.1249929652
 40
0.2497976919
 40
0.3121533598
 40
0.3744907739
 40
0.4368244211
 40
0.4991736932
 40
0.6239820174
 40
0.7490191843
 40
0.8743471316
 40
1.0
 40
1.0
 40
1.0
 40
1.0
 10
5.1926281945
 20
6.1627330025
 30
0.0
 10
5.1914243945
 20
6.1556163278
 30
0.0
 10
5.1892026556
 20
6.1413618147
 30
0.0
 10
5.1869175817
 20
6.1234792489
 30
0.0
 10
5.1854034748
 20
6.1091512216
 30
0.0
 10
5.1844295753
 20
6.0983948564
 30
0.0
 10
5.1836182293
 20
6.0876254296
 30
0.0
 10
5.1827316569
 20
6.0732453942
 30
0.0
 10
5.1819549114
 20
6.0552326769
 30
0.0
 10
5.1814378379
 20
6.0335734058
 30
0.0
 10
5.1812199774
 20
6.0118607407
 30
0.0
 10
5.1811972715
 20
5.9973676958
 30
0.0
 10
5.1811972715
 20
5.9901118202
 30
0.0
  0
SPLINE
  5
3F3
100
AcDbEntity
  8
ALL_ASSEMBLY_MEMBERS
100
AcDbSpline
 62
7
  6
CONTINUOUS
 70
0
 71
3
 72
9
 73
5
 74
0
 42
0.0000001
 43
0.0000001
 44
0.0000000001
 40
0.0
 40
0.0
 40
0.0
 40
0.0
 40
0.2498549683
 40
1.0
 40
1.0
 40
1.0
 40
1.0
 10
5.5615523751
 20
6.1619741896
 30
0.0
 10
5.5555135364
 20
6.1632195026
 30
0.0
 10
5.5313754871
 20
6.168356378
 30
0.0
 10
5.5073450273
 20
6.173982844
 30
0.0
 10
5.4893381202
 20
6.1782777867
 30
0.0
  0
SPLINE
  5
3F4
100
AcDbEntity
  8
ALL_ASSEMBLY_MEMBERS
100
AcDbSpline
 62
7
  6
CONTINUOUS
 70
0
 71
3
 72
11
 73
7
 74
0
 42
0.0000001
 43
0.0000001
 44
0.0000000001
 40
0.0
 40
0.0
 40
0.0
 40
0.0
 40
0.2502387584
 40
0.5001214141
 40
0.7498766087
 40
1.0
 40
1.0
 40
1.0
 40
1.0
 10
5.396544517
 20
6.2000456386
 30
0.0
 10
5.3848614686
 20
6.2026067078
 30
0.0
 10
5.3614614162
 20
6.2075008016
 30
0.0
 10
5.3261767622
 20
6.2138308498
 30
0.0
 10
5.2906788437
 20
6.2188120457
 30
0.0
 10
5.2668744678
 20
6.2210068763
 30
0.0
 10
5.2549438041
 20
6.2217685097
 30
0.0
  0
SPLINE
  5
3F5
100
AcDbEntity
  8
ALL_ASSEMBLY_MEMBERS
100
AcDbSpline
 62
7
  6
CONTINUOUS
 70
0
 71
3
 72
17
 73
13
 74
0
 42
0.0000001
 43
0.0000001
 44
0.0000000001
 40
0.0
 40
0.0
 40
0.0
 40
0.0
 40
0.1249929652
 40
0.2497976919
 40
0.3121533598
 40
0.3744907739
 40
0.4368244211
 40
0.4991736932
 40
0.6239820174
 40
0.7490191843
 40
0.8743471316
 40
1.0
 40
1.0
 40
1.0
 40
1.0
 10
5.1926281945
 20
5.8174906378
 30
0.0
 10
5.1914243945
 20
5.8246073125
 30
0.0
 10
5.1892026556
 20
5.8388618256
 30
0.0
 10
5.1869175817
 20
5.8567443914
 30
0.0
 10
5.1854034748
 20
5.8710724187
 30
0.0
 10
5.1844295753
 20
5.881828784
 30
0.0
 10
5.1836182293
 20
5.8925982107
 30
0.0
 10
5.1827316569
 20
5.9069782462
 30
0.0
 10
5.1819549114
 20
5.9249909634
 30
0.0
 10
5.1814378379
 20
5.9466502346
 30
0.0
 10
5.1812199774
 20
5.9683628996
 30
0.0
 10
5.1811972715
 20
5.9828559445
 30
0.0
 10
5.1811972715
 20
5.9901118202
 30
0.0
  0
SPLINE
  5
3F6
100
AcDbEntity
  8
ALL_ASSEMBLY_MEMBERS
100
AcDbSpline
 62
7
  6
CONTINUOUS
 70
0
 71
3
 72
9
 73
5
 74
0
 42
0.0000001
 43
0.0000001
 44
0.0000000001
 40
0.0
 40
0.0
 40
0.0
 40
0.0
 40
0.2498549683
 40
1.0
 40
1.0
 40
1.0
 40
1.0
 10
5.5615523751
 20
5.8182494507
 30
0.0
 10
5.5555135364
 20
5.8170041377
 30
0.0
 10
5.5313754871
 20
5.8118672623
 30
0.0
 10
5.5073450273
 20
5.8062407963
 30
0.0
 10
5.4893381202
 20
5.8019458536
 30
0.0
  0
SPLINE
  5
3F7
100
AcDbEntity
  8
ALL_ASSEMBLY_MEMBERS
100
AcDbSpline
 62
7
  6
CONTINUOUS
 70
0
 71
3
 72
11
 73
7
 74
0
 42
0.0000001
 43
0.0000001
 44
0.0000000001
 40
0.0
 40
0.0
 40
0.0
 40
0.0
 40
0.2502387584
 40
0.5001214141
 40
0.7498766087
 40
1.0
 40
1.0
 40
1.0
 40
1.0
 10
5.396544517
 20
5.7801780017
 30
0.0
 10
5.3848614686
 20
5.7776169325
 30
0.0
 10
5.3614614162
 20
5.7727228387
 30
0.0
 10
5.3261767622
 20
5.7663927905
 30
0.0
 10
5.2906788437
 20
5.7614115946
 30
0.0
 10
5.2668744678
 20
5.7592167641
 30
0.0
 10
5.2549438041
 20
5.7584551306
 30
0.0
  0
LINE
  5
3F8
100
AcDbEntity
  8
ALL_ASSEMBLY_MEMBERS
100
AcDbLine
 62
7
  6
CONTINUOUS
 10
6.006621133
 20
5.8183448174
 11
6.0070226136
 21
5.8183653686
  0
LINE
  5
3F9
100
AcDbEntity
  8
ALL_ASSEMBLY_MEMBERS
100
AcDbLine
 62
7
  6
CONTINUOUS
 10
6.0070225415
 20
6.1618582718
 11
6.0066207902
 21
6.1618788376
  0
SPLINE
  5
3FA
100
AcDbEntity
  8
ALL_ASSEMBLY_MEMBERS
100
AcDbSpline
 62
7
  6
CONTINUOUS
 70
0
 71
3
 72
10
 73
6
 74
0
 42
0.0000001
 43
0.0000001
 44
0.0000000001
 40
0.0
 40
0.0
 40
0.0
 40
0.0
 40
0.5134729153
 40
0.7601644394
 40
1.0
 40
1.0
 40
1.0
 40
1.0
 10
5.9963303648
 20
6.2323982708
 30
0.0
 10
5.9976977619
 20
6.2318884074
 30
0.0
 10
5.9996690011
 20
6.2309745333
 30
0.0
 10
6.0020843769
 20
6.2294727944
 30
0.0
 10
6.0031980675
 20
6.2286501226
 30
0.0
 10
6.0037302287
 20
6.2282241581
 30
0.0
  0
SPLINE
  5
3FB
100
AcDbEntity
  8
ALL_ASSEMBLY_MEMBERS
100
AcDbSpline
 62
7
  6
CONTINUOUS
 70
0
 71
3
 72
10
 73
6
 74
0
 42
0.0000001
 43
0.0000001
 44
0.0000000001
 40
0.0
 40
0.0
 40
0.0
 40
0.0
 40
0.2684670386
 40
0.5245570024
 40
1.0
 40
1.0
 40
1.0
 40
1.0
 10
5.9963303643
 20
6.2313362003
 30
0.0
 10
5.9973617039
 20
6.2309787828
 30
0.0
 10
5.9993409257
 20
6.230168598
 30
0.0
 10
6.00290726
 20
6.2282036181
 30
0.0
 10
6.0052551443
 20
6.2263257247
 30
0.0
 10
6.0066219759
 20
6.2249588436
 30
0.0
  0
SPLINE
  5
3FC
100
AcDbEntity
  8
ALL_ASSEMBLY_MEMBERS
100
AcDbSpline
 62
7
  6
CONTINUOUS
 70
0
 71
3
 72
12
 73
8
 74
0
 42
0.0000001
 43
0.0000001
 44
0.0000000001
 40
0.0
 40
0.0
 40
0.0
 40
0.0
 40
0.2749979374
 40
0.5339951975
 40
0.6568944542
 40
0.7753458502
 40
1.0
 40
1.0
 40
1.0
 40
1.0
 10
5.9929664033
 20
6.2300255938
 30
0.0
 10
5.994350039
 20
6.2297419667
 30
0.0
 10
5.9970056864
 20
6.2290220506
 30
0.0
 10
6.0001270674
 20
6.2277129164
 30
0.0
 10
6.0023799515
 20
6.2264722877
 30
0.0
 10
6.0043911315
 20
6.2251722399
 30
0.0
 10
6.0057726011
 20
6.224067005
 30
0.0
 10
6.0066219836
 20
6.22328605
 30
0.0
  0
SPLINE
  5
3FD
100
AcDbEntity
  8
ALL_ASSEMBLY_MEMBERS
100
AcDbSpline
 62
7
  6
CONTINUOUS
 70
0
 71
3
 72
11
 73
7
 74
0
 42
0.0000001
 43
0.0000001
 44
0.0000000001
 40
0.0
 40
0.0
 40
0.0
 40
0.0
 40
0.2785160438
 40
0.5389913727
 40
0.7791384391
 40
1.0
 40
1.0
 40
1.0
 40
1.0
 10
5.9929664033
 20
6.2266434306
 30
0.0
 10
5.9943462461
 20
6.2263866943
 30
0.0
 10
5.9969913454
 20
6.2257369486
 30
0.0
 10
6.0006707938
 20
6.2243376188
 30
0.0
 10
6.0038812544
 20
6.2226090855
 30
0.0
 10
6.0057674326
 20
6.2212392568
 30
0.0
 10
6.006621939
 20
6.220526125
 30
0.0
  0
SPLINE
  5
3FE
100
AcDbEntity
  8
ALL_ASSEMBLY_MEMBERS
100
AcDbSpline
 62
7
  6
CONTINUOUS
 70
0
 71
3
 72
12
 73
8
 74
0
 42
0.0000001
 43
0.0000001
 44
0.0000000001
 40
0.0
 40
0.0
 40
0.0
 40
0.0
 40
0.2820890961
 40
0.5439201964
 40
0.6663193461
 40
0.7829292371
 40
1.0
 40
1.0
 40
1.0
 40
1.0
 10
5.9929664033
 20
6.2221584478
 30
0.0
 10
5.9943430085
 20
6.2219295603
 30
0.0
 10
5.9969771445
 20
6.2213520066
 30
0.0
 10
6.0001063885
 20
6.220291146
 30
0.0
 10
6.0023704953
 20
6.2192808646
 30
0.0
 10
6.0043699439
 20
6.2182334475
 30
0.0
 10
6.005760907
 20
6.217333994
 30
0.0
 10
6.0066217328
 20
6.2166920081
 30
0.0
  0
SPLINE
  5
3FF
100
AcDbEntity
  8
ALL_ASSEMBLY_MEMBERS
100
AcDbSpline
 62
7
  6
CONTINUOUS
 70
0
 71
3
 72
11
 73
7
 74
0
 42
0.0000001
 43
0.0000001
 44
0.0000000001
 40
0.0
 40
0.0
 40
0.0
 40
0.0
 40
0.2856405334
 40
0.5489483755
 40
0.7867486966
 40
1.0
 40
1.0
 40
1.0
 40
1.0
 10
5.9929664033
 20
6.2165915566
 30
0.0
 10
5.9943398235
 20
6.2163914466
 30
0.0
 10
5.9969639374
 20
6.2158877577
 30
0.0
 10
6.000635664
 20
6.2147993785
 30
0.0
 10
6.0038416515
 20
6.2134503918
 30
0.0
 10
6.0057544749
 20
6.2123681034
 30
0.0
 10
6.0066218567
 20
6.2118012472
 30
0.0
  0
SPLINE
  5
400
100
AcDbEntity
  8
ALL_ASSEMBLY_MEMBERS
100
AcDbSpline
 62
7
  6
CONTINUOUS
 70
0
 71
3
 72
11
 73
7
 74
0
 42
0.0000001
 43
0.0000001
 44
0.0000000001
 40
0.0
 40
0.0
 40
0.0
 40
0.0
 40
0.2890060438
 40
0.5537237725
 40
0.7904742518
 40
1.0
 40
1.0
 40
1.0
 40
1.0
 10
5.9929664033
 20
6.2099687123
 30
0.0
 10
5.9943369193
 20
6.2097981446
 30
0.0
 10
5.9969516433
 20
6.2093699571
 30
0.0
 10
6.0006189067
 20
6.2084428294
 30
0.0
 10
6.0038221637
 20
6.2072936222
 30
0.0
 10
6.0057475733
 20
6.2063649943
 30
0.0
 10
6.00662185
 20
6.2058769508
 30
0.0
  0
SPLINE
  5
401
100
AcDbEntity
  8
ALL_ASSEMBLY_MEMBERS
100
AcDbSpline
 62
7
  6
CONTINUOUS
 70
0
 71
3
 72
11
 73
7
 74
0
 42
0.0000001
 43
0.0000001
 44
0.0000000001
 40
0.0
 40
0.0
 40
0.0
 40
0.0
 40
0.2920521388
 40
0.5581286014
 40
0.7940287951
 40
1.0
 40
1.0
 40
1.0
 40
1.0
 10
5.9929664033
 20
6.2023207936
 30
0.0
 10
5.9943341546
 20
6.2021804243
 30
0.0
 10
5.9969405434
 20
6.2018290692
 30
0.0
 10
6.0006035012
 20
6.2010653726
 30
0.0
 10
6.0038041252
 20
6.200121768
 30
0.0
 10
6.0057408785
 20
6.1993521636
 30
0.0
 10
6.0066217151
 20
6.1989466935
 30
0.0
  0
SPLINE
  5
402
100
AcDbEntity
  8
ALL_ASSEMBLY_MEMBERS
100
AcDbSpline
 62
7
  6
CONTINUOUS
 70
0
 71
3
 72
11
 73
7
 74
0
 42
0.0000001
 43
0.0000001
 44
0.0000000001
 40
0.0
 40
0.0
 40
0.0
 40
0.0
 40
0.2947854706
 40
0.5619843308
 40
0.7969834203
 40
1.0
 40
1.0
 40
1.0
 40
1.0
 10
5.9929664033
 20
6.1936834588
 30
0.0
 10
5.9943322856
 20
6.1935737482
 30
0.0
 10
5.996931637
 20
6.193299546
 30
0.0
 10
6.0005904644
 20
6.1927040634
 30
0.0
 10
6.0037869963
 20
6.1919662251
 30
0.0
 10
6.0057341559
 20
6.1913624925
 30
0.0
 10
6.0066219965
 20
6.1910426272
 30
0.0
  0
SPLINE
  5
403
100
AcDbEntity
  8
ALL_ASSEMBLY_MEMBERS
100
AcDbSpline
 62
7
  6
CONTINUOUS
 70
0
 71
3
 72
11
 73
7
 74
0
 42
0.0000001
 43
0.0000001
 44
0.0000000001
 40
0.0
 40
0.0
 40
0.0
 40
0.0
 40
0.2969561909
 40
0.5651529805
 40
0.7994875842
 40
1.0
 40
1.0
 40
1.0
 40
1.0
 10
5.9929664033
 20
6.184096979
 30
0.0
 10
5.9943306333
 20
6.1840183421
 30
0.0
 10
5.9969246055
 20
6.1838220313
 30
0.0
 10
6.0005800036
 20
6.1833957034
 30
0.0
 10
6.0037730248
 20
6.1828671526
 30
0.0
 10
6.0057278138
 20
6.1824329749
 30
0.0
 10
6.0066211312
 20
6.1822020106
 30
0.0
  0
SPLINE
  5
404
100
AcDbEntity
  8
ALL_ASSEMBLY_MEMBERS
100
AcDbSpline
 62
7
  6
CONTINUOUS
 70
0
 71
3
 72
11
 73
7
 74
0
 42
0.0000001
 43
0.0000001
 44
0.0000000001
 40
0.0
 40
0.0
 40
0.0
 40
0.0
 40
0.2984047953
 40
0.5672531768
 40
0.8012844457
 40
1.0
 40
1.0
 40
1.0
 40
1.0
 10
5.9929664033
 20
6.1736060509
 30
0.0
 10
5.9943293226
 20
6.1735587671
 30
0.0
 10
5.9969193229
 20
6.1734409788
 30
0.0
 10
6.0005726881
 20
6.1731841693
 30
0.0
 10
6.003763825
 20
6.1728672175
 30
0.0
 10
6.0057246113
 20
6.1726050548
 30
0.0
 10
6.0066219614
 20
6.1724654176
 30
0.0
  0
LINE
  5
405
100
AcDbEntity
  8
ALL_ASSEMBLY_MEMBERS
100
AcDbLine
 62
7
  6
CONTINUOUS
 10
5.9929664033
 20
6.1622595879
 11
6.0066207902
 21
6.1618788376
  0
LINE
  5
406
100
AcDbEntity
  8
ALL_ASSEMBLY_MEMBERS
100
AcDbLine
 62
7
  6
CONTINUOUS
 10
5.9929664033
 20
5.8179640524
 11
6.006621133
 21
5.8183448174
  0
SPLINE
  5
407
100
AcDbEntity
  8
ALL_ASSEMBLY_MEMBERS
100
AcDbSpline
 62
7
  6
CONTINUOUS
 70
0
 71
3
 72
11
 73
7
 74
0
 42
0.0000001
 43
0.0000001
 44
0.0000000001
 40
0.0
 40
0.0
 40
0.0
 40
0.0
 40
0.2984484456
 40
0.5672608329
 40
0.8011882741
 40
1.0
 40
1.0
 40
1.0
 40
1.0
 10
5.9929664033
 20
5.8066175894
 30
0.0
 10
5.9943294567
 20
5.8066648779
 30
0.0
 10
5.9969193597
 20
5.8067827482
 30
0.0
 10
6.0005721458
 20
5.8070391225
 30
0.0
 10
6.0037628729
 20
5.8073565917
 30
0.0
 10
6.0057235687
 20
5.8076184348
 30
0.0
 10
6.00662131
 20
5.8077581334
 30
0.0
  0
SPLINE
  5
408
100
AcDbEntity
  8
ALL_ASSEMBLY_MEMBERS
100
AcDbSpline
 62
7
  6
CONTINUOUS
 70
0
 71
3
 72
11
 73
7
 74
0
 42
0.0000001
 43
0.0000001
 44
0.0000000001
 40
0.0
 40
0.0
 40
0.0
 40
0.0
 40
0.2969552765
 40
0.5651528581
 40
0.79948776
 40
1.0
 40
1.0
 40
1.0
 40
1.0
 10
5.9929664033
 20
5.7961266613
 30
0.0
 10
5.9943306287
 20
5.796205298
 30
0.0
 10
5.9969245996
 20
5.796401609
 30
0.0
 10
6.000579998
 20
5.7968279342
 30
0.0
 10
6.0037730215
 20
5.797356491
 30
0.0
 10
6.0057278124
 20
5.7977906602
 30
0.0
 10
6.0066211289
 20
5.798021624
 30
0.0
  0
SPLINE
  5
409
100
AcDbEntity
  8
ALL_ASSEMBLY_MEMBERS
100
AcDbSpline
 62
7
  6
CONTINUOUS
 70
0
 71
3
 72
11
 73
7
 74
0
 42
0.0000001
 43
0.0000001
 44
0.0000000001
 40
0.0
 40
0.0
 40
0.0
 40
0.0
 40
0.2947847098
 40
0.5619841705
 40
0.7969839211
 40
1.0
 40
1.0
 40
1.0
 40
1.0
 10
5.9929664033
 20
5.7865401815
 30
0.0
 10
5.9943322571
 20
5.7866498899
 30
0.0
 10
5.9969315605
 20
5.7869240844
 30
0.0
 10
6.0005903236
 20
5.7875195543
 30
0.0
 10
6.0037868043
 20
5.788257362
 30
0.0
 10
6.0057339315
 20
5.7888610774
 30
0.0
 10
6.0066217534
 20
5.7891809365
 30
0.0
  0
SPLINE
  5
40A
100
AcDbEntity
  8
ALL_ASSEMBLY_MEMBERS
100
AcDbSpline
 62
7
  6
CONTINUOUS
 70
0
 71
3
 72
11
 73
7
 74
0
 42
0.0000001
 43
0.0000001
 44
0.0000000001
 40
0.0
 40
0.0
 40
0.0
 40
0.0
 40
0.2920963353
 40
0.5581324
 40
0.7939387555
 40
1.0
 40
1.0
 40
1.0
 40
1.0
 10
5.9929664033
 20
5.7779028467
 30
0.0
 10
5.9943343411
 20
5.7780432352
 30
0.0
 10
5.9969406453
 20
5.778394819
 30
0.0
 10
6.000603406
 20
5.7791573609
 30
0.0
 10
6.00380331
 20
5.780102417
 30
0.0
 10
6.0057403107
 20
5.780871211
 30
0.0
 10
6.0066215192
 20
5.7812768521
 30
0.0
  0
SPLINE
  5
40B
100
AcDbEntity
  8
ALL_ASSEMBLY_MEMBERS
100
AcDbSpline
 62
7
  6
CONTINUOUS
 70
0
 71
3
 72
11
 73
7
 74
0
 42
0.0000001
 43
0.0000001
 44
0.0000000001
 40
0.0
 40
0.0
 40
0.0
 40
0.0
 40
0.2890055447
 40
0.5537239294
 40
0.7904747576
 40
1.0
 40
1.0
 40
1.0
 40
1.0
 10
5.9929664033
 20
5.770254928
 30
0.0
 10
5.9943368951
 20
5.7704254927
 30
0.0
 10
5.9969515791
 20
5.7708536702
 30
0.0
 10
6.0006187868
 20
5.7717807812
 30
0.0
 10
6.0038220026
 20
5.7729299491
 30
0.0
 10
6.0057473857
 20
5.7738585537
 30
0.0
 10
6.0066216461
 20
5.7743465887
 30
0.0
  0
SPLINE
  5
40C
100
AcDbEntity
  8
ALL_ASSEMBLY_MEMBERS
100
AcDbSpline
 62
7
  6
CONTINUOUS
 70
0
 71
3
 72
11
 73
7
 74
0
 42
0.0000001
 43
0.0000001
 44
0.0000000001
 40
0.0
 40
0.0
 40
0.0
 40
0.0
 40
0.2856409673
 40
0.5489495697
 40
0.7867492971
 40
1.0
 40
1.0
 40
1.0
 40
1.0
 10
5.9929664033
 20
5.7636320837
 30
0.0
 10
5.9943398348
 20
5.7638321954
 30
0.0
 10
5.9969639722
 20
5.7643358885
 30
0.0
 10
6.0006357236
 20
5.7654242852
 30
0.0
 10
6.0038417286
 20
5.7667732851
 30
0.0
 10
6.0057545569
 20
5.7678555827
 30
0.0
 10
6.0066219423
 20
5.7684224409
 30
0.0
  0
SPLINE
  5
40D
100
AcDbEntity
  8
ALL_ASSEMBLY_MEMBERS
100
AcDbSpline
 62
7
  6
CONTINUOUS
 70
0
 71
3
 72
12
 73
8
 74
0
 42
0.0000001
 43
0.0000001
 44
0.0000000001
 40
0.0
 40
0.0
 40
0.0
 40
0.0
 40
0.2820891305
 40
0.5439209653
 40
0.6663202732
 40
0.7829297721
 40
1.0
 40
1.0
 40
1.0
 40
1.0
 10
5.9929664033
 20
5.7580651925
 30
0.0
 10
5.9943430029
 20
5.7582940791
 30
0.0
 10
5.9969771321
 20
5.7588716295
 30
0.0
 10
6.0001063668
 20
5.7599324887
 30
0.0
 10
6.0023704671
 20
5.7609427652
 30
0.0
 10
6.0043699076
 20
5.761990169
 30
0.0
 10
6.0057608623
 20
5.7628896148
 30
0.0
 10
6.0066216823
 20
5.7635315965
 30
0.0
  0
SPLINE
  5
40E
100
AcDbEntity
  8
ALL_ASSEMBLY_MEMBERS
100
AcDbSpline
 62
7
  6
CONTINUOUS
 70
0
 71
3
 72
12
 73
8
 74
0
 42
0.0000001
 43
0.0000001
 44
0.0000000001
 40
0.0
 40
0.0
 40
0.0
 40
0.0
 40
0.2785212191
 40
0.5389126745
 40
0.6615565094
 40
0.7790900705
 40
1.0
 40
1.0
 40
1.0
 40
1.0
 10
5.9929664033
 20
5.7535802097
 30
0.0
 10
5.9943464444
 20
5.7538369829
 30
0.0
 10
5.9969912245
 20
5.7544868054
 30
0.0
 10
6.000116769
 20
5.7556745995
 30
0.0
 10
6.0023752863
 20
5.7568029375
 30
0.0
 10
6.0043808257
 20
5.7579791252
 30
0.0
 10
6.0057670192
 20
5.7589840455
 30
0.0
 10
6.0066218195
 20
5.7596974229
 30
0.0
  0
SPLINE
  5
40F
100
AcDbEntity
  8
ALL_ASSEMBLY_MEMBERS
100
AcDbSpline
 62
7
  6
CONTINUOUS
 70
0
 71
3
 72
12
 73
8
 74
0
 42
0.0000001
 43
0.0000001
 44
0.0000000001
 40
0.0
 40
0.0
 40
0.0
 40
0.0
 40
0.2749981551
 40
0.5339962109
 40
0.6568955927
 40
0.7753464919
 40
1.0
 40
1.0
 40
1.0
 40
1.0
 10
5.9929664033
 20
5.7501980466
 30
0.0
 10
5.9943500411
 20
5.750481674
 30
0.0
 10
5.9970056959
 20
5.7512015909
 30
0.0
 10
6.0001270825
 20
5.7525107338
 30
0.0
 10
6.0023799688
 20
5.7537513666
 30
0.0
 10
6.0043911484
 20
5.7550514089
 30
0.0
 10
6.0057726119
 20
5.7561566443
 30
0.0
 10
6.0066219927
 20
5.7569375975
 30
0.0
  0
SPLINE
  5
410
100
AcDbEntity
  8
ALL_ASSEMBLY_MEMBERS
100
AcDbSpline
 62
7
  6
CONTINUOUS
 70
0
 71
3
 72
10
 73
6
 74
0
 42
0.0000001
 43
0.0000001
 44
0.0000000001
 40
0.0
 40
0.0
 40
0.0
 40
0.0
 40
0.2398347517
 40
0.4865245713
 40
1.0
 40
1.0
 40
1.0
 40
1.0
 10
6.0037356859
 20
5.7520038507
 30
0.0
 10
6.0032037107
 20
5.7515778045
 30
0.0
 10
6.0020903987
 20
5.7507549475
 30
0.0
 10
5.9996757806
 20
5.7492527166
 30
0.0
 10
5.9977050647
 20
5.7483384033
 30
0.0
 10
5.9963379909
 20
5.747828215
 30
0.0
  0
SPLINE
  5
411
100
AcDbEntity
  8
ALL_ASSEMBLY_MEMBERS
100
AcDbSpline
 62
7
  6
CONTINUOUS
 70
0
 71
3
 72
11
 73
7
 74
0
 42
0.0000001
 43
0.0000001
 44
0.0000000001
 40
0.0
 40
0.0
 40
0.0
 40
0.0
 40
0.2322959443
 40
0.4759775792
 40
0.7316672977
 40
1.0
 40
1.0
 40
1.0
 40
1.0
 10
5.9653462599
 20
6.2245639809
 30
0.0
 10
5.966029887
 20
6.2252663978
 30
0.0
 10
5.9675147948
 20
6.2266260295
 30
0.0
 10
5.9700151934
 20
6.2284474029
 30
0.0
 10
5.972836155
 20
6.2300532174
 30
0.0
 10
5.9748759041
 20
6.2309218514
 30
0.0
 10
5.9759412782
 20
6.2313051507
 30
0.0
  0
SPLINE
  5
412
100
AcDbEntity
  8
ALL_ASSEMBLY_MEMBERS
100
AcDbSpline
 62
7
  6
CONTINUOUS
 70
0
 71
3
 72
10
 73
6
 74
0
 42
0.0000001
 43
0.0000001
 44
0.0000000001
 40
0.0
 40
0.0
 40
0.0
 40
0.0
 40
0.4653892834
 40
0.7243512226
 40
1.0
 40
1.0
 40
1.0
 40
1.0
 10
5.9653462599
 20
6.2229230175
 30
0.0
 10
5.9671289349
 20
6.2246070667
 30
0.0
 10
5.9703114907
 20
6.2268245269
 30
0.0
 10
5.9751438875
 20
6.2289466887
 30
0.0
 10
5.9778639857
 20
6.229724358
 30
0.0
 10
5.9792849177
 20
6.2300255938
 30
0.0
  0
SPLINE
  5
413
100
AcDbEntity
  8
ALL_ASSEMBLY_MEMBERS
100
AcDbSpline
 62
7
  6
CONTINUOUS
 70
0
 71
3
 72
11
 73
7
 74
0
 42
0.0000001
 43
0.0000001
 44
0.0000000001
 40
0.0
 40
0.0
 40
0.0
 40
0.0
 40
0.22100621
 40
0.5882353
 40
0.7890740851
 40
1.0
 40
1.0
 40
1.0
 40
1.0
 10
5.9653462599
 20
6.2201965808
 30
0.0
 10
5.9662138054
 20
6.220940467
 30
0.0
 10
5.9686672518
 20
6.2227547444
 30
0.0
 10
5.9723297356
 20
6.2246171816
 30
0.0
 10
5.9761407285
 20
6.2259338878
 30
0.0
 10
5.9782138864
 20
6.2264373358
 30
0.0
 10
5.9792849177
 20
6.2266434306
 30
0.0
  0
SPLINE
  5
414
100
AcDbEntity
  8
ALL_ASSEMBLY_MEMBERS
100
AcDbSpline
 62
7
  6
CONTINUOUS
 70
0
 71
3
 72
11
 73
7
 74
0
 42
0.0000001
 43
0.0000001
 44
0.0000000001
 40
0.0
 40
0.0
 40
0.0
 40
0.0
 40
0.2170685725
 40
0.4559145304
 40
0.7173526331
 40
1.0
 40
1.0
 40
1.0
 40
1.0
 10
5.9653462599
 20
6.2163973827
 30
0.0
 10
5.966220188
 20
6.2170670286
 30
0.0
 10
5.9681569841
 20
6.2183444004
 30
0.0
 10
5.9714260762
 20
6.2199605807
 30
0.0
 10
5.9751761616
 20
6.2212927235
 30
0.0
 10
5.977872045
 20
6.2219154943
 30
0.0
 10
5.9792849177
 20
6.2221584478
 30
0.0
  0
SPLINE
  5
415
100
AcDbEntity
  8
ALL_ASSEMBLY_MEMBERS
100
AcDbSpline
 62
7
  6
CONTINUOUS
 70
0
 71
3
 72
11
 73
7
 74
0
 42
0.0000001
 43
0.0000001
 44
0.0000000001
 40
0.0
 40
0.0
 40
0.0
 40
0.0
 40
0.2131612563
 40
0.4508519514
 40
0.7137109615
 40
1.0
 40
1.0
 40
1.0
 40
1.0
 10
5.9653462599
 20
6.2115431369
 30
0.0
 10
5.9662271725
 20
6.2121346371
 30
0.0
 10
5.9681770229
 20
6.2132591856
 30
0.0
 10
5.9714440501
 20
6.2146720839
 30
0.0
 10
5.9751908668
 20
6.2158365404
 30
0.0
 10
5.9778757361
 20
6.2163792127
 30
0.0
 10
5.9792849177
 20
6.2165915566
 30
0.0
  0
SPLINE
  5
416
100
AcDbEntity
  8
ALL_ASSEMBLY_MEMBERS
100
AcDbSpline
 62
7
  6
CONTINUOUS
 70
0
 71
3
 72
11
 73
7
 74
0
 42
0.0000001
 43
0.0000001
 44
0.0000000001
 40
0.0
 40
0.0
 40
0.0
 40
0.0
 40
0.2093609934
 40
0.4459648393
 40
0.7102159774
 40
1.0
 40
1.0
 40
1.0
 40
1.0
 10
5.9653462599
 20
6.205656476
 30
0.0
 10
5.9662345737
 20
6.206165966
 30
0.0
 10
5.9681970838
 20
6.2071306735
 30
0.0
 10
5.9714612463
 20
6.2083344506
 30
0.0
 10
5.9752044571
 20
6.2093266382
 30
0.0
 10
5.9778790887
 20
6.2097877649
 30
0.0
 10
5.9792849177
 20
6.2099687123
 30
0.0
  0
SPLINE
  5
417
100
AcDbEntity
  8
ALL_ASSEMBLY_MEMBERS
100
AcDbSpline
 62
7
  6
CONTINUOUS
 70
0
 71
3
 72
11
 73
7
 74
0
 42
0.0000001
 43
0.0000001
 44
0.0000000001
 40
0.0
 40
0.0
 40
0.0
 40
0.0
 40
0.2058182149
 40
0.4414243444
 40
0.7069847107
 40
1.0
 40
1.0
 40
1.0
 40
1.0
 10
5.9653462599
 20
6.1987648465
 30
0.0
 10
5.966242103
 20
6.1991885421
 30
0.0
 10
5.9682162531
 20
6.1999870402
 30
0.0
 10
5.9714769245
 20
6.2009771475
 30
0.0
 10
5.975216427
 20
6.2017933539
 30
0.0
 10
5.9778819705
 20
6.202171887
 30
0.0
 10
5.9792849177
 20
6.2023207936
 30
0.0
  0
SPLINE
  5
418
100
AcDbEntity
  8
ALL_ASSEMBLY_MEMBERS
100
AcDbSpline
 62
7
  6
CONTINUOUS
 70
0
 71
3
 72
11
 73
7
 74
0
 42
0.0000001
 43
0.0000001
 44
0.0000000001
 40
0.0
 40
0.0
 40
0.0
 40
0.0
 40
0.2026871536
 40
0.4374704911
 40
0.704188097
 40
1.0
 40
1.0
 40
1.0
 40
1.0
 10
5.9653462599
 20
6.1909003802
 30
0.0
 10
5.9662492598
 20
6.1912346367
 30
0.0
 10
5.968233593
 20
6.1918615691
 30
0.0
 10
5.9714907184
 20
6.1926345627
 30
0.0
 10
5.9752267239
 20
6.1932720546
 30
0.0
 10
5.9778844667
 20
6.1935671237
 30
0.0
 10
5.9792849177
 20
6.1936834588
 30
0.0
  0
SPLINE
  5
419
100
AcDbEntity
  8
ALL_ASSEMBLY_MEMBERS
100
AcDbSpline
 62
7
  6
CONTINUOUS
 70
0
 71
3
 72
11
 73
7
 74
0
 42
0.0000001
 43
0.0000001
 44
0.0000000001
 40
0.0
 40
0.0
 40
0.0
 40
0.0
 40
0.200149573
 40
0.4342243753
 40
0.701819176
 40
1.0
 40
1.0
 40
1.0
 40
1.0
 10
5.9653462599
 20
6.182099745
 30
0.0
 10
5.9662555073
 20
6.1823412787
 30
0.0
 10
5.9682476629
 20
6.1827923136
 30
0.0
 10
5.9715010047
 20
6.1833454541
 30
0.0
 10
5.9752339413
 20
6.1838026249
 30
0.0
 10
5.977885835
 20
6.1840135745
 30
0.0
 10
5.9792849177
 20
6.184096979
 30
0.0
  0
SPLINE
  5
41A
100
AcDbEntity
  8
ALL_ASSEMBLY_MEMBERS
100
AcDbSpline
 62
7
  6
CONTINUOUS
 70
0
 71
3
 72
11
 73
7
 74
0
 42
0.0000001
 43
0.0000001
 44
0.0000000001
 40
0.0
 40
0.0
 40
0.0
 40
0.0
 40
0.1983558386
 40
0.432000599
 40
0.70033532
 40
1.0
 40
1.0
 40
1.0
 40
1.0
 10
5.9653462599
 20
6.1724039735
 30
0.0
 10
5.9662601718
 20
6.1725500914
 30
0.0
 10
5.9682580517
 20
6.1728219139
 30
0.0
 10
5.9715092484
 20
6.1731545965
 30
0.0
 10
5.975240047
 20
6.1734291108
 30
0.0
 10
5.9778875956
 20
6.1735559153
 30
0.0
 10
5.9792849177
 20
6.1736060509
 30
0.0
  0
LINE
  5
41B
100
AcDbEntity
  8
ALL_ASSEMBLY_MEMBERS
100
AcDbLine
 62
7
  6
CONTINUOUS
 10
5.9653462599
 20
6.1618582718
 11
5.9792849177
 21
6.1622595879
  0
LINE
  5
41C
100
AcDbEntity
  8
ALL_ASSEMBLY_MEMBERS
100
AcDbLine
 62
7
  6
CONTINUOUS
 10
5.9792849177
 20
5.8179640524
 11
5.9653462599
 21
5.8183653686
  0
SPLINE
  5
41D
100
AcDbEntity
  8
ALL_ASSEMBLY_MEMBERS
100
AcDbSpline
 62
7
  6
CONTINUOUS
 70
0
 71
3
 72
11
 73
7
 74
0
 42
0.0000001
 43
0.0000001
 44
0.0000000001
 40
0.0
 40
0.0
 40
0.0
 40
0.0
 40
0.2996600976
 40
0.5679987008
 40
0.8016501054
 40
1.0
 40
1.0
 40
1.0
 40
1.0
 10
5.9792849177
 20
5.8066175894
 30
0.0
 10
5.977887617
 20
5.8066677243
 30
0.0
 10
5.9752400713
 20
5.8067945242
 30
0.0
 10
5.9715092455
 20
5.8070690461
 30
0.0
 10
5.9682580269
 20
5.8074017254
 30
0.0
 10
5.9662601444
 20
5.8076735533
 30
0.0
 10
5.9653462599
 20
5.8078196668
 30
0.0
  0
SPLINE
  5
41E
100
AcDbEntity
  8
ALL_ASSEMBLY_MEMBERS
100
AcDbSpline
 62
7
  6
CONTINUOUS
 70
0
 71
3
 72
11
 73
7
 74
0
 42
0.0000001
 43
0.0000001
 44
0.0000000001
 40
0.0
 40
0.0
 40
0.0
 40
0.0
 40
0.2981796092
 40
0.565772686
 40
0.7998480759
 40
1.0
 40
1.0
 40
1.0
 40
1.0
 10
5.9792849177
 20
5.7961266613
 30
0.0
 10
5.9778858407
 20
5.7962100655
 30
0.0
 10
5.9752339606
 20
5.7964210127
 30
0.0
 10
5.9715010351
 20
5.7968781827
 30
0.0
 10
5.9682476873
 20
5.7974313215
 30
0.0
 10
5.966255518
 20
5.7978823588
 30
0.0
 10
5.9653462599
 20
5.7981238953
 30
0.0
  0
SPLINE
  5
41F
100
AcDbEntity
  8
ALL_ASSEMBLY_MEMBERS
100
AcDbSpline
 62
7
  6
CONTINUOUS
 70
0
 71
3
 72
11
 73
7
 74
0
 42
0.0000001
 43
0.0000001
 44
0.0000000001
 40
0.0
 40
0.0
 40
0.0
 40
0.0
 40
0.2958183507
 40
0.5625417475
 40
0.7973152864
 40
1.0
 40
1.0
 40
1.0
 40
1.0
 10
5.9792849177
 20
5.7865401815
 30
0.0
 10
5.9778844362
 20
5.7866565191
 30
0.0
 10
5.9752266377
 20
5.7869516106
 30
0.0
 10
5.9714906174
 20
5.7875890864
 30
0.0
 10
5.9682335276
 20
5.7883620969
 30
0.0
 10
5.9662492489
 20
5.7889890076
 30
0.0
 10
5.9653462599
 20
5.7893232601
 30
0.0
  0
SPLINE
  5
420
100
AcDbEntity
  8
ALL_ASSEMBLY_MEMBERS
100
AcDbSpline
 62
7
  6
CONTINUOUS
 70
0
 71
3
 72
11
 73
7
 74
0
 42
0.0000001
 43
0.0000001
 44
0.0000000001
 40
0.0
 40
0.0
 40
0.0
 40
0.0
 40
0.2930107297
 40
0.5585749761
 40
0.7941877397
 40
1.0
 40
1.0
 40
1.0
 40
1.0
 10
5.9792849177
 20
5.7779028467
 30
0.0
 10
5.9778819922
 20
5.778051751
 30
0.0
 10
5.9752164497
 20
5.7784302711
 30
0.0
 10
5.9714769227
 20
5.7792464992
 30
0.0
 10
5.9682162253
 20
5.7802365983
 30
0.0
 10
5.9662420771
 20
5.7810351105
 30
0.0
 10
5.9653462599
 20
5.7814587938
 30
0.0
  0
SPLINE
  5
421
100
AcDbEntity
  8
ALL_ASSEMBLY_MEMBERS
100
AcDbSpline
 62
7
  6
CONTINUOUS
 70
0
 71
3
 72
11
 73
7
 74
0
 42
0.0000001
 43
0.0000001
 44
0.0000000001
 40
0.0
 40
0.0
 40
0.0
 40
0.0
 40
0.289790437
 40
0.5540472788
 40
0.7906415303
 40
1.0
 40
1.0
 40
1.0
 40
1.0
 10
5.9792849177
 20
5.770254928
 30
0.0
 10
5.9778790576
 20
5.7704358794
 30
0.0
 10
5.9752043726
 20
5.7708970402
 30
0.0
 10
5.9714611422
 20
5.7718892044
 30
0.0
 10
5.9681970219
 20
5.7730930054
 30
0.0
 10
5.966234563
 20
5.7740576805
 30
0.0
 10
5.9653462599
 20
5.7745671643
 30
0.0
  0
SPLINE
  5
422
100
AcDbEntity
  8
ALL_ASSEMBLY_MEMBERS
100
AcDbSpline
 62
7
  6
CONTINUOUS
 70
0
 71
3
 72
11
 73
7
 74
0
 42
0.0000001
 43
0.0000001
 44
0.0000000001
 40
0.0
 40
0.0
 40
0.0
 40
0.0
 40
0.2862954352
 40
0.5491600992
 40
0.7868413148
 40
1.0
 40
1.0
 40
1.0
 40
1.0
 10
5.9792849177
 20
5.7636320837
 30
0.0
 10
5.9778757047
 20
5.7638444323
 30
0.0
 10
5.9751907832
 20
5.7643871441
 30
0.0
 10
5.9714439442
 20
5.7655515744
 30
0.0
 10
5.9681769631
 20
5.7669644991
 30
0.0
 10
5.9662271618
 20
5.7680890103
 30
0.0
 10
5.9653462599
 20
5.7686805035
 30
0.0
  0
SPLINE
  5
423
100
AcDbEntity
  8
ALL_ASSEMBLY_MEMBERS
100
AcDbSpline
 62
7
  6
CONTINUOUS
 70
0
 71
3
 72
11
 73
7
 74
0
 42
0.0000001
 43
0.0000001
 44
0.0000000001
 40
0.0
 40
0.0
 40
0.0
 40
0.0
 40
0.2826537466
 40
0.5440974516
 40
0.782934047
 40
1.0
 40
1.0
 40
1.0
 40
1.0
 10
5.9792849177
 20
5.7580651925
 30
0.0
 10
5.9778720131
 20
5.7583081515
 30
0.0
 10
5.975176079
 20
5.7589309669
 30
0.0
 10
5.9714259685
 20
5.7602630811
 30
0.0
 10
5.9681569263
 20
5.7618792896
 30
0.0
 10
5.9662201774
 20
5.7631566199
 30
0.0
 10
5.9653462599
 20
5.7638262576
 30
0.0
  0
SPLINE
  5
424
100
AcDbEntity
  8
ALL_ASSEMBLY_MEMBERS
100
AcDbSpline
 62
7
  6
CONTINUOUS
 70
0
 71
3
 72
11
 73
7
 74
0
 42
0.0000001
 43
0.0000001
 44
0.0000000001
 40
0.0
 40
0.0
 40
0.0
 40
0.0
 40
0.1416842963
 40
0.2792567423
 40
0.6616238642
 40
1.0
 40
1.0
 40
1.0
 40
1.0
 10
5.9792849177
 20
5.7535802097
 30
0.0
 10
5.9785656941
 20
5.7537186074
 30
0.0
 10
5.9771564143
 20
5.7540374535
 30
0.0
 10
5.9738740715
 20
5.7550031535
 30
0.0
 10
5.9697742557
 20
5.7567710109
 30
0.0
 10
5.9666741359
 20
5.758888458
 30
0.0
 10
5.9653462599
 20
5.7600270596
 30
0.0
  0
SPLINE
  5
425
100
AcDbEntity
  8
ALL_ASSEMBLY_MEMBERS
100
AcDbSpline
 62
7
  6
CONTINUOUS
 70
0
 71
3
 72
10
 73
6
 74
0
 42
0.0000001
 43
0.0000001
 44
0.0000000001
 40
0.0
 40
0.0
 40
0.0
 40
0.0
 40
0.2756550926
 40
0.5346224995
 40
1.0
 40
1.0
 40
1.0
 40
1.0
 10
5.9792849177
 20
5.7501980466
 30
0.0
 10
5.977863953
 20
5.7504992892
 30
0.0
 10
5.9751438057
 20
5.7512770103
 30
0.0
 10
5.9703113914
 20
5.7533991343
 30
0.0
 10
5.9671288899
 20
5.7556166161
 30
0.0
 10
5.9653462599
 20
5.7573006228
 30
0.0
  0
SPLINE
  5
426
100
AcDbEntity
  8
ALL_ASSEMBLY_MEMBERS
100
AcDbSpline
 62
7
  6
CONTINUOUS
 70
0
 71
3
 72
11
 73
7
 74
0
 42
0.0000001
 43
0.0000001
 44
0.0000000001
 40
0.0
 40
0.0
 40
0.0
 40
0.0
 40
0.2682999157
 40
0.5239676585
 40
0.7676598142
 40
1.0
 40
1.0
 40
1.0
 40
1.0
 10
5.9759067045
 20
5.748930968
 30
0.0
 10
5.9748450261
 20
5.7493144327
 30
0.0
 10
5.9728123611
 20
5.7501826169
 30
0.0
 10
5.9700009852
 20
5.7517857981
 30
0.0
 10
5.9675085835
 20
5.7536030937
 30
0.0
 10
5.9660280348
 20
5.7549591456
 30
0.0
 10
5.9653462599
 20
5.7556596594
 30
0.0
  0
SPLINE
  5
427
100
AcDbEntity
  8
ALL_ASSEMBLY_MEMBERS
100
AcDbSpline
 62
7
  6
CONTINUOUS
 70
0
 71
3
 72
10
 73
6
 74
0
 42
0.0000001
 43
0.0000001
 44
0.0000000001
 40
0.0
 40
0.0
 40
0.0
 40
0.0
 40
0.2684670284
 40
0.5245565929
 40
1.0
 40
1.0
 40
1.0
 40
1.0
 10
5.9963313554
 20
5.7488877836
 30
0.0
 10
5.9973625944
 20
5.7492452066
 30
0.0
 10
5.999341621
 20
5.7500553806
 30
0.0
 10
6.0029075968
 20
5.7520202885
 30
0.0
 10
6.005255263
 20
5.7538980338
 30
0.0
 10
6.006621979
 20
5.7552647994
 30
0.0
  0
SPLINE
  5
428
100
AcDbEntity
  8
ALL_ASSEMBLY_MEMBERS
100
AcDbSpline
 62
7
  6
CONTINUOUS
 70
0
 71
3
 72
11
 73
7
 74
0
 42
0.0000001
 43
0.0000001
 44
0.0000000001
 40
0.0
 40
0.0
 40
0.0
 40
0.0
 40
0.2501139847
 40
0.5000777442
 40
0.7499874979
 40
1.0
 40
1.0
 40
1.0
 40
1.0
 10
5.9639423637
 20
6.223428121
 30
0.0
 10
5.9630101525
 20
6.2222140828
 30
0.0
 10
5.9613462608
 20
6.2196246604
 30
0.0
 10
5.9595498249
 20
6.215378888
 30
0.0
 10
5.958454406
 20
6.2109034677
 30
0.0
 10
5.9582051742
 20
6.2078385821
 30
0.0
 10
5.9582054404
 20
6.2063085476
 30
0.0
  0
SPLINE
  5
429
100
AcDbEntity
  8
ALL_ASSEMBLY_MEMBERS
100
AcDbSpline
 62
7
  6
CONTINUOUS
 70
0
 71
3
 72
11
 73
7
 74
0
 42
0.0000001
 43
0.0000001
 44
0.0000000001
 40
0.0
 40
0.0
 40
0.0
 40
0.0
 40
0.2501139847
 40
0.5000777442
 40
0.7499874979
 40
1.0
 40
1.0
 40
1.0
 40
1.0
 10
5.9639423637
 20
5.7567955193
 30
0.0
 10
5.9630101525
 20
5.7580095575
 30
0.0
 10
5.9613462608
 20
5.7605989799
 30
0.0
 10
5.9595498249
 20
5.7648447523
 30
0.0
 10
5.958454406
 20
5.7693201726
 30
0.0
 10
5.9582051742
 20
5.7723850582
 30
0.0
 10
5.9582054404
 20
5.7739150927
 30
0.0
  0
SPLINE
  5
42A
100
AcDbEntity
  8
ALL_ASSEMBLY_MEMBERS
100
AcDbSpline
 62
7
  6
CONTINUOUS
 70
0
 71
3
 72
11
 73
7
 74
0
 42
0.0000001
 43
0.0000001
 44
0.0000000001
 40
0.0
 40
0.0
 40
0.0
 40
0.0
 40
0.2522674295
 40
0.5030762135
 40
0.7523000419
 40
1.0
 40
1.0
 40
1.0
 40
1.0
 10
5.9929664033
 20
6.2099687123
 30
0.0
 10
5.9940983992
 20
6.2096026772
 30
0.0
 10
5.9963030964
 20
6.2086978747
 30
0.0
 10
5.9993631365
 20
6.2068796098
 30
0.0
 10
6.0021223463
 20
6.2046666514
 30
0.0
 10
6.0037500729
 20
6.2029714298
 30
0.0
 10
6.0045105352
 20
6.2020846919
 30
0.0
  0
LINE
  5
42B
100
AcDbEntity
  8
ALL_ASSEMBLY_MEMBERS
100
AcDbLine
 62
7
  6
CONTINUOUS
 10
6.0045105352
 20
6.2020846919
 11
6.0066214521
 21
6.199338183
  0
SPLINE
  5
42C
100
AcDbEntity
  8
ALL_ASSEMBLY_MEMBERS
100
AcDbSpline
 62
7
  6
CONTINUOUS
 70
0
 71
3
 72
11
 73
7
 74
0
 42
0.0000001
 43
0.0000001
 44
0.0000000001
 40
0.0
 40
0.0
 40
0.0
 40
0.0
 40
0.2513755824
 40
0.5018626023
 40
0.7513905681
 40
1.0
 40
1.0
 40
1.0
 40
1.0
 10
5.9929664033
 20
6.2023207936
 30
0.0
 10
5.994099468
 20
6.2019473315
 30
0.0
 10
5.9963067454
 20
6.2010235611
 30
0.0
 10
5.9993667877
 20
6.1991694012
 30
0.0
 10
6.0021255143
 20
6.1969132751
 30
0.0
 10
6.0037508899
 20
6.195187284
 30
0.0
 10
6.0045105029
 20
6.1942844298
 30
0.0
  0
LINE
  5
42D
100
AcDbEntity
  8
ALL_ASSEMBLY_MEMBERS
100
AcDbLine
 62
7
  6
CONTINUOUS
 10
6.0045105029
 20
6.1942844298
 11
6.006621978
 21
6.1914841169
  0
SPLINE
  5
42E
100
AcDbEntity
  8
ALL_ASSEMBLY_MEMBERS
100
AcDbSpline
 62
7
  6
CONTINUOUS
 70
0
 71
3
 72
12
 73
8
 74
0
 42
0.0000001
 43
0.0000001
 44
0.0000000001
 40
0.0
 40
0.0
 40
0.0
 40
0.0
 40
0.2506091903
 40
0.37596528
 40
0.5010884277
 40
0.7507681763
 40
1.0
 40
1.0
 40
1.0
 40
1.0
 10
5.9929664033
 20
6.1936834588
 30
0.0
 10
5.9942018628
 20
6.1932704243
 30
0.0
 10
5.9960060408
 20
6.1924887357
 30
0.0
 10
5.9982544533
 20
6.1911702222
 30
0.0
 10
6.0003878217
 20
6.1896798553
 30
0.0
 10
6.0028292007
 20
6.1875258322
 30
0.0
 10
6.00452629
 20
6.1855545551
 30
0.0
 10
6.0053130999
 20
6.1845253389
 30
0.0
  0
SPLINE
  5
42F
100
AcDbEntity
  8
ALL_ASSEMBLY_MEMBERS
100
AcDbSpline
 62
7
  6
CONTINUOUS
 70
0
 71
3
 72
12
 73
8
 74
0
 42
0.0000001
 43
0.0000001
 44
0.0000000001
 40
0.0
 40
0.0
 40
0.0
 40
0.0
 40
0.2502442897
 40
0.500267993
 40
0.6253207726
 40
0.7503074343
 40
1.0
 40
1.0
 40
1.0
 40
1.0
 10
5.9929664033
 20
6.184096979
 30
0.0
 10
5.9943818665
 20
6.1836193016
 30
0.0
 10
5.9971229018
 20
6.1823801009
 30
0.0
 10
6.0001982058
 20
6.1802290435
 30
0.0
 10
6.0024089192
 20
6.1782185708
 30
0.0
 10
6.004450453
 20
6.1760399414
 30
0.0
 10
6.0058002368
 20
6.1742454752
 30
0.0
 10
6.0066218779
 20
6.173001776
 30
0.0
  0
SPLINE
  5
430
100
AcDbEntity
  8
ALL_ASSEMBLY_MEMBERS
100
AcDbSpline
 62
7
  6
CONTINUOUS
 70
0
 71
3
 72
12
 73
8
 74
0
 42
0.0000001
 43
0.0000001
 44
0.0000000001
 40
0.0
 40
0.0
 40
0.0
 40
0.0
 40
0.2499670116
 40
0.4998983272
 40
0.6249785024
 40
0.7500389228
 40
1.0
 40
1.0
 40
1.0
 40
1.0
 10
5.9929664033
 20
6.1736060509
 30
0.0
 10
5.9943821494
 20
6.1731260399
 30
0.0
 10
5.9971239351
 20
6.1718805156
 30
0.0
 10
6.0001982666
 20
6.1697198697
 30
0.0
 10
6.0024083346
 20
6.1677006759
 30
0.0
 10
6.0044500238
 20
6.165511845
 30
0.0
 10
6.005799383
 20
6.1637094844
 30
0.0
 10
6.0066206956
 20
6.16246045
 30
0.0
  0
SPLINE
  5
431
100
AcDbEntity
  8
ALL_ASSEMBLY_MEMBERS
100
AcDbSpline
 62
7
  6
CONTINUOUS
 70
0
 71
3
 72
12
 73
8
 74
0
 42
0.0000001
 43
0.0000001
 44
0.0000000001
 40
0.0
 40
0.0
 40
0.0
 40
0.0
 40
0.2499669492
 40
0.499898246
 40
0.6249783827
 40
0.7500387905
 40
1.0
 40
1.0
 40
1.0
 40
1.0
 10
5.9929664033
 20
6.1622595879
 30
0.0
 10
5.9943822751
 20
6.1617795344
 30
0.0
 10
5.9971242963
 20
6.1605338726
 30
0.0
 10
6.0001988529
 20
6.1583729611
 30
0.0
 10
6.0024090493
 20
6.1563535122
 30
0.0
 10
6.0044508265
 20
6.1541643978
 30
0.0
 10
6.0058002657
 20
6.1523618524
 30
0.0
 10
6.0066216552
 20
6.1511127084
 30
0.0
  0
SPLINE
  5
432
100
AcDbEntity
  8
ALL_ASSEMBLY_MEMBERS
100
AcDbSpline
 62
7
  6
CONTINUOUS
 70
0
 71
3
 72
12
 73
8
 74
0
 42
0.0000001
 43
0.0000001
 44
0.0000000001
 40
0.0
 40
0.0
 40
0.0
 40
0.0
 40
0.2502443536
 40
0.5002680853
 40
0.6253209296
 40
0.7503076237
 40
1.0
 40
1.0
 40
1.0
 40
1.0
 10
5.9929664033
 20
6.1501104926
 30
0.0
 10
5.9943816916
 20
6.1496328742
 30
0.0
 10
5.9971223992
 20
6.1483938638
 30
0.0
 10
6.0001973896
 20
6.1462431746
 30
0.0
 10
6.002407924
 20
6.1442330554
 30
0.0
 10
6.0044493353
 20
6.1420548191
 30
0.0
 10
6.0057990077
 20
6.140260609
 30
0.0
 10
6.0066205418
 20
6.1390170617
 30
0.0
  0
LINE
  5
433
100
AcDbEntity
  8
ALL_ASSEMBLY_MEMBERS
100
AcDbLine
 62
7
  6
CONTINUOUS
 10
5.9929664033
 20
6.1501104926
 11
6.0066217757
 21
6.1504912871
  0
SPLINE
  5
434
100
AcDbEntity
  8
ALL_ASSEMBLY_MEMBERS
100
AcDbSpline
 62
7
  6
CONTINUOUS
 70
0
 71
3
 72
12
 73
8
 74
0
 42
0.0000001
 43
0.0000001
 44
0.0000000001
 40
0.0
 40
0.0
 40
0.0
 40
0.0
 40
0.2507997178
 40
0.5010090526
 40
0.6260073438
 40
0.7508464052
 40
1.0
 40
1.0
 40
1.0
 40
1.0
 10
5.9929664033
 20
6.1372154097
 30
0.0
 10
5.9943808361
 20
6.1367425414
 30
0.0
 10
5.9971194924
 20
6.1355164494
 30
0.0
 10
6.000195888
 20
6.1333855234
 30
0.0
 10
6.002407412
 20
6.1313934094
 30
0.0
 10
6.0044483007
 20
6.1292361878
 30
0.0
 10
6.0057986375
 20
6.1274581655
 30
0.0
 10
6.0066206528
 20
6.1262255206
 30
0.0
  0
SPLINE
  5
435
100
AcDbEntity
  8
ALL_ASSEMBLY_MEMBERS
100
AcDbSpline
 62
7
  6
CONTINUOUS
 70
0
 71
3
 72
11
 73
7
 74
0
 42
0.0000001
 43
0.0000001
 44
0.0000000001
 40
0.0
 40
0.0
 40
0.0
 40
0.0
 40
0.2984454034
 40
0.5672568834
 40
0.801187991
 40
1.0
 40
1.0
 40
1.0
 40
1.0
 10
5.9929664033
 20
6.1372154097
 30
0.0
 10
5.9943293705
 20
6.1372626951
 30
0.0
 10
5.9969191182
 20
6.1373805564
 30
0.0
 10
6.0005717097
 20
6.1376369092
 30
0.0
 10
6.0037622835
 20
6.1379543416
 30
0.0
 10
6.0057228943
 20
6.1382161663
 30
0.0
 10
6.0066205892
 20
6.1383558585
 30
0.0
  0
SPLINE
  5
436
100
AcDbEntity
  8
ALL_ASSEMBLY_MEMBERS
100
AcDbSpline
 62
7
  6
CONTINUOUS
 70
0
 71
3
 72
12
 73
8
 74
0
 42
0.0000001
 43
0.0000001
 44
0.0000000001
 40
0.0
 40
0.0
 40
0.0
 40
0.0
 40
0.2516344367
 40
0.5021240721
 40
0.627040809
 40
0.7516579693
 40
1.0
 40
1.0
 40
1.0
 40
1.0
 10
5.9929664033
 20
6.1236344618
 30
0.0
 10
5.9943796467
 20
6.1231686518
 30
0.0
 10
5.9971153836
 20
6.1219617281
 30
0.0
 10
6.000194005
 20
6.1198601941
 30
0.0
 10
6.0024070984
 20
6.1178948464
 30
0.0
 10
6.0044472478
 20
6.1157688408
 30
0.0
 10
6.0057986403
 20
6.1140149033
 30
0.0
 10
6.0066214384
 20
6.1127984841
 30
0.0
  0
SPLINE
  5
437
100
AcDbEntity
  8
ALL_ASSEMBLY_MEMBERS
100
AcDbSpline
 62
7
  6
CONTINUOUS
 70
0
 71
3
 72
11
 73
7
 74
0
 42
0.0000001
 43
0.0000001
 44
0.0000000001
 40
0.0
 40
0.0
 40
0.0
 40
0.0
 40
0.2968938056
 40
0.5650760303
 40
0.7995446034
 40
1.0
 40
1.0
 40
1.0
 40
1.0
 10
5.9929664033
 20
6.1236344618
 30
0.0
 10
5.9943303751
 20
6.1237130839
 30
0.0
 10
5.9969240787
 20
6.1239091573
 30
0.0
 10
6.0005796932
 20
6.1243363566
 30
0.0
 10
6.0037732689
 20
6.1248637805
 30
0.0
 10
6.0057283306
 20
6.1252985977
 30
0.0
 10
6.0066214126
 20
6.125529501
 30
0.0
  0
SPLINE
  5
438
100
AcDbEntity
  8
ALL_ASSEMBLY_MEMBERS
100
AcDbSpline
 62
7
  6
CONTINUOUS
 70
0
 71
3
 72
12
 73
8
 74
0
 42
0.0000001
 43
0.0000001
 44
0.0000000001
 40
0.0
 40
0.0
 40
0.0
 40
0.0
 40
0.2527499504
 40
0.5036168678
 40
0.6284257896
 40
0.7527466833
 40
1.0
 40
1.0
 40
1.0
 40
1.0
 10
5.9929664033
 20
6.1094309698
 30
0.0
 10
5.9943777618
 20
6.1089746018
 30
0.0
 10
5.9971090129
 20
6.1077933458
 30
0.0
 10
6.0001899647
 20
6.1057315034
 30
0.0
 10
6.0024048185
 20
6.1038023308
 30
0.0
 10
6.0044437283
 20
6.101718419
 30
0.0
 10
6.005796336
 20
6.0999969067
 30
0.0
 10
6.0066200014
 20
6.0988022841
 30
0.0
  0
SPLINE
  5
439
100
AcDbEntity
  8
ALL_ASSEMBLY_MEMBERS
100
AcDbSpline
 62
7
  6
CONTINUOUS
 70
0
 71
3
 72
11
 73
7
 74
0
 42
0.0000001
 43
0.0000001
 44
0.0000000001
 40
0.0
 40
0.0
 40
0.0
 40
0.0
 40
0.2947831367
 40
0.5619817854
 40
0.7969834224
 40
1.0
 40
1.0
 40
1.0
 40
1.0
 10
5.9929664033
 20
6.1094309698
 30
0.0
 10
5.9943322111
 20
6.1095406745
 30
0.0
 10
5.9969314299
 20
6.1098148581
 30
0.0
 10
6.0005900884
 20
6.1104102993
 30
0.0
 10
6.0037864909
 20
6.1111480646
 30
0.0
 10
6.0057335767
 20
6.111751757
 30
0.0
 10
6.0066213754
 20
6.1120716086
 30
0.0
  0
SPLINE
  5
43A
100
AcDbEntity
  8
ALL_ASSEMBLY_MEMBERS
100
AcDbSpline
 62
7
  6
CONTINUOUS
 70
0
 71
3
 72
12
 73
8
 74
0
 42
0.0000001
 43
0.0000001
 44
0.0000000001
 40
0.0
 40
0.0
 40
0.0
 40
0.0
 40
0.2541483899
 40
0.5054921278
 40
0.6301669844
 40
0.7541162386
 40
1.0
 40
1.0
 40
1.0
 40
1.0
 10
5.9929664033
 20
6.0946711569
 30
0.0
 10
5.994375938
 20
6.0942263128
 30
0.0
 10
5.9971025281
 20
6.0930762629
 30
0.0
 10
6.0001871989
 20
6.0910627738
 30
0.0
 10
6.0024047648
 20
6.0891776178
 30
0.0
 10
6.0044424393
 20
6.0871448699
 30
0.0
 10
6.0057969003
 20
6.0854629555
 30
0.0
 10
6.0066219865
 20
6.0842949954
 30
0.0
  0
SPLINE
  5
43B
100
AcDbEntity
  8
ALL_ASSEMBLY_MEMBERS
100
AcDbSpline
 62
7
  6
CONTINUOUS
 70
0
 71
3
 72
11
 73
7
 74
0
 42
0.0000001
 43
0.0000001
 44
0.0000000001
 40
0.0
 40
0.0
 40
0.0
 40
0.0
 40
0.2920919377
 40
0.5581270033
 40
0.793938503
 40
1.0
 40
1.0
 40
1.0
 40
1.0
 10
5.9929664033
 20
6.0946711569
 30
0.0
 10
5.9943341912
 20
6.09481153
 30
0.0
 10
5.996940225
 20
6.0951630665
 30
0.0
 10
6.0006026444
 20
6.0959254978
 30
0.0
 10
6.0038022946
 20
6.0968703692
 30
0.0
 10
6.0057391518
 20
6.0976390662
 30
0.0
 10
6.0066202767
 20
6.0980446724
 30
0.0
  0
SPLINE
  5
43C
100
AcDbEntity
  8
ALL_ASSEMBLY_MEMBERS
100
AcDbSpline
 62
7
  6
CONTINUOUS
 70
0
 71
3
 72
13
 73
9
 74
0
 42
0.0000001
 43
0.0000001
 44
0.0000000001
 40
0.0
 40
0.0
 40
0.0
 40
0.0
 40
0.255770018
 40
0.3823396706
 40
0.5078671752
 40
0.632354889
 40
0.7558295628
 40
1.0
 40
1.0
 40
1.0
 40
1.0
 10
5.9929664033
 20
6.07942384
 30
0.0
 10
5.9943732546
 20
6.0789928264
 30
0.0
 10
5.9964233007
 20
6.0781536848
 30
0.0
 10
5.9989598998
 20
6.0766991657
 30
0.0
 10
6.0007421551
 20
6.0754625841
 30
0.0
 10
6.0024015693
 20
6.074093847
 30
0.0
 10
6.0044371834
 20
6.0721231373
 30
0.0
 10
6.0057935893
 20
6.0704891512
 30
0.0
 10
6.0066200947
 20
6.0693533817
 30
0.0
  0
SPLINE
  5
43D
100
AcDbEntity
  8
ALL_ASSEMBLY_MEMBERS
100
AcDbSpline
 62
7
  6
CONTINUOUS
 70
0
 71
3
 72
11
 73
7
 74
0
 42
0.0000001
 43
0.0000001
 44
0.0000000001
 40
0.0
 40
0.0
 40
0.0
 40
0.0
 40
0.2889618785
 40
0.5537221733
 40
0.7905614053
 40
1.0
 40
1.0
 40
1.0
 40
1.0
 10
5.9929664033
 20
6.07942384
 30
0.0
 10
5.9943367224
 20
6.0795943831
 30
0.0
 10
5.9969515521
 20
6.0800223026
 30
0.0
 10
6.0006188668
 20
6.080950782
 30
0.0
 10
6.0038230215
 20
6.0820982803
 30
0.0
 10
6.0057480554
 20
6.0830278183
 30
0.0
 10
6.0066219766
 20
6.083515663
 30
0.0
  0
SPLINE
  5
43E
100
AcDbEntity
  8
ALL_ASSEMBLY_MEMBERS
100
AcDbSpline
 62
7
  6
CONTINUOUS
 70
0
 71
3
 72
12
 73
8
 74
0
 42
0.0000001
 43
0.0000001
 44
0.0000000001
 40
0.0
 40
0.0
 40
0.0
 40
0.0
 40
0.2577948225
 40
0.5104038396
 40
0.634737992
 40
0.7577197466
 40
1.0
 40
1.0
 40
1.0
 40
1.0
 10
5.9929664033
 20
6.0637601093
 30
0.0
 10
5.9943706871
 20
6.0633448482
 30
0.0
 10
5.9970839782
 20
6.0622747718
 30
0.0
 10
6.0001765405
 20
6.0603870626
 30
0.0
 10
6.0024003924
 20
6.0586165025
 30
0.0
 10
6.0044341343
 20
6.056716339
 30
0.0
 10
6.0057930497
 20
6.0551371706
 30
0.0
 10
6.0066215763
 20
6.054038239
 30
0.0
  0
SPLINE
  5
43F
100
AcDbEntity
  8
ALL_ASSEMBLY_MEMBERS
100
AcDbSpline
 62
7
  6
CONTINUOUS
 70
0
 71
3
 72
11
 73
7
 74
0
 42
0.0000001
 43
0.0000001
 44
0.0000000001
 40
0.0
 40
0.0
 40
0.0
 40
0.0
 40
0.2856101753
 40
0.5489328054
 40
0.7867316004
 40
1.0
 40
1.0
 40
1.0
 40
1.0
 10
5.9929664033
 20
6.0637601093
 30
0.0
 10
5.994339481
 20
6.0639601694
 30
0.0
 10
5.9969631014
 20
6.0644639035
 30
0.0
 10
6.0006344108
 20
6.065551508
 30
0.0
 10
6.0038399834
 20
6.0669005849
 30
0.0
 10
6.0057527112
 20
6.0679825481
 30
0.0
 10
6.0066200356
 20
6.068549373
 30
0.0
  0
SPLINE
  5
440
100
AcDbEntity
  8
ALL_ASSEMBLY_MEMBERS
100
AcDbSpline
 62
7
  6
CONTINUOUS
 70
0
 71
3
 72
12
 73
8
 74
0
 42
0.0000001
 43
0.0000001
 44
0.0000000001
 40
0.0
 40
0.0
 40
0.0
 40
0.0
 40
0.2600381784
 40
0.5134415879
 40
0.6375725253
 40
0.7599603095
 40
1.0
 40
1.0
 40
1.0
 40
1.0
 10
5.9929664033
 20
6.0477529962
 30
0.0
 10
5.994367504
 20
6.04735554
 30
0.0
 10
5.9970725719
 20
6.0463334171
 30
0.0
 10
6.0001694511
 20
6.0445222713
 30
0.0
 10
6.0023970392
 20
6.0428215204
 30
0.0
 10
6.004428139
 20
6.0410016875
 30
0.0
 10
6.005789794
 20
6.0394850111
 30
0.0
 10
6.0066205163
 20
6.0384280075
 30
0.0
  0
SPLINE
  5
441
100
AcDbEntity
  8
ALL_ASSEMBLY_MEMBERS
100
AcDbSpline
 62
7
  6
CONTINUOUS
 70
0
 71
3
 72
12
 73
8
 74
0
 42
0.0000001
 43
0.0000001
 44
0.0000000001
 40
0.0
 40
0.0
 40
0.0
 40
0.0
 40
0.2820890748
 40
0.5439201744
 40
0.6663193341
 40
0.78292924
 40
1.0
 40
1.0
 40
1.0
 40
1.0
 10
5.9929664033
 20
6.0477529962
 30
0.0
 10
5.9943430074
 20
6.0479818836
 30
0.0
 10
5.9969771415
 20
6.0485594368
 30
0.0
 10
6.0001063833
 20
6.0496202962
 30
0.0
 10
6.0023704889
 20
6.0506305764
 30
0.0
 10
6.0043699365
 20
6.0516779921
 30
0.0
 10
6.0057608988
 20
6.0525774448
 30
0.0
 10
6.0066217239
 20
6.0532194303
 30
0.0
  0
SPLINE
  5
442
100
AcDbEntity
  8
ALL_ASSEMBLY_MEMBERS
100
AcDbSpline
 62
7
  6
CONTINUOUS
 70
0
 71
3
 72
12
 73
8
 74
0
 42
0.0000001
 43
0.0000001
 44
0.0000000001
 40
0.0
 40
0.0
 40
0.0
 40
0.0
 40
0.2625558094
 40
0.5168643619
 40
0.6407725405
 40
0.7624943526
 40
1.0
 40
1.0
 40
1.0
 40
1.0
 10
5.9929664033
 20
6.0314771334
 30
0.0
 10
5.9943642326
 20
6.0310992783
 30
0.0
 10
5.9970605322
 20
6.030129739
 30
0.0
 10
6.0001622514
 20
6.0284034646
 30
0.0
 10
6.0023941724
 20
6.0267801541
 30
0.0
 10
6.004422294
 20
6.0250490399
 30
0.0
 10
6.0057871725
 20
6.023601689
 30
0.0
 10
6.0066205935
 20
6.0225911898
 30
0.0
  0
SPLINE
  5
443
100
AcDbEntity
  8
ALL_ASSEMBLY_MEMBERS
100
AcDbSpline
 62
7
  6
CONTINUOUS
 70
0
 71
3
 72
12
 73
8
 74
0
 42
0.0000001
 43
0.0000001
 44
0.0000000001
 40
0.0
 40
0.0
 40
0.0
 40
0.0
 40
0.2785184332
 40
0.5389090954
 40
0.6615540861
 40
0.7790899647
 40
1.0
 40
1.0
 40
1.0
 40
1.0
 10
5.9929664033
 20
6.0314771334
 30
0.0
 10
5.9943462897
 20
6.0317338778
 30
0.0
 10
5.9969907844
 20
6.0323836127
 30
0.0
 10
6.0001160216
 20
6.0335712131
 30
0.0
 10
6.0023743596
 20
6.0346993619
 30
0.0
 10
6.0043797674
 20
6.0358753397
 30
0.0
 10
6.0057658544
 20
6.0368801375
 30
0.0
 10
6.0066205647
 20
6.0375934461
 30
0.0
  0
SPLINE
  5
444
100
AcDbEntity
  8
ALL_ASSEMBLY_MEMBERS
100
AcDbSpline
 62
7
  6
CONTINUOUS
 70
0
 71
3
 72
12
 73
8
 74
0
 42
0.0000001
 43
0.0000001
 44
0.0000000001
 40
0.0
 40
0.0
 40
0.0
 40
0.0
 40
0.2653356059
 40
0.5206604167
 40
0.6443293958
 40
0.7653169265
 40
1.0
 40
1.0
 40
1.0
 40
1.0
 10
5.9929664033
 20
6.0150084064
 30
0.0
 10
5.9943608822
 20
6.0146518428
 30
0.0
 10
5.9970478865
 20
6.0137391718
 30
0.0
 10
6.0001547808
 20
6.0121058187
 30
0.0
 10
6.0023915594
 20
6.010567404
 30
0.0
 10
6.0044163024
 20
6.0089330228
 30
0.0
 10
6.0057848615
 20
6.0075616493
 30
0.0
 10
6.0066215059
 20
6.0066021074
 30
0.0
  0
SPLINE
  5
445
100
AcDbEntity
  8
ALL_ASSEMBLY_MEMBERS
100
AcDbSpline
 62
7
  6
CONTINUOUS
 70
0
 71
3
 72
11
 73
7
 74
0
 42
0.0000001
 43
0.0000001
 44
0.0000000001
 40
0.0
 40
0.0
 40
0.0
 40
0.0
 40
0.2749963125
 40
0.5340850429
 40
0.7753890464
 40
1.0
 40
1.0
 40
1.0
 40
1.0
 10
5.9929664033
 20
6.0150084064
 30
0.0
 10
5.9943497578
 20
6.0152919758
 30
0.0
 10
5.9970056143
 20
6.0160117911
 30
0.0
 10
6.0006880724
 20
6.0175572682
 30
0.0
 10
6.0038987873
 20
6.0194651949
 30
0.0
 10
6.0057723357
 20
6.0209668832
 30
0.0
 10
6.0066213844
 20
6.0217475372
 30
0.0
  0
SPLINE
  5
446
100
AcDbEntity
  8
ALL_ASSEMBLY_MEMBERS
100
AcDbSpline
 62
7
  6
CONTINUOUS
 70
0
 71
3
 72
12
 73
8
 74
0
 42
0.0000001
 43
0.0000001
 44
0.0000000001
 40
0.0
 40
0.0
 40
0.0
 40
0.0
 40
0.2683548926
 40
0.524804952
 40
0.648223873
 40
0.768416861
 40
1.0
 40
1.0
 40
1.0
 40
1.0
 10
5.9929664033
 20
5.9984236
 30
0.0
 10
5.9943571156
 20
5.9980899883
 30
0.0
 10
5.9970336917
 20
5.9972383578
 30
0.0
 10
6.000145215
 20
5.9957062073
 30
0.0
 10
6.0023868901
 20
5.9942604726
 30
0.0
 10
6.0044075039
 20
5.9927310083
 30
0.0
 10
6.00577993
 20
5.9914424481
 30
0.0
 10
6.0066201335
 20
5.9905384028
 30
0.0
  0
SPLINE
  5
447
100
AcDbEntity
  8
ALL_ASSEMBLY_MEMBERS
100
AcDbSpline
 62
7
  6
CONTINUOUS
 70
0
 71
3
 72
12
 73
8
 74
0
 42
0.0000001
 43
0.0000001
 44
0.0000000001
 40
0.0
 40
0.0
 40
0.0
 40
0.0
 40
0.271590582
 40
0.5292680028
 40
0.6524277782
 40
0.7717709489
 40
1.0
 40
1.0
 40
1.0
 40
1.0
 10
5.9929664033
 20
5.9984236
 30
0.0
 10
5.9943536239
 20
5.9987328891
 30
0.0
 10
5.9970199511
 20
5.9995202302
 30
0.0
 10
6.0001366245
 20
6.0009443593
 30
0.0
 10
6.0023838598
 20
6.0022909357
 30
0.0
 10
6.0044000744
 20
6.0037089942
 30
0.0
 10
6.0057769182
 20
6.0049089068
 30
0.0
 10
6.0066214434
 20
6.0057534657
 30
0.0
  0
SPLINE
  5
448
100
AcDbEntity
  8
ALL_ASSEMBLY_MEMBERS
100
AcDbSpline
 62
7
  6
CONTINUOUS
 70
0
 71
3
 72
12
 73
8
 74
0
 42
0.0000001
 43
0.0000001
 44
0.0000000001
 40
0.0
 40
0.0
 40
0.0
 40
0.0
 40
0.2715915725
 40
0.5292697785
 40
0.6524292733
 40
0.7717713667
 40
1.0
 40
1.0
 40
1.0
 40
1.0
 10
5.9929664033
 20
5.9818000403
 30
0.0
 10
5.994353692
 20
5.9814907361
 30
0.0
 10
5.9970201479
 20
5.9807033484
 30
0.0
 10
6.0001369547
 20
5.9792791145
 30
0.0
 10
6.0023842664
 20
5.9779324395
 30
0.0
 10
6.0044005346
 20
5.9765142786
 30
0.0
 10
6.0057774202
 20
5.9753143031
 30
0.0
 10
6.0066219838
 20
5.9744697089
 30
0.0
  0
SPLINE
  5
449
100
AcDbEntity
  8
ALL_ASSEMBLY_MEMBERS
100
AcDbSpline
 62
7
  6
CONTINUOUS
 70
0
 71
3
 72
12
 73
8
 74
0
 42
0.0000001
 43
0.0000001
 44
0.0000000001
 40
0.0
 40
0.0
 40
0.0
 40
0.0
 40
0.2683551554
 40
0.5248044648
 40
0.6482231643
 40
0.7684165123
 40
1.0
 40
1.0
 40
1.0
 40
1.0
 10
5.9929664033
 20
5.9818000403
 30
0.0
 10
5.9943571493
 20
5.9821336601
 30
0.0
 10
5.9970337837
 20
5.9829853159
 30
0.0
 10
6.0001453704
 20
5.9845175131
 30
0.0
 10
6.0023870835
 20
5.9859632977
 30
0.0
 10
6.0044077298
 20
5.9874928221
 30
0.0
 10
6.0057801671
 20
5.988781438
 30
0.0
 10
6.0066203916
 20
5.9896855055
 30
0.0
  0
SPLINE
  5
44A
100
AcDbEntity
  8
ALL_ASSEMBLY_MEMBERS
100
AcDbSpline
 62
7
  6
CONTINUOUS
 70
0
 71
3
 72
12
 73
8
 74
0
 42
0.0000001
 43
0.0000001
 44
0.0000000001
 40
0.0
 40
0.0
 40
0.0
 40
0.0
 40
0.2749942967
 40
0.5339922413
 40
0.6568933259
 40
0.7753467002
 40
1.0
 40
1.0
 40
1.0
 40
1.0
 10
5.9929664033
 20
5.9652152339
 30
0.0
 10
5.9943497844
 20
5.964931659
 30
0.0
 10
5.9970049694
 20
5.9642119038
 30
0.0
 10
6.0001258534
 20
5.9629031052
 30
0.0
 10
6.0023784461
 20
5.9616628131
 30
0.0
 10
6.0043894068
 20
5.9603631533
 30
0.0
 10
6.005770705
 20
5.959258165
 30
0.0
 10
6.0066199344
 20
5.9584773411
 30
0.0
  0
SPLINE
  5
44B
100
AcDbEntity
  8
ALL_ASSEMBLY_MEMBERS
100
AcDbSpline
 62
7
  6
CONTINUOUS
 70
0
 71
3
 72
12
 73
8
 74
0
 42
0.0000001
 43
0.0000001
 44
0.0000000001
 40
0.0
 40
0.0
 40
0.0
 40
0.0
 40
0.2653358779
 40
0.5206598417
 40
0.6443284463
 40
0.7653161893
 40
1.0
 40
1.0
 40
1.0
 40
1.0
 10
5.9929664033
 20
5.9652152339
 30
0.0
 10
5.9943609385
 20
5.9655718119
 30
0.0
 10
5.9970480428
 20
5.9664845284
 30
0.0
 10
6.0001550432
 20
5.9681179672
 30
0.0
 10
6.002391884
 20
5.9696564713
 30
0.0
 10
6.004416673
 20
5.9712909637
 30
0.0
 10
6.0057852757
 20
5.9726624051
 30
0.0
 10
6.006621957
 20
5.9736219867
 30
0.0
  0
SPLINE
  5
44C
100
AcDbEntity
  8
ALL_ASSEMBLY_MEMBERS
100
AcDbSpline
 62
7
  6
CONTINUOUS
 70
0
 71
3
 72
12
 73
8
 74
0
 42
0.0000001
 43
0.0000001
 44
0.0000000001
 40
0.0
 40
0.0
 40
0.0
 40
0.0
 40
0.2785204848
 40
0.5389119054
 40
0.6615560533
 40
0.7790900786
 40
1.0
 40
1.0
 40
1.0
 40
1.0
 10
5.9929664033
 20
5.9487465069
 30
0.0
 10
5.9943464032
 20
5.9484897414
 30
0.0
 10
5.9969911083
 20
5.9478399423
 30
0.0
 10
6.0001165716
 20
5.9466521985
 30
0.0
 10
6.0023750411
 20
5.9455239105
 30
0.0
 10
6.0043805445
 20
5.9443477791
 30
0.0
 10
6.0057667113
 20
5.9433428953
 30
0.0
 10
6.0066214876
 20
5.9426295364
 30
0.0
  0
SPLINE
  5
44D
100
AcDbEntity
  8
ALL_ASSEMBLY_MEMBERS
100
AcDbSpline
 62
7
  6
CONTINUOUS
 70
0
 71
3
 72
12
 73
8
 74
0
 42
0.0000001
 43
0.0000001
 44
0.0000000001
 40
0.0
 40
0.0
 40
0.0
 40
0.0
 40
0.2625553327
 40
0.5168631128
 40
0.6407714118
 40
0.7624940822
 40
1.0
 40
1.0
 40
1.0
 40
1.0
 10
5.9929664033
 20
5.9487465069
 30
0.0
 10
5.9943641741
 20
5.9491243462
 30
0.0
 10
5.9970603609
 20
5.9500938355
 30
0.0
 10
6.0001619686
 20
5.9518200023
 30
0.0
 10
6.0023938268
 20
5.9534432124
 30
0.0
 10
6.0044219096
 20
5.9551742187
 30
0.0
 10
6.0057867361
 20
5.9566215209
 30
0.0
 10
6.0066201225
 20
5.9576319826
 30
0.0
  0
SPLINE
  5
44E
100
AcDbEntity
  8
ALL_ASSEMBLY_MEMBERS
100
AcDbSpline
 62
7
  6
CONTINUOUS
 70
0
 71
3
 72
12
 73
8
 74
0
 42
0.0000001
 43
0.0000001
 44
0.0000000001
 40
0.0
 40
0.0
 40
0.0
 40
0.0
 40
0.2820865065
 40
0.543918169
 40
0.6663185579
 40
0.7829296941
 40
1.0
 40
1.0
 40
1.0
 40
1.0
 10
5.9929664033
 20
5.9324706441
 30
0.0
 10
5.9943428771
 20
5.9322417784
 30
0.0
 10
5.9969767782
 20
5.9316642913
 30
0.0
 10
6.0001057625
 20
5.9306035699
 30
0.0
 10
6.0023697148
 20
5.9295934313
 30
0.0
 10
6.0043690424
 20
5.9285461827
 30
0.0
 10
6.0057599149
 20
5.9276468382
 30
0.0
 10
6.0066206626
 20
5.9270049064
 30
0.0
  0
SPLINE
  5
44F
100
AcDbEntity
  8
ALL_ASSEMBLY_MEMBERS
100
AcDbSpline
 62
7
  6
CONTINUOUS
 70
0
 71
3
 72
12
 73
8
 74
0
 42
0.0000001
 43
0.0000001
 44
0.0000000001
 40
0.0
 40
0.0
 40
0.0
 40
0.0
 40
0.2600387073
 40
0.5134412156
 40
0.6375716177
 40
0.7599594475
 40
1.0
 40
1.0
 40
1.0
 40
1.0
 10
5.9929664033
 20
5.9324706441
 30
0.0
 10
5.9943676496
 20
5.9328681416
 30
0.0
 10
5.9970729838
 20
5.9338903954
 30
0.0
 10
6.0001701339
 20
5.9357017974
 30
0.0
 10
6.0023978785
 20
5.9374028025
 30
0.0
 10
6.0044290907
 20
5.9392229301
 30
0.0
 10
6.0057908426
 20
5.9407397971
 30
0.0
 10
6.006621656
 20
5.9417969094
 30
0.0
  0
SPLINE
  5
450
100
AcDbEntity
  8
ALL_ASSEMBLY_MEMBERS
100
AcDbSpline
 62
7
  6
CONTINUOUS
 70
0
 71
3
 72
11
 73
7
 74
0
 42
0.0000001
 43
0.0000001
 44
0.0000000001
 40
0.0
 40
0.0
 40
0.0
 40
0.0
 40
0.2856612981
 40
0.5489692413
 40
0.7867598861
 40
1.0
 40
1.0
 40
1.0
 40
1.0
 10
5.9929664033
 20
5.916463531
 30
0.0
 10
5.994339793
 20
5.9162634254
 30
0.0
 10
5.9969637605
 20
5.9157597753
 30
0.0
 10
6.0006351864
 20
5.9146714811
 30
0.0
 10
6.0038408257
 20
5.9133227864
 30
0.0
 10
6.0057534051
 20
5.9122406884
 30
0.0
 10
6.0066206573
 20
5.911673913
 30
0.0
  0
SPLINE
  5
451
100
AcDbEntity
  8
ALL_ASSEMBLY_MEMBERS
100
AcDbSpline
 62
7
  6
CONTINUOUS
 70
0
 71
3
 72
12
 73
8
 74
0
 42
0.0000001
 43
0.0000001
 44
0.0000000001
 40
0.0
 40
0.0
 40
0.0
 40
0.0
 40
0.2577938271
 40
0.5104020073
 40
0.6347363641
 40
0.7577191833
 40
1.0
 40
1.0
 40
1.0
 40
1.0
 10
5.9929664033
 20
5.916463531
 30
0.0
 10
5.9943705725
 20
5.9168787583
 30
0.0
 10
5.9970836477
 20
5.9179487279
 30
0.0
 10
6.0001760003
 20
5.9198362169
 30
0.0
 10
6.0023997365
 20
5.9216065708
 30
0.0
 10
6.0044334004
 20
5.9235065164
 30
0.0
 10
6.0057922387
 20
5.9250855555
 30
0.0
 10
6.0066206995
 20
5.9261844068
 30
0.0
  0
SPLINE
  5
452
100
AcDbEntity
  8
ALL_ASSEMBLY_MEMBERS
100
AcDbSpline
 62
7
  6
CONTINUOUS
 70
0
 71
3
 72
11
 73
7
 74
0
 42
0.0000001
 43
0.0000001
 44
0.0000000001
 40
0.0
 40
0.0
 40
0.0
 40
0.0
 40
0.289004919
 40
0.553723241
 40
0.7904746952
 40
1.0
 40
1.0
 40
1.0
 40
1.0
 10
5.9929664033
 20
5.9007998003
 30
0.0
 10
5.9943368722
 20
5.9006292385
 30
0.0
 10
5.9969515149
 20
5.9002010698
 30
0.0
 10
6.0006186702
 20
5.8992739794
 30
0.0
 10
6.0038218478
 20
5.8981248445
 30
0.0
 10
6.0057472102
 20
5.8971962602
 30
0.0
 10
6.0066214579
 20
5.8967082317
 30
0.0
  0
SPLINE
  5
453
100
AcDbEntity
  8
ALL_ASSEMBLY_MEMBERS
100
AcDbSpline
 62
7
  6
CONTINUOUS
 70
0
 71
3
 72
13
 73
9
 74
0
 42
0.0000001
 43
0.0000001
 44
0.0000000001
 40
0.0
 40
0.0
 40
0.0
 40
0.0
 40
0.2557325808
 40
0.3823758191
 40
0.5078961963
 40
0.6323940409
 40
0.7558917133
 40
1.0
 40
1.0
 40
1.0
 40
1.0
 10
5.9929664033
 20
5.9007998003
 30
0.0
 10
5.994373219
 20
5.9012308029
 30
0.0
 10
5.9964237269
 20
5.9020700931
 30
0.0
 10
5.9989605779
 20
5.9035252896
 30
0.0
 10
6.0007427954
 20
5.9047631321
 30
0.0
 10
6.0024029491
 20
5.906131532
 30
0.0
 10
6.004439855
 20
5.9081012477
 30
0.0
 10
6.0057950344
 20
5.9097363488
 30
0.0
 10
6.0066214319
 20
5.9108719648
 30
0.0
  0
SPLINE
  5
454
100
AcDbEntity
  8
ALL_ASSEMBLY_MEMBERS
100
AcDbSpline
 62
7
  6
CONTINUOUS
 70
0
 71
3
 72
11
 73
7
 74
0
 42
0.0000001
 43
0.0000001
 44
0.0000000001
 40
0.0
 40
0.0
 40
0.0
 40
0.0
 40
0.2920908574
 40
0.5581262978
 40
0.7939380392
 40
1.0
 40
1.0
 40
1.0
 40
1.0
 10
5.9929664033
 20
5.8855524835
 30
0.0
 10
5.9943341601
 20
5.8854121135
 30
0.0
 10
5.9969401413
 20
5.8850605865
 30
0.0
 10
6.0006024906
 20
5.8842981775
 30
0.0
 10
6.0038020879
 20
5.8833533365
 30
0.0
 10
6.0057389218
 20
5.8825846774
 30
0.0
 10
6.0066200319
 20
5.8821790779
 30
0.0
  0
SPLINE
  5
455
100
AcDbEntity
  8
ALL_ASSEMBLY_MEMBERS
100
AcDbSpline
 62
7
  6
CONTINUOUS
 70
0
 71
3
 72
12
 73
8
 74
0
 42
0.0000001
 43
0.0000001
 44
0.0000000001
 40
0.0
 40
0.0
 40
0.0
 40
0.0
 40
0.2541480913
 40
0.5054909756
 40
0.630165786
 40
0.7541157302
 40
1.0
 40
1.0
 40
1.0
 40
1.0
 10
5.9929664033
 20
5.8855524835
 30
0.0
 10
5.994375861
 20
5.8859973032
 30
0.0
 10
5.9971023026
 20
5.8871472754
 30
0.0
 10
6.0001868327
 20
5.8891606034
 30
0.0
 10
6.002404319
 20
5.8910456106
 30
0.0
 10
6.0044419404
 20
5.8930782035
 30
0.0
 10
6.0057963533
 20
5.8947600214
 30
0.0
 10
6.0066213948
 20
5.8959279231
 30
0.0
  0
SPLINE
  5
456
100
AcDbEntity
  8
ALL_ASSEMBLY_MEMBERS
100
AcDbSpline
 62
7
  6
CONTINUOUS
 70
0
 71
3
 72
11
 73
7
 74
0
 42
0.0000001
 43
0.0000001
 44
0.0000000001
 40
0.0
 40
0.0
 40
0.0
 40
0.0
 40
0.2947856416
 40
0.5619852192
 40
0.7969840665
 40
1.0
 40
1.0
 40
1.0
 40
1.0
 10
5.9929664033
 20
5.8707926705
 30
0.0
 10
5.9943322853
 20
5.8706829599
 30
0.0
 10
5.9969316389
 20
5.8704087584
 30
0.0
 10
6.0005904659
 20
5.8698132724
 30
0.0
 10
6.0037869953
 20
5.8690754383
 30
0.0
 10
6.0057341491
 20
5.8684717061
 30
0.0
 10
6.0066219861
 20
5.8681518421
 30
0.0
  0
SPLINE
  5
457
100
AcDbEntity
  8
ALL_ASSEMBLY_MEMBERS
100
AcDbSpline
 62
7
  6
CONTINUOUS
 70
0
 71
3
 72
12
 73
8
 74
0
 42
0.0000001
 43
0.0000001
 44
0.0000000001
 40
0.0
 40
0.0
 40
0.0
 40
0.0
 40
0.2527498177
 40
0.5036158411
 40
0.6284245946
 40
0.7527460413
 40
1.0
 40
1.0
 40
1.0
 40
1.0
 10
5.9929664033
 20
5.8707926705
 30
0.0
 10
5.9943778024
 20
5.8712490517
 30
0.0
 10
5.9971091248
 20
5.8724303494
 30
0.0
 10
6.0001901493
 20
5.874492267
 30
0.0
 10
6.0024050459
 20
5.8764215169
 30
0.0
 10
6.0044439918
 20
5.8785055222
 30
0.0
 10
6.0057966108
 20
5.8802271138
 30
0.0
 10
6.0066203028
 20
5.8814217743
 30
0.0
  0
SPLINE
  5
458
100
AcDbEntity
  8
ALL_ASSEMBLY_MEMBERS
100
AcDbSpline
 62
7
  6
CONTINUOUS
 70
0
 71
3
 72
11
 73
7
 74
0
 42
0.0000001
 43
0.0000001
 44
0.0000000001
 40
0.0
 40
0.0
 40
0.0
 40
0.0
 40
0.2969326087
 40
0.565075994
 40
0.7994479584
 40
1.0
 40
1.0
 40
1.0
 40
1.0
 10
5.9929664033
 20
5.8565891785
 30
0.0
 10
5.9943304026
 20
5.8565105548
 30
0.0
 10
5.9969237981
 20
5.8563143697
 30
0.0
 10
6.0005786608
 20
5.8558879186
 30
0.0
 10
6.0037715569
 20
5.8553597305
 30
0.0
 10
6.0057265137
 20
5.8549254848
 30
0.0
 10
6.0066199272
 20
5.8546944945
 30
0.0
  0
SPLINE
  5
459
100
AcDbEntity
  8
ALL_ASSEMBLY_MEMBERS
100
AcDbSpline
 62
7
  6
CONTINUOUS
 70
0
 71
3
 72
12
 73
8
 74
0
 42
0.0000001
 43
0.0000001
 44
0.0000000001
 40
0.0
 40
0.0
 40
0.0
 40
0.0
 40
0.2516342716
 40
0.502123002
 40
0.6270395341
 40
0.7516572352
 40
1.0
 40
1.0
 40
1.0
 40
1.0
 10
5.9929664033
 20
5.8565891785
 30
0.0
 10
5.9943797145
 20
5.8570550108
 30
0.0
 10
5.9971155734
 20
5.8582620065
 30
0.0
 10
6.0001943172
 20
5.8603636718
 30
0.0
 10
6.002407481
 20
5.8623291529
 30
0.0
 10
6.0044476787
 20
5.8644553197
 30
0.0
 10
6.0057991231
 20
5.8662093586
 30
0.0
 10
6.0066219654
 20
5.8674258394
 30
0.0
  0
SPLINE
  5
45A
100
AcDbEntity
  8
ALL_ASSEMBLY_MEMBERS
100
AcDbSpline
 62
7
  6
CONTINUOUS
 70
0
 71
3
 72
11
 73
7
 74
0
 42
0.0000001
 43
0.0000001
 44
0.0000000001
 40
0.0
 40
0.0
 40
0.0
 40
0.0
 40
0.2984491018
 40
0.5672615817
 40
0.801188399
 40
1.0
 40
1.0
 40
1.0
 40
1.0
 10
5.9929664033
 20
5.8430082307
 30
0.0
 10
5.9943294744
 20
5.8429609416
 30
0.0
 10
5.9969194089
 20
5.8428430694
 30
0.0
 10
6.000572235
 20
5.8425866908
 30
0.0
 10
6.0037629934
 20
5.8422692144
 30
0.0
 10
6.0057237066
 20
5.8420073665
 30
0.0
 10
6.0066214571
 20
5.8418676666
 30
0.0
  0
SPLINE
  5
45B
100
AcDbEntity
  8
ALL_ASSEMBLY_MEMBERS
100
AcDbSpline
 62
7
  6
CONTINUOUS
 70
0
 71
3
 72
12
 73
8
 74
0
 42
0.0000001
 43
0.0000001
 44
0.0000000001
 40
0.0
 40
0.0
 40
0.0
 40
0.0
 40
0.2507995484
 40
0.5010079955
 40
0.6260061843
 40
0.7508458643
 40
1.0
 40
1.0
 40
1.0
 40
1.0
 10
5.9929664033
 20
5.8430082307
 30
0.0
 10
5.994380767
 20
5.8434810758
 30
0.0
 10
5.9971192893
 20
5.844707093
 30
0.0
 10
6.0001955601
 20
5.8468378676
 30
0.0
 10
6.0024070141
 20
5.8488298411
 30
0.0
 10
6.0044478622
 20
5.8509869138
 30
0.0
 10
6.0057981376
 20
5.85276486
 30
0.0
 10
6.0066201125
 20
5.8539974501
 30
0.0
  0
LINE
  5
45C
100
AcDbEntity
  8
ALL_ASSEMBLY_MEMBERS
100
AcDbLine
 62
7
  6
CONTINUOUS
 10
5.9929664033
 20
5.8301131477
 11
6.006620894
 21
5.8297323935
  0
SPLINE
  5
45D
100
AcDbEntity
  8
ALL_ASSEMBLY_MEMBERS
100
AcDbSpline
 62
7
  6
CONTINUOUS
 70
0
 71
3
 72
12
 73
8
 74
0
 42
0.0000001
 43
0.0000001
 44
0.0000000001
 40
0.0
 40
0.0
 40
0.0
 40
0.0
 40
0.2502441171
 40
0.500266928
 40
0.6253195642
 40
0.7503068216
 40
1.0
 40
1.0
 40
1.0
 40
1.0
 10
5.9929664033
 20
5.8301131477
 30
0.0
 10
5.9943818338
 20
5.8305908141
 30
0.0
 10
5.997122803
 20
5.8318299791
 30
0.0
 10
6.0001980483
 20
5.8339809592
 30
0.0
 10
6.002408729
 20
5.8359913646
 30
0.0
 10
6.0044502414
 20
5.8381699311
 30
0.0
 10
6.0058000085
 20
5.8399643575
 30
0.0
 10
6.0066216322
 20
5.8412080325
 30
0.0
  0
SPLINE
  5
45E
100
AcDbEntity
  8
ALL_ASSEMBLY_MEMBERS
100
AcDbSpline
 62
7
  6
CONTINUOUS
 70
0
 71
3
 72
12
 73
8
 74
0
 42
0.0000001
 43
0.0000001
 44
0.0000000001
 40
0.0
 40
0.0
 40
0.0
 40
0.0
 40
0.2499668134
 40
0.4998972212
 40
0.6249772382
 40
0.7500382475
 40
1.0
 40
1.0
 40
1.0
 40
1.0
 10
5.9929664033
 20
5.8179640524
 30
0.0
 10
5.99438218
 20
5.8184440737
 30
0.0
 10
5.9971240182
 20
5.8196896312
 30
0.0
 10
6.0001984042
 20
5.8218503338
 30
0.0
 10
6.0024085044
 20
5.8238695883
 30
0.0
 10
6.0044502196
 20
5.8260584964
 30
0.0
 10
6.0057995923
 20
5.8278609176
 30
0.0
 10
6.0066209259
 20
5.8291099832
 30
0.0
  0
SPLINE
  5
45F
100
AcDbEntity
  8
ALL_ASSEMBLY_MEMBERS
100
AcDbSpline
 62
7
  6
CONTINUOUS
 70
0
 71
3
 72
13
 73
9
 74
0
 42
0.0000001
 43
0.0000001
 44
0.0000000001
 40
0.0
 40
0.0
 40
0.0
 40
0.0
 40
0.2498678885
 40
0.3750073504
 40
0.5000568198
 40
0.6251126306
 40
0.7501600764
 40
1.0
 40
1.0
 40
1.0
 40
1.0
 10
5.9929664033
 20
5.8066175894
 30
0.0
 10
5.994382061
 20
5.8070975704
 30
0.0
 10
5.9964410452
 20
5.8080334872
 30
0.0
 10
5.9989681925
 20
5.8096391892
 30
0.0
 10
6.0007500148
 20
5.8110098028
 30
0.0
 10
6.0024094816
 20
5.8125245945
 30
0.0
 10
6.0044523941
 20
5.8147122673
 30
0.0
 10
6.0058004415
 20
5.8165156614
 30
0.0
 10
6.0066216323
 20
5.8177645064
 30
0.0
  0
SPLINE
  5
460
100
AcDbEntity
  8
ALL_ASSEMBLY_MEMBERS
100
AcDbSpline
 62
7
  6
CONTINUOUS
 70
0
 71
3
 72
11
 73
7
 74
0
 42
0.0000001
 43
0.0000001
 44
0.0000000001
 40
0.0
 40
0.0
 40
0.0
 40
0.0
 40
0.2502736575
 40
0.5003503766
 40
0.7502490983
 40
1.0
 40
1.0
 40
1.0
 40
1.0
 10
5.9929664033
 20
5.7961266613
 30
0.0
 10
5.994194168
 20
5.796540996
 30
0.0
 10
5.9965815931
 20
5.7975830721
 30
0.0
 10
5.9998568572
 20
5.7996997183
 30
0.0
 10
6.0027707509
 20
5.8022846032
 30
0.0
 10
6.0044601406
 20
5.80425402
 30
0.0
 10
6.0052446115
 20
5.8052819682
 30
0.0
  0
SPLINE
  5
461
100
AcDbEntity
  8
ALL_ASSEMBLY_MEMBERS
100
AcDbSpline
 62
7
  6
CONTINUOUS
 70
0
 71
3
 72
12
 73
8
 74
0
 42
0.0000001
 43
0.0000001
 44
0.0000000001
 40
0.0
 40
0.0
 40
0.0
 40
0.0
 40
0.2507995303
 40
0.5010079569
 40
0.6260060694
 40
0.7508456988
 40
1.0
 40
1.0
 40
1.0
 40
1.0
 10
5.9929664033
 20
5.7865401815
 30
0.0
 10
5.9943808968
 20
5.78701307
 30
0.0
 10
5.9971196622
 20
5.7882392273
 30
0.0
 10
6.0001961667
 20
5.7903702722
 30
0.0
 10
6.0024077538
 20
5.7923625065
 30
0.0
 10
6.004448689
 20
5.7945198725
 30
0.0
 10
6.0057990613
 20
5.7962979965
 30
0.0
 10
6.0066211161
 20
5.797530698
 30
0.0
  0
SPLINE
  5
462
100
AcDbEntity
  8
ALL_ASSEMBLY_MEMBERS
100
AcDbSpline
 62
7
  6
CONTINUOUS
 70
0
 71
3
 72
11
 73
7
 74
0
 42
0.0000001
 43
0.0000001
 44
0.0000000001
 40
0.0
 40
0.0
 40
0.0
 40
0.0
 40
0.2513751043
 40
0.5018609982
 40
0.7513889623
 40
1.0
 40
1.0
 40
1.0
 40
1.0
 10
5.9929664033
 20
5.7779028467
 30
0.0
 10
5.9940989623
 20
5.7782761421
 30
0.0
 10
5.9963052759
 20
5.7791994174
 30
0.0
 10
5.9993641215
 20
5.7810524489
 30
0.0
 10
6.0021219754
 20
5.7833071315
 30
0.0
 10
6.0037469601
 20
5.7850320509
 30
0.0
 10
6.0045064196
 20
5.785934359
 30
0.0
  0
LINE
  5
463
100
AcDbEntity
  8
ALL_ASSEMBLY_MEMBERS
100
AcDbLine
 62
7
  6
CONTINUOUS
 10
6.0045064196
 20
5.785934359
 11
6.0066217201
 21
5.788739195
  0
SPLINE
  5
464
100
AcDbEntity
  8
ALL_ASSEMBLY_MEMBERS
100
AcDbSpline
 62
7
  6
CONTINUOUS
 70
0
 71
3
 72
12
 73
8
 74
0
 42
0.0000001
 43
0.0000001
 44
0.0000000001
 40
0.0
 40
0.0
 40
0.0
 40
0.0
 40
0.2523302169
 40
0.3781443967
 40
0.5034203127
 40
0.7524965362
 40
1.0
 40
1.0
 40
1.0
 40
1.0
 10
5.9929664033
 20
5.770254928
 30
0.0
 10
5.9942021563
 20
5.7706545134
 30
0.0
 10
5.9960078585
 20
5.7714109518
 30
0.0
 10
5.9982628819
 20
5.7726908202
 30
0.0
 10
6.0003973136
 20
5.7741345178
 30
0.0
 10
6.0028400463
 20
5.7762209272
 30
0.0
 10
6.0045434037
 20
5.7781369543
 30
0.0
 10
6.0053323991
 20
5.7791371176
 30
0.0
  0
SPLINE
  5
465
100
AcDbEntity
  8
ALL_ASSEMBLY_MEMBERS
100
AcDbSpline
 62
7
  6
CONTINUOUS
 70
0
 71
3
 72
11
 73
7
 74
0
 42
0.0000001
 43
0.0000001
 44
0.0000000001
 40
0.0
 40
0.0
 40
0.0
 40
0.0
 40
0.2533784545
 40
0.5045898293
 40
0.7534361138
 40
1.0
 40
1.0
 40
1.0
 40
1.0
 10
5.9929664033
 20
5.7636320837
 30
0.0
 10
5.9940965767
 20
5.7639887623
 30
0.0
 10
5.9962971013
 20
5.7648696281
 30
0.0
 10
5.9993558669
 20
5.7666422532
 30
0.0
 10
6.0021147484
 20
5.7688001937
 30
0.0
 10
6.0037450215
 20
5.7704561114
 30
0.0
 10
6.0045064201
 20
5.7713222818
 30
0.0
  0
SPLINE
  5
466
100
AcDbEntity
  8
ALL_ASSEMBLY_MEMBERS
100
AcDbSpline
 62
7
  6
CONTINUOUS
 70
0
 71
3
 72
11
 73
7
 74
0
 42
0.0000001
 43
0.0000001
 44
0.0000000001
 40
0.0
 40
0.0
 40
0.0
 40
0.0
 40
0.2547081035
 40
0.5064062441
 40
0.7548029149
 40
1.0
 40
1.0
 40
1.0
 40
1.0
 10
5.9929664033
 20
5.7580651925
 30
0.0
 10
5.9940950379
 20
5.7584109695
 30
0.0
 10
5.9962917614
 20
5.7592640635
 30
0.0
 10
5.9993503706
 20
5.760983736
 30
0.0
 10
6.0021098433
 20
5.7630778889
 30
0.0
 10
6.0037436795
 20
5.7646881936
 30
0.0
 10
6.0045064176
 20
5.7655305068
 30
0.0
  0
SPLINE
  5
467
100
AcDbEntity
  8
ALL_ASSEMBLY_MEMBERS
100
AcDbSpline
 62
7
  6
CONTINUOUS
 70
0
 71
3
 72
12
 73
8
 74
0
 42
0.0000001
 43
0.0000001
 44
0.0000000001
 40
0.0
 40
0.0
 40
0.0
 40
0.0
 40
0.2556951506
 40
0.5079675598
 40
0.6325289752
 40
0.7560586994
 40
1.0
 40
1.0
 40
1.0
 40
1.0
 10
5.9929664033
 20
5.7535802097
 30
0.0
 10
5.9940289329
 20
5.7538944106
 30
0.0
 10
5.9961002908
 20
5.7546610605
 30
0.0
 10
5.9985319933
 20
5.7559428663
 30
0.0
 10
6.0003444899
 20
5.7571352843
 30
0.0
 10
6.0020507094
 20
5.7584155821
 30
0.0
 10
6.0032360485
 20
5.7594860229
 30
0.0
 10
6.0039794259
 20
5.7602375588
 30
0.0
  0
LINE
  5
468
100
AcDbEntity
  8
ALL_ASSEMBLY_MEMBERS
100
AcDbLine
 62
7
  6
CONTINUOUS
 10
6.0039794259
 20
5.7602375588
 11
6.0066218491
 21
5.7633024201
  0
SPLINE
  5
469
100
AcDbEntity
  8
ALL_ASSEMBLY_MEMBERS
100
AcDbSpline
 62
7
  6
CONTINUOUS
 70
0
 71
3
 72
11
 73
7
 74
0
 42
0.0000001
 43
0.0000001
 44
0.0000000001
 40
0.0
 40
0.0
 40
0.0
 40
0.0
 40
0.257263978
 40
0.5099701483
 40
0.7575514332
 40
1.0
 40
1.0
 40
1.0
 40
1.0
 10
5.9929664033
 20
5.7501980466
 30
0.0
 10
5.9939984956
 20
5.7504908246
 30
0.0
 10
5.9960101909
 20
5.7512004116
 30
0.0
 10
5.9988438907
 20
5.7526139234
 30
0.0
 10
6.0014329728
 20
5.7543272392
 30
0.0
 10
6.0029959847
 20
5.7556515897
 30
0.0
 10
6.0037302447
 20
5.756346609
 30
0.0
  0
LINE
  5
46A
100
AcDbEntity
  8
ALL_ASSEMBLY_MEMBERS
100
AcDbLine
 62
7
  6
CONTINUOUS
 10
6.0037302447
 20
5.756346609
 11
6.0066218136
 21
5.7595244847
  0
SPLINE
  5
46B
100
AcDbEntity
  8
ALL_ASSEMBLY_MEMBERS
100
AcDbSpline
 62
7
  6
CONTINUOUS
 70
0
 71
3
 72
10
 73
6
 74
0
 42
0.0000001
 43
0.0000001
 44
0.0000000001
 40
0.0
 40
0.0
 40
0.0
 40
0.0
 40
0.2630219561
 40
0.5172806302
 40
1.0
 40
1.0
 40
1.0
 40
1.0
 10
5.99632375
 20
5.7478903216
 30
0.0
 10
5.9973616373
 20
5.7483025151
 30
0.0
 10
5.9993558047
 20
5.7492399261
 30
0.0
 10
6.0029499617
 20
5.7515149468
 30
0.0
 10
6.0052750512
 20
5.7536620356
 30
0.0
 10
6.0066219866
 20
5.7552068224
 30
0.0
  0
SPLINE
  5
46C
100
AcDbEntity
  8
ALL_ASSEMBLY_MEMBERS
100
AcDbSpline
 62
7
  6
CONTINUOUS
 70
0
 71
3
 72
11
 73
7
 74
0
 42
0.0000001
 43
0.0000001
 44
0.0000000001
 40
0.0
 40
0.0
 40
0.0
 40
0.0
 40
0.265311066
 40
0.520320446
 40
0.7649541137
 40
1.0
 40
1.0
 40
1.0
 40
1.0
 10
5.9789709259
 20
5.7468851879
 30
0.0
 10
5.9775709134
 20
5.747274281
 30
0.0
 10
5.9748841653
 20
5.7482682181
 30
0.0
 10
5.9712153053
 20
5.7503223822
 30
0.0
 10
5.968020471
 20
5.7527906258
 30
0.0
 10
5.9661792076
 20
5.7546781387
 30
0.0
 10
5.9653462599
 20
5.7556596594
 30
0.0
  0
SPLINE
  5
46D
100
AcDbEntity
  8
ALL_ASSEMBLY_MEMBERS
100
AcDbSpline
 62
7
  6
CONTINUOUS
 70
0
 71
3
 72
11
 73
7
 74
0
 42
0.0000001
 43
0.0000001
 44
0.0000000001
 40
0.0
 40
0.0
 40
0.0
 40
0.0
 40
0.2653146172
 40
0.5203261681
 40
0.7649550675
 40
1.0
 40
1.0
 40
1.0
 40
1.0
 10
5.9789698593
 20
6.2333381559
 30
0.0
 10
5.9775699391
 20
6.2329490228
 30
0.0
 10
5.9748833889
 20
6.2319550254
 30
0.0
 10
5.9712148081
 20
6.229900934
 30
0.0
 10
5.968020261
 20
6.2274327965
 30
0.0
 10
5.9661791482
 20
6.2255454317
 30
0.0
 10
5.9653462599
 20
6.2245639809
 30
0.0
  0
SPLINE
  5
46E
100
AcDbEntity
  8
ALL_ASSEMBLY_MEMBERS
100
AcDbSpline
 62
7
  6
CONTINUOUS
 70
0
 71
3
 72
11
 73
7
 74
0
 42
0.0000001
 43
0.0000001
 44
0.0000000001
 40
0.0
 40
0.0
 40
0.0
 40
0.0
 40
0.2626654665
 40
0.5168505181
 40
0.7623870031
 40
1.0
 40
1.0
 40
1.0
 40
1.0
 10
5.9792849177
 20
6.2322891682
 30
0.0
 10
5.9778474689
 20
6.2318873118
 30
0.0
 10
5.9750849788
 20
6.2308393473
 30
0.0
 10
5.9713275089
 20
6.2286486472
 30
0.0
 10
5.968061871
 20
6.2259998974
 30
0.0
 10
5.9661914819
 20
6.2239759454
 30
0.0
 10
5.9653462599
 20
6.2229230175
 30
0.0
  0
SPLINE
  5
46F
100
AcDbEntity
  8
ALL_ASSEMBLY_MEMBERS
100
AcDbSpline
 62
7
  6
CONTINUOUS
 70
0
 71
3
 72
11
 73
7
 74
0
 42
0.0000001
 43
0.0000001
 44
0.0000000001
 40
0.0
 40
0.0
 40
0.0
 40
0.0
 40
0.2601132672
 40
0.5134376242
 40
0.7598672099
 40
1.0
 40
1.0
 40
1.0
 40
1.0
 10
5.9792849177
 20
6.2300255938
 30
0.0
 10
5.9778437155
 20
6.2296027771
 30
0.0
 10
5.9750720303
 20
6.2284977205
 30
0.0
 10
5.9713151073
 20
6.2261961348
 30
0.0
 10
5.9680514196
 20
6.22341516
 30
0.0
 10
5.9661886919
 20
6.2212978955
 30
0.0
 10
5.9653462599
 20
6.2201965808
 30
0.0
  0
SPLINE
  5
470
100
AcDbEntity
  8
ALL_ASSEMBLY_MEMBERS
100
AcDbSpline
 62
7
  6
CONTINUOUS
 70
0
 71
3
 72
11
 73
7
 74
0
 42
0.0000001
 43
0.0000001
 44
0.0000000001
 40
0.0
 40
0.0
 40
0.0
 40
0.0
 40
0.2578427693
 40
0.5104140765
 40
0.757644353
 40
1.0
 40
1.0
 40
1.0
 40
1.0
 10
5.9792849177
 20
6.2266434306
 30
0.0
 10
5.9778402372
 20
6.2262016104
 30
0.0
 10
5.9750602533
 20
6.2250446374
 30
0.0
 10
5.9713041323
 20
6.2226431351
 30
0.0
 10
5.9680424154
 20
6.2197431981
 30
0.0
 10
5.9661863366
 20
6.2175422154
 30
0.0
 10
5.9653462599
 20
6.2163973827
 30
0.0
  0
SPLINE
  5
471
100
AcDbEntity
  8
ALL_ASSEMBLY_MEMBERS
100
AcDbSpline
 62
7
  6
CONTINUOUS
 70
0
 71
3
 72
11
 73
7
 74
0
 42
0.0000001
 43
0.0000001
 44
0.0000000001
 40
0.0
 40
0.0
 40
0.0
 40
0.0
 40
0.2558590907
 40
0.5077822355
 40
0.7557166143
 40
1.0
 40
1.0
 40
1.0
 40
1.0
 10
5.9792849177
 20
6.2221584478
 30
0.0
 10
5.9778370855
 20
6.2216997061
 30
0.0
 10
5.9750497646
 20
6.2204963937
 30
0.0
 10
5.9712945934
 20
6.2180064366
 30
0.0
 10
5.9680347689
 20
6.2150013115
 30
0.0
 10
5.9661843703
 20
6.2127264526
 30
0.0
 10
5.9653462599
 20
6.2115431369
 30
0.0
  0
SPLINE
  5
472
100
AcDbEntity
  8
ALL_ASSEMBLY_MEMBERS
100
AcDbSpline
 62
7
  6
CONTINUOUS
 70
0
 71
3
 72
11
 73
7
 74
0
 42
0.0000001
 43
0.0000001
 44
0.0000000001
 40
0.0
 40
0.0
 40
0.0
 40
0.0
 40
0.254163748
 40
0.5055401653
 40
0.7540795489
 40
1.0
 40
1.0
 40
1.0
 40
1.0
 10
5.9792849177
 20
6.2165915566
 30
0.0
 10
5.977834305
 20
6.2161180884
 30
0.0
 10
5.9750406525
 20
6.214874373
 30
0.0
 10
5.9712864808
 20
6.2123078442
 30
0.0
 10
5.9680283929
 20
6.2092117465
 30
0.0
 10
5.9661827535
 20
6.2068730859
 30
0.0
 10
5.9653462599
 20
6.205656476
 30
0.0
  0
SPLINE
  5
473
100
AcDbEntity
  8
ALL_ASSEMBLY_MEMBERS
100
AcDbSpline
 62
7
  6
CONTINUOUS
 70
0
 71
3
 72
11
 73
7
 74
0
 42
0.0000001
 43
0.0000001
 44
0.0000000001
 40
0.0
 40
0.0
 40
0.0
 40
0.0
 40
0.2527560042
 40
0.5036835043
 40
0.7527274614
 40
1.0
 40
1.0
 40
1.0
 40
1.0
 10
5.9792849177
 20
6.2099687123
 30
0.0
 10
5.9778319329
 20
6.209482813
 30
0.0
 10
5.9750329824
 20
6.2082049432
 30
0.0
 10
5.9712797743
 20
6.2055740795
 30
0.0
 10
5.9680232075
 20
6.2024016006
 30
0.0
 10
5.9661814537
 20
6.2000094237
 30
0.0
 10
5.9653462599
 20
6.1987648465
 30
0.0
  0
SPLINE
  5
474
100
AcDbEntity
  8
ALL_ASSEMBLY_MEMBERS
100
AcDbSpline
 62
7
  6
CONTINUOUS
 70
0
 71
3
 72
11
 73
7
 74
0
 42
0.0000001
 43
0.0000001
 44
0.0000000001
 40
0.0
 40
0.0
 40
0.0
 40
0.0
 40
0.2516339096
 40
0.5022068769
 40
0.7516544161
 40
1.0
 40
1.0
 40
1.0
 40
1.0
 10
5.9792849177
 20
6.2023207936
 30
0.0
 10
5.9778299997
 20
6.2018248439
 30
0.0
 10
5.9750268012
 20
6.2005193319
 30
0.0
 10
5.971274449
 20
6.1978366599
 30
0.0
 10
5.9680191439
 20
6.1946027023
 30
0.0
 10
5.9661804442
 20
6.1921674792
 30
0.0
 10
5.9653462599
 20
6.1909003802
 30
0.0
  0
SPLINE
  5
475
100
AcDbEntity
  8
ALL_ASSEMBLY_MEMBERS
100
AcDbSpline
 62
7
  6
CONTINUOUS
 70
0
 71
3
 72
11
 73
7
 74
0
 42
0.0000001
 43
0.0000001
 44
0.0000000001
 40
0.0
 40
0.0
 40
0.0
 40
0.0
 40
0.2508027377
 40
0.501116925
 40
0.7508561429
 40
1.0
 40
1.0
 40
1.0
 40
1.0
 10
5.9792849177
 20
6.1936834588
 30
0.0
 10
5.9778284852
 20
6.1931798939
 30
0.0
 10
5.9750220627
 20
6.1918533698
 30
0.0
 10
5.9712703546
 20
6.1891317
 30
0.0
 10
5.9680161155
 20
6.1858513851
 30
0.0
 10
5.9661797004
 20
6.1833838163
 30
0.0
 10
5.9653462599
 20
6.182099745
 30
0.0
  0
SPLINE
  5
476
100
AcDbEntity
  8
ALL_ASSEMBLY_MEMBERS
100
AcDbSpline
 62
7
  6
CONTINUOUS
 70
0
 71
3
 72
11
 73
7
 74
0
 42
0.0000001
 43
0.0000001
 44
0.0000000001
 40
0.0
 40
0.0
 40
0.0
 40
0.0
 40
0.250237304
 40
0.5003730892
 40
0.7503246267
 40
1.0
 40
1.0
 40
1.0
 40
1.0
 10
5.9792849177
 20
6.184096979
 30
0.0
 10
5.9778275394
 20
6.1835883329
 30
0.0
 10
5.975019024
 20
6.1822478681
 30
0.0
 10
5.9712678473
 20
6.1795000139
 30
0.0
 10
5.9680141709
 20
6.1761887408
 30
0.0
 10
5.9661792196
 20
6.1736994122
 30
0.0
 10
5.9653462599
 20
6.1724039735
 30
0.0
  0
SPLINE
  5
477
100
AcDbEntity
  8
ALL_ASSEMBLY_MEMBERS
100
AcDbSpline
 62
7
  6
CONTINUOUS
 70
0
 71
3
 72
11
 73
7
 74
0
 42
0.0000001
 43
0.0000001
 44
0.0000000001
 40
0.0
 40
0.0
 40
0.0
 40
0.0
 40
0.2499588656
 40
0.5000080326
 40
0.7500602703
 40
1.0
 40
1.0
 40
1.0
 40
1.0
 10
5.9792849177
 20
6.1736060509
 30
0.0
 10
5.9778270416
 20
6.1730948475
 30
0.0
 10
5.9750174623
 20
6.1717473388
 30
0.0
 10
5.9712665347
 20
6.1689863922
 30
0.0
 10
5.9680131906
 20
6.1656595937
 30
0.0
 10
5.9661789796
 20
6.1631594036
 30
0.0
 10
5.9653462599
 20
6.1618582718
 30
0.0
  0
SPLINE
  5
478
100
AcDbEntity
  8
ALL_ASSEMBLY_MEMBERS
100
AcDbSpline
 62
7
  6
CONTINUOUS
 70
0
 71
3
 72
11
 73
7
 74
0
 42
0.0000001
 43
0.0000001
 44
0.0000000001
 40
0.0
 40
0.0
 40
0.0
 40
0.0
 40
0.2499588656
 40
0.5000080325
 40
0.7500602703
 40
1.0
 40
1.0
 40
1.0
 40
1.0
 10
5.9792849177
 20
6.1622595879
 30
0.0
 10
5.9778270416
 20
6.1617483846
 30
0.0
 10
5.9750174623
 20
6.1604008758
 30
0.0
 10
5.9712665347
 20
6.1576399293
 30
0.0
 10
5.9680131906
 20
6.1543131308
 30
0.0
 10
5.9661789796
 20
6.1518129407
 30
0.0
 10
5.9653462599
 20
6.1505118088
 30
0.0
  0
LINE
  5
479
100
AcDbEntity
  8
ALL_ASSEMBLY_MEMBERS
100
AcDbLine
 62
7
  6
CONTINUOUS
 10
5.9653462599
 20
6.1505118088
 11
5.9792849177
 21
6.1501104926
  0
SPLINE
  5
47A
100
AcDbEntity
  8
ALL_ASSEMBLY_MEMBERS
100
AcDbSpline
 62
7
  6
CONTINUOUS
 70
0
 71
3
 72
11
 73
7
 74
0
 42
0.0000001
 43
0.0000001
 44
0.0000000001
 40
0.0
 40
0.0
 40
0.0
 40
0.0
 40
0.250237304
 40
0.5003730892
 40
0.7503246267
 40
1.0
 40
1.0
 40
1.0
 40
1.0
 10
5.9792849177
 20
6.1501104926
 30
0.0
 10
5.9778275394
 20
6.1496018465
 30
0.0
 10
5.975019024
 20
6.1482613817
 30
0.0
 10
5.9712678473
 20
6.1455135275
 30
0.0
 10
5.9680141709
 20
6.1422022544
 30
0.0
 10
5.9661792196
 20
6.1397129258
 30
0.0
 10
5.9653462599
 20
6.1384174871
 30
0.0
  0
SPLINE
  5
47B
100
AcDbEntity
  8
ALL_ASSEMBLY_MEMBERS
100
AcDbSpline
 62
7
  6
CONTINUOUS
 70
0
 71
3
 72
11
 73
7
 74
0
 42
0.0000001
 43
0.0000001
 44
0.0000000001
 40
0.0
 40
0.0
 40
0.0
 40
0.0
 40
0.1983522799
 40
0.4320136173
 40
0.7003463734
 40
1.0
 40
1.0
 40
1.0
 40
1.0
 10
5.9653462599
 20
6.1384174871
 30
0.0
 10
5.9662601554
 20
6.1382713718
 30
0.0
 10
5.9682580946
 20
6.1379995343
 30
0.0
 10
5.9715093445
 20
6.1376668628
 30
0.0
 10
5.9752401585
 20
6.1373923335
 30
0.0
 10
5.9778876471
 20
6.1372655434
 30
0.0
 10
5.9792849177
 20
6.1372154097
 30
0.0
  0
SPLINE
  5
47C
100
AcDbEntity
  8
ALL_ASSEMBLY_MEMBERS
100
AcDbSpline
 62
7
  6
CONTINUOUS
 70
0
 71
3
 72
11
 73
7
 74
0
 42
0.0000001
 43
0.0000001
 44
0.0000000001
 40
0.0
 40
0.0
 40
0.0
 40
0.0
 40
0.2507950873
 40
0.501104933
 40
0.7508549601
 40
1.0
 40
1.0
 40
1.0
 40
1.0
 10
5.9792849177
 20
6.1372154097
 30
0.0
 10
5.9778285293
 20
6.13671186
 30
0.0
 10
5.9750221412
 20
6.1353854297
 30
0.0
 10
5.9712704804
 20
6.1326637043
 30
0.0
 10
5.9680161458
 20
6.1293834198
 30
0.0
 10
5.9661797046
 20
6.1269157735
 30
0.0
 10
5.9653462599
 20
6.1256316959
 30
0.0
  0
SPLINE
  5
47D
100
AcDbEntity
  8
ALL_ASSEMBLY_MEMBERS
100
AcDbSpline
 62
7
  6
CONTINUOUS
 70
0
 71
3
 72
11
 73
7
 74
0
 42
0.0000001
 43
0.0000001
 44
0.0000000001
 40
0.0
 40
0.0
 40
0.0
 40
0.0
 40
0.2001512683
 40
0.434255011
 40
0.7019195803
 40
1.0
 40
1.0
 40
1.0
 40
1.0
 10
5.9653462599
 20
6.1256316959
 30
0.0
 10
5.966255515
 20
6.1253901601
 30
0.0
 10
5.9682478363
 20
6.1249392222
 30
0.0
 10
5.9715015826
 20
6.1243856335
 30
0.0
 10
5.9752345781
 20
6.1239289656
 30
0.0
 10
5.9778863061
 20
6.1237178383
 30
0.0
 10
5.9792849177
 20
6.1236344618
 30
0.0
  0
SPLINE
  5
47E
100
AcDbEntity
  8
ALL_ASSEMBLY_MEMBERS
100
AcDbSpline
 62
7
  6
CONTINUOUS
 70
0
 71
3
 72
11
 73
7
 74
0
 42
0.0000001
 43
0.0000001
 44
0.0000000001
 40
0.0
 40
0.0
 40
0.0
 40
0.0
 40
0.2516339096
 40
0.5022068769
 40
0.7516544161
 40
1.0
 40
1.0
 40
1.0
 40
1.0
 10
5.9792849177
 20
6.1236344618
 30
0.0
 10
5.9778299997
 20
6.1231385121
 30
0.0
 10
5.9750268012
 20
6.1218330001
 30
0.0
 10
5.971274449
 20
6.1191503281
 30
0.0
 10
5.9680191439
 20
6.1159163705
 30
0.0
 10
5.9661804442
 20
6.1134811474
 30
0.0
 10
5.9653462599
 20
6.1122140484
 30
0.0
  0
SPLINE
  5
47F
100
AcDbEntity
  8
ALL_ASSEMBLY_MEMBERS
100
AcDbSpline
 62
7
  6
CONTINUOUS
 70
0
 71
3
 72
11
 73
7
 74
0
 42
0.0000001
 43
0.0000001
 44
0.0000000001
 40
0.0
 40
0.0
 40
0.0
 40
0.0
 40
0.2026871536
 40
0.4374704912
 40
0.7041880971
 40
1.0
 40
1.0
 40
1.0
 40
1.0
 10
5.9653462599
 20
6.1122140484
 30
0.0
 10
5.9662492598
 20
6.1118797919
 30
0.0
 10
5.968233593
 20
6.1112528595
 30
0.0
 10
5.9714907184
 20
6.110479866
 30
0.0
 10
5.9752267239
 20
6.109842374
 30
0.0
 10
5.9778844667
 20
6.1095473049
 30
0.0
 10
5.9792849177
 20
6.1094309698
 30
0.0
  0
SPLINE
  5
480
100
AcDbEntity
  8
ALL_ASSEMBLY_MEMBERS
100
AcDbSpline
 62
7
  6
CONTINUOUS
 70
0
 71
3
 72
11
 73
7
 74
0
 42
0.0000001
 43
0.0000001
 44
0.0000000001
 40
0.0
 40
0.0
 40
0.0
 40
0.0
 40
0.2527560042
 40
0.5036835043
 40
0.7527274614
 40
1.0
 40
1.0
 40
1.0
 40
1.0
 10
5.9792849177
 20
6.1094309698
 30
0.0
 10
5.9778319329
 20
6.1089450705
 30
0.0
 10
5.9750329824
 20
6.1076672008
 30
0.0
 10
5.9712797743
 20
6.1050363371
 30
0.0
 10
5.9680232075
 20
6.1018638581
 30
0.0
 10
5.9661814537
 20
6.0994716813
 30
0.0
 10
5.9653462599
 20
6.098227104
 30
0.0
  0
SPLINE
  5
481
100
AcDbEntity
  8
ALL_ASSEMBLY_MEMBERS
100
AcDbSpline
 62
7
  6
CONTINUOUS
 70
0
 71
3
 72
11
 73
7
 74
0
 42
0.0000001
 43
0.0000001
 44
0.0000000001
 40
0.0
 40
0.0
 40
0.0
 40
0.0
 40
0.2058147396
 40
0.441437206
 40
0.7069957022
 40
1.0
 40
1.0
 40
1.0
 40
1.0
 10
5.9653462599
 20
6.098227104
 30
0.0
 10
5.9662420879
 20
6.0978034156
 30
0.0
 10
5.968216289
 20
6.0970048761
 30
0.0
 10
5.9714770251
 20
6.0960147978
 30
0.0
 10
5.9752165351
 20
6.0951985497
 30
0.0
 10
5.977882023
 20
6.0948200579
 30
0.0
 10
5.9792849177
 20
6.0946711569
 30
0.0
  0
SPLINE
  5
482
100
AcDbEntity
  8
ALL_ASSEMBLY_MEMBERS
100
AcDbSpline
 62
7
  6
CONTINUOUS
 70
0
 71
3
 72
11
 73
7
 74
0
 42
0.0000001
 43
0.0000001
 44
0.0000000001
 40
0.0
 40
0.0
 40
0.0
 40
0.0
 40
0.2541637482
 40
0.5055401657
 40
0.754079549
 40
1.0
 40
1.0
 40
1.0
 40
1.0
 10
5.9792849177
 20
6.0946711569
 30
0.0
 10
5.977834305
 20
6.0941976887
 30
0.0
 10
5.9750406525
 20
6.0929539732
 30
0.0
 10
5.9712864808
 20
6.0903874444
 30
0.0
 10
5.9680283929
 20
6.0872913468
 30
0.0
 10
5.9661827535
 20
6.0849526861
 30
0.0
 10
5.9653462599
 20
6.0837360763
 30
0.0
  0
SPLINE
  5
483
100
AcDbEntity
  8
ALL_ASSEMBLY_MEMBERS
100
AcDbSpline
 62
7
  6
CONTINUOUS
 70
0
 71
3
 72
11
 73
7
 74
0
 42
0.0000001
 43
0.0000001
 44
0.0000000001
 40
0.0
 40
0.0
 40
0.0
 40
0.0
 40
0.2093644327
 40
0.4459520531
 40
0.7102050142
 40
1.0
 40
1.0
 40
1.0
 40
1.0
 10
5.9653462599
 20
6.0837360763
 30
0.0
 10
5.9662345882
 20
6.083226578
 30
0.0
 10
5.9681970511
 20
6.0822619188
 30
0.0
 10
5.9714611435
 20
6.0810581089
 30
0.0
 10
5.9752043506
 20
6.0800659705
 30
0.0
 10
5.9778790356
 20
6.0796047942
 30
0.0
 10
5.9792849177
 20
6.07942384
 30
0.0
  0
SPLINE
  5
484
100
AcDbEntity
  8
ALL_ASSEMBLY_MEMBERS
100
AcDbSpline
 62
7
  6
CONTINUOUS
 70
0
 71
3
 72
11
 73
7
 74
0
 42
0.0000001
 43
0.0000001
 44
0.0000000001
 40
0.0
 40
0.0
 40
0.0
 40
0.0
 40
0.2558590908
 40
0.5077822357
 40
0.7557166144
 40
1.0
 40
1.0
 40
1.0
 40
1.0
 10
5.9792849177
 20
6.07942384
 30
0.0
 10
5.9778370855
 20
6.0789650983
 30
0.0
 10
5.9750497646
 20
6.0777617858
 30
0.0
 10
5.9712945934
 20
6.0752718288
 30
0.0
 10
5.9680347689
 20
6.0722667036
 30
0.0
 10
5.9661843703
 20
6.0699918447
 30
0.0
 10
5.9653462599
 20
6.068808529
 30
0.0
  0
SPLINE
  5
485
100
AcDbEntity
  8
ALL_ASSEMBLY_MEMBERS
100
AcDbSpline
 62
7
  6
CONTINUOUS
 70
0
 71
3
 72
11
 73
7
 74
0
 42
0.0000001
 43
0.0000001
 44
0.0000000001
 40
0.0
 40
0.0
 40
0.0
 40
0.0
 40
0.2131617511
 40
0.4508549132
 40
0.7137126631
 40
1.0
 40
1.0
 40
1.0
 40
1.0
 10
5.9653462599
 20
6.068808529
 30
0.0
 10
5.9662271745
 20
6.0682170274
 30
0.0
 10
5.9681770368
 20
6.0670924694
 30
0.0
 10
5.9714440761
 20
6.0656795777
 30
0.0
 10
5.9751908879
 20
6.0645151141
 30
0.0
 10
5.9778757445
 20
6.0639724519
 30
0.0
 10
5.9792849177
 20
6.0637601093
 30
0.0
  0
SPLINE
  5
486
100
AcDbEntity
  8
ALL_ASSEMBLY_MEMBERS
100
AcDbSpline
 62
7
  6
CONTINUOUS
 70
0
 71
3
 72
11
 73
7
 74
0
 42
0.0000001
 43
0.0000001
 44
0.0000000001
 40
0.0
 40
0.0
 40
0.0
 40
0.0
 40
0.2578428927
 40
0.5104156447
 40
0.7576458248
 40
1.0
 40
1.0
 40
1.0
 40
1.0
 10
5.9792849177
 20
6.0637601093
 30
0.0
 10
5.9778402365
 20
6.0633182889
 30
0.0
 10
5.9750602449
 20
6.0621613105
 30
0.0
 10
5.9713041157
 20
6.0597598046
 30
0.0
 10
5.9680424022
 20
6.0568598643
 30
0.0
 10
5.9661863315
 20
6.0546588871
 30
0.0
 10
5.9653462599
 20
6.0535140614
 30
0.0
  0
SPLINE
  5
487
100
AcDbEntity
  8
ALL_ASSEMBLY_MEMBERS
100
AcDbSpline
 62
7
  6
CONTINUOUS
 70
0
 71
3
 72
11
 73
7
 74
0
 42
0.0000001
 43
0.0000001
 44
0.0000000001
 40
0.0
 40
0.0
 40
0.0
 40
0.0
 40
0.2170685725
 40
0.4559145302
 40
0.717352633
 40
1.0
 40
1.0
 40
1.0
 40
1.0
 10
5.9653462599
 20
6.0535140614
 30
0.0
 10
5.966220188
 20
6.0528444155
 30
0.0
 10
5.9681569841
 20
6.0515670437
 30
0.0
 10
5.9714260762
 20
6.0499508634
 30
0.0
 10
5.9751761616
 20
6.0486187206
 30
0.0
 10
5.977872045
 20
6.0479959497
 30
0.0
 10
5.9792849177
 20
6.0477529962
 30
0.0
  0
SPLINE
  5
488
100
AcDbEntity
  8
ALL_ASSEMBLY_MEMBERS
100
AcDbSpline
 62
7
  6
CONTINUOUS
 70
0
 71
3
 72
11
 73
7
 74
0
 42
0.0000001
 43
0.0000001
 44
0.0000000001
 40
0.0
 40
0.0
 40
0.0
 40
0.0
 40
0.2601132673
 40
0.5134376245
 40
0.75986721
 40
1.0
 40
1.0
 40
1.0
 40
1.0
 10
5.9792849177
 20
6.0477529962
 30
0.0
 10
5.9778437155
 20
6.0473301795
 30
0.0
 10
5.9750720303
 20
6.046225123
 30
0.0
 10
5.9713151073
 20
6.0439235372
 30
0.0
 10
5.9680514196
 20
6.0411425625
 30
0.0
 10
5.9661886919
 20
6.039025298
 30
0.0
 10
5.9653462599
 20
6.0379239832
 30
0.0
  0
SPLINE
  5
489
100
AcDbEntity
  8
ALL_ASSEMBLY_MEMBERS
100
AcDbSpline
 62
7
  6
CONTINUOUS
 70
0
 71
3
 72
11
 73
7
 74
0
 42
0.0000001
 43
0.0000001
 44
0.0000000001
 40
0.0
 40
0.0
 40
0.0
 40
0.0
 40
0.2210028689
 40
0.588255199
 40
0.7890800481
 40
1.0
 40
1.0
 40
1.0
 40
1.0
 10
5.9653462599
 20
6.0379239832
 30
0.0
 10
5.9662137925
 20
6.0371801081
 30
0.0
 10
5.968667306
 20
6.0353657454
 30
0.0
 10
5.9723298484
 20
6.0335033469
 30
0.0
 10
5.9761408487
 20
6.0321866096
 30
0.0
 10
5.9782139164
 20
6.0316832224
 30
0.0
 10
5.9792849177
 20
6.0314771334
 30
0.0
  0
SPLINE
  5
48A
100
AcDbEntity
  8
ALL_ASSEMBLY_MEMBERS
100
AcDbSpline
 62
7
  6
CONTINUOUS
 70
0
 71
3
 72
11
 73
7
 74
0
 42
0.0000001
 43
0.0000001
 44
0.0000000001
 40
0.0
 40
0.0
 40
0.0
 40
0.0
 40
0.2626654672
 40
0.5168505195
 40
0.7623870035
 40
1.0
 40
1.0
 40
1.0
 40
1.0
 10
5.9792849177
 20
6.0314771334
 30
0.0
 10
5.9778474689
 20
6.0310752771
 30
0.0
 10
5.9750849788
 20
6.0300273125
 30
0.0
 10
5.9713275089
 20
6.0278366124
 30
0.0
 10
5.968061871
 20
6.0251878627
 30
0.0
 10
5.9661914819
 20
6.0231639106
 30
0.0
 10
5.9653462599
 20
6.0221109827
 30
0.0
  0
SPLINE
  5
48B
100
AcDbEntity
  8
ALL_ASSEMBLY_MEMBERS
100
AcDbSpline
 62
7
  6
CONTINUOUS
 70
0
 71
3
 72
10
 73
6
 74
0
 42
0.0000001
 43
0.0000001
 44
0.0000000001
 40
0.0
 40
0.0
 40
0.0
 40
0.0
 40
0.4653769394
 40
0.724340424
 40
1.0
 40
1.0
 40
1.0
 40
1.0
 10
5.9653462599
 20
6.0221109827
 30
0.0
 10
5.9671288877
 20
6.0204269781
 30
0.0
 10
5.9703113627
 20
6.0182094965
 30
0.0
 10
5.9751437862
 20
6.0160873969
 30
0.0
 10
5.97786393
 20
6.015309654
 30
0.0
 10
5.9792849177
 20
6.0150084064
 30
0.0
  0
SPLINE
  5
48C
100
AcDbEntity
  8
ALL_ASSEMBLY_MEMBERS
100
AcDbSpline
 62
7
  6
CONTINUOUS
 70
0
 71
3
 72
9
 73
5
 74
0
 42
0.0000001
 43
0.0000001
 44
0.0000000001
 40
0.0
 40
0.0
 40
0.0
 40
0.0
 40
0.5204811049
 40
1.0
 40
1.0
 40
1.0
 40
1.0
 10
5.9792849177
 20
6.0150084064
 30
0.0
 10
5.9764827781
 20
6.0142673997
 30
0.0
 10
5.9713051255
 20
6.0119309257
 30
0.0
 10
5.9670740879
 20
6.0081848083
 30
0.0
 10
5.9653462599
 20
6.0061487873
 30
0.0
  0
SPLINE
  5
48D
100
AcDbEntity
  8
ALL_ASSEMBLY_MEMBERS
100
AcDbSpline
 62
7
  6
CONTINUOUS
 70
0
 71
3
 72
11
 73
7
 74
0
 42
0.0000001
 43
0.0000001
 44
0.0000000001
 40
0.0
 40
0.0
 40
0.0
 40
0.0
 40
0.2283382794
 40
0.4707295116
 40
0.7281374414
 40
1.0
 40
1.0
 40
1.0
 40
1.0
 10
5.9653462599
 20
6.0061487873
 30
0.0
 10
5.9662030011
 20
6.0052684982
 30
0.0
 10
5.9681026698
 20
6.0035794079
 30
0.0
 10
5.9713727746
 20
6.0014006361
 30
0.0
 10
5.9751292409
 20
5.9996023144
 30
0.0
 10
5.977859789
 20
5.9987522098
 30
0.0
 10
5.9792849177
 20
5.9984236
 30
0.0
  0
SPLINE
  5
48E
100
AcDbEntity
  8
ALL_ASSEMBLY_MEMBERS
100
AcDbSpline
 62
7
  6
CONTINUOUS
 70
0
 71
3
 72
9
 73
5
 74
0
 42
0.0000001
 43
0.0000001
 44
0.0000000001
 40
0.0
 40
0.0
 40
0.0
 40
0.0
 40
0.5246901763
 40
1.0
 40
1.0
 40
1.0
 40
1.0
 10
5.9792849177
 20
5.9984236
 30
0.0
 10
5.9765000591
 20
5.9977327011
 30
0.0
 10
5.9713675975
 20
5.9955734755
 30
0.0
 10
5.9670899176
 20
5.9920394426
 30
0.0
 10
5.9653462599
 20
5.9901118202
 30
0.0
  0
SPLINE
  5
48F
100
AcDbEntity
  8
ALL_ASSEMBLY_MEMBERS
100
AcDbSpline
 62
7
  6
CONTINUOUS
 70
0
 71
3
 72
9
 73
5
 74
0
 42
0.0000001
 43
0.0000001
 44
0.0000000001
 40
0.0
 40
0.0
 40
0.0
 40
0.0
 40
0.4753215552
 40
1.0
 40
1.0
 40
1.0
 40
1.0
 10
5.9653462599
 20
5.9901118202
 30
0.0
 10
5.9670899603
 20
5.9881841506
 30
0.0
 10
5.9713676699
 20
5.9846501494
 30
0.0
 10
5.9765001219
 20
5.9824909236
 30
0.0
 10
5.9792849177
 20
5.9818000403
 30
0.0
  0
SPLINE
  5
490
100
AcDbEntity
  8
ALL_ASSEMBLY_MEMBERS
100
AcDbSpline
 62
7
  6
CONTINUOUS
 70
0
 71
3
 72
11
 73
7
 74
0
 42
0.0000001
 43
0.0000001
 44
0.0000000001
 40
0.0
 40
0.0
 40
0.0
 40
0.0
 40
0.2718688963
 40
0.5292822786
 40
0.7716644785
 40
1.0
 40
1.0
 40
1.0
 40
1.0
 10
5.9792849177
 20
5.9818000403
 30
0.0
 10
5.9778597559
 20
5.9814714229
 30
0.0
 10
5.9751291611
 20
5.9806212605
 30
0.0
 10
5.9713726617
 20
5.9788229722
 30
0.0
 10
5.9681026179
 20
5.9766441695
 30
0.0
 10
5.9662029906
 20
5.9749551315
 30
0.0
 10
5.9653462599
 20
5.974074853
 30
0.0
  0
SPLINE
  5
491
100
AcDbEntity
  8
ALL_ASSEMBLY_MEMBERS
100
AcDbSpline
 62
7
  6
CONTINUOUS
 70
0
 71
3
 72
9
 73
5
 74
0
 42
0.0000001
 43
0.0000001
 44
0.0000000001
 40
0.0
 40
0.0
 40
0.0
 40
0.0
 40
0.479530581
 40
1.0
 40
1.0
 40
1.0
 40
1.0
 10
5.9653462599
 20
5.974074853
 30
0.0
 10
5.9670741296
 20
5.9720387828
 30
0.0
 10
5.9713051988
 20
5.9682926968
 30
0.0
 10
5.9764828416
 20
5.9659562239
 30
0.0
 10
5.9792849177
 20
5.9652152339
 30
0.0
  0
SPLINE
  5
492
100
AcDbEntity
  8
ALL_ASSEMBLY_MEMBERS
100
AcDbSpline
 62
7
  6
CONTINUOUS
 70
0
 71
3
 72
10
 73
6
 74
0
 42
0.0000001
 43
0.0000001
 44
0.0000000001
 40
0.0
 40
0.0
 40
0.0
 40
0.0
 40
0.2756550928
 40
0.5346224998
 40
1.0
 40
1.0
 40
1.0
 40
1.0
 10
5.9792849177
 20
5.9652152339
 30
0.0
 10
5.977863953
 20
5.9649139912
 30
0.0
 10
5.9751438056
 20
5.9641362702
 30
0.0
 10
5.9703113914
 20
5.9620141462
 30
0.0
 10
5.9671288899
 20
5.9597966644
 30
0.0
 10
5.9653462599
 20
5.9581126576
 30
0.0
  0
SPLINE
  5
493
100
AcDbEntity
  8
ALL_ASSEMBLY_MEMBERS
100
AcDbSpline
 62
7
  6
CONTINUOUS
 70
0
 71
3
 72
11
 73
7
 74
0
 42
0.0000001
 43
0.0000001
 44
0.0000000001
 40
0.0
 40
0.0
 40
0.0
 40
0.0
 40
0.2376158669
 40
0.4831611211
 40
0.7373408453
 40
1.0
 40
1.0
 40
1.0
 40
1.0
 10
5.9653462599
 20
5.9581126576
 30
0.0
 10
5.9661914922
 20
5.9570597168
 30
0.0
 10
5.9680619181
 20
5.9550357049
 30
0.0
 10
5.9713276259
 20
5.9523869858
 30
0.0
 10
5.9750850561
 20
5.95019625
 30
0.0
 10
5.9778475033
 20
5.9491483537
 30
0.0
 10
5.9792849177
 20
5.9487465069
 30
0.0
  0
SPLINE
  5
494
100
AcDbEntity
  8
ALL_ASSEMBLY_MEMBERS
100
AcDbSpline
 62
7
  6
CONTINUOUS
 70
0
 71
3
 72
11
 73
7
 74
0
 42
0.0000001
 43
0.0000001
 44
0.0000000001
 40
0.0
 40
0.0
 40
0.0
 40
0.0
 40
0.1416842963
 40
0.2792567424
 40
0.6616238642
 40
1.0
 40
1.0
 40
1.0
 40
1.0
 10
5.9792849177
 20
5.9487465069
 30
0.0
 10
5.9785656941
 20
5.9486081092
 30
0.0
 10
5.9771564143
 20
5.9482892632
 30
0.0
 10
5.9738740715
 20
5.9473235632
 30
0.0
 10
5.9697742557
 20
5.9455557057
 30
0.0
 10
5.9666741359
 20
5.9434382587
 30
0.0
 10
5.9653462599
 20
5.9422996571
 30
0.0
  0
SPLINE
  5
495
100
AcDbEntity
  8
ALL_ASSEMBLY_MEMBERS
100
AcDbSpline
 62
7
  6
CONTINUOUS
 70
0
 71
3
 72
11
 73
7
 74
0
 42
0.0000001
 43
0.0000001
 44
0.0000000001
 40
0.0
 40
0.0
 40
0.0
 40
0.0
 40
0.2401356909
 40
0.4865739768
 40
0.7398930399
 40
1.0
 40
1.0
 40
1.0
 40
1.0
 10
5.9653462599
 20
5.9422996571
 30
0.0
 10
5.9661887022
 20
5.9411983289
 30
0.0
 10
5.9680514654
 20
5.9390810025
 30
0.0
 10
5.9713152255
 20
5.936300058
 30
0.0
 10
5.9750721068
 20
5.9339984362
 30
0.0
 10
5.9778437503
 20
5.9328934506
 30
0.0
 10
5.9792849177
 20
5.9324706441
 30
0.0
  0
SPLINE
  5
496
100
AcDbEntity
  8
ALL_ASSEMBLY_MEMBERS
100
AcDbSpline
 62
7
  6
CONTINUOUS
 70
0
 71
3
 72
11
 73
7
 74
0
 42
0.0000001
 43
0.0000001
 44
0.0000000001
 40
0.0
 40
0.0
 40
0.0
 40
0.0
 40
0.2826537466
 40
0.5440974517
 40
0.782934047
 40
1.0
 40
1.0
 40
1.0
 40
1.0
 10
5.9792849177
 20
5.9324706441
 30
0.0
 10
5.9778720131
 20
5.9322276851
 30
0.0
 10
5.975176079
 20
5.9316048697
 30
0.0
 10
5.9714259685
 20
5.9302727555
 30
0.0
 10
5.9681569263
 20
5.928656547
 30
0.0
 10
5.9662201774
 20
5.9273792167
 30
0.0
 10
5.9653462599
 20
5.9267095789
 30
0.0
  0
SPLINE
  5
497
100
AcDbEntity
  8
ALL_ASSEMBLY_MEMBERS
100
AcDbSpline
 62
7
  6
CONTINUOUS
 70
0
 71
3
 72
11
 73
7
 74
0
 42
0.0000001
 43
0.0000001
 44
0.0000000001
 40
0.0
 40
0.0
 40
0.0
 40
0.0
 40
0.2423585745
 40
0.4895974907
 40
0.7421635339
 40
1.0
 40
1.0
 40
1.0
 40
1.0
 10
5.9653462599
 20
5.9267095789
 30
0.0
 10
5.9661863469
 20
5.9255647323
 30
0.0
 10
5.9680424601
 20
5.9233636859
 30
0.0
 10
5.9713042515
 20
5.9204637787
 30
0.0
 10
5.9750603292
 20
5.9180622401
 30
0.0
 10
5.9778402723
 20
5.9169053405
 30
0.0
 10
5.9792849177
 20
5.916463531
 30
0.0
  0
SPLINE
  5
498
100
AcDbEntity
  8
ALL_ASSEMBLY_MEMBERS
100
AcDbSpline
 62
7
  6
CONTINUOUS
 70
0
 71
3
 72
11
 73
7
 74
0
 42
0.0000001
 43
0.0000001
 44
0.0000000001
 40
0.0
 40
0.0
 40
0.0
 40
0.0
 40
0.2863695856
 40
0.5491383758
 40
0.7867944383
 40
1.0
 40
1.0
 40
1.0
 40
1.0
 10
5.9792849177
 20
5.916463531
 30
0.0
 10
5.9778753395
 20
5.9162511274
 30
0.0
 10
5.9751903819
 20
5.9157089408
 30
0.0
 10
5.9714441597
 20
5.9145433989
 30
0.0
 10
5.9681771266
 20
5.9131315704
 30
0.0
 10
5.9662273557
 20
5.9120067346
 30
0.0
 10
5.9653462599
 20
5.9114151113
 30
0.0
  0
SPLINE
  5
499
100
AcDbEntity
  8
ALL_ASSEMBLY_MEMBERS
100
AcDbSpline
 62
7
  6
CONTINUOUS
 70
0
 71
3
 72
11
 73
7
 74
0
 42
0.0000001
 43
0.0000001
 44
0.0000000001
 40
0.0
 40
0.0
 40
0.0
 40
0.0
 40
0.2442895297
 40
0.4922172491
 40
0.7441364539
 40
1.0
 40
1.0
 40
1.0
 40
1.0
 10
5.9653462599
 20
5.9114151113
 30
0.0
 10
5.9661843912
 20
5.9102317661
 30
0.0
 10
5.9680348089
 20
5.9079569284
 30
0.0
 10
5.9712945906
 20
5.9049517971
 30
0.0
 10
5.9750497516
 20
5.9024618938
 30
0.0
 10
5.9778370606
 20
5.90125855
 30
0.0
 10
5.9792849177
 20
5.9007998003
 30
0.0
  0
SPLINE
  5
49A
100
AcDbEntity
  8
ALL_ASSEMBLY_MEMBERS
100
AcDbSpline
 62
7
  6
CONTINUOUS
 70
0
 71
3
 72
11
 73
7
 74
0
 42
0.0000001
 43
0.0000001
 44
0.0000000001
 40
0.0
 40
0.0
 40
0.0
 40
0.0
 40
0.2897904371
 40
0.554047279
 40
0.7906415304
 40
1.0
 40
1.0
 40
1.0
 40
1.0
 10
5.9792849177
 20
5.9007998003
 30
0.0
 10
5.9778790576
 20
5.9006188489
 30
0.0
 10
5.9752043726
 20
5.9001576882
 30
0.0
 10
5.9714611422
 20
5.8991655239
 30
0.0
 10
5.9681970219
 20
5.897961723
 30
0.0
 10
5.966234563
 20
5.8969970479
 30
0.0
 10
5.9653462599
 20
5.896487564
 30
0.0
  0
SPLINE
  5
49B
100
AcDbEntity
  8
ALL_ASSEMBLY_MEMBERS
100
AcDbSpline
 62
7
  6
CONTINUOUS
 70
0
 71
3
 72
11
 73
7
 74
0
 42
0.0000001
 43
0.0000001
 44
0.0000000001
 40
0.0
 40
0.0
 40
0.0
 40
0.0
 40
0.2459234214
 40
0.4944713483
 40
0.7458425499
 40
1.0
 40
1.0
 40
1.0
 40
1.0
 10
5.9653462599
 20
5.896487564
 30
0.0
 10
5.9661827638
 20
5.8952709393
 30
0.0
 10
5.9680284359
 20
5.8929322122
 30
0.0
 10
5.9712866017
 20
5.8898361435
 30
0.0
 10
5.9750407273
 20
5.887269578
 30
0.0
 10
5.9778343408
 20
5.88602594
 30
0.0
 10
5.9792849177
 20
5.8855524835
 30
0.0
  0
SPLINE
  5
49C
100
AcDbEntity
  8
ALL_ASSEMBLY_MEMBERS
100
AcDbSpline
 62
7
  6
CONTINUOUS
 70
0
 71
3
 72
11
 73
7
 74
0
 42
0.0000001
 43
0.0000001
 44
0.0000000001
 40
0.0
 40
0.0
 40
0.0
 40
0.0
 40
0.2930107298
 40
0.5585749764
 40
0.7941877398
 40
1.0
 40
1.0
 40
1.0
 40
1.0
 10
5.9792849177
 20
5.8855524835
 30
0.0
 10
5.9778819922
 20
5.8854035792
 30
0.0
 10
5.9752164497
 20
5.885025059
 30
0.0
 10
5.9714769227
 20
5.8842088309
 30
0.0
 10
5.9682162253
 20
5.8832187318
 30
0.0
 10
5.9662420771
 20
5.8824202196
 30
0.0
 10
5.9653462599
 20
5.8819965363
 30
0.0
  0
SPLINE
  5
49D
100
AcDbEntity
  8
ALL_ASSEMBLY_MEMBERS
100
AcDbSpline
 62
7
  6
CONTINUOUS
 70
0
 71
3
 72
11
 73
7
 74
0
 42
0.0000001
 43
0.0000001
 44
0.0000000001
 40
0.0
 40
0.0
 40
0.0
 40
0.0
 40
0.2472755251
 40
0.4963279897
 40
0.7472502924
 40
1.0
 40
1.0
 40
1.0
 40
1.0
 10
5.9653462599
 20
5.8819965363
 30
0.0
 10
5.9661814639
 20
5.8807519438
 30
0.0
 10
5.9680232498
 20
5.8783596995
 30
0.0
 10
5.9712798958
 20
5.8751872491
 30
0.0
 10
5.9750330568
 20
5.8725563485
 30
0.0
 10
5.9778319689
 20
5.8712785578
 30
0.0
 10
5.9792849177
 20
5.8707926705
 30
0.0
  0
SPLINE
  5
49E
100
AcDbEntity
  8
ALL_ASSEMBLY_MEMBERS
100
AcDbSpline
 62
7
  6
CONTINUOUS
 70
0
 71
3
 72
11
 73
7
 74
0
 42
0.0000001
 43
0.0000001
 44
0.0000000001
 40
0.0
 40
0.0
 40
0.0
 40
0.0
 40
0.2958183508
 40
0.5625417477
 40
0.7973152864
 40
1.0
 40
1.0
 40
1.0
 40
1.0
 10
5.9792849177
 20
5.8707926705
 30
0.0
 10
5.9778844362
 20
5.8706763329
 30
0.0
 10
5.9752266377
 20
5.8703812414
 30
0.0
 10
5.9714906174
 20
5.8697437656
 30
0.0
 10
5.9682335276
 20
5.8689707551
 30
0.0
 10
5.9662492489
 20
5.8683438444
 30
0.0
 10
5.9653462599
 20
5.8680095919
 30
0.0
  0
SPLINE
  5
49F
100
AcDbEntity
  8
ALL_ASSEMBLY_MEMBERS
100
AcDbSpline
 62
7
  6
CONTINUOUS
 70
0
 71
3
 72
11
 73
7
 74
0
 42
0.0000001
 43
0.0000001
 44
0.0000000001
 40
0.0
 40
0.0
 40
0.0
 40
0.0
 40
0.2483485832
 40
0.4978046012
 40
0.7483723858
 40
1.0
 40
1.0
 40
1.0
 40
1.0
 10
5.9653462599
 20
5.8680095919
 30
0.0
 10
5.9661804544
 20
5.8667424774
 30
0.0
 10
5.9680191856
 20
5.864307186
 30
0.0
 10
5.971274571
 20
5.8610732566
 30
0.0
 10
5.9750268752
 20
5.8583905476
 30
0.0
 10
5.9778300359
 20
5.8570851159
 30
0.0
 10
5.9792849177
 20
5.8565891785
 30
0.0
  0
SPLINE
  5
4A0
100
AcDbEntity
  8
ALL_ASSEMBLY_MEMBERS
100
AcDbSpline
 62
7
  6
CONTINUOUS
 70
0
 71
3
 72
11
 73
7
 74
0
 42
0.0000001
 43
0.0000001
 44
0.0000000001
 40
0.0
 40
0.0
 40
0.0
 40
0.0
 40
0.2980758428
 40
0.5657442937
 40
0.7998546774
 40
1.0
 40
1.0
 40
1.0
 40
1.0
 10
5.9792849177
 20
5.8565891785
 30
0.0
 10
5.9778863275
 20
5.8565058033
 30
0.0
 10
5.975234602
 20
5.8562946835
 30
0.0
 10
5.97150158
 20
5.855838003
 30
0.0
 10
5.9682478107
 20
5.8552844196
 30
0.0
 10
5.966255488
 20
5.854833473
 30
0.0
 10
5.9653462599
 20
5.8545919445
 30
0.0
  0
SPLINE
  5
4A1
100
AcDbEntity
  8
ALL_ASSEMBLY_MEMBERS
100
AcDbSpline
 62
7
  6
CONTINUOUS
 70
0
 71
3
 72
11
 73
7
 74
0
 42
0.0000001
 43
0.0000001
 44
0.0000000001
 40
0.0
 40
0.0
 40
0.0
 40
0.0
 40
0.2491480488
 40
0.4989065339
 40
0.7492112076
 40
1.0
 40
1.0
 40
1.0
 40
1.0
 10
5.9653462599
 20
5.8545919445
 30
0.0
 10
5.9661797148
 20
5.8533078511
 30
0.0
 10
5.9680161872
 20
5.8508401359
 30
0.0
 10
5.9712706027
 20
5.8475598792
 30
0.0
 10
5.975022215
 20
5.8448381169
 30
0.0
 10
5.9778285657
 20
5.8435117678
 30
0.0
 10
5.9792849177
 20
5.8430082307
 30
0.0
  0
SPLINE
  5
4A2
100
AcDbEntity
  8
ALL_ASSEMBLY_MEMBERS
100
AcDbSpline
 62
7
  6
CONTINUOUS
 70
0
 71
3
 72
11
 73
7
 74
0
 42
0.0000001
 43
0.0000001
 44
0.0000000001
 40
0.0
 40
0.0
 40
0.0
 40
0.0
 40
0.2996600976
 40
0.5679987008
 40
0.8016501054
 40
1.0
 40
1.0
 40
1.0
 40
1.0
 10
5.9792849177
 20
5.8430082307
 30
0.0
 10
5.977887617
 20
5.8429580958
 30
0.0
 10
5.9752400713
 20
5.8428312959
 30
0.0
 10
5.9715092455
 20
5.842556774
 30
0.0
 10
5.9682580269
 20
5.8422240947
 30
0.0
 10
5.9662601444
 20
5.8419522668
 30
0.0
 10
5.9653462599
 20
5.8418061532
 30
0.0
  0
SPLINE
  5
4A3
100
AcDbEntity
  8
ALL_ASSEMBLY_MEMBERS
100
AcDbSpline
 62
7
  6
CONTINUOUS
 70
0
 71
3
 72
11
 73
7
 74
0
 42
0.0000001
 43
0.0000001
 44
0.0000000001
 40
0.0
 40
0.0
 40
0.0
 40
0.0
 40
0.2496783886
 40
0.49963837
 40
0.7497689905
 40
1.0
 40
1.0
 40
1.0
 40
1.0
 10
5.9653462599
 20
5.8418061532
 30
0.0
 10
5.9661792298
 20
5.8405106987
 30
0.0
 10
5.968014212
 20
5.8380213007
 30
0.0
 10
5.9712679699
 20
5.8347100553
 30
0.0
 10
5.9750190976
 20
5.8319621641
 30
0.0
 10
5.9778275759
 20
5.8306217811
 30
0.0
 10
5.9792849177
 20
5.8301131477
 30
0.0
  0
LINE
  5
4A4
100
AcDbEntity
  8
ALL_ASSEMBLY_MEMBERS
100
AcDbLine
 62
7
  6
CONTINUOUS
 10
5.9792849177
 20
5.8301131477
 11
5.9653462599
 21
5.8297118315
  0
SPLINE
  5
4A5
100
AcDbEntity
  8
ALL_ASSEMBLY_MEMBERS
100
AcDbSpline
 62
7
  6
CONTINUOUS
 70
0
 71
3
 72
11
 73
7
 74
0
 42
0.0000001
 43
0.0000001
 44
0.0000000001
 40
0.0
 40
0.0
 40
0.0
 40
0.0
 40
0.2499427482
 40
0.500003423
 40
0.7500474288
 40
1.0
 40
1.0
 40
1.0
 40
1.0
 10
5.9653462599
 20
5.8297118315
 30
0.0
 10
5.9661789898
 20
5.8284106837
 30
0.0
 10
5.9680132315
 20
5.825910424
 30
0.0
 10
5.9712666574
 20
5.8225836532
 30
0.0
 10
5.9750175359
 20
5.8198226696
 30
0.0
 10
5.9778270781
 20
5.818475243
 30
0.0
 10
5.9792849177
 20
5.8179640524
 30
0.0
  0
SPLINE
  5
4A6
100
AcDbEntity
  8
ALL_ASSEMBLY_MEMBERS
100
AcDbSpline
 62
7
  6
CONTINUOUS
 70
0
 71
3
 72
11
 73
7
 74
0
 42
0.0000001
 43
0.0000001
 44
0.0000000001
 40
0.0
 40
0.0
 40
0.0
 40
0.0
 40
0.2499459167
 40
0.4999914805
 40
0.7500366887
 40
1.0
 40
1.0
 40
1.0
 40
1.0
 10
5.9653462599
 20
5.8183653686
 30
0.0
 10
5.966179
 20
5.8170642048
 30
0.0
 10
5.9680132319
 20
5.8145640358
 30
0.0
 10
5.9712665312
 20
5.8112372327
 30
0.0
 10
5.9750174511
 20
5.808476344
 30
0.0
 10
5.9778270159
 20
5.8071288018
 30
0.0
 10
5.9792849177
 20
5.8066175894
 30
0.0
  0
SPLINE
  5
4A7
100
AcDbEntity
  8
ALL_ASSEMBLY_MEMBERS
100
AcDbSpline
 62
7
  6
CONTINUOUS
 70
0
 71
3
 72
11
 73
7
 74
0
 42
0.0000001
 43
0.0000001
 44
0.0000000001
 40
0.0
 40
0.0
 40
0.0
 40
0.0
 40
0.2496783887
 40
0.4996383701
 40
0.7497689905
 40
1.0
 40
1.0
 40
1.0
 40
1.0
 10
5.9653462599
 20
5.8078196668
 30
0.0
 10
5.9661792298
 20
5.8065242123
 30
0.0
 10
5.968014212
 20
5.8040348143
 30
0.0
 10
5.9712679699
 20
5.8007235689
 30
0.0
 10
5.9750190976
 20
5.7979756777
 30
0.0
 10
5.9778275759
 20
5.7966352947
 30
0.0
 10
5.9792849177
 20
5.7961266613
 30
0.0
  0
SPLINE
  5
4A8
100
AcDbEntity
  8
ALL_ASSEMBLY_MEMBERS
100
AcDbSpline
 62
7
  6
CONTINUOUS
 70
0
 71
3
 72
11
 73
7
 74
0
 42
0.0000001
 43
0.0000001
 44
0.0000000001
 40
0.0
 40
0.0
 40
0.0
 40
0.0
 40
0.2491480489
 40
0.4989065339
 40
0.7492112076
 40
1.0
 40
1.0
 40
1.0
 40
1.0
 10
5.9653462599
 20
5.7981238953
 30
0.0
 10
5.9661797148
 20
5.796839802
 30
0.0
 10
5.9680161872
 20
5.7943720867
 30
0.0
 10
5.9712706027
 20
5.79109183
 30
0.0
 10
5.975022215
 20
5.7883700677
 30
0.0
 10
5.9778285657
 20
5.7870437186
 30
0.0
 10
5.9792849177
 20
5.7865401815
 30
0.0
  0
SPLINE
  5
4A9
100
AcDbEntity
  8
ALL_ASSEMBLY_MEMBERS
100
AcDbSpline
 62
7
  6
CONTINUOUS
 70
0
 71
3
 72
11
 73
7
 74
0
 42
0.0000001
 43
0.0000001
 44
0.0000000001
 40
0.0
 40
0.0
 40
0.0
 40
0.0
 40
0.2483485833
 40
0.4978046014
 40
0.7483723859
 40
1.0
 40
1.0
 40
1.0
 40
1.0
 10
5.9653462599
 20
5.7893232601
 30
0.0
 10
5.9661804544
 20
5.7880561456
 30
0.0
 10
5.9680191856
 20
5.7856208542
 30
0.0
 10
5.971274571
 20
5.7823869248
 30
0.0
 10
5.9750268752
 20
5.7797042158
 30
0.0
 10
5.9778300359
 20
5.7783987841
 30
0.0
 10
5.9792849177
 20
5.7779028467
 30
0.0
  0
SPLINE
  5
4AA
100
AcDbEntity
  8
ALL_ASSEMBLY_MEMBERS
100
AcDbSpline
 62
7
  6
CONTINUOUS
 70
0
 71
3
 72
11
 73
7
 74
0
 42
0.0000001
 43
0.0000001
 44
0.0000000001
 40
0.0
 40
0.0
 40
0.0
 40
0.0
 40
0.247278705
 40
0.4963159954
 40
0.7472395459
 40
1.0
 40
1.0
 40
1.0
 40
1.0
 10
5.9653462599
 20
5.7814587938
 30
0.0
 10
5.9661814744
 20
5.7802141858
 30
0.0
 10
5.9680232482
 20
5.7778220302
 30
0.0
 10
5.9712797712
 20
5.7746495458
 30
0.0
 10
5.9750329704
 20
5.772018738
 30
0.0
 10
5.9778319076
 20
5.7707408358
 30
0.0
 10
5.9792849177
 20
5.770254928
 30
0.0
  0
SPLINE
  5
4AB
100
AcDbEntity
  8
ALL_ASSEMBLY_MEMBERS
100
AcDbSpline
 62
7
  6
CONTINUOUS
 70
0
 71
3
 72
11
 73
7
 74
0
 42
0.0000001
 43
0.0000001
 44
0.0000000001
 40
0.0
 40
0.0
 40
0.0
 40
0.0
 40
0.2459234215
 40
0.4944713484
 40
0.7458425499
 40
1.0
 40
1.0
 40
1.0
 40
1.0
 10
5.9653462599
 20
5.7745671643
 30
0.0
 10
5.9661827638
 20
5.7733505396
 30
0.0
 10
5.9680284359
 20
5.7710118125
 30
0.0
 10
5.9712866017
 20
5.7679157438
 30
0.0
 10
5.9750407273
 20
5.7653491782
 30
0.0
 10
5.9778343408
 20
5.7641055402
 30
0.0
 10
5.9792849177
 20
5.7636320837
 30
0.0
  0
SPLINE
  5
4AC
100
AcDbEntity
  8
ALL_ASSEMBLY_MEMBERS
100
AcDbSpline
 62
7
  6
CONTINUOUS
 70
0
 71
3
 72
11
 73
7
 74
0
 42
0.0000001
 43
0.0000001
 44
0.0000000001
 40
0.0
 40
0.0
 40
0.0
 40
0.0
 40
0.2442863363
 40
0.4922293025
 40
0.7441472094
 40
1.0
 40
1.0
 40
1.0
 40
1.0
 10
5.9653462599
 20
5.7686805035
 30
0.0
 10
5.9661843805
 20
5.7674971733
 30
0.0
 10
5.9680348127
 20
5.7652222493
 30
0.0
 10
5.9712947135
 20
5.7622171535
 30
0.0
 10
5.9750498399
 20
5.7597271598
 30
0.0
 10
5.977837121
 20
5.758523923
 30
0.0
 10
5.9792849177
 20
5.7580651925
 30
0.0
  0
SPLINE
  5
4AD
100
AcDbEntity
  8
ALL_ASSEMBLY_MEMBERS
100
AcDbSpline
 62
7
  6
CONTINUOUS
 70
0
 71
3
 72
11
 73
7
 74
0
 42
0.0000001
 43
0.0000001
 44
0.0000000001
 40
0.0
 40
0.0
 40
0.0
 40
0.0
 40
0.2423617772
 40
0.4895853988
 40
0.7421527716
 40
1.0
 40
1.0
 40
1.0
 40
1.0
 10
5.9653462599
 20
5.7638262576
 30
0.0
 10
5.9661863577
 20
5.7626813962
 30
0.0
 10
5.9680424548
 20
5.7604804348
 30
0.0
 10
5.9713041297
 20
5.7575804911
 30
0.0
 10
5.9750602397
 20
5.7551790412
 30
0.0
 10
5.9778402125
 20
5.7540220375
 30
0.0
 10
5.9792849177
 20
5.7535802097
 30
0.0
  0
LINE
  5
4AE
100
AcDbEntity
  8
ALL_ASSEMBLY_MEMBERS
100
AcDbLine
 62
7
  6
CONTINUOUS
 10
6.006620894
 20
5.8297323935
 11
6.0070225658
 21
5.8297118315
  0
SPLINE
  5
4AF
100
AcDbEntity
  8
ALL_ASSEMBLY_MEMBERS
100
AcDbSpline
 62
7
  6
CONTINUOUS
 70
0
 71
3
 72
11
 73
7
 74
0
 42
0.0000001
 43
0.0000001
 44
0.0000000001
 40
0.0
 40
0.0
 40
0.0
 40
0.0
 40
0.2401356909
 40
0.4865739769
 40
0.7398930399
 40
1.0
 40
1.0
 40
1.0
 40
1.0
 10
5.9653462599
 20
5.7600270596
 30
0.0
 10
5.9661887022
 20
5.7589257313
 30
0.0
 10
5.9680514654
 20
5.756808405
 30
0.0
 10
5.9713152255
 20
5.7540274605
 30
0.0
 10
5.9750721068
 20
5.7517258386
 30
0.0
 10
5.9778437503
 20
5.7506208531
 30
0.0
 10
5.9792849177
 20
5.7501980466
 30
0.0
  0
SPLINE
  5
4B0
100
AcDbEntity
  8
ALL_ASSEMBLY_MEMBERS
100
AcDbSpline
 62
7
  6
CONTINUOUS
 70
0
 71
3
 72
11
 73
7
 74
0
 42
0.0000001
 43
0.0000001
 44
0.0000000001
 40
0.0
 40
0.0
 40
0.0
 40
0.0
 40
0.2376158669
 40
0.483161121
 40
0.7373408452
 40
1.0
 40
1.0
 40
1.0
 40
1.0
 10
5.9653462599
 20
5.7573006228
 30
0.0
 10
5.9661914922
 20
5.7562476821
 30
0.0
 10
5.9680619181
 20
5.7542236702
 30
0.0
 10
5.9713276259
 20
5.751574951
 30
0.0
 10
5.9750850561
 20
5.7493842152
 30
0.0
 10
5.9778475033
 20
5.7483363189
 30
0.0
 10
5.9792849177
 20
5.7479344721
 30
0.0
  0
SPLINE
  5
4B1
100
AcDbEntity
  8
ALL_ASSEMBLY_MEMBERS
100
AcDbSpline
 62
7
  6
CONTINUOUS
 70
0
 71
3
 72
11
 73
7
 74
0
 42
0.0000001
 43
0.0000001
 44
0.0000000001
 40
0.0
 40
0.0
 40
0.0
 40
0.0
 40
0.2604346296
 40
0.5137119636
 40
0.7599489989
 40
1.0
 40
1.0
 40
1.0
 40
1.0
 10
5.996330368
 20
5.7490898684
 30
0.0
 10
5.9973702596
 20
5.7495268011
 30
0.0
 10
5.9993687566
 20
5.7505212444
 30
0.0
 10
6.0021100365
 20
5.7523585095
 30
0.0
 10
6.0045334221
 20
5.7544644022
 30
0.0
 10
6.0059604726
 20
5.7560198347
 30
0.0
 10
6.0066219926
 20
5.756821902
 30
0.0
  0
LINE
  5
4B2
100
AcDbEntity
  8
ALL_ASSEMBLY_MEMBERS
100
AcDbLine
 62
7
  6
CONTINUOUS
 10
6.0070226843
 20
6.1505118088
 11
6.0066217757
 21
6.1504912871
  0
SPLINE
  5
4B3
100
AcDbEntity
  8
ALL_ASSEMBLY_MEMBERS
100
AcDbSpline
 62
7
  6
CONTINUOUS
 70
0
 71
3
 72
21
 73
17
 74
0
 42
0.0000001
 43
0.0000001
 44
0.0000000001
 40
0.0
 40
0.0
 40
0.0
 40
0.0
 40
0.1250035886
 40
0.187519922
 40
0.2500355174
 40
0.3125435272
 40
0.375039644
 40
0.437524083
 40
0.5000012891
 40
0.5624783472
 40
0.6249624213
 40
0.6874581201
 40
0.7499657861
 40
0.8124813593
 40
0.8749976822
 40
1.0
 40
1.0
 40
1.0
 40
1.0
 10
6.4982587414
 20
5.9901118202
 30
0.0
 10
6.4978121564
 20
6.0007963828
 30
0.0
 10
6.4968000037
 20
6.0168093806
 30
0.0
 10
6.4952411775
 20
6.0381422209
 30
0.0
 10
6.4940835842
 20
6.0541443249
 30
0.0
 10
6.4930477417
 20
6.0701531799
 30
0.0
 10
6.4922296623
 20
6.0861724028
 30
0.0
 10
6.491705756
 20
6.1022016916
 30
0.0
 10
6.4915254169
 20
6.1182371405
 30
0.0
 10
6.4917057144
 20
6.1342725585
 30
0.0
 10
6.4922295602
 20
6.1503017696
 30
0.0
 10
6.4930476412
 20
6.1663208969
 30
0.0
 10
6.4940836682
 20
6.1823296724
 30
0.0
 10
6.4952411141
 20
6.1983317544
 30
0.0
 10
6.4968000413
 20
6.2196644757
 30
0.0
 10
6.4978121609
 20
6.2356773662
 30
0.0
 10
6.4982587414
 20
6.2463618202
 30
0.0
  0
SPLINE
  5
4B4
100
AcDbEntity
  8
ALL_ASSEMBLY_MEMBERS
100
AcDbSpline
 62
7
  6
CONTINUOUS
 70
0
 71
3
 72
21
 73
17
 74
0
 42
0.0000001
 43
0.0000001
 44
0.0000000001
 40
0.0
 40
0.0
 40
0.0
 40
0.0
 40
0.125003992
 40
0.1875199469
 40
0.2500353553
 40
0.3125430692
 40
0.3750388852
 40
0.4375231433
 40
0.5000003508
 40
0.5624776083
 40
0.6249619334
 40
0.6874577621
 40
0.7499653869
 40
0.8124808386
 40
0.8749969388
 40
1.0
 40
1.0
 40
1.0
 40
1.0
 10
6.4982587414
 20
5.7338618202
 30
0.0
 10
6.4978121549
 20
5.7445464173
 30
0.0
 10
6.4968001167
 20
5.760559425
 30
0.0
 10
6.4952410631
 20
5.7818922353
 30
0.0
 10
6.4940836746
 20
5.79789428
 30
0.0
 10
6.4930476993
 20
5.8139030587
 30
0.0
 10
6.4922296221
 20
5.8299222162
 30
0.0
 10
6.4917058156
 20
5.845951467
 30
0.0
 10
6.491525447
 20
5.8619869163
 30
0.0
 10
6.4917056683
 20
5.878022374
 30
0.0
 10
6.4922295103
 20
5.8940516356
 30
0.0
 10
6.4930476709
 20
5.9100707881
 30
0.0
 10
6.4940837153
 20
5.9260795594
 30
0.0
 10
6.4952411421
 20
5.9420816097
 30
0.0
 10
6.4968000254
 20
5.9634143685
 30
0.0
 10
6.4978121582
 20
5.9794273026
 30
0.0
 10
6.4982587414
 20
5.9901118202
 30
0.0
  0
SPLINE
  5
4B5
100
AcDbEntity
  8
ALL_ASSEMBLY_MEMBERS
100
AcDbSpline
 62
7
  6
CONTINUOUS
 70
0
 71
3
 72
10
 73
6
 74
0
 42
0.0000001
 43
0.0000001
 44
0.0000000001
 40
0.0
 40
0.0
 40
0.0
 40
0.0
 40
0.2630156064
 40
0.5172708363
 40
1.0
 40
1.0
 40
1.0
 40
1.0
 10
5.9963313508
 20
6.2323302981
 30
0.0
 10
5.9973684258
 20
6.2319180684
 30
0.0
 10
5.9993610269
 20
6.230980757
 30
0.0
 10
6.0029524368
 20
6.2287065055
 30
0.0
 10
6.0052758824
 20
6.2265606509
 30
0.0
 10
6.0066219832
 20
6.2250168214
 30
0.0
  0
SPLINE
  5
4B6
100
AcDbEntity
  8
ALL_ASSEMBLY_MEMBERS
100
AcDbSpline
 62
7
  6
CONTINUOUS
 70
0
 71
3
 72
11
 73
7
 74
0
 42
0.0000001
 43
0.0000001
 44
0.0000000001
 40
0.0
 40
0.0
 40
0.0
 40
0.0
 40
0.2604350641
 40
0.5137123564
 40
0.7599486664
 40
1.0
 40
1.0
 40
1.0
 40
1.0
 10
5.9963313506
 20
6.2311333589
 30
0.0
 10
5.9973711411
 20
6.2306964197
 30
0.0
 10
5.9993694419
 20
6.2297019908
 30
0.0
 10
6.00211044
 20
6.227864797
 30
0.0
 10
6.0045336015
 20
6.2257590536
 30
0.0
 10
6.0059605246
 20
6.2242037422
 30
0.0
 10
6.0066219913
 20
6.2234017396
 30
0.0
  0
SPLINE
  5
4B7
100
AcDbEntity
  8
ALL_ASSEMBLY_MEMBERS
100
AcDbSpline
 62
7
  6
CONTINUOUS
 70
0
 71
3
 72
11
 73
7
 74
0
 42
0.0000001
 43
0.0000001
 44
0.0000000001
 40
0.0
 40
0.0
 40
0.0
 40
0.0
 40
0.2572698405
 40
0.509978769
 40
0.7575578709
 40
1.0
 40
1.0
 40
1.0
 40
1.0
 10
5.9929664033
 20
6.2300255938
 30
0.0
 10
5.993999269
 20
6.2297325964
 30
0.0
 10
5.996012435
 20
6.229022383
 30
0.0
 10
5.9988480347
 20
6.2276074387
 30
0.0
 10
6.0014385855
 20
6.2258922808
 30
0.0
 10
6.0030023107
 20
6.224566518
 30
0.0
 10
6.0037368568
 20
6.2238707715
 30
0.0
  0
LINE
  5
4B8
100
AcDbEntity
  8
ALL_ASSEMBLY_MEMBERS
100
AcDbLine
 62
7
  6
CONTINUOUS
 10
6.0037368568
 20
6.2238707715
 11
6.0066218599
 21
6.2206991071
  0
SPLINE
  5
4B9
100
AcDbEntity
  8
ALL_ASSEMBLY_MEMBERS
100
AcDbSpline
 62
7
  6
CONTINUOUS
 70
0
 71
3
 72
11
 73
7
 74
0
 42
0.0000001
 43
0.0000001
 44
0.0000000001
 40
0.0
 40
0.0
 40
0.0
 40
0.0
 40
0.2562537105
 40
0.5085237396
 40
0.7564006057
 40
1.0
 40
1.0
 40
1.0
 40
1.0
 10
5.9929664033
 20
6.2266434306
 30
0.0
 10
5.9940937992
 20
6.2263100481
 30
0.0
 10
5.9962871102
 20
6.2254884144
 30
0.0
 10
5.9993466439
 20
6.2238288461
 30
0.0
 10
6.0021075853
 20
6.2218070831
 30
0.0
 10
6.00374603
 20
6.220248651
 30
0.0
 10
6.0045105197
 20
6.2194334312
 30
0.0
  0
SPLINE
  5
4BA
100
AcDbEntity
  8
ALL_ASSEMBLY_MEMBERS
100
AcDbSpline
 62
7
  6
CONTINUOUS
 70
0
 71
3
 72
11
 73
7
 74
0
 42
0.0000001
 43
0.0000001
 44
0.0000000001
 40
0.0
 40
0.0
 40
0.0
 40
0.0
 40
0.2547101966
 40
0.5064099559
 40
0.7548059181
 40
1.0
 40
1.0
 40
1.0
 40
1.0
 10
5.9929664033
 20
6.2221584478
 30
0.0
 10
5.9940955409
 20
6.2218125167
 30
0.0
 10
5.9962932208
 20
6.2209589673
 30
0.0
 10
5.9993530303
 20
6.2192382481
 30
0.0
 10
6.0021133804
 20
6.2171427484
 30
0.0
 10
6.0037476193
 20
6.2155314432
 30
0.0
 10
6.0045105088
 20
6.2146886153
 30
0.0
  0
SPLINE
  5
4BB
100
AcDbEntity
  8
ALL_ASSEMBLY_MEMBERS
100
AcDbSpline
 62
7
  6
CONTINUOUS
 70
0
 71
3
 72
11
 73
7
 74
0
 42
0.0000001
 43
0.0000001
 44
0.0000000001
 40
0.0
 40
0.0
 40
0.0
 40
0.0
 40
0.2533798931
 40
0.5045926825
 40
0.7534385429
 40
1.0
 40
1.0
 40
1.0
 40
1.0
 10
5.9929664033
 20
6.2165915566
 30
0.0
 10
5.9940970815
 20
6.2162347187
 30
0.0
 10
5.9962985669
 20
6.2153533812
 30
0.0
 10
5.9993585331
 20
6.2135796751
 30
0.0
 10
6.0021182923
 20
6.2114203478
 30
0.0
 10
6.003748962
 20
6.2097633979
 30
0.0
 10
6.0045105144
 20
6.2088967006
 30
0.0
  0
SPLINE
  5
4BC
100
AcDbEntity
  8
ALL_ASSEMBLY_MEMBERS
100
AcDbSpline
 62
7
  6
CONTINUOUS
 70
0
 71
3
 72
51
 73
47
 74
0
 42
0.0000001
 43
0.0000001
 44
0.0000000001
 40
0.0
 40
0.0
 40
0.0
 40
0.0
 40
0.0981714916
 40
0.147012417
 40
0.1955059381
 40
0.2909741325
 40
0.3836668105
 40
0.4726695727
 40
0.5570804634
 40
0.5973014423
 40
0.6360633971
 40
0.673272587
 40
0.708838048
 40
0.742669442
 40
0.7746861563
 40
0.8048151215
 40
0.8329835823
 40
0.8591248553
 40
0.8831822398
 40
0.9050999128
 40
0.924825709
 40
0.9423212674
 40
0.957551453
 40
0.9643060925
 40
0.9704823319
 40
0.9760779404
 40
0.9810907396
 40
0.985518553
 40
0.9893592077
 40
0.992610539
 40
0.9940146392
 40
0.9952709543
 40
0.9963794758
 40
0.9973401946
 40
0.9981531003
 40
0.9988181816
 40
0.9990952842
 40
0.999335426
 40
0.9995386053
 40
0.9997048203
 40
0.9998340692
 40
0.99992635
 40
0.9999586268
 40
0.9999816609
 40
0.999995452
 40
1.0
 40
1.0
 40
1.0
 40
1.0
 10
6.4749233473
 20
2.99011182
 30
0.0
 10
6.4749667365
 20
3.0087108161
 30
0.0
 10
6.4750612172
 20
3.0365628527
 30
0.0
 10
6.475191614
 20
3.0736021328
 30
0.0
 10
6.4753027517
 20
3.1101293252
 30
0.0
 10
6.4754073539
 20
3.1549644834
 30
0.0
 10
6.4755271802
 20
3.2074742891
 30
0.0
 10
6.4756422904
 20
3.2578892406
 30
0.0
 10
6.4757226356
 20
3.2983632452
 30
0.0
 10
6.4757446903
 20
3.3293189663
 30
0.0
 10
6.4757314107
 20
3.351332107
 30
0.0
 10
6.4756999541
 20
3.3724632144
 30
0.0
 10
6.4756631817
 20
3.3926601932
 30
0.0
 10
6.4756372051
 20
3.4118734499
 30
0.0
 10
6.4756195747
 20
3.4300567452
 30
0.0
 10
6.4755956467
 20
3.4471671649
 30
0.0
 10
6.4755512865
 20
3.463164418
 30
0.0
 10
6.4754799497
 20
3.4780112702
 30
0.0
 10
6.4753976849
 20
3.4916737984
 30
0.0
 10
6.4753172786
 20
3.504120872
 30
0.0
 10
6.4752526611
 20
3.5153248509
 30
0.0
 10
6.4751998898
 20
3.5252618996
 30
0.0
 10
6.4751609294
 20
3.5327415409
 30
0.0
 10
6.47513118
 20
3.538076703
 30
0.0
 10
6.4751101554
 20
3.5415865696
 30
0.0
 10
6.4750893418
 20
3.5447664313
 30
0.0
 10
6.4750685175
 20
3.5476150378
 30
0.0
 10
6.4750474759
 20
3.5501311485
 30
0.0
 10
6.4750260322
 20
3.5523135237
 30
0.0
 10
6.4750068209
 20
3.5539230344
 30
0.0
 10
6.4749907396
 20
3.5550429273
 30
0.0
 10
6.4749794032
 20
3.5557568803
 30
0.0
 10
6.4749684387
 20
3.5563868268
 30
0.0
 10
6.4749581019
 20
3.5569327661
 30
0.0
 10
6.4749486458
 20
3.5573946911
 30
0.0
 10
6.4749413301
 20
3.5577271267
 30
0.0
 10
6.4749361189
 20
3.5579510534
 30
0.0
 10
6.4749328411
 20
3.5580875246
 30
0.0
 10
6.4749299535
 20
3.5582029009
 30
0.0
 10
6.4749275684
 20
3.5582975266
 30
0.0
 10
6.4749255034
 20
3.5583704822
 30
0.0
 10
6.4749244097
 20
3.5584195399
 30
0.0
 10
6.4749233005
 20
3.5584461594
 30
0.0
 10
6.4749234238
 20
3.5584614294
 30
0.0
 10
6.4749222877
 20
3.5584654192
 30
0.0
 10
6.4749230933
 20
3.558472849
 30
0.0
 10
6.4749226761
 20
3.5584720951
 30
0.0
  0
LINE
  5
4BD
100
AcDbEntity
  8
ALL_ASSEMBLY_MEMBERS
100
AcDbLine
 62
7
  6
CONTINUOUS
 10
6.5319994707
 20
2.9904761854
 11
6.531009806
 21
3.1684978611
  0
SPLINE
  5
4BE
100
AcDbEntity
  8
ALL_ASSEMBLY_MEMBERS
100
AcDbSpline
 62
7
  6
CONTINUOUS
 70
0
 71
3
 72
50
 73
46
 74
0
 42
0.0000001
 43
0.0000001
 44
0.0000000001
 40
0.0
 40
0.0
 40
0.0
 40
0.0
 40
0.1064900382
 40
0.2096090837
 40
0.3087040706
 40
0.4031625474
 40
0.4923951535
 40
0.5758524641
 40
0.6152503139
 40
0.6530109446
 40
0.7233961755
 40
0.7559089772
 40
0.7865652078
 40
0.815320249
 40
0.8421300565
 40
0.8669506578
 40
0.8897421425
 40
0.9104722236
 40
0.9291094245
 40
0.945622239
 40
0.9530728197
 40
0.9599827796
 40
0.9663498887
 40
0.9721719162
 40
0.9774466314
 40
0.9821718041
 40
0.9863452055
 40
0.9899646395
 40
0.9930287034
 40
0.9943522974
 40
0.9955368476
 40
0.99658229
 40
0.9974885601
 40
0.9982555932
 40
0.9988833244
 40
0.9991449315
 40
0.9993716888
 40
0.9995635883
 40
0.9997206219
 40
0.999842782
 40
0.9999300615
 40
0.9999606195
 40
0.9999824564
 40
0.9999955749
 40
1.0
 40
1.0
 40
1.0
 40
1.0
 10
6.531009806
 20
3.1684978611
 30
0.0
 10
6.5309258657
 20
3.1829757761
 30
0.0
 10
6.5307749068
 20
3.2114733864
 30
0.0
 10
6.5306049471
 20
3.2534438033
 30
0.0
 10
6.5305041272
 20
3.2937786532
 30
0.0
 10
6.5304547759
 20
3.3322256166
 30
0.0
 10
6.5304211795
 20
3.3685465225
 30
0.0
 10
6.5304316332
 20
3.3973815528
 30
0.0
 10
6.5304952747
 20
3.4192184534
 30
0.0
 10
6.5305906441
 20
3.4392779643
 30
0.0
 10
6.5307194493
 20
3.4584011922
 30
0.0
 10
6.5308483521
 20
3.4765584859
 30
0.0
 10
6.5309346661
 20
3.489055989
 30
0.0
 10
6.5310196583
 20
3.5007781152
 30
0.0
 10
6.5311076054
 20
3.5117067975
 30
0.0
 10
6.5312039376
 20
3.5218245867
 30
0.0
 10
6.5313115373
 20
3.531115625
 30
0.0
 10
6.531424411
 20
3.5395658482
 30
0.0
 10
6.5315375986
 20
3.5471623461
 30
0.0
 10
6.5316307867
 20
3.5529534833
 30
0.0
 10
6.5317006852
 20
3.5571503768
 30
0.0
 10
6.5317484116
 20
3.5599680597
 30
0.0
 10
6.5317928502
 20
3.5625643518
 30
0.0
 10
6.5318335904
 20
3.5649383502
 30
0.0
 10
6.5318702276
 20
3.5670891521
 30
0.0
 10
6.5319023435
 20
3.5690158547
 30
0.0
 10
6.5319295773
 20
3.5707175587
 30
0.0
 10
6.5319514152
 20
3.5721934785
 30
0.0
 10
6.5319658151
 20
3.5732820108
 30
0.0
 10
6.5319750164
 20
3.5740395405
 30
0.0
 10
6.5319805678
 20
3.5745226467
 30
0.0
 10
6.5319852154
 20
3.5749490209
 30
0.0
 10
6.5319890575
 20
3.5753186361
 30
0.0
 10
6.5319921946
 20
3.5756314632
 30
0.0
 10
6.5319944142
 20
3.5758566511
 30
0.0
 10
6.5319959436
 20
3.576008382
 30
0.0
 10
6.5319968974
 20
3.5761008721
 30
0.0
 10
6.531997772
 20
3.576179114
 30
0.0
 10
6.5319984893
 20
3.5762432222
 30
0.0
 10
6.5319992959
 20
3.5762928784
 30
0.0
 10
6.5319995934
 20
3.5763258436
 30
0.0
 10
6.532000371
 20
3.5763443712
 30
0.0
 10
6.5320000888
 20
3.5763540262
 30
0.0
 10
6.5320013089
 20
3.5763580442
 30
0.0
 10
6.5320004829
 20
3.5763618098
 30
0.0
 10
6.5320010844
 20
3.5763618202
 30
0.0
  0
SPLINE
  5
4BF
100
AcDbEntity
  8
ALL_ASSEMBLY_MEMBERS
100
AcDbSpline
 62
7
  6
CONTINUOUS
 70
0
 71
3
 72
9
 73
5
 74
0
 42
0.0000001
 43
0.0000001
 44
0.0000000001
 40
0.0
 40
0.0
 40
0.0
 40
0.0
 40
0.2497660257
 40
1.0
 40
1.0
 40
1.0
 40
1.0
 10
3.9072842489
 20
2.5000826637
 30
0.0
 10
3.9086377141
 20
2.5051338648
 30
0.0
 10
3.9142773036
 20
2.5252976203
 30
0.0
 10
3.9208152916
 20
2.5452117482
 30
0.0
 10
3.9262423765
 20
2.5599521843
 30
0.0
  0
SPLINE
  5
4C0
100
AcDbEntity
  8
ALL_ASSEMBLY_MEMBERS
100
AcDbSpline
 62
7
  6
CONTINUOUS
 70
0
 71
3
 72
60
 73
56
 74
0
 42
0.0000001
 43
0.0000001
 44
0.0000000001
 40
0.0
 40
0.0
 40
0.0
 40
0.0
 40
0.0160865381
 40
0.0241208908
 40
0.0321459821
 40
0.0401613035
 40
0.0481674754
 40
0.0561652513
 40
0.0641548948
 40
0.0801062899
 40
0.0960213688
 40
0.1039650069
 40
0.1118975021
 40
0.1277373714
 40
0.1435696678
 40
0.1594059153
 40
0.1752420307
 40
0.1910726756
 40
0.206913903
 40
0.2227766113
 40
0.2386645833
 40
0.2545766205
 40
0.2705145558
 40
0.2864781375
 40
0.3024677274
 40
0.3184820019
 40
0.334517783
 40
0.3425422906
 40
0.3505701609
 40
0.3586006521
 40
0.3666320825
 40
0.3706473581
 40
0.3746620373
 40
0.3826928646
 40
0.3907291904
 40
0.3987695924
 40
0.406810557
 40
0.4148497937
 40
0.430924334
 40
0.4469968839
 40
0.4630681844
 40
0.4791363099
 40
0.4952002763
 40
0.5112601384
 40
0.5433664663
 40
0.5754512955
 40
0.607511019
 40
0.6395442122
 40
0.6715453892
 40
0.7034678989
 40
0.7666124368
 40
0.8283605116
 40
0.8881813808
 40
0.9455573844
 40
1.0
 40
1.0
 40
1.0
 40
1.0
 10
3.9279915171
 20
2.5646479675
 30
0.0
 10
3.9331210577
 20
2.5782603228
 30
0.0
 10
3.9414941964
 20
2.5984259377
 30
0.0
 10
3.9540580485
 20
2.6246447014
 30
0.0
 10
3.9641848286
 20
2.6439225132
 30
0.0
 10
3.9750266098
 20
2.662778102
 30
0.0
 10
3.9865950259
 20
2.6811679494
 30
0.0
 10
3.9988687045
 20
2.6990667831
 30
0.0
 10
4.0161259694
 20
2.7222334365
 30
0.0
 10
4.039328742
 20
2.7498625701
 30
0.0
 10
4.0645599721
 20
2.7755931322
 30
0.0
 10
4.085841353
 20
2.7949301517
 30
0.0
 10
4.1078011216
 20
2.8133878002
 30
0.0
 10
4.1365102113
 20
2.8348571703
 30
0.0
 10
4.1726672395
 20
2.8581177802
 30
0.0
 10
4.2102586929
 20
2.8789668556
 30
0.0
 10
4.2490336277
 20
2.8975086264
 30
0.0
 10
4.288782706
 20
2.9138603677
 30
0.0
 10
4.3293315885
 20
2.9281749986
 30
0.0
 10
4.370543415
 20
2.9406216434
 30
0.0
 10
4.4123020851
 20
2.951339071
 30
0.0
 10
4.4545037118
 20
2.9604697461
 30
0.0
 10
4.4970625072
 20
2.9681415785
 30
0.0
 10
4.5399085236
 20
2.9744880696
 30
0.0
 10
4.5829864485
 20
2.9796115443
 30
0.0
 10
4.6262474963
 20
2.9836139873
 30
0.0
 10
4.6624046196
 20
2.9860932746
 30
0.0
 10
4.6913820539
 20
2.9876108972
 30
0.0
 10
4.7131408679
 20
2.9885270094
 30
0.0
 10
4.7349137197
 20
2.9892324724
 30
0.0
 10
4.7530647091
 20
2.9896481765
 30
0.0
 10
4.7675869982
 20
2.98987566
 30
0.0
 10
4.7821096933
 20
2.9900313084
 30
0.0
 10
4.8002692444
 20
2.990118193
 30
0.0
 10
4.8220692709
 20
2.9901380011
 30
0.0
 10
4.8438784642
 20
2.9901229188
 30
0.0
 10
4.8656902803
 20
2.9901021826
 30
0.0
 10
4.8947672352
 20
2.9900966081
 30
0.0
 10
4.9311070029
 20
2.9901114701
 30
0.0
 10
4.9747100235
 20
2.9901210109
 30
0.0
 10
5.0183072431
 20
2.9901125072
 30
0.0
 10
5.0618967008
 20
2.9901071443
 30
0.0
 10
5.1054758154
 20
2.9901087736
 30
0.0
 10
5.1635579869
 20
2.9901117872
 30
0.0
 10
5.2361275357
 20
2.9901123178
 30
0.0
 10
5.3231654704
 20
2.9901116258
 30
0.0
 10
5.4101372708
 20
2.9901116813
 30
0.0
 10
5.497033426
 20
2.9901118699
 30
0.0
 10
5.5838055011
 20
2.9901118066
 30
0.0
 10
5.698711004
 20
2.9901118279
 30
0.0
 10
5.8405160899
 20
2.9901118179
 30
0.0
 10
6.0075491589
 20
2.9901118206
 30
0.0
 10
6.1693658464
 20
2.9901118202
 30
0.0
 10
6.324576339
 20
2.99011182
 30
0.0
 10
6.4256918989
 20
2.9901118201
 30
0.0
 10
6.4749233739
 20
2.9901118202
 30
0.0
  0
SPLINE
  5
4C1
100
AcDbEntity
  8
ALL_ASSEMBLY_MEMBERS
100
AcDbSpline
 62
7
  6
CONTINUOUS
 70
0
 71
3
 72
40
 73
36
 74
0
 42
0.0000001
 43
0.0000001
 44
0.0000000001
 40
0.0
 40
0.0
 40
0.0
 40
0.0
 40
0.0624694866
 40
0.0937223675
 40
0.1249702304
 40
0.156209859
 40
0.1874418418
 40
0.2186740699
 40
0.2499134543
 40
0.3123940249
 40
0.3436737823
 40
0.374960115
 40
0.4062359575
 40
0.4374888803
 40
0.4531071734
 40
0.4687185869
 40
0.4843240296
 40
0.4999261258
 40
0.515534653
 40
0.5311565704
 40
0.5467914811
 40
0.5624334126
 40
0.5702540742
 40
0.5780729469
 40
0.5937054789
 40
0.6093327069
 40
0.6249566281
 40
0.6562026385
 40
0.6874549777
 40
0.7187114571
 40
0.749967682
 40
0.812475253
 40
0.8749833746
 40
0.9374917403
 40
1.0
 40
1.0
 40
1.0
 40
1.0
 10
4.2145677727
 20
2.4177462917
 30
0.0
 10
4.2198956026
 20
2.4371365229
 30
0.0
 10
4.229862322
 20
2.4657371384
 30
0.0
 10
4.2468157009
 20
2.502239542
 30
0.0
 10
4.2613244509
 20
2.5287250765
 30
0.0
 10
4.2775621426
 20
2.5541770783
 30
0.0
 10
4.2954773795
 20
2.578471681
 30
0.0
 10
4.314979679
 20
2.6015130458
 30
0.0
 10
4.3429555147
 20
2.6304426805
 30
0.0
 10
4.3737513077
 20
2.6565563733
 30
0.0
 10
4.4068908246
 20
2.6794429262
 30
0.0
 10
4.4328494741
 20
2.6949379209
 30
0.0
 10
4.4597760867
 20
2.7086585601
 30
0.0
 10
4.4829326308
 20
2.7185410128
 30
0.0
 10
4.5018198339
 20
2.725465363
 30
0.0
 10
4.5161511951
 20
2.7301558758
 30
0.0
 10
4.5306345263
 20
2.7343352088
 30
0.0
 10
4.5452598063
 20
2.7379822846
 30
0.0
 10
4.5599983349
 20
2.7411608916
 30
0.0
 10
4.5748221262
 20
2.7439674783
 30
0.0
 10
4.5897069955
 20
2.7464912194
 30
0.0
 10
4.6021417074
 20
2.7484345132
 30
0.0
 10
4.6120981752
 20
2.7499388689
 30
0.0
 10
4.6220544306
 20
2.7514243184
 30
0.0
 10
4.6345014227
 20
2.7532447566
 30
0.0
 10
4.6494430992
 20
2.7553685776
 30
0.0
 10
4.6693725019
 20
2.7581155762
 30
0.0
 10
4.6943071382
 20
2.7613835994
 30
0.0
 10
4.7242671885
 20
2.7650208953
 30
0.0
 10
4.7542628061
 20
2.768381852
 30
0.0
 10
4.7942956314
 20
2.772502653
 30
0.0
 10
4.844402626
 20
2.7769814971
 30
0.0
 10
4.9046177805
 20
2.7812621864
 30
0.0
 10
4.9649005987
 20
2.7844529578
 30
0.0
 10
5.0051216048
 20
2.7858523599
 30
0.0
 10
5.0252363024
 20
2.7863699452
 30
0.0
  0
SPLINE
  5
4C2
100
AcDbEntity
  8
ALL_ASSEMBLY_MEMBERS
100
AcDbSpline
 62
7
  6
CONTINUOUS
 70
0
 71
3
 72
54
 73
50
 74
0
 42
0.0000001
 43
0.0000001
 44
0.0000000001
 40
0.0
 40
0.0
 40
0.0
 40
0.0
 40
0.0000048161
 40
0.0000190231
 40
0.0000426479
 40
0.0000756924
 40
0.0001181559
 40
0.0001700368
 40
0.0003020433
 40
0.0004716959
 40
0.0006789778
 40
0.0009238718
 40
0.0012063607
 40
0.0018840545
 40
0.0027119213
 40
0.0036898236
 40
0.0048176245
 40
0.0060951874
 40
0.0075223764
 40
0.0090990562
 40
0.0108250921
 40
0.0147245594
 40
0.0192181846
 40
0.0243025565
 40
0.0299742486
 40
0.0362298325
 40
0.0430658794
 40
0.0504789512
 40
0.0584648317
 40
0.076132852
 40
0.0960249923
 40
0.1180959319
 40
0.1422929258
 40
0.1685546837
 40
0.196819428
 40
0.2270207744
 40
0.2590830815
 40
0.2929295939
 40
0.3656494759
 40
0.4043445973
 40
0.4444753781
 40
0.528650148
 40
0.6173647886
 40
0.7097546163
 40
0.757051066
 40
0.8049356285
 40
0.8532988504
 40
0.9020225423
 40
1.0
 40
1.0
 40
1.0
 40
1.0
 10
6.5320011985
 20
2.4038618202
 30
0.0
 10
6.5320002602
 20
2.4038619003
 30
0.0
 10
6.5320016636
 20
2.4038676393
 30
0.0
 10
6.5319999101
 20
2.4038740393
 30
0.0
 10
6.5320006759
 20
2.4038889987
 30
0.0
 10
6.5320002569
 20
2.4039078972
 30
0.0
 10
6.5320004761
 20
2.4039329948
 30
0.0
 10
6.5320006421
 20
2.4039771649
 30
0.0
 10
6.5320012504
 20
2.4040463523
 30
0.0
 10
6.5320021968
 20
2.4041458398
 30
0.0
 10
6.5320034958
 20
2.4042674339
 30
0.0
 10
6.5320050835
 20
2.4044110776
 30
0.0
 10
6.5320077377
 20
2.4046467035
 30
0.0
 10
6.5320116711
 20
2.404996314
 30
0.0
 10
6.5320169268
 20
2.4054818998
 30
0.0
 10
6.5320227668
 20
2.4060554974
 30
0.0
 10
6.5320289858
 20
2.4067170288
 30
0.0
 10
6.5320353783
 20
2.4074664152
 30
0.0
 10
6.5320417388
 20
2.4083035781
 30
0.0
 10
6.5320478576
 20
2.409228439
 30
0.0
 10
6.5320557639
 20
2.4106367248
 30
0.0
 10
6.5320635247
 20
2.4126153953
 30
0.0
 10
6.5320701071
 20
2.4152507576
 30
0.0
 10
6.5320753454
 20
2.4182326623
 30
0.0
 10
6.5320801236
 20
2.4215590997
 30
0.0
 10
6.5320853968
 20
2.4252280576
 30
0.0
 10
6.5320920893
 20
2.4292375215
 30
0.0
 10
6.532101212
 20
2.4335853219
 30
0.0
 10
6.5321180632
 20
2.4400511834
 30
0.0
 10
6.5321470183
 20
2.4489571653
 30
0.0
 10
6.532192251
 20
2.4606172848
 30
0.0
 10
6.5322497312
 20
2.4735540331
 30
0.0
 10
6.5323149646
 20
2.4877362674
 30
0.0
 10
6.5323779454
 20
2.503129655
 30
0.0
 10
6.5324286099
 20
2.5196971817
 30
0.0
 10
6.5324625088
 20
2.5373989848
 30
0.0
 10
6.5324937951
 20
2.5561922452
 30
0.0
 10
6.5325491636
 20
2.5832995115
 30
0.0
 10
6.5326426188
 20
2.6117036563
 30
0.0
 10
6.532712971
 20
2.6413366904
 30
0.0
 10
6.532749825
 20
2.6732096681
 30
0.0
 10
6.5327381178
 20
2.7148634357
 30
0.0
 10
6.5327046525
 20
2.7667358633
 30
0.0
 10
6.532655867
 20
2.8113971316
 30
0.0
 10
6.5325917051
 20
2.8480744945
 30
0.0
 10
6.5325225094
 20
2.8761429107
 30
0.0
 10
6.5324247881
 20
2.9044903279
 30
0.0
 10
6.5322514391
 20
2.9426326341
 30
0.0
 10
6.5320966209
 20
2.9713180162
 30
0.0
 10
6.5319994707
 20
2.9904761854
 30
0.0
  0
SPLINE
  5
4C3
100
AcDbEntity
  8
ALL_ASSEMBLY_MEMBERS
100
AcDbSpline
 62
7
  6
CONTINUOUS
 70
0
 71
3
 72
52
 73
48
 74
0
 42
0.0000001
 43
0.0000001
 44
0.0000000001
 40
0.0
 40
0.0
 40
0.0
 40
0.0
 40
0.0000046699
 40
0.0000187785
 40
0.0000423241
 40
0.000075305
 40
0.0001177192
 40
0.0001695648
 40
0.0003015421
 40
0.0004712216
 40
0.0006785877
 40
0.0009236251
 40
0.0012063182
 40
0.0018846106
 40
0.0027133424
 40
0.0036923919
 40
0.0048216383
 40
0.006100961
 40
0.0075302404
 40
0.0091093575
 40
0.010838194
 40
0.0147444152
 40
0.0192463763
 40
0.0243406772
 40
0.0300238996
 40
0.0362926217
 40
0.0431434204
 40
0.0505728625
 40
0.0585766912
 40
0.076284692
 40
0.0962210976
 40
0.1183392142
 40
0.1425849131
 40
0.1688952027
 40
0.1972065562
 40
0.2274510555
 40
0.293430196
 40
0.3661901564
 40
0.4048905852
 40
0.4450151685
 40
0.5291452019
 40
0.6177789558
 40
0.7100612791
 40
0.8051219002
 40
0.8534270575
 40
0.9020981305
 40
1.0
 40
1.0
 40
1.0
 40
1.0
 10
6.4749225455
 20
2.4217518196
 30
0.0
 10
6.4749232952
 20
2.4217513497
 30
0.0
 10
6.4749216662
 20
2.4217582167
 30
0.0
 10
6.4749235012
 20
2.4217630222
 30
0.0
 10
6.4749227994
 20
2.4217782366
 30
0.0
 10
6.4749235509
 20
2.4217961667
 30
0.0
 10
6.474923792
 20
2.4218205841
 30
0.0
 10
6.4749245615
 20
2.4218632898
 30
0.0
 10
6.4749255334
 20
2.4219303527
 30
0.0
 10
6.4749269469
 20
2.4220267359
 30
0.0
 10
6.4749285476
 20
2.4221445963
 30
0.0
 10
6.4749303507
 20
2.422283846
 30
0.0
 10
6.4749331442
 20
2.4225123165
 30
0.0
 10
6.474936931
 20
2.4228513624
 30
0.0
 10
6.4749415828
 20
2.4233223357
 30
0.0
 10
6.4749463716
 20
2.4238787453
 30
0.0
 10
6.4749510876
 20
2.4245205247
 30
0.0
 10
6.4749555211
 20
2.4252476053
 30
0.0
 10
6.4749594634
 20
2.4260599197
 30
0.0
 10
6.474962702
 20
2.4269573997
 30
0.0
 10
6.4749659549
 20
2.4283241473
 30
0.0
 10
6.4749666844
 20
2.4302446432
 30
0.0
 10
6.4749631979
 20
2.4328027349
 30
0.0
 10
6.4749563422
 20
2.4356974797
 30
0.0
 10
6.4749469222
 20
2.4389269379
 30
0.0
 10
6.4749358126
 20
2.4424891671
 30
0.0
 10
6.4749238628
 20
2.4463822229
 30
0.0
 10
6.4749119899
 20
2.4506040025
 30
0.0
 10
6.4748966069
 20
2.4568827156
 30
0.0
 10
6.474879787
 20
2.4655309203
 30
0.0
 10
6.4748644099
 20
2.4768531331
 30
0.0
 10
6.4748551005
 20
2.4894139429
 30
0.0
 10
6.4748488566
 20
2.5031823091
 30
0.0
 10
6.4748370976
 20
2.5181240036
 30
0.0
 10
6.4748113519
 20
2.5342021786
 30
0.0
 10
6.4747519087
 20
2.5577956999
 30
0.0
 10
6.4746770923
 20
2.5898101763
 30
0.0
 10
6.4746853374
 20
2.6234267463
 30
0.0
 10
6.4746886932
 20
2.6521450561
 30
0.0
 10
6.4746730259
 20
2.6830174674
 30
0.0
 10
6.47463191
 20
2.7233499067
 30
0.0
 10
6.4746300738
 20
2.7735638456
 30
0.0
 10
6.474680528
 20
2.8258485948
 30
0.0
 10
6.4747528086
 20
2.8704929076
 30
0.0
 10
6.4748013103
 20
2.9068749408
 30
0.0
 10
6.4748398979
 20
2.9437952677
 30
0.0
 10
6.4748778406
 20
2.9715640182
 30
0.0
 10
6.4749233199
 20
2.9901118199
 30
0.0
  0
ENDSEC
  0
SECTION
  2
OBJECTS
  0
DICTIONARY
  5
C
100
AcDbDictionary
280
0
281
1
  3
ACAD_GROUP
350
D
  3
ACAD_MLINESTYLE
350
17
  3
ACAD_LAYOUT
350
1A
  3
ACAD_PLOTSETTINGS
350
19
  3
ACAD_PLOTSTYLENAME
350
E
  0
DICTIONARY
  5
D
102
{ACAD_REACTORS
330
C
102
}
100
AcDbDictionary
280
0
281
1
  0
ACDBDICTIONARYWDFLT
  5
E
102
{ACAD_REACTORS
330
C
102
}
100
AcDbDictionary
281
1
  3
Normal
350
F
100
AcDbDictionaryWithDefault
340
F
  0
DICTIONARY
  5
17
102
{ACAD_REACTORS
330
C
102
}
100
AcDbDictionary
280
0
281
1
  3
Standard
350
18
  0
DICTIONARY
  5
19
102
{ACAD_REACTORS
330
C
102
}
100
AcDbDictionary
281
1
  0
DICTIONARY
  5
1A
102
{ACAD_REACTORS
330
C
102
}
100
AcDbDictionary
281
1
  3
Model
350
4C4
  3
Layout1
350
4C5
  0
ACDBPLACEHOLDER
  5
F
102
{ACAD_REACTORS
330
E
102
}
  0
MLINESTYLE
  5
18
102
{ACAD_REACTORS
330
17
102
}
100
AcDbMlineStyle
  2
STANDARD
 70
0
  3

 62
256
 51
90.0
 52
90.0
 71
2
 49
0.5
 62
256
  6
BYLAYER
 49
-0.5
 62
256
  6
BYLAYER
  0
LAYOUT
  5
4C4
102
{ACAD_REACTORS
330
1A
102
}
100
AcDbPlotSettings
  1

  2
none_device
  4
ANSI_A_(11.00_x_8.50_Inches)
  6

 40
0.0
 41
0.0
 42
0.0
 43
0.0
 44
279.4
 45
215.9
 46
0.0
 47
0.0
 48
0.0
 49
0.0
140
0.0
141
0.0
142
1.0
143
1.0
 70
1024
 72
0
 73
0
 74
0
  7

 75
0
147
1.0
148
0.0
149
0.0
100
AcDbLayout
  1
Model
 70
0
 71
0
 10
0.0
 20
0.0
 11
11.0
 21
8.5
 12
0.0
 22
0.0
 32
0.0
 14
0.0
 24
0.0
 34
0.0
 15
0.0
 25
0.0
 35
0.0
146
0.0
 13
0.0
 23
0.0
 33
0.0
 16
1.0
 26
0.0
 36
0.0
 17
0.0
 27
1.0
 37
0.0
 76
0
330
220
345
0
346
0
  0
LAYOUT
  5
4C5
102
{ACAD_REACTORS
330
1A
102
}
100
AcDbPlotSettings
  1

  2
none_device
  4
ANSI_A_(11.00_x_8.50_Inches)
  6

 40
0.0
 41
0.0
 42
0.0
 43
0.0
 44
279.4
 45
215.9
 46
0.0
 47
0.0
 48
0.0
 49
0.0
140
0.0
141
0.0
142
1.0
143
1.0
 70
0
 72
0
 73
0
 74
0
  7

 75
0
147
1.0
148
0.0
149
0.0
100
AcDbLayout
  1
Layout1
 70
0
 71
1
 10
0.0
 20
0.0
 11
11.0
 21
8.5
 12
0.0
 22
0.0
 32
0.0
 14
0.0
 24
0.0
 34
0.0
 15
0.0
 25
0.0
 35
0.0
146
0.0
 13
0.0
 23
0.0
 33
0.0
 16
1.0
 26
0.0
 36
0.0
 17
0.0
 27
1.0
 37
0.0
 76
0
330
221
345
0
346
0
  0
ENDSEC
  0
EOF
