999
DXF file: E:\BT Custom\CADOUTPUT\_TOP.dxf
999
Pro/ENGINEER 2018400 by Parametric Technology Corporation
  0
SECTION
  2
HEADER
  9
$ACADVER
  1
AC1018
  9
$DWGCODEPAGE
  3
ANSI_1252
  9
$EXTMAX
 10
22.0
 20
17.0
 30
0.0
  9
$EXTMIN
 10
0.0
 20
0.0
 30
0.0
  9
$LIMMIN
 10
0.0
 20
0.0
  9
$LIMMAX
 10
22.0
 20
17.0
  9
$VIEWCTR
 10
11.0
 20
8.5
  9
$VIEWSIZE
 40
17.0
  9
$CLAYER
  8
0
  9
$LTSCALE
 40
1.21
  9
$CELTYPE
  6
BYLAYER
  9
$DIMSCALE
 40
1.0
  9
$DIMASZ
 40
0.1
  9
$DIMEXO
 40
0.0625
  9
$DIMDLI
 40
0.836
  9
$DIMEXE
 40
0.125
  9
$DIMCEN
 40
0.198
  9
$DIMLFAC
 40
1.0
  9
$DIMBLK
  1
_FILLED
  9
$DIMALT
 70
1
  9
$DIMALTD
 70
2
  9
$DIMALTTD
 70
2
  9
$DIMALTF
 40
25.4
  9
$DIMTXT
 40
0.08
  9
$DIMTOL
 70
1
  9
$DIMLIM
 70
0
  9
$DIMTFAC
 40
1.0
  9
$DIMTP
 40
0.001
  9
$DIMTM
 40
0.001
  9
$DIMGAP
 40
0.09
  9
$DIMDSEP
 70
46
  9
$AUNITS
 70
0
  9
$PDMODE
 70
3
  9
$PDSIZE
 40
0.06
  9
$HANDSEED
  5
3B3
  9
$TILEMODE
 70
1
  9
$MEASUREMENT
 70
0
  9
$INSUNITS
 70
1
  0
ENDSEC
  0
SECTION
  2
CLASSES
  0
CLASS
  1
ACDBDICTIONARYWDFLT
  2
AcDbDictionaryWithDefault
  3
AutoCAD 2000
 90
0
 91
1
280
0
281
0
  0
CLASS
  1
ACDBPLACEHOLDER
  2
AcDbPlaceHolder
  3
AutoCAD 2000
 90
0
 91
1
280
0
281
0
  0
CLASS
  1
LAYOUT
  2
AcDbLayout
  3
AutoCAD 2000
 90
0
 91
0
280
0
281
0
  0
ENDSEC
  0
SECTION
  2
TABLES
  0
TABLE
  2
VPORT
  5
8
100
AcDbSymbolTable
 70
2
  0
VPORT
  5
1F4
100
AcDbSymbolTableRecord
100
AcDbViewportTableRecord
  2
*ACTIVE
 70
0
 10
0.0
 20
0.0
 11
1.0
 21
1.0
 12
11.0
 22
8.5
 13
0.0
 23
0.0
 14
1.0
 24
1.0
 15
0.0
 25
0.0
 16
0.0
 26
0.0
 36
1.0
 17
0.0
 27
0.0
 37
0.0
 40
17.0
 41
1.2941176471
 42
50.0
 43
0.0
 44
0.0
 50
0.0
 51
0.0
 71
0
 72
100
 73
1
 74
1
 75
0
 76
0
 77
0
 78
0
  0
ENDTAB
  0
TABLE
  2
LTYPE
  5
5
100
AcDbSymbolTable
 70
6
  0
LTYPE
  5
14
100
AcDbSymbolTableRecord
100
AcDbLinetypeTableRecord
  2
BYBLOCK
 70
0
  3

 72
65
 73
0
 40
0.0
  0
LTYPE
  5
15
100
AcDbSymbolTableRecord
100
AcDbLinetypeTableRecord
  2
BYLAYER
 70
0
  3

 72
65
 73
0
 40
0.0
  0
LTYPE
  5
16
100
AcDbSymbolTableRecord
100
AcDbLinetypeTableRecord
  2
CONTINUOUS
 70
64
  3
Solid line
 72
65
 73
0
 40
0.0
  0
LTYPE
  5
1F5
100
AcDbSymbolTableRecord
100
AcDbLinetypeTableRecord
  2
CENTER
 70
64
  3
____ _ ____ _ ____ _ ____ _ ____ _ ____ _ ____
 72
65
 73
4
 40
0.6
 49
0.375
 74
0
 49
-0.075
 74
0
 49
0.075
 74
0
 49
-0.075
 74
0
  0
LTYPE
  5
1F6
100
AcDbSymbolTableRecord
100
AcDbLinetypeTableRecord
  2
HIDDEN
 70
64
  3
- - - - - - - - - - - - - - - - - - - -
 72
65
 73
2
 40
0.2
 49
0.1
 74
0
 49
-0.1
 74
0
  0
LTYPE
  5
1F7
100
AcDbSymbolTableRecord
100
AcDbLinetypeTableRecord
  2
PHANTOM
 70
64
  3
_____ _ _ _____ _ _ _____ _ _ _____
 72
65
 73
6
 40
0.8
 49
0.45
 74
0
 49
-0.05
 74
0
 49
0.1
 74
0
 49
-0.05
 74
0
 49
0.1
 74
0
 49
-0.05
 74
0
  0
LTYPE
  5
1F8
100
AcDbSymbolTableRecord
100
AcDbLinetypeTableRecord
  2
DOT
 70
64
  3
. . . . . . . . . . . . . . . . . . . .
 72
65
 73
2
 40
0.2
 49
0.1
 74
0
 49
-0.1
 74
0
  0
LTYPE
  5
1F9
100
AcDbSymbolTableRecord
100
AcDbLinetypeTableRecord
  2
DASHED
 70
64
  3
- - - - - - - - - - - - - - - - - - - -
 72
65
 73
2
 40
0.2
 49
0.1
 74
0
 49
-0.1
 74
0
  0
ENDTAB
  0
TABLE
  2
LAYER
  5
2
100
AcDbSymbolTable
 70
36
  0
LAYER
  5
10
100
AcDbSymbolTableRecord
100
AcDbLayerTableRecord
  2
0
 70
0
 62
7
  6
CONTINUOUS
370
-3
390
F
  0
LAYER
  5
1FA
100
AcDbSymbolTableRecord
100
AcDbLayerTableRecord
  2
DEFAULT_1
 70
0
 62
7
  6
CENTER
370
-3
390
F
  0
LAYER
  5
1FB
100
AcDbSymbolTableRecord
100
AcDbLayerTableRecord
  2
DEFAULT_2
 70
0
 62
8
  6
HIDDEN
370
-3
390
F
  0
LAYER
  5
1FC
100
AcDbSymbolTableRecord
100
AcDbLayerTableRecord
  2
DEFAULT_3
 70
0
 62
7
  6
PHANTOM
370
-3
390
F
  0
LAYER
  5
1FD
100
AcDbSymbolTableRecord
100
AcDbLayerTableRecord
  2
ALL_FEATURES
 70
0
 62
7
  6
CONTINUOUS
370
-3
390
F
  0
LAYER
  5
1FE
100
AcDbSymbolTableRecord
100
AcDbLayerTableRecord
  2
AXES_FEATURES
 70
0
 62
7
  6
CONTINUOUS
370
-3
390
F
  0
LAYER
  5
1FF
100
AcDbSymbolTableRecord
100
AcDbLayerTableRecord
  2
DIMENSIONS
 70
0
 62
7
  6
CONTINUOUS
370
-3
390
F
  0
ENDTAB
  0
TABLE
  2
STYLE
  5
3
100
AcDbSymbolTable
 70
1
  0
STYLE
  5
11
100
AcDbSymbolTableRecord
100
AcDbTextStyleTableRecord
  2
STANDARD
 70
0
 40
0.0
 41
0.8
 50
0.0
 71
0
 42
0.2
  3
txt
  4

  0
STYLE
  5
200
100
AcDbSymbolTableRecord
100
AcDbTextStyleTableRecord
  2
TEXTSTYLE_1
 70
0
 40
0.0
 41
0.8
 50
0.0
 71
0
 42
0.2
  3
gdt
  4

  0
ENDTAB
  0
TABLE
  2
VIEW
  5
6
100
AcDbSymbolTable
 70
0
  0
ENDTAB
  0
TABLE
  2
UCS
  5
7
100
AcDbSymbolTable
 70
0
  0
ENDTAB
  0
TABLE
  2
APPID
  5
9
100
AcDbSymbolTable
 70
1
  0
APPID
  5
201
100
AcDbSymbolTableRecord
100
AcDbRegAppTableRecord
  2
ACAD
 70
0
  0
ENDTAB
  0
TABLE
  2
BLOCK_RECORD
  5
1
100
AcDbSymbolTable
 70
0
  0
BLOCK_RECORD
  5
202
100
AcDbSymbolTableRecord
100
AcDbBlockTableRecord
  2
*Model_Space
  0
BLOCK_RECORD
  5
203
100
AcDbSymbolTableRecord
100
AcDbBlockTableRecord
  2
*Paper_Space
  0
BLOCK_RECORD
  5
204
100
AcDbSymbolTableRecord
100
AcDbBlockTableRecord
  2
_FILLED
  0
ENDTAB
  0
TABLE
  2
DIMSTYLE
  5
A
100
AcDbSymbolTable
 70
1
100
AcDbDimStyleTable
 71
0
  0
DIMSTYLE
105
205
100
AcDbSymbolTableRecord
100
AcDbDimStyleTableRecord
  2
STANDARD
 70
0
  3

  4

 40
1.0
 41
0.1
 42
0.0625
 43
0.38
 44
0.125
 45
0.0
 46
0.0
 47
0.001
 48
0.001
140
0.08
141
0.09
142
0.0
143
25.4
144
1.0
145
0.0
146
1.0
147
0.09
 71
1.0
 72
0.0
 73
1
 74
1
 75
0
 76
0
 77
0
 78
4
 79
1
170
1
171
2
172
0
173
0
174
0
175
0
176
0
177
0
178
0
270
2
179
3
271
3
272
3
273
2
274
2
275
0
280
0
281
0
282
0
283
1
284
4
285
0
286
0
287
3
288
0
340
11
278
46
341
204
342
204
343
204
344
204
  0
ENDTAB
  0
ENDSEC
  0
SECTION
  2
BLOCKS
  0
BLOCK
  5
20
100
AcDbEntity
  8
0
100
AcDbBlockBegin
  2
*Model_Space
 70
0
 10
0.0
 20
0.0
 30
0.0
  3
*Model_Space
  1

  0
ENDBLK
  5
21
100
AcDbEntity
  8
0
100
AcDbBlockEnd
  0
BLOCK
  5
1C
100
AcDbEntity
  8
0
100
AcDbBlockBegin
  2
*Paper_Space
 70
0
 10
0.0
 20
0.0
 30
0.0
  3
*Paper_Space
  1

  0
ENDBLK
  5
1D
100
AcDbEntity
  8
0
100
AcDbBlockEnd
  0
BLOCK
  5
206
100
AcDbEntity
  8
0
100
AcDbBlockBegin
  2
_FILLED
 70
64
 10
0.0
 20
0.0
  3
_FILLED
  1

  0
SOLID
  5
207
100
AcDbEntity
  8
0
  6
BYBLOCK
 62
0
100
AcDbTrace
 10
0.0
 20
0.0
 11
-1.0
 21
0.2
 12
-1.0
 22
-0.2
 13
-1.0
 23
-0.2
  0
ENDBLK
  5
208
100
AcDbEntity
  8
0
  6
BYBLOCK
 62
0
100
AcDbBlockEnd
  0
ENDSEC
  0
SECTION
  2
ENTITIES
  0
LINE
  5
209
100
AcDbEntity
  8
0
100
AcDbLine
 62
9
  6
CONTINUOUS
 10
3.8359699815
 20
11.2609186398
 11
3.8359699815
 21
12.0390138779
  0
LINE
  5
20A
100
AcDbEntity
  8
0
100
AcDbLine
 62
7
  6
CONTINUOUS
 10
3.9149333051
 20
12.0299662588
 11
3.9149333051
 21
11.2699662588
  0
LINE
  5
20B
100
AcDbEntity
  8
0
100
AcDbLine
 62
7
  6
CONTINUOUS
 10
6.5802094484
 20
11.8659099289
 11
6.7514263253
 21
12.1624662588
  0
LWPOLYLINE
  5
20C
100
AcDbEntity
  8
0
100
AcDbPolyline
 62
7
  6
CONTINUOUS
 90
11
 70
0
 10
11.047318337
 20
1.8601729655
 10
11.2078911209
 20
1.8703908319
 10
11.376887684
 20
1.904144052
 10
11.5308470633
 20
1.9589831296
 10
11.6670451389
 20
2.0325145488
 10
11.7824548814
 20
2.1227395204
 10
11.8737550223
 20
2.2270044828
 10
11.9380074182
 20
2.3428377874
 10
11.9722804865
 20
2.4669037831
 10
11.9743573585
 20
2.5942874102
 10
11.9722829886
 20
2.6097795977
  0
LINE
  5
20D
100
AcDbEntity
  8
0
100
AcDbLine
 62
7
  6
CONTINUOUS
 10
6.1663928983
 20
11.9499653438
 11
6.1663928983
 21
11.3499671739
  0
LINE
  5
20E
100
AcDbEntity
  8
0
100
AcDbLine
 62
9
  6
CONTINUOUS
 10
6.2167778795
 20
11.9721150256
 11
6.2167778795
 21
11.327817492
  0
LINE
  5
20F
100
AcDbEntity
  8
0
100
AcDbLine
 62
7
  6
CONTINUOUS
 10
7.6391023642
 20
11.6499662588
 11
7.3432103512
 21
11.1374662588
  0
LINE
  5
210
100
AcDbEntity
  8
0
100
AcDbLine
 62
9
  6
CONTINUOUS
 10
6.2777997469
 20
11.9423682975
 11
6.2777997469
 21
11.3575642201
  0
LINE
  5
211
100
AcDbEntity
  8
0
100
AcDbLine
 62
7
  6
CONTINUOUS
 10
10.598506893
 20
12.3200487437
 11
10.6115180791
 21
12.3285827809
  0
LINE
  5
212
100
AcDbEntity
  8
0
100
AcDbLine
 62
7
  6
CONTINUOUS
 10
10.645281222
 20
12.349114603
 11
10.6588444593
 21
12.3567408306
  0
LINE
  5
213
100
AcDbEntity
  8
0
100
AcDbLine
 62
7
  6
CONTINUOUS
 10
10.6939300336
 20
12.3749207099
 11
10.7079820841
 21
12.381603571
  0
LINE
  5
214
100
AcDbEntity
  8
0
100
AcDbLine
 62
7
  6
CONTINUOUS
 10
11.3359354756
 20
12.4030553897
 11
11.3107011533
 21
12.3910544741
  0
LINE
  5
215
100
AcDbEntity
  8
0
100
AcDbLine
 62
7
  6
CONTINUOUS
 10
10.306230123
 20
11.9133490738
 11
10.2809957947
 21
11.9013481553
  0
LINE
  5
216
100
AcDbEntity
  8
0
100
AcDbLine
 62
7
  6
CONTINUOUS
 10
10.7442265047
 20
12.3973467445
 11
10.7587018511
 21
12.4030550805
  0
LINE
  5
217
100
AcDbEntity
  8
0
100
AcDbLine
 62
7
  6
CONTINUOUS
 10
11.3866552622
 20
12.3816038351
 11
11.3606607954
 21
12.3713529474
  0
LINE
  5
218
100
AcDbEntity
  8
0
100
AcDbLine
 62
7
  6
CONTINUOUS
 10
10.3259316496
 20
11.963308716
 11
10.2999371767
 21
11.9530578259
  0
LINE
  5
219
100
AcDbEntity
  8
0
100
AcDbLine
 62
7
  6
CONTINUOUS
 10
10.7959361297
 20
12.4162881463
 11
10.8107672814
 21
12.4209953422
  0
LINE
  5
21A
100
AcDbEntity
  8
0
100
AcDbLine
 62
7
  6
CONTINUOUS
 10
11.4357929034
 20
12.3567410484
 11
11.4091594905
 21
12.3482879831
  0
LINE
  5
21B
100
AcDbEntity
  8
0
100
AcDbLine
 62
7
  6
CONTINUOUS
 10
10.348996614
 20
12.011807411
 11
10.3223631947
 21
12.0033543437
  0
LINE
  5
21C
100
AcDbEntity
  8
0
100
AcDbLine
 62
7
  6
CONTINUOUS
 10
10.4715618831
 20
12.21471997
 11
10.4825646271
 21
12.225722714
  0
LINE
  5
21D
100
AcDbEntity
  8
0
100
AcDbLine
 62
7
  6
CONTINUOUS
 10
10.5114442605
 20
12.2526944087
 11
10.5231722084
 21
12.2629206491
  0
LINE
  5
21E
100
AcDbEntity
  8
0
100
AcDbLine
 62
7
  6
CONTINUOUS
 10
11.1220517533
 20
12.4529967736
 11
11.1009909964
 21
12.4346327458
  0
LINE
  5
21F
100
AcDbEntity
  8
0
100
AcDbLine
 62
7
  6
CONTINUOUS
 10
10.2626518513
 20
11.7036389169
 11
10.2415910894
 21
11.6852748848
  0
LINE
  5
220
100
AcDbEntity
  8
0
100
AcDbLine
 62
7
  6
CONTINUOUS
 10
10.5538251302
 20
12.2878586506
 11
10.5662236009
 21
12.2972607078
  0
LINE
  5
221
100
AcDbEntity
  8
0
100
AcDbLine
 62
7
  6
CONTINUOUS
 10
11.1766782728
 20
12.4460247355
 11
11.1544134078
 21
12.4291407554
  0
LINE
  5
222
100
AcDbEntity
  8
0
100
AcDbLine
 62
7
  6
CONTINUOUS
 10
10.2681438417
 20
11.7570613283
 11
10.2458789714
 21
11.7401773442
  0
LINE
  5
223
100
AcDbEntity
  8
0
100
AcDbLine
 62
7
  6
CONTINUOUS
 10
11.2307016566
 20
12.4353411053
 11
11.2073364925
 21
12.4200158938
  0
LINE
  5
224
100
AcDbEntity
  8
0
100
AcDbLine
 62
7
  6
CONTINUOUS
 10
10.2772687033
 20
11.8099844131
 11
10.2539035337
 21
11.7946591979
  0
LINE
  5
225
100
AcDbEntity
  8
0
100
AcDbLine
 62
7
  6
CONTINUOUS
 10
11.2838700227
 20
12.4209956951
 11
11.2595134988
 21
12.4073007053
  0
LINE
  5
226
100
AcDbEntity
  8
0
100
AcDbLine
 62
7
  6
CONTINUOUS
 10
10.2899838918
 20
11.8621614193
 11
10.2656273621
 21
11.8484664263
  0
LINE
  5
227
100
AcDbEntity
  8
0
100
AcDbLine
 62
7
  6
CONTINUOUS
 10
10.3687018162
 20
12.085766518
 11
10.3772358534
 21
12.0987777041
  0
LINE
  5
228
100
AcDbEntity
  8
0
100
AcDbLine
 62
7
  6
CONTINUOUS
 10
10.4000238893
 20
12.1310609962
 11
10.4094259465
 21
12.1434594669
  0
LINE
  5
229
100
AcDbEntity
  8
0
100
AcDbLine
 62
7
  6
CONTINUOUS
 10
10.9571072489
 20
12.4514056204
 11
10.9402232688
 21
12.4291407554
  0
LINE
  5
22A
100
AcDbEntity
  8
0
100
AcDbLine
 62
7
  6
CONTINUOUS
 10
10.2681438417
 20
11.5428711893
 11
10.2512598576
 21
11.520606319
  0
LINE
  5
22B
100
AcDbEntity
  8
0
100
AcDbLine
 62
7
  6
CONTINUOUS
 10
10.434363948
 20
12.1741123887
 11
10.4445901884
 21
12.1858403366
  0
LINE
  5
22C
100
AcDbEntity
  8
0
100
AcDbLine
 62
7
  6
CONTINUOUS
 10
11.0120097079
 20
12.4556935027
 11
10.9936456802
 21
12.4346327458
  0
LINE
  5
22D
100
AcDbEntity
  8
0
100
AcDbLine
 62
7
  6
CONTINUOUS
 10
10.2626518513
 20
11.5962936007
 11
10.2442878192
 21
11.5752328388
  0
LINE
  5
22E
100
AcDbEntity
  8
0
100
AcDbLine
 62
7
  6
CONTINUOUS
 10
11.0670762544
 20
12.4562241749
 11
11.0473183383
 21
12.4364662588
  0
LINE
  5
22F
100
AcDbEntity
  8
0
100
AcDbLine
 62
7
  6
CONTINUOUS
 10
10.2608183383
 20
11.6499662588
 11
10.2410598798
 21
11.6302078003
  0
LINE
  5
230
100
AcDbEntity
  8
0
100
AcDbLine
 62
7
  6
CONTINUOUS
 10
10.8107666539
 20
10.8789368226
 11
10.8351231778
 21
10.8926318123
  0
LINE
  5
231
100
AcDbEntity
  8
0
100
AcDbLine
 62
7
  6
CONTINUOUS
 10
11.8046527848
 20
11.4377710983
 11
11.8290093144
 21
11.4514660913
  0
LINE
  5
232
100
AcDbEntity
  8
0
100
AcDbLine
 62
7
  6
CONTINUOUS
 10
10.758701201
 20
10.896877128
 11
10.7839355233
 21
10.9088780436
  0
LINE
  5
233
100
AcDbEntity
  8
0
100
AcDbLine
 62
7
  6
CONTINUOUS
 10
11.7884065535
 20
11.3865834438
 11
11.8136408819
 21
11.3985843623
  0
LINE
  5
234
100
AcDbEntity
  8
0
100
AcDbLine
 62
7
  6
CONTINUOUS
 10
10.7079814144
 20
10.9183286825
 11
10.7339758811
 21
10.9285795702
  0
LINE
  5
235
100
AcDbEntity
  8
0
100
AcDbLine
 62
7
  6
CONTINUOUS
 10
11.7687050269
 20
11.3366238016
 11
11.7946994998
 21
11.3468746917
  0
LINE
  5
236
100
AcDbEntity
  8
0
100
AcDbLine
 62
7
  6
CONTINUOUS
 10
11.3504101719
 20
10.9025857731
 11
11.3359348255
 21
10.8968774371
  0
LINE
  5
237
100
AcDbEntity
  8
0
100
AcDbLine
 62
7
  6
CONTINUOUS
 10
10.6588437732
 20
10.9431914692
 11
10.6854771861
 21
10.9516445345
  0
LINE
  5
238
100
AcDbEntity
  8
0
100
AcDbLine
 62
7
  6
CONTINUOUS
 10
11.7456400626
 20
11.2881251066
 11
11.7722734819
 21
11.296578174
  0
LINE
  5
239
100
AcDbEntity
  8
0
100
AcDbLine
 62
7
  6
CONTINUOUS
 10
11.2987005468
 20
10.8836443713
 11
11.2838693952
 21
10.8789371754
  0
LINE
  5
23A
100
AcDbEntity
  8
0
100
AcDbLine
 62
7
  6
CONTINUOUS
 10
10.3156810261
 20
11.989302513
 11
10.3223638872
 21
12.0033545635
  0
LINE
  5
23B
100
AcDbEntity
  8
0
100
AcDbLine
 62
7
  6
CONTINUOUS
 10
10.3405437665
 20
12.0384401378
 11
10.3481699941
 21
12.0520033751
  0
LINE
  5
23C
100
AcDbEntity
  8
0
100
AcDbLine
 62
7
  6
CONTINUOUS
 10
10.8488181675
 20
12.4316572292
 11
10.8351231778
 21
12.4073007053
  0
LINE
  5
23D
100
AcDbEntity
  8
0
100
AcDbLine
 62
7
  6
CONTINUOUS
 10
10.2899838918
 20
11.4377710983
 11
10.2762888988
 21
11.4134145686
  0
LINE
  5
23E
100
AcDbEntity
  8
0
100
AcDbLine
 62
7
  6
CONTINUOUS
 10
10.9026253955
 20
12.4433810578
 11
10.887300184
 21
12.4200158938
  0
LINE
  5
23F
100
AcDbEntity
  8
0
100
AcDbLine
 62
7
  6
CONTINUOUS
 10
10.2772687033
 20
11.4899481045
 11
10.2619434881
 21
11.466582935
  0
LINE
  5
240
100
AcDbEntity
  8
0
100
AcDbLine
 62
7
  6
CONTINUOUS
 10
11.0275598671
 20
10.8437077876
 11
11.0473183383
 21
10.8634662588
  0
LINE
  5
241
100
AcDbEntity
  8
0
100
AcDbLine
 62
7
  6
CONTINUOUS
 10
11.8338183383
 20
11.6499662588
 11
11.8535767968
 21
11.6697247173
  0
LINE
  5
242
100
AcDbEntity
  8
0
100
AcDbLine
 62
7
  6
CONTINUOUS
 10
10.9725849232
 20
10.8469357441
 11
10.9936456802
 21
10.8652997718
  0
LINE
  5
243
100
AcDbEntity
  8
0
100
AcDbLine
 62
7
  6
CONTINUOUS
 10
11.8319848253
 20
11.5962936007
 11
11.8530455872
 21
11.6146576329
  0
LINE
  5
244
100
AcDbEntity
  8
0
100
AcDbLine
 62
7
  6
CONTINUOUS
 10
10.9179584037
 20
10.8539077821
 11
10.9402232688
 21
10.8707917623
  0
LINE
  5
245
100
AcDbEntity
  8
0
100
AcDbLine
 62
7
  6
CONTINUOUS
 10
11.8264928348
 20
11.5428711893
 11
11.8487577052
 21
11.5597551734
  0
LINE
  5
246
100
AcDbEntity
  8
0
100
AcDbLine
 62
7
  6
CONTINUOUS
 10
11.5408115464
 20
11.012073867
 11
11.5284130757
 21
11.0026718099
  0
LINE
  5
247
100
AcDbEntity
  8
0
100
AcDbLine
 62
7
  6
CONTINUOUS
 10
10.86393502
 20
10.8645914123
 11
10.887300184
 21
10.8799166239
  0
LINE
  5
248
100
AcDbEntity
  8
0
100
AcDbLine
 62
7
  6
CONTINUOUS
 10
11.8173679732
 20
11.4899481045
 11
11.8407331428
 21
11.5052733197
  0
LINE
  5
249
100
AcDbEntity
  8
0
100
AcDbLine
 62
7
  6
CONTINUOUS
 10
11.4961297835
 20
10.9798837739
 11
11.4831185975
 21
10.9713497367
  0
LINE
  5
24A
100
AcDbEntity
  8
0
100
AcDbLine
 62
7
  6
CONTINUOUS
 10
11.4493554545
 20
10.9508179146
 11
11.4357922173
 21
10.943191687
  0
LINE
  5
24B
100
AcDbEntity
  8
0
100
AcDbLine
 62
7
  6
CONTINUOUS
 10
11.4007066429
 20
10.9250118077
 11
11.3866545925
 21
10.9183289466
  0
LINE
  5
24C
100
AcDbEntity
  8
0
100
AcDbLine
 62
7
  6
CONTINUOUS
 10
10.2619438866
 20
11.8333489752
 11
10.2656279954
 21
11.8484667824
  0
LINE
  5
24D
100
AcDbEntity
  8
0
100
AcDbLine
 62
7
  6
CONTINUOUS
 10
10.2762892549
 20
11.8865173157
 11
10.2809964508
 21
11.9013484674
  0
LINE
  5
24E
100
AcDbEntity
  8
0
100
AcDbLine
 62
7
  6
CONTINUOUS
 10
10.6939302514
 20
12.374921396
 11
10.6854771861
 21
12.3482879831
  0
LINE
  5
24F
100
AcDbEntity
  8
0
100
AcDbLine
 62
7
  6
CONTINUOUS
 10
10.348996614
 20
11.2881251066
 11
10.3405435467
 21
11.2614916873
  0
LINE
  5
250
100
AcDbEntity
  8
0
100
AcDbLine
 62
7
  6
CONTINUOUS
 10
10.2942295166
 20
11.938582746
 11
10.2999378526
 21
11.9530580924
  0
LINE
  5
251
100
AcDbEntity
  8
0
100
AcDbLine
 62
7
  6
CONTINUOUS
 10
10.7442267688
 20
12.3973474142
 11
10.7339758811
 21
12.3713529474
  0
LINE
  5
252
100
AcDbEntity
  8
0
100
AcDbLine
 62
7
  6
CONTINUOUS
 10
10.3259316496
 20
11.3366238016
 11
10.3156807596
 21
11.3106293287
  0
LINE
  5
253
100
AcDbEntity
  8
0
100
AcDbLine
 62
7
  6
CONTINUOUS
 10
10.7959364389
 20
12.4162887964
 11
10.7839355233
 21
12.3910544741
  0
LINE
  5
254
100
AcDbEntity
  8
0
100
AcDbLine
 62
7
  6
CONTINUOUS
 10
10.306230123
 20
11.3865834438
 11
10.2942292046
 21
11.3613491155
  0
LINE
  5
255
100
AcDbEntity
  8
0
100
AcDbLine
 62
7
  6
CONTINUOUS
 10
11.1375294277
 20
10.8485268972
 11
11.1544134078
 21
10.8707917623
  0
LINE
  5
256
100
AcDbEntity
  8
0
100
AcDbLine
 62
7
  6
CONTINUOUS
 10
11.8264928348
 20
11.7570613283
 11
11.843376819
 21
11.7793261986
  0
LINE
  5
257
100
AcDbEntity
  8
0
100
AcDbLine
 62
7
  6
CONTINUOUS
 10
11.0826269686
 20
10.8442390149
 11
11.1009909964
 21
10.8652997718
  0
LINE
  5
258
100
AcDbEntity
  8
0
100
AcDbLine
 62
7
  6
CONTINUOUS
 10
11.8319848253
 20
11.7036389169
 11
11.8503488574
 21
11.7246996789
  0
LINE
  5
259
100
AcDbEntity
  8
0
100
AcDbLine
 62
7
  6
CONTINUOUS
 10
11.6602727285
 20
11.1258201289
 11
11.6500464882
 21
11.114092181
  0
LINE
  5
25A
100
AcDbEntity
  8
0
100
AcDbLine
 62
7
  6
CONTINUOUS
 10
11.6230747935
 20
11.0852125477
 11
11.6120720494
 21
11.0742098036
  0
LINE
  5
25B
100
AcDbEntity
  8
0
100
AcDbLine
 62
7
  6
CONTINUOUS
 10
11.5831924161
 20
11.0472381089
 11
11.5714644682
 21
11.0370118686
  0
LINE
  5
25C
100
AcDbEntity
  8
0
100
AcDbLine
 62
7
  6
CONTINUOUS
 10
6.7514263253
 20
11.1374662588
 11
6.5802091042
 21
11.434023185
  0
LINE
  5
25D
100
AcDbEntity
  8
0
100
AcDbLine
 62
7
  6
CONTINUOUS
 10
10.2442882966
 20
11.7246991313
 11
10.2458795503
 21
11.7401777832
  0
LINE
  5
25E
100
AcDbEntity
  8
0
100
AcDbLine
 62
7
  6
CONTINUOUS
 10
10.2512602966
 20
11.7793256197
 11
10.2539041412
 21
11.7946595964
  0
LINE
  5
25F
100
AcDbEntity
  8
0
100
AcDbLine
 62
7
  6
CONTINUOUS
 10
10.5985070153
 20
12.3200494532
 11
10.5937592649
 21
12.2925130797
  0
LINE
  5
260
100
AcDbEntity
  8
0
100
AcDbLine
 62
7
  6
CONTINUOUS
 10
10.4047715174
 20
11.1964071855
 11
10.4000237659
 21
11.1688708054
  0
LINE
  5
261
100
AcDbEntity
  8
0
100
AcDbLine
 62
7
  6
CONTINUOUS
 10
10.6452813935
 20
12.3491153066
 11
10.6386655616
 21
12.3219671205
  0
LINE
  5
262
100
AcDbEntity
  8
0
100
AcDbLine
 62
7
  6
CONTINUOUS
 10
10.3753174766
 20
11.2413134821
 11
10.3687016442
 21
11.2141652938
  0
LINE
  5
263
100
AcDbEntity
  8
0
100
AcDbLine
 62
7
  6
CONTINUOUS
 10
11.2987002377
 20
10.8836437212
 11
11.3107011533
 21
10.9088780436
  0
LINE
  5
264
100
AcDbEntity
  8
0
100
AcDbLine
 62
7
  6
CONTINUOUS
 10
11.7884065535
 20
11.9133490738
 11
11.800407472
 21
11.9385834021
  0
LINE
  5
265
100
AcDbEntity
  8
0
100
AcDbLine
 62
7
  6
CONTINUOUS
 10
11.2458185091
 20
10.8682752885
 11
11.2595134988
 21
10.8926318123
  0
LINE
  5
266
100
AcDbEntity
  8
0
100
AcDbLine
 62
7
  6
CONTINUOUS
 10
11.8046527848
 20
11.8621614193
 11
11.8183477778
 21
11.886517949
  0
LINE
  5
267
100
AcDbEntity
  8
0
100
AcDbLine
 62
7
  6
CONTINUOUS
 10
11.7540929101
 20
11.2614923798
 11
11.7464666824
 21
11.2479291426
  0
LINE
  5
268
100
AcDbEntity
  8
0
100
AcDbLine
 62
7
  6
CONTINUOUS
 10
11.192011281
 20
10.8565514598
 11
11.2073364925
 21
10.8799166239
  0
LINE
  5
269
100
AcDbEntity
  8
0
100
AcDbLine
 62
7
  6
CONTINUOUS
 10
11.8173679732
 20
11.8099844131
 11
11.8326931884
 21
11.8333495827
  0
LINE
  5
26A
100
AcDbEntity
  8
0
100
AcDbLine
 62
7
  6
CONTINUOUS
 10
11.7259348604
 20
11.2141659996
 11
11.7174008232
 21
11.2011548136
  0
LINE
  5
26B
100
AcDbEntity
  8
0
100
AcDbLine
 62
7
  6
CONTINUOUS
 10
11.872615697
 20
11.0594565648
 11
11.8724330726
 21
11.0592013651
  0
LINE
  5
26C
100
AcDbEntity
  8
0
100
AcDbLine
 62
7
  6
CONTINUOUS
 10
11.6946127872
 20
11.1688715214
 11
11.6852107301
 21
11.1564730507
  0
LINE
  5
26D
100
AcDbEntity
  8
0
100
AcDbLine
 62
7
  6
CONTINUOUS
 10
10.241591637
 20
11.6146571554
 11
10.2410603934
 21
11.630208314
  0
LINE
  5
26E
100
AcDbEntity
  8
0
100
AcDbLine
 62
7
  6
CONTINUOUS
 10
10.3231990192
 20
9.2872107235
 11
10.315831042
 21
8.9953602335
  0
LINE
  5
26F
100
AcDbEntity
  8
0
100
AcDbLine
 62
7
  6
CONTINUOUS
 10
10.315831042
 20
8.9953602335
 11
10.3073817613
 21
8.6872964881
  0
LINE
  5
270
100
AcDbEntity
  8
0
100
AcDbLine
 62
7
  6
CONTINUOUS
 10
10.1864646426
 20
4.6798924079
 11
10.1442990836
 21
3.1726896513
  0
LINE
  5
271
100
AcDbEntity
  8
0
100
AcDbLine
 62
7
  6
CONTINUOUS
 10
10.2006206073
 20
5.1657227083
 11
10.1864646426
 21
4.6798924079
  0
LINE
  5
272
100
AcDbEntity
  8
0
100
AcDbLine
 62
7
  6
CONTINUOUS
 10
10.3073817613
 20
8.6872964881
 11
10.2973412656
 21
8.3446059059
  0
LINE
  5
273
100
AcDbEntity
  8
0
100
AcDbLine
 62
7
  6
CONTINUOUS
 10
10.2973411759
 20
8.3445995916
 11
10.2006204638
 21
5.1657179725
  0
LWPOLYLINE
  5
274
100
AcDbEntity
  8
0
100
AcDbPolyline
 62
7
  6
CONTINUOUS
 90
10
 70
0
 10
10.1442990836
 20
3.1726896513
 10
10.1384072673
 20
2.9742296443
 10
10.1356537089
 20
2.8900701697
 10
10.1330207325
 20
2.8164704772
 10
10.1305115552
 20
2.753628833
 10
10.1281410443
 20
2.7016110554
 10
10.1259509265
 20
2.6605819178
 10
10.1240287321
 20
2.6307472976
 10
10.1225964352
 20
2.6129516281
 10
10.1224792429
 20
2.6117130239
  0
LINE
  5
275
100
AcDbEntity
  8
0
100
AcDbLine
 62
7
  6
CONTINUOUS
 10
10.2410603934
 20
11.6697242037
 11
10.241591637
 21
11.6852753623
  0
LINE
  5
276
100
AcDbEntity
  8
0
100
AcDbLine
 62
7
  6
CONTINUOUS
 10
10.511444285
 20
12.2526951282
 11
10.5104902911
 21
12.2247687447
  0
LINE
  5
277
100
AcDbEntity
  8
0
100
AcDbLine
 62
7
  6
CONTINUOUS
 10
10.4725158524
 20
11.1131382117
 11
10.4715618583
 21
11.0852118215
  0
LINE
  5
278
100
AcDbEntity
  8
0
100
AcDbLine
 62
7
  6
CONTINUOUS
 10
10.5538252038
 20
12.2878593667
 11
10.5509676701
 21
12.260063189
  0
LINE
  5
279
100
AcDbEntity
  8
0
100
AcDbLine
 62
7
  6
CONTINUOUS
 10
10.4372214081
 20
11.1536155906
 11
10.4343638737
 21
11.1258194062
  0
LINE
  5
27A
100
AcDbEntity
  8
0
100
AcDbLine
 62
7
  6
CONTINUOUS
 10
11.4007064252
 20
10.9250111216
 11
11.4091594905
 21
10.9516445345
  0
LINE
  5
27B
100
AcDbEntity
  8
0
100
AcDbLine
 62
7
  6
CONTINUOUS
 10
11.7456400626
 20
12.011807411
 11
11.7540931299
 21
12.0384408303
  0
LINE
  5
27C
100
AcDbEntity
  8
0
100
AcDbLine
 62
7
  6
CONTINUOUS
 10
11.3504099078
 20
10.9025851034
 11
11.3606607954
 21
10.9285795702
  0
LINE
  5
27D
100
AcDbEntity
  8
0
100
AcDbLine
 62
7
  6
CONTINUOUS
 10
11.7687050269
 20
11.963308716
 11
11.778955917
 21
11.9893031889
  0
LINE
  5
27E
100
AcDbEntity
  8
0
100
AcDbLine
 62
7
  6
CONTINUOUS
 10
11.8004071599
 20
11.3613497716
 11
11.794698824
 21
11.3468744252
  0
LINE
  5
27F
100
AcDbEntity
  8
0
100
AcDbLine
 62
7
  6
CONTINUOUS
 10
11.8807089954
 20
11.0564577169
 11
11.8923557126
 21
11.0856482294
  0
LINE
  5
280
100
AcDbEntity
  8
0
100
AcDbLine
 62
7
  6
CONTINUOUS
 10
11.7789556505
 20
11.3106300046
 11
11.7722727894
 21
11.2965779542
  0
LINE
  5
281
100
AcDbEntity
  8
0
100
AcDbLine
 62
7
  6
CONTINUOUS
 10
7.3432103512
 20
12.1624662588
 11
7.6391023642
 21
11.6499662588
  0
LINE
  5
282
100
AcDbEntity
  8
0
100
AcDbLine
 62
7
  6
CONTINUOUS
 10
10.2458795503
 20
11.5597547344
 11
10.2442882966
 21
11.5752333864
  0
LINE
  5
283
100
AcDbEntity
  8
0
100
AcDbLine
 62
7
  6
CONTINUOUS
 10
10.4343638744
 20
12.1741131048
 11
10.4372214081
 21
12.146316927
  0
LINE
  5
284
100
AcDbEntity
  8
0
100
AcDbLine
 62
7
  6
CONTINUOUS
 10
10.5509676701
 20
11.0398693287
 11
10.5538252045
 21
11.0120731443
  0
LINE
  5
285
100
AcDbEntity
  8
0
100
AcDbLine
 62
7
  6
CONTINUOUS
 10
10.4715618585
 20
12.2147206894
 11
10.4725158524
 21
12.186794306
  0
LINE
  5
286
100
AcDbEntity
  8
0
100
AcDbLine
 62
7
  6
CONTINUOUS
 10
10.5104902911
 20
11.0751637729
 11
10.5114442853
 21
11.0472373828
  0
LINE
  5
287
100
AcDbEntity
  8
0
100
AcDbLine
 62
9
  6
CONTINUOUS
 10
11.047318337
 20
1.8601729655
 11
11.0473183383
 21
10.6820350088
  0
LWPOLYLINE
  5
288
100
AcDbEntity
  8
0
100
AcDbPolyline
 62
7
  6
CONTINUOUS
 90
11
 70
0
 10
10.1226121176
 20
2.6116952911
 10
10.1202264466
 20
2.593819125
 10
10.1224359218
 20
2.4663588629
 10
10.1568877693
 20
2.3422109667
 10
10.2213626466
 20
2.2263276256
 10
10.3128952242
 20
2.1220689926
 10
10.4285336836
 20
2.031902568
 10
10.5649541132
 20
1.9584675033
 10
10.7191384858
 20
1.9037624079
 10
10.8883624411
 20
1.8701850961
 10
11.047318337
 20
1.8601729655
  0
LINE
  5
289
100
AcDbEntity
  8
0
100
AcDbLine
 62
7
  6
CONTINUOUS
 10
11.4961296612
 20
10.9798830645
 11
11.5008774116
 21
11.007419438
  0
LINE
  5
28A
100
AcDbEntity
  8
0
100
AcDbLine
 62
7
  6
CONTINUOUS
 10
11.6898651591
 20
12.1035253322
 11
11.6946129107
 21
12.1310617122
  0
LINE
  5
28B
100
AcDbEntity
  8
0
100
AcDbLine
 62
7
  6
CONTINUOUS
 10
11.4493552831
 20
10.9508172111
 11
11.455971115
 21
10.9779653971
  0
LINE
  5
28C
100
AcDbEntity
  8
0
100
AcDbLine
 62
7
  6
CONTINUOUS
 10
11.7193192
 20
12.0586190355
 11
11.7259350324
 21
12.0857672239
  0
LINE
  5
28D
100
AcDbEntity
  8
0
100
AcDbLine
 62
7
  6
CONTINUOUS
 10
11.83269279
 20
11.4665835425
 11
11.8290086812
 21
11.4514657352
  0
LINE
  5
28E
100
AcDbEntity
  8
0
100
AcDbLine
 62
7
  6
CONTINUOUS
 10
11.8501640087
 20
10.9642638621
 11
11.8498125317
 21
10.9630556382
  0
LWPOLYLINE
  5
28F
100
AcDbEntity
  8
0
100
AcDbPolyline
 62
7
  6
CONTINUOUS
 90
3
 70
0
 10
11.8501640087
 20
10.9642638621
 10
11.8648583586
 20
11.0115843372
 10
11.8806525744
 20
11.0562979882
  0
LINE
  5
290
100
AcDbEntity
  8
0
100
AcDbLine
 62
7
  6
CONTINUOUS
 10
11.8183474217
 20
11.4134152019
 11
11.8136402258
 21
11.3985840503
  0
LINE
  5
291
100
AcDbEntity
  8
0
100
AcDbLine
 62
7
  6
CONTINUOUS
 10
10.2539041412
 20
11.5052729213
 11
10.2512602966
 21
11.5206068979
  0
LINE
  5
292
100
AcDbEntity
  8
0
100
AcDbLine
 62
7
  6
CONTINUOUS
 10
11.9723312004
 20
2.6097860531
 11
11.9720402414
 21
2.6129516281
  0
LWPOLYLINE
  5
293
100
AcDbEntity
  8
0
100
AcDbPolyline
 62
7
  6
CONTINUOUS
 90
7
 70
0
 10
11.9720402414
 20
2.6129516281
 10
11.9706079444
 20
2.6307472976
 10
11.9686857501
 20
2.6605819178
 10
11.9664956323
 20
2.7016110554
 10
11.9641251214
 20
2.753628833
 10
11.961615944
 20
2.8164704772
 10
11.9589829676
 20
2.8900701697
  0
LINE
  5
294
100
AcDbEntity
  8
0
100
AcDbLine
 62
7
  6
CONTINUOUS
 10
11.5831923915
 20
11.0472373894
 11
11.5841463854
 21
11.0751637729
  0
LINE
  5
295
100
AcDbEntity
  8
0
100
AcDbLine
 62
7
  6
CONTINUOUS
 10
11.6221208242
 20
12.186794306
 11
11.6230748183
 21
12.2147206961
  0
LINE
  5
296
100
AcDbEntity
  8
0
100
AcDbLine
 62
7
  6
CONTINUOUS
 10
11.8535762831
 20
11.630208314
 11
11.8530450396
 21
11.6146571554
  0
LINE
  5
297
100
AcDbEntity
  8
0
100
AcDbLine
 62
7
  6
CONTINUOUS
 10
11.5408114728
 20
11.0120731509
 11
11.5436690065
 21
11.0398693287
  0
LINE
  5
298
100
AcDbEntity
  8
0
100
AcDbLine
 62
7
  6
CONTINUOUS
 10
11.6574152684
 20
12.146316927
 11
11.6602728028
 21
12.1741131114
  0
LINE
  5
299
100
AcDbEntity
  8
0
100
AcDbLine
 62
7
  6
CONTINUOUS
 10
11.8503483799
 20
11.5752333864
 11
11.8487571263
 21
11.5597547344
  0
LINE
  5
29A
100
AcDbEntity
  8
0
100
AcDbLine
 62
7
  6
CONTINUOUS
 10
11.84337638
 20
11.5206068979
 11
11.8407325353
 21
11.5052729213
  0
LWPOLYLINE
  5
29B
100
AcDbEntity
  8
0
100
AcDbPolyline
 62
7
  6
CONTINUOUS
 90
4
 70
0
 10
10.2060210467
 20
11.0766398669
 10
10.2185037417
 20
11.0441096708
 10
10.2337881321
 20
10.9992593455
 10
10.2444586588
 20
10.9643119514
  0
LINE
  5
29C
100
AcDbEntity
  8
0
100
AcDbLine
 62
7
  6
CONTINUOUS
 10
10.2809964508
 20
11.3985840503
 11
10.2762892549
 21
11.4134152019
  0
LINE
  5
29D
100
AcDbEntity
  8
0
100
AcDbLine
 62
7
  6
CONTINUOUS
 10
10.244458636
 20
10.9643120295
 11
10.2448032457
 21
10.9631275714
  0
LWPOLYLINE
  5
29E
100
AcDbEntity
  8
0
100
AcDbPolyline
 62
7
  6
CONTINUOUS
 90
16
 70
0
 10
10.2448032457
 20
10.9631275714
 10
10.2613095206
 20
10.901493418
 10
10.2810537416
 20
10.811005446
 10
10.2970654213
 20
10.7154690327
 10
10.3093853341
 20
10.6169903124
 10
10.3186076528
 20
10.5151688694
 10
10.3252454297
 20
10.4097651644
 10
10.3297426271
 20
10.3006372841
 10
10.332480822
 20
10.1875631092
 10
10.3337745616
 20
10.0704735182
 10
10.3338870488
 20
9.9495627091
 10
10.3330407659
 20
9.824858303
 10
10.3314146188
 20
9.6961560878
 10
10.3291552725
 20
9.5635415434
 10
10.3263848177
 20
9.427210774
 10
10.3231990192
 20
9.2872107235
  0
LINE
  5
29F
100
AcDbEntity
  8
0
100
AcDbLine
 62
7
  6
CONTINUOUS
 10
10.2656279954
 20
11.4514657352
 11
10.2619438866
 21
11.4665835425
  0
LINE
  5
2A0
100
AcDbEntity
  8
0
100
AcDbLine
 62
7
  6
CONTINUOUS
 10
10.3687016457
 20
12.0857672174
 11
10.3753174766
 21
12.0586190355
  0
LINE
  5
2A1
100
AcDbEntity
  8
0
100
AcDbLine
 62
7
  6
CONTINUOUS
 10
10.6386655616
 20
10.9779653971
 11
10.6452813923
 21
10.9508172159
  0
LINE
  5
2A2
100
AcDbEntity
  8
0
100
AcDbLine
 62
7
  6
CONTINUOUS
 10
10.400023767
 20
12.1310617056
 11
10.4047715174
 21
12.1035253322
  0
LINE
  5
2A3
100
AcDbEntity
  8
0
100
AcDbLine
 62
7
  6
CONTINUOUS
 10
10.5937592649
 20
11.007419438
 11
10.5985070165
 21
10.9798830579
  0
LINE
  5
2A4
100
AcDbEntity
  8
0
100
AcDbLine
 62
7
  6
CONTINUOUS
 10
11.6602728021
 20
11.1258194128
 11
11.6574152684
 21
11.1536155906
  0
LINE
  5
2A5
100
AcDbEntity
  8
0
100
AcDbLine
 62
7
  6
CONTINUOUS
 10
11.5436690065
 20
12.260063189
 11
11.5408114721
 21
12.2878593734
  0
LINE
  5
2A6
100
AcDbEntity
  8
0
100
AcDbLine
 62
7
  6
CONTINUOUS
 10
11.8487571263
 20
11.7401777832
 11
11.8503483799
 21
11.7246991313
  0
LINE
  5
2A7
100
AcDbEntity
  8
0
100
AcDbLine
 62
7
  6
CONTINUOUS
 10
11.6230748181
 20
11.0852118282
 11
11.6221208242
 21
11.1131382117
  0
LINE
  5
2A8
100
AcDbEntity
  8
0
100
AcDbLine
 62
7
  6
CONTINUOUS
 10
11.5841463854
 20
12.2247687447
 11
11.5831923913
 21
12.2526951348
  0
LINE
  5
2A9
100
AcDbEntity
  8
0
100
AcDbLine
 62
7
  6
CONTINUOUS
 10
11.8530450396
 20
11.6852753623
 11
11.8535762831
 21
11.6697242037
  0
LINE
  5
2AA
100
AcDbEntity
  8
0
100
AcDbLine
 62
7
  6
CONTINUOUS
 10
11.9589829676
 20
2.8900701697
 11
11.9533507041
 21
3.0686252078
  0
LINE
  5
2AB
100
AcDbEntity
  8
0
100
AcDbLine
 62
7
  6
CONTINUOUS
 10
11.8940162128
 20
5.1657179725
 11
11.7939100017
 21
8.4573861403
  0
LINE
  5
2AC
100
AcDbEntity
  8
0
100
AcDbLine
 62
7
  6
CONTINUOUS
 10
11.908172034
 20
4.6798924079
 11
11.8940160692
 21
5.1657227083
  0
LINE
  5
2AD
100
AcDbEntity
  8
0
100
AcDbLine
 62
7
  6
CONTINUOUS
 10
11.7939099874
 20
8.4573866229
 11
11.7874508619
 21
8.6803768178
  0
LINE
  5
2AE
100
AcDbEntity
  8
0
100
AcDbLine
 62
7
  6
CONTINUOUS
 10
11.9533507041
 20
3.0686252078
 11
11.908172034
 21
4.6798924079
  0
LINE
  5
2AF
100
AcDbEntity
  8
0
100
AcDbLine
 62
7
  6
CONTINUOUS
 10
11.7874508619
 20
8.6803768178
 11
11.7789584698
 21
8.9895923768
  0
LWPOLYLINE
  5
2B0
100
AcDbEntity
  8
0
100
AcDbPolyline
 62
7
  6
CONTINUOUS
 90
17
 70
0
 10
11.7789584698
 20
8.9895923768
 10
11.7715477998
 20
9.2825772939
 10
11.7683403778
 20
9.4231298496
 10
11.7655481164
 20
9.5600074425
 10
11.7632672109
 20
9.693163077
 10
11.7616205758
 20
9.8223977087
 10
11.7607560964
 20
9.9476150544
 10
11.7608541028
 20
10.0690179945
 10
11.7621390346
 20
10.1865764409
 10
11.7648765012
 20
10.3000890943
 10
11.7693838902
 20
10.4096216535
 10
11.7760467301
 20
10.515402404
 10
11.7853141851
 20
10.6175787824
 10
11.7977073117
 20
10.7164057099
 10
11.8138302678
 20
10.8122923123
 10
11.8337101282
 20
10.9030448269
 10
11.8498125606
 20
10.9630557373
  0
LINE
  5
2B1
100
AcDbEntity
  8
0
100
AcDbLine
 62
7
  6
CONTINUOUS
 10
14.4555343124
 20
11.6499662588
 11
14.7514263253
 21
12.1624662588
  0
LINE
  5
2B2
100
AcDbEntity
  8
0
100
AcDbLine
 62
7
  6
CONTINUOUS
 10
10.3481699941
 20
11.2479291426
 11
10.3405437665
 21
11.2614923798
  0
LWPOLYLINE
  5
2B3
100
AcDbEntity
  8
0
100
AcDbPolyline
 62
7
  6
CONTINUOUS
 90
4
 70
0
 10
10.1945697061
 20
11.1027929283
 10
10.1948044672
 20
11.1023192947
 10
10.198163542
 20
11.0951007057
 10
10.2060210467
 20
11.0766398669
  0
LINE
  5
2B4
100
AcDbEntity
  8
0
100
AcDbLine
 62
7
  6
CONTINUOUS
 10
10.3223638872
 20
11.2965779542
 11
10.3156810261
 21
11.3106300046
  0
LINE
  5
2B5
100
AcDbEntity
  8
0
100
AcDbLine
 62
7
  6
CONTINUOUS
 10
10.2942292074
 20
11.9385833961
 11
10.306230123
 21
11.9133490738
  0
LINE
  5
2B6
100
AcDbEntity
  8
0
100
AcDbLine
 62
7
  6
CONTINUOUS
 10
10.7839355233
 20
10.9088780436
 11
10.7959364418
 21
10.8836437152
  0
LINE
  5
2B7
100
AcDbEntity
  8
0
100
AcDbLine
 62
7
  6
CONTINUOUS
 10
10.2999378526
 20
11.3468744252
 11
10.2942295166
 21
11.3613497716
  0
LINE
  5
2B8
100
AcDbEntity
  8
0
100
AcDbLine
 62
7
  6
CONTINUOUS
 10
10.315680762
 20
11.9893031827
 11
10.3259316496
 21
11.963308716
  0
LINE
  5
2B9
100
AcDbEntity
  8
0
100
AcDbLine
 62
7
  6
CONTINUOUS
 10
10.7339758811
 20
10.9285795702
 11
10.7442267712
 21
10.9025850972
  0
LINE
  5
2BA
100
AcDbEntity
  8
0
100
AcDbLine
 62
7
  6
CONTINUOUS
 10
10.3405435487
 20
12.0384408239
 11
10.348996614
 21
12.011807411
  0
LINE
  5
2BB
100
AcDbEntity
  8
0
100
AcDbLine
 62
7
  6
CONTINUOUS
 10
10.6854771861
 20
10.9516445345
 11
10.6939302534
 21
10.9250111152
  0
LINE
  5
2BC
100
AcDbEntity
  8
0
100
AcDbLine
 62
7
  6
CONTINUOUS
 10
11.6946129095
 20
11.168870812
 11
11.6898651591
 21
11.1964071855
  0
LINE
  5
2BD
100
AcDbEntity
  8
0
100
AcDbLine
 62
7
  6
CONTINUOUS
 10
11.5008774116
 20
12.2925130797
 11
11.4961296601
 21
12.3200494597
  0
LINE
  5
2BE
100
AcDbEntity
  8
0
100
AcDbLine
 62
7
  6
CONTINUOUS
 10
15.5144269984
 20
11.4340221909
 11
15.3432103512
 21
11.1374662588
  0
LINE
  5
2BF
100
AcDbEntity
  8
0
100
AcDbLine
 62
7
  6
CONTINUOUS
 10
10.4094259465
 20
11.1564730507
 11
10.4000238893
 21
11.1688715214
  0
LINE
  5
2C0
100
AcDbEntity
  8
0
100
AcDbLine
 62
7
  6
CONTINUOUS
 10
10.2220742956
 20
11.0593820104
 11
10.2219161797
 21
11.0596030488
  0
LINE
  5
2C1
100
AcDbEntity
  8
0
100
AcDbLine
 62
7
  6
CONTINUOUS
 10
10.3772358534
 20
11.2011548136
 11
10.3687018162
 21
11.2141659996
  0
LINE
  5
2C2
100
AcDbEntity
  8
0
100
AcDbLine
 62
7
  6
CONTINUOUS
 10
10.2619434918
 20
11.8333495771
 11
10.2772687033
 21
11.8099844131
  0
LINE
  5
2C3
100
AcDbEntity
  8
0
100
AcDbLine
 62
7
  6
CONTINUOUS
 10
10.887300184
 20
10.8799166239
 11
10.9026253992
 21
10.8565514543
  0
LINE
  5
2C4
100
AcDbEntity
  8
0
100
AcDbLine
 62
7
  6
CONTINUOUS
 10
10.276288902
 20
11.8865179432
 11
10.2899838918
 21
11.8621614193
  0
LINE
  5
2C5
100
AcDbEntity
  8
0
100
AcDbLine
 62
7
  6
CONTINUOUS
 10
10.8351231778
 20
10.8926318123
 11
10.8488181708
 21
10.8682752827
  0
LINE
  5
2C6
100
AcDbEntity
  8
0
100
AcDbLine
 62
7
  6
CONTINUOUS
 10
11.7540931279
 20
11.2614916937
 11
11.7456400626
 21
11.2881251066
  0
LINE
  5
2C7
100
AcDbEntity
  8
0
100
AcDbLine
 62
7
  6
CONTINUOUS
 10
11.4091594905
 20
12.3482879831
 11
11.4007064231
 21
12.3749214024
  0
LINE
  5
2C8
100
AcDbEntity
  8
0
100
AcDbLine
 62
7
  6
CONTINUOUS
 10
11.7259350308
 20
11.2141653002
 11
11.7193192
 21
11.2413134821
  0
LINE
  5
2C9
100
AcDbEntity
  8
0
100
AcDbLine
 62
7
  6
CONTINUOUS
 10
11.455971115
 20
12.3219671205
 11
11.4493552843
 21
12.3491153017
  0
LINE
  5
2CA
100
AcDbEntity
  8
0
100
AcDbLine
 62
7
  6
CONTINUOUS
 10
11.8290086812
 20
11.8484667824
 11
11.83269279
 21
11.8333489752
  0
LINE
  5
2CB
100
AcDbEntity
  8
0
100
AcDbLine
 62
7
  6
CONTINUOUS
 10
11.8407325353
 20
11.7946595964
 11
11.84337638
 21
11.7793256197
  0
LINE
  5
2CC
100
AcDbEntity
  8
0
100
AcDbLine
 62
7
  6
CONTINUOUS
 10
10.5662236009
 20
11.0026718099
 11
10.5538251302
 21
11.012073867
  0
LINE
  5
2CD
100
AcDbEntity
  8
0
100
AcDbLine
 62
7
  6
CONTINUOUS
 10
10.5231722084
 20
11.0370118686
 11
10.5114442605
 21
11.0472381089
  0
LINE
  5
2CE
100
AcDbEntity
  8
0
100
AcDbLine
 62
7
  6
CONTINUOUS
 10
10.4825646271
 20
11.0742098036
 11
10.4715618831
 21
11.0852125477
  0
LINE
  5
2CF
100
AcDbEntity
  8
0
100
AcDbLine
 62
7
  6
CONTINUOUS
 10
10.2410598844
 20
11.6697247127
 11
10.2608183383
 21
11.6499662588
  0
LINE
  5
2D0
100
AcDbEntity
  8
0
100
AcDbLine
 62
7
  6
CONTINUOUS
 10
11.0473183383
 20
10.8634662588
 11
11.0670768006
 21
10.8437077965
  0
LINE
  5
2D1
100
AcDbEntity
  8
0
100
AcDbLine
 62
7
  6
CONTINUOUS
 10
10.4445901884
 20
11.114092181
 11
10.434363948
 21
11.1258201289
  0
LINE
  5
2D2
100
AcDbEntity
  8
0
100
AcDbLine
 62
7
  6
CONTINUOUS
 10
10.2442878235
 20
11.7246996739
 11
10.2626518513
 21
11.7036389169
  0
LINE
  5
2D3
100
AcDbEntity
  8
0
100
AcDbLine
 62
7
  6
CONTINUOUS
 10
10.9936456802
 20
10.8652997718
 11
11.0120097123
 21
10.8442390099
  0
LINE
  5
2D4
100
AcDbEntity
  8
0
100
AcDbLine
 62
7
  6
CONTINUOUS
 10
10.2512598616
 20
11.7793261933
 11
10.2681438417
 21
11.7570613283
  0
LINE
  5
2D5
100
AcDbEntity
  8
0
100
AcDbLine
 62
7
  6
CONTINUOUS
 10
10.9402232688
 20
10.8707917623
 11
10.9571072529
 21
10.8485268919
  0
LINE
  5
2D6
100
AcDbEntity
  8
0
100
AcDbLine
 62
7
  6
CONTINUOUS
 10
11.8004074691
 20
11.3613491215
 11
11.7884065535
 21
11.3865834438
  0
LINE
  5
2D7
100
AcDbEntity
  8
0
100
AcDbLine
 62
7
  6
CONTINUOUS
 10
11.3107011533
 20
12.3910544741
 11
11.2987002348
 21
12.4162888024
  0
LINE
  5
2D8
100
AcDbEntity
  8
0
100
AcDbLine
 62
7
  6
CONTINUOUS
 10
11.7789559146
 20
11.3106293349
 11
11.7687050269
 21
11.3366238016
  0
LINE
  5
2D9
100
AcDbEntity
  8
0
100
AcDbLine
 62
7
  6
CONTINUOUS
 10
11.3606607954
 20
12.3713529474
 11
11.3504099054
 21
12.3973474204
  0
LINE
  5
2DA
100
AcDbEntity
  8
0
100
AcDbLine
 62
7
  6
CONTINUOUS
 10
11.794698824
 20
11.9530580924
 11
11.8004071599
 21
11.938582746
  0
LINE
  5
2DB
100
AcDbEntity
  8
0
100
AcDbLine
 62
7
  6
CONTINUOUS
 10
11.8136402258
 20
11.9013484674
 11
11.8183474217
 21
11.8865173157
  0
LINE
  5
2DC
100
AcDbEntity
  8
0
100
AcDbLine
 62
7
  6
CONTINUOUS
 10
10.7587018511
 20
10.8968774371
 11
10.7442265047
 21
10.9025857731
  0
LINE
  5
2DD
100
AcDbEntity
  8
0
100
AcDbLine
 62
7
  6
CONTINUOUS
 10
10.7079820841
 20
10.9183289466
 11
10.6939300336
 21
10.9250118077
  0
LINE
  5
2DE
100
AcDbEntity
  8
0
100
AcDbLine
 62
7
  6
CONTINUOUS
 10
10.6588444593
 20
10.943191687
 11
10.645281222
 21
10.9508179146
  0
LINE
  5
2DF
100
AcDbEntity
  8
0
100
AcDbLine
 62
7
  6
CONTINUOUS
 10
10.2656273679
 20
11.451466088
 11
10.2899838918
 21
11.4377710983
  0
LINE
  5
2E0
100
AcDbEntity
  8
0
100
AcDbLine
 62
7
  6
CONTINUOUS
 10
11.2595134988
 20
10.8926318123
 11
11.2838700285
 21
10.8789368193
  0
LINE
  5
2E1
100
AcDbEntity
  8
0
100
AcDbLine
 62
7
  6
CONTINUOUS
 10
10.6115180791
 20
10.9713497367
 11
10.598506893
 21
10.9798837739
  0
LINE
  5
2E2
100
AcDbEntity
  8
0
100
AcDbLine
 62
7
  6
CONTINUOUS
 10
10.2539035393
 20
11.5052733161
 11
10.2772687033
 21
11.4899481045
  0
LINE
  5
2E3
100
AcDbEntity
  8
0
100
AcDbLine
 62
7
  6
CONTINUOUS
 10
11.2073364925
 20
10.8799166239
 11
11.2307016621
 21
10.8645914087
  0
LINE
  5
2E4
100
AcDbEntity
  8
0
100
AcDbLine
 62
7
  6
CONTINUOUS
 10
10.2458789767
 20
11.5597551694
 11
10.2681438417
 21
11.5428711893
  0
LINE
  5
2E5
100
AcDbEntity
  8
0
100
AcDbLine
 62
7
  6
CONTINUOUS
 10
11.1544134078
 20
10.8707917623
 11
11.1766782781
 21
10.8539077781
  0
LINE
  5
2E6
100
AcDbEntity
  8
0
100
AcDbLine
 62
7
  6
CONTINUOUS
 10
10.2415910944
 20
11.6146576285
 11
10.2626518513
 21
11.5962936007
  0
LINE
  5
2E7
100
AcDbEntity
  8
0
100
AcDbLine
 62
7
  6
CONTINUOUS
 10
11.1009909964
 20
10.8652997718
 11
11.1220517583
 21
10.8469357397
  0
LINE
  5
2E8
100
AcDbEntity
  8
0
100
AcDbLine
 62
7
  6
CONTINUOUS
 10
11.8433768149
 20
11.5206063243
 11
11.8264928348
 21
11.5428711893
  0
LINE
  5
2E9
100
AcDbEntity
  8
0
100
AcDbLine
 62
7
  6
CONTINUOUS
 10
11.1544134078
 20
12.4291407554
 11
11.1375294237
 21
12.4514056257
  0
LINE
  5
2EA
100
AcDbEntity
  8
0
100
AcDbLine
 62
7
  6
CONTINUOUS
 10
11.8326931848
 20
11.4665829405
 11
11.8173679732
 21
11.4899481045
  0
LINE
  5
2EB
100
AcDbEntity
  8
0
100
AcDbLine
 62
7
  6
CONTINUOUS
 10
11.2073364925
 20
12.4200158938
 11
11.1920112774
 21
12.4433810634
  0
LINE
  5
2EC
100
AcDbEntity
  8
0
100
AcDbLine
 62
7
  6
CONTINUOUS
 10
11.7174008232
 20
12.0987777041
 11
11.7259348604
 21
12.085766518
  0
LINE
  5
2ED
100
AcDbEntity
  8
0
100
AcDbLine
 62
7
  6
CONTINUOUS
 10
11.8183477745
 20
11.4134145744
 11
11.8046527848
 21
11.4377710983
  0
LINE
  5
2EE
100
AcDbEntity
  8
0
100
AcDbLine
 62
7
  6
CONTINUOUS
 10
11.2595134988
 20
12.4073007053
 11
11.2458185058
 21
12.431657235
  0
LINE
  5
2EF
100
AcDbEntity
  8
0
100
AcDbLine
 62
7
  6
CONTINUOUS
 10
11.7464666824
 20
12.0520033751
 11
11.7540929101
 21
12.0384401378
  0
LINE
  5
2F0
100
AcDbEntity
  8
0
100
AcDbLine
 62
7
  6
CONTINUOUS
 10
11.7722727894
 20
12.0033545635
 11
11.7789556505
 21
11.989302513
  0
LINE
  5
2F1
100
AcDbEntity
  8
0
100
AcDbLine
 62
7
  6
CONTINUOUS
 10
11.2458188619
 20
10.8682759159
 11
11.2307010546
 21
10.8645918071
  0
LINE
  5
2F2
100
AcDbEntity
  8
0
100
AcDbLine
 62
7
  6
CONTINUOUS
 10
10.6115173797
 20
10.9713495663
 11
10.6386655616
 21
10.9779653971
  0
LINE
  5
2F3
100
AcDbEntity
  8
0
100
AcDbLine
 62
7
  6
CONTINUOUS
 10
11.7193192
 20
11.2413134821
 11
11.7464673881
 21
11.2479293145
  0
LINE
  5
2F4
100
AcDbEntity
  8
0
100
AcDbLine
 62
7
  6
CONTINUOUS
 10
11.1920116758
 20
10.8565520618
 11
11.1766776992
 21
10.8539082171
  0
LINE
  5
2F5
100
AcDbEntity
  8
0
100
AcDbLine
 62
7
  6
CONTINUOUS
 10
10.5662228915
 20
11.0026716876
 11
10.5937592649
 21
11.007419438
  0
LINE
  5
2F6
100
AcDbEntity
  8
0
100
AcDbLine
 62
7
  6
CONTINUOUS
 10
11.6898651591
 20
11.1964071855
 11
11.7174015392
 21
11.201154937
  0
LINE
  5
2F7
100
AcDbEntity
  8
0
100
AcDbLine
 62
7
  6
CONTINUOUS
 10
11.1375298627
 20
10.8485274708
 11
11.1220512107
 21
10.8469362172
  0
LINE
  5
2F8
100
AcDbEntity
  8
0
100
AcDbLine
 62
7
  6
CONTINUOUS
 10
10.5231714923
 20
11.037011795
 11
10.5509676701
 21
11.0398693287
  0
LINE
  5
2F9
100
AcDbEntity
  8
0
100
AcDbLine
 62
7
  6
CONTINUOUS
 10
11.6574152684
 20
11.1536155906
 11
11.6852114528
 21
11.156473125
  0
LINE
  5
2FA
100
AcDbEntity
  8
0
100
AcDbLine
 62
7
  6
CONTINUOUS
 10
11.0826274417
 20
10.8442395575
 11
11.0670762831
 21
10.843708314
  0
LINE
  5
2FB
100
AcDbEntity
  8
0
100
AcDbLine
 62
7
  6
CONTINUOUS
 10
10.4825639077
 20
11.074209779
 11
10.5104902911
 21
11.0751637729
  0
LINE
  5
2FC
100
AcDbEntity
  8
0
100
AcDbLine
 62
7
  6
CONTINUOUS
 10
11.6221208242
 20
11.1131382117
 11
11.6500472143
 21
11.1140922058
  0
LINE
  5
2FD
100
AcDbEntity
  8
0
100
AcDbLine
 62
7
  6
CONTINUOUS
 10
15.3432103512
 20
11.1374662588
 11
14.7514263253
 21
11.1374662588
  0
LINE
  5
2FE
100
AcDbEntity
  8
0
100
AcDbLine
 62
7
  6
CONTINUOUS
 10
7.3432103512
 20
11.1374662588
 11
6.7514263253
 21
11.1374662588
  0
LINE
  5
2FF
100
AcDbEntity
  8
0
100
AcDbLine
 62
7
  6
CONTINUOUS
 10
11.0275603934
 20
10.843708314
 11
11.0120092348
 21
10.8442395575
  0
LINE
  5
300
100
AcDbEntity
  8
0
100
AcDbLine
 62
7
  6
CONTINUOUS
 10
10.4445894689
 20
11.1140922056
 11
10.4725158524
 21
11.1131382117
  0
LINE
  5
301
100
AcDbEntity
  8
0
100
AcDbLine
 62
7
  6
CONTINUOUS
 10
11.5841463854
 20
11.0751637729
 11
11.6120727756
 21
11.0742097788
  0
LINE
  5
302
100
AcDbEntity
  8
0
100
AcDbLine
 62
7
  6
CONTINUOUS
 10
10.9725854658
 20
10.8469362172
 11
10.9571068139
 21
10.8485274708
  0
LINE
  5
303
100
AcDbEntity
  8
0
100
AcDbLine
 62
7
  6
CONTINUOUS
 10
10.4094252304
 20
11.1564731243
 11
10.4372214081
 21
11.1536155906
  0
LINE
  5
304
100
AcDbEntity
  8
0
100
AcDbLine
 62
7
  6
CONTINUOUS
 10
11.5436690065
 20
11.0398693287
 11
11.5714651909
 21
11.0370117943
  0
LINE
  5
305
100
AcDbEntity
  8
0
100
AcDbLine
 62
7
  6
CONTINUOUS
 10
10.9179589774
 20
10.8539082171
 11
10.9026250007
 21
10.8565520618
  0
LINE
  5
306
100
AcDbEntity
  8
0
100
AcDbLine
 62
7
  6
CONTINUOUS
 10
10.3772351439
 20
11.2011549359
 11
10.4047715174
 21
11.1964071855
  0
LINE
  5
307
100
AcDbEntity
  8
0
100
AcDbLine
 62
7
  6
CONTINUOUS
 10
11.5008774116
 20
11.007419438
 11
11.5284137917
 21
11.0026716864
  0
LINE
  5
308
100
AcDbEntity
  8
0
100
AcDbLine
 62
7
  6
CONTINUOUS
 10
10.8639356219
 20
10.8645918071
 11
10.8488178147
 21
10.8682759159
  0
LINE
  5
309
100
AcDbEntity
  8
0
100
AcDbLine
 62
7
  6
CONTINUOUS
 10
10.348169288
 20
11.2479293146
 11
10.3753174766
 21
11.2413134821
  0
LINE
  5
30A
100
AcDbEntity
  8
0
100
AcDbLine
 62
7
  6
CONTINUOUS
 10
11.455971115
 20
10.9779653971
 11
11.4831193033
 21
10.9713495647
  0
LINE
  5
30B
100
AcDbEntity
  8
0
100
AcDbLine
 62
7
  6
CONTINUOUS
 10
10.8107672814
 20
10.8789371754
 11
10.7959361297
 21
10.8836443713
  0
LINE
  5
30C
100
AcDbEntity
  8
0
100
AcDbLine
 62
7
  6
CONTINUOUS
 10
10.3223632011
 20
11.2965781719
 11
10.348996614
 21
11.2881251066
  0
LINE
  5
30D
100
AcDbEntity
  8
0
100
AcDbLine
 62
7
  6
CONTINUOUS
 10
11.4091594905
 20
10.9516445345
 11
11.4357929098
 21
10.9431914672
  0
LINE
  5
30E
100
AcDbEntity
  8
0
100
AcDbLine
 62
7
  6
CONTINUOUS
 10
10.2999371829
 20
11.3468746893
 11
10.3259316496
 21
11.3366238016
  0
LINE
  5
30F
100
AcDbEntity
  8
0
100
AcDbLine
 62
7
  6
CONTINUOUS
 10
11.3606607954
 20
10.9285795702
 11
11.3866552684
 21
10.9183286801
  0
LINE
  5
310
100
AcDbEntity
  8
0
100
AcDbLine
 62
7
  6
CONTINUOUS
 10
10.2809958007
 20
11.3985843594
 11
10.306230123
 21
11.3865834438
  0
LINE
  5
311
100
AcDbEntity
  8
0
100
AcDbLine
 62
7
  6
CONTINUOUS
 10
11.3107011533
 20
10.9088780436
 11
11.3359354816
 21
10.8968771251
  0
LINE
  5
312
100
AcDbEntity
  8
0
100
AcDbLine
 62
7
  6
CONTINUOUS
 10
11.8530455822
 20
11.6852748891
 11
11.8319848253
 21
11.7036389169
  0
LINE
  5
313
100
AcDbEntity
  8
0
100
AcDbLine
 62
7
  6
CONTINUOUS
 10
10.9936456802
 20
12.4346327458
 11
10.9725849182
 21
12.4529967779
  0
LINE
  5
314
100
AcDbEntity
  8
0
100
AcDbLine
 62
7
  6
CONTINUOUS
 10
11.8535767922
 20
11.6302078049
 11
11.8338183383
 21
11.6499662588
  0
LINE
  5
315
100
AcDbEntity
  8
0
100
AcDbLine
 62
7
  6
CONTINUOUS
 10
11.0473183383
 20
12.4364662588
 11
11.0275604221
 21
12.4562241749
  0
LINE
  5
316
100
AcDbEntity
  8
0
100
AcDbLine
 62
7
  6
CONTINUOUS
 10
11.6120720494
 20
12.225722714
 11
11.6230747935
 21
12.21471997
  0
LINE
  5
317
100
AcDbEntity
  8
0
100
AcDbLine
 62
7
  6
CONTINUOUS
 10
11.850348853
 20
11.5752328438
 11
11.8319848253
 21
11.5962936007
  0
LINE
  5
318
100
AcDbEntity
  8
0
100
AcDbLine
 62
7
  6
CONTINUOUS
 10
11.1009909964
 20
12.4346327458
 11
11.0826269642
 21
12.4556935077
  0
LINE
  5
319
100
AcDbEntity
  8
0
100
AcDbLine
 62
7
  6
CONTINUOUS
 10
11.6500464882
 20
12.1858403366
 11
11.6602727285
 21
12.1741123887
  0
LINE
  5
31A
100
AcDbEntity
  8
0
100
AcDbLine
 62
7
  6
CONTINUOUS
 10
11.6852107301
 20
12.1434594669
 11
11.6946127872
 21
12.1310609962
  0
LINE
  5
31B
100
AcDbEntity
  8
0
100
AcDbLine
 62
7
  6
CONTINUOUS
 10
6.1663928983
 20
11.3799662588
 11
3.9149333051
 21
11.2999662588
  0
LINE
  5
31C
100
AcDbEntity
  8
0
100
AcDbLine
 62
7
  6
CONTINUOUS
 10
15.9282437783
 20
11.9199662588
 11
18.1797033714
 21
11.9999662588
  0
LINE
  5
31D
100
AcDbEntity
  8
0
100
AcDbLine
 62
9
  6
CONTINUOUS
 10
14.5793495022
 20
11.6499662588
 11
14.5513691224
 21
11.6499662588
  0
LINE
  5
31E
100
AcDbEntity
  8
0
100
AcDbLine
 62
9
  6
CONTINUOUS
 10
10.5959702884
 20
11.6499662588
 11
10.5684045409
 21
11.6499662588
  0
LINE
  5
31F
100
AcDbEntity
  8
0
100
AcDbLine
 62
9
  6
CONTINUOUS
 10
6.5793495022
 20
11.6499662588
 11
6.2777997542
 21
11.6499662588
  0
LINE
  5
320
100
AcDbEntity
  8
0
100
AcDbLine
 62
9
  6
CONTINUOUS
 10
6.2167778239
 20
11.6499662588
 11
6.1663928983
 21
11.6499662588
  0
LINE
  5
321
100
AcDbEntity
  8
0
100
AcDbLine
 62
9
  6
CONTINUOUS
 10
7.5152871743
 20
11.6499662588
 11
7.5432675541
 21
11.6499662588
  0
LINE
  5
322
100
AcDbEntity
  8
0
100
AcDbLine
 62
9
  6
CONTINUOUS
 10
11.4986663882
 20
11.6499662588
 11
11.5262321356
 21
11.6499662588
  0
LINE
  5
323
100
AcDbEntity
  8
0
100
AcDbLine
 62
9
  6
CONTINUOUS
 10
15.8778588525
 20
11.6499662588
 11
15.9282437783
 21
11.6499662588
  0
LINE
  5
324
100
AcDbEntity
  8
0
100
AcDbLine
 62
9
  6
CONTINUOUS
 10
15.8168369222
 20
11.6499662588
 11
15.5152871743
 21
11.6499662588
  0
LINE
  5
325
100
AcDbEntity
  8
0
100
AcDbLine
 62
7
  6
CONTINUOUS
 10
15.9282437783
 20
11.3799662588
 11
18.1797033714
 21
11.2999662588
  0
LINE
  5
326
100
AcDbEntity
  8
0
100
AcDbLine
 62
7
  6
CONTINUOUS
 10
6.1663928983
 20
11.9199662588
 11
3.9149333051
 21
11.9999662588
  0
LINE
  5
327
100
AcDbEntity
  8
0
100
AcDbLine
 62
7
  6
CONTINUOUS
 10
11.8136408759
 20
11.9013481582
 11
11.7884065535
 21
11.9133490738
  0
LINE
  5
328
100
AcDbEntity
  8
0
100
AcDbLine
 62
7
  6
CONTINUOUS
 10
10.7839355233
 20
12.3910544741
 11
10.758701195
 21
12.4030553925
  0
LINE
  5
329
100
AcDbEntity
  8
0
100
AcDbLine
 62
7
  6
CONTINUOUS
 10
11.8290093086
 20
11.8484664296
 11
11.8046527848
 21
11.8621614193
  0
LINE
  5
32A
100
AcDbEntity
  8
0
100
AcDbLine
 62
7
  6
CONTINUOUS
 10
10.8351231778
 20
12.4073007053
 11
10.8107666481
 21
12.4209956983
  0
LINE
  5
32B
100
AcDbEntity
  8
0
100
AcDbLine
 62
7
  6
CONTINUOUS
 10
11.8407331373
 20
11.7946592015
 11
11.8173679732
 21
11.8099844131
  0
LINE
  5
32C
100
AcDbEntity
  8
0
100
AcDbLine
 62
7
  6
CONTINUOUS
 10
10.887300184
 20
12.4200158938
 11
10.8639350144
 21
12.435341109
  0
LINE
  5
32D
100
AcDbEntity
  8
0
100
AcDbLine
 62
7
  6
CONTINUOUS
 10
11.4831185975
 20
12.3285827809
 11
11.4961297835
 21
12.3200487437
  0
LINE
  5
32E
100
AcDbEntity
  8
0
100
AcDbLine
 62
7
  6
CONTINUOUS
 10
11.8487576999
 20
11.7401773482
 11
11.8264928348
 21
11.7570613283
  0
LINE
  5
32F
100
AcDbEntity
  8
0
100
AcDbLine
 62
7
  6
CONTINUOUS
 10
10.9402232688
 20
12.4291407554
 11
10.9179583985
 21
12.4460247395
  0
LINE
  5
330
100
AcDbEntity
  8
0
100
AcDbLine
 62
7
  6
CONTINUOUS
 10
11.5284130757
 20
12.2972607078
 11
11.5408115464
 21
12.2878586506
  0
LINE
  5
331
100
AcDbEntity
  8
0
100
AcDbLine
 62
7
  6
CONTINUOUS
 10
11.5714644682
 20
12.2629206491
 11
11.5831924161
 21
12.2526944087
  0
LINE
  5
332
100
AcDbEntity
  8
0
100
AcDbLine
 62
9
  6
CONTINUOUS
 10
15.8168369295
 20
11.357564219
 11
15.8168369295
 21
11.9423682975
  0
LINE
  5
333
100
AcDbEntity
  8
0
100
AcDbLine
 62
9
  6
CONTINUOUS
 10
15.8778587969
 20
11.3278174922
 11
15.8778587969
 21
11.9721150255
  0
LINE
  5
334
100
AcDbEntity
  8
0
100
AcDbLine
 62
7
  6
CONTINUOUS
 10
15.9282437783
 20
11.3499671739
 11
15.9282437783
 21
11.9499653438
  0
LINE
  5
335
100
AcDbEntity
  8
0
100
AcDbLine
 62
7
  6
CONTINUOUS
 10
11.4831192969
 20
12.3285829514
 11
11.455971115
 21
12.3219671205
  0
LINE
  5
336
100
AcDbEntity
  8
0
100
AcDbLine
 62
7
  6
CONTINUOUS
 10
10.3753174766
 20
12.0586190355
 11
10.3481692885
 21
12.0520032031
  0
LINE
  5
337
100
AcDbEntity
  8
0
100
AcDbLine
 62
7
  6
CONTINUOUS
 10
10.8488178147
 20
12.4316566017
 11
10.8639356219
 21
12.4353407105
  0
LINE
  5
338
100
AcDbEntity
  8
0
100
AcDbLine
 62
7
  6
CONTINUOUS
 10
11.5284137851
 20
12.2972608301
 11
11.5008774116
 21
12.2925130797
  0
LINE
  5
339
100
AcDbEntity
  8
0
100
AcDbLine
 62
7
  6
CONTINUOUS
 10
10.4047715174
 20
12.1035253322
 11
10.3772351374
 21
12.0987775806
  0
LINE
  5
33A
100
AcDbEntity
  8
0
100
AcDbLine
 62
7
  6
CONTINUOUS
 10
10.9026250007
 20
12.4433804559
 11
10.9179589774
 21
12.4460243005
  0
LINE
  5
33B
100
AcDbEntity
  8
0
100
AcDbLine
 62
7
  6
CONTINUOUS
 10
11.5714651843
 20
12.2629207227
 11
11.5436690065
 21
12.260063189
  0
LINE
  5
33C
100
AcDbEntity
  8
0
100
AcDbLine
 62
7
  6
CONTINUOUS
 10
10.4372214081
 20
12.146316927
 11
10.4094252237
 21
12.1434593926
  0
LINE
  5
33D
100
AcDbEntity
  8
0
100
AcDbLine
 62
7
  6
CONTINUOUS
 10
10.9571068139
 20
12.4514050468
 11
10.9725854658
 21
12.4529963005
  0
LINE
  5
33E
100
AcDbEntity
  8
0
100
AcDbLine
 62
7
  6
CONTINUOUS
 10
11.6120727689
 20
12.2257227386
 11
11.5841463854
 21
12.2247687447
  0
LINE
  5
33F
100
AcDbEntity
  8
0
100
AcDbLine
 62
7
  6
CONTINUOUS
 10
10.4725158524
 20
12.186794306
 11
10.4445894623
 21
12.1858403118
  0
LINE
  5
340
100
AcDbEntity
  8
0
100
AcDbLine
 62
7
  6
CONTINUOUS
 10
11.0120092348
 20
12.4556929601
 11
11.0275603934
 21
12.4562242037
  0
LINE
  5
341
100
AcDbEntity
  8
0
100
AcDbLine
 62
7
  6
CONTINUOUS
 10
6.7514263253
 20
12.1624662588
 11
7.3432103512
 21
12.1624662588
  0
LINE
  5
342
100
AcDbEntity
  8
0
100
AcDbLine
 62
7
  6
CONTINUOUS
 10
14.7514263253
 20
12.1624662588
 11
15.3432103512
 21
12.1624662588
  0
LINE
  5
343
100
AcDbEntity
  8
0
100
AcDbLine
 62
7
  6
CONTINUOUS
 10
11.6500472077
 20
12.1858403121
 11
11.6221208242
 21
12.186794306
  0
LINE
  5
344
100
AcDbEntity
  8
0
100
AcDbLine
 62
7
  6
CONTINUOUS
 10
10.5104902911
 20
12.2247687447
 11
10.482563901
 21
12.2257227388
  0
LINE
  5
345
100
AcDbEntity
  8
0
100
AcDbLine
 62
7
  6
CONTINUOUS
 10
11.0670762831
 20
12.4562242037
 11
11.0826274417
 21
12.4556929601
  0
LINE
  5
346
100
AcDbEntity
  8
0
100
AcDbLine
 62
7
  6
CONTINUOUS
 10
11.6852114462
 20
12.1434593933
 11
11.6574152684
 21
12.146316927
  0
LINE
  5
347
100
AcDbEntity
  8
0
100
AcDbLine
 62
7
  6
CONTINUOUS
 10
10.5509676701
 20
12.260063189
 11
10.5231714857
 21
12.2629207234
  0
LINE
  5
348
100
AcDbEntity
  8
0
100
AcDbLine
 62
7
  6
CONTINUOUS
 10
11.1220512107
 20
12.4529963005
 11
11.1375298627
 21
12.4514050468
  0
LINE
  5
349
100
AcDbEntity
  8
0
100
AcDbLine
 62
7
  6
CONTINUOUS
 10
11.7174015326
 20
12.0987775818
 11
11.6898651591
 21
12.1035253322
  0
LINE
  5
34A
100
AcDbEntity
  8
0
100
AcDbLine
 62
7
  6
CONTINUOUS
 10
10.5937592649
 20
12.2925130797
 11
10.5662228849
 21
12.2972608312
  0
LINE
  5
34B
100
AcDbEntity
  8
0
100
AcDbLine
 62
7
  6
CONTINUOUS
 10
11.1766776992
 20
12.4460243005
 11
11.1920116758
 21
12.4433804559
  0
LINE
  5
34C
100
AcDbEntity
  8
0
100
AcDbLine
 62
7
  6
CONTINUOUS
 10
11.7464673885
 20
12.052003203
 11
11.7193192
 21
12.0586190355
  0
LINE
  5
34D
100
AcDbEntity
  8
0
100
AcDbLine
 62
7
  6
CONTINUOUS
 10
10.6386655616
 20
12.3219671205
 11
10.6115173732
 21
12.3285829529
  0
LINE
  5
34E
100
AcDbEntity
  8
0
100
AcDbLine
 62
7
  6
CONTINUOUS
 10
11.2307010546
 20
12.4353407105
 11
11.2458188619
 21
12.4316566017
  0
LINE
  5
34F
100
AcDbEntity
  8
0
100
AcDbLine
 62
7
  6
CONTINUOUS
 10
11.7722734755
 20
12.0033543457
 11
11.7456400626
 21
12.011807411
  0
LINE
  5
350
100
AcDbEntity
  8
0
100
AcDbLine
 62
7
  6
CONTINUOUS
 10
10.6854771861
 20
12.3482879831
 11
10.6588437668
 21
12.3567410504
  0
LINE
  5
351
100
AcDbEntity
  8
0
100
AcDbLine
 62
7
  6
CONTINUOUS
 10
11.2838693952
 20
12.4209953422
 11
11.2987005468
 21
12.4162881463
  0
LINE
  5
352
100
AcDbEntity
  8
0
100
AcDbLine
 62
7
  6
CONTINUOUS
 10
11.7946994937
 20
11.9530578283
 11
11.7687050269
 21
11.963308716
  0
LINE
  5
353
100
AcDbEntity
  8
0
100
AcDbLine
 62
7
  6
CONTINUOUS
 10
10.7339758811
 20
12.3713529474
 11
10.7079814082
 21
12.3816038375
  0
LINE
  5
354
100
AcDbEntity
  8
0
100
AcDbLine
 62
7
  6
CONTINUOUS
 10
11.3359348255
 20
12.4030550805
 11
11.3504101719
 21
12.3973467445
  0
LINE
  5
355
100
AcDbEntity
  8
0
100
AcDbLine
 62
7
  6
CONTINUOUS
 10
11.3866545925
 20
12.381603571
 11
11.4007066429
 21
12.3749207099
  0
LINE
  5
356
100
AcDbEntity
  8
0
100
AcDbLine
 62
7
  6
CONTINUOUS
 10
11.4357922173
 20
12.3567408306
 11
11.4493554545
 21
12.349114603
  0
LINE
  5
357
100
AcDbEntity
  8
0
100
AcDbLine
 62
7
  6
CONTINUOUS
 10
14.7514263253
 20
11.1374662588
 11
14.4555343124
 21
11.6499662588
  0
LINE
  5
358
100
AcDbEntity
  8
0
100
AcDbLine
 62
7
  6
CONTINUOUS
 10
15.3432103512
 20
12.1624662588
 11
15.5144275495
 21
11.8659093723
  0
LINE
  5
359
100
AcDbEntity
  8
0
100
AcDbLine
 62
7
  6
CONTINUOUS
 10
18.1797033714
 20
12.0299516173
 11
18.1797033714
 21
11.2699809003
  0
LINE
  5
35A
100
AcDbEntity
  8
0
100
AcDbLine
 62
9
  6
CONTINUOUS
 10
18.2586666951
 20
11.2609186398
 11
18.2586666951
 21
12.0390138779
  0
ARC
  5
35B
100
AcDbEntity
  8
0
100
AcDbCircle
 62
9
  6
CONTINUOUS
 10
7.0473183569
 20
11.6499662019
 40
0.3452421768
100
AcDbArc
 50
179.9999905563
 51
0.0000094437
  0
ARC
  5
35C
100
AcDbEntity
  8
0
100
AcDbCircle
 62
7
  6
CONTINUOUS
 10
6.2977236577
 20
11.2392297791
 40
0.1200000078
100
AcDbArc
 50
99.5572243056
 51
132.419067971
  0
ARC
  5
35D
100
AcDbEntity
  8
0
100
AcDbCircle
 62
7
  6
CONTINUOUS
 10
3.8749333051
 20
11.2699662588
 40
0.04
100
AcDbArc
 50
193.0728923158
 51
360.0
  0
ARC
  5
35E
100
AcDbEntity
  8
0
100
AcDbCircle
 62
7
  6
CONTINUOUS
 10
5.5113928983
 20
11.6499662588
 40
1.72
100
AcDbArc
 50
166.9271076843
 51
193.0728923157
  0
ARC
  5
35F
100
AcDbEntity
  8
0
100
AcDbCircle
 62
7
  6
CONTINUOUS
 10
7.0473183383
 20
11.6499662588
 40
1.1355877937
100
AcDbArc
 50
194.1537354567
 51
165.8461558129
  0
ARC
  5
360
100
AcDbEntity
  8
0
100
AcDbCircle
 62
9
  6
CONTINUOUS
 10
7.0473183383
 20
11.6499662588
 40
1.1018951051
100
AcDbArc
 50
194.5436089534
 51
165.4563753575
  0
ARC
  5
361
100
AcDbEntity
  8
0
100
AcDbCircle
 62
9
  6
CONTINUOUS
 10
7.0473183383
 20
11.6499662588
 40
1.0686940646
100
AcDbArc
 50
194.9664567689
 51
165.0335432311
  0
ARC
  5
362
100
AcDbEntity
  8
0
100
AcDbCircle
 62
9
  6
CONTINUOUS
 10
7.0473183383
 20
11.6499662588
 40
0.9981262705
100
AcDbArc
 50
195.8736322343
 51
164.1264069357
  0
ARC
  5
363
100
AcDbEntity
  8
0
100
AcDbCircle
 62
9
  6
CONTINUOUS
 10
7.0473183383
 20
11.6499662588
 40
0.9302280237
100
AcDbArc
 50
196.9064692115
 51
198.7099479653
  0
ARC
  5
364
100
AcDbEntity
  8
0
100
AcDbCircle
 62
9
  6
CONTINUOUS
 10
7.0473183383
 20
11.6499662588
 40
0.9302280237
100
AcDbArc
 50
198.9469736761
 51
161.0520241998
  0
ARC
  5
365
100
AcDbEntity
  8
0
100
AcDbCircle
 62
9
  6
CONTINUOUS
 10
7.0473183383
 20
11.6499662588
 40
0.9302280237
100
AcDbArc
 50
161.2901686896
 51
163.0934848477
  0
ARC
  5
366
100
AcDbEntity
  8
0
100
AcDbCircle
 62
9
  6
CONTINUOUS
 10
7.0473183383
 20
11.6499662588
 40
0.7616485311
100
AcDbArc
 50
201.5207460907
 51
158.4792149296
  0
ARC
  5
367
100
AcDbEntity
  8
0
100
AcDbCircle
 62
7
  6
CONTINUOUS
 10
7.0473183383
 20
11.6499662588
 40
0.6917203626
100
AcDbArc
 50
202.4176095427
 51
157.5840398972
  0
ARC
  5
368
100
AcDbEntity
  8
0
100
AcDbCircle
 62
9
  6
CONTINUOUS
 10
7.0473183383
 20
11.6499662588
 40
0.5085759512
100
AcDbArc
 50
204.9630622719
 51
155.036858466
  0
CIRCLE
  5
369
100
AcDbEntity
  8
0
100
AcDbCircle
 62
7
  6
CONTINUOUS
 10
7.0473183383
 20
11.6499662588
 40
0.4959492158
  0
CIRCLE
  5
36A
100
AcDbEntity
  8
0
100
AcDbCircle
 62
9
  6
CONTINUOUS
 10
7.0473183383
 20
11.6499662588
 40
0.4679685478
  0
ARC
  5
36B
100
AcDbEntity
  8
0
100
AcDbCircle
 62
9
  6
CONTINUOUS
 10
7.0473183197
 20
11.6499663157
 40
0.3452421768
100
AcDbArc
 50
359.9999905563
 51
180.0000094437
  0
ARC
  5
36C
100
AcDbEntity
  8
0
100
AcDbCircle
 62
7
  6
CONTINUOUS
 10
6.2977236577
 20
12.0607027385
 40
0.1200000078
100
AcDbArc
 50
227.5809320314
 51
260.4427756955
  0
ARC
  5
36D
100
AcDbEntity
  8
0
100
AcDbCircle
 62
7
  6
CONTINUOUS
 10
3.8749333051
 20
12.0299662588
 40
0.04
100
AcDbArc
 50
0.0
 51
166.9271076842
  0
ARC
  5
36E
100
AcDbEntity
  8
0
100
AcDbCircle
 62
9
  6
CONTINUOUS
 10
15.0473183569
 20
11.6499662019
 40
0.3452421752
100
AcDbArc
 50
179.9999905563
 51
0.0000094437
  0
ARC
  5
36F
100
AcDbEntity
  8
0
100
AcDbCircle
 62
7
  6
CONTINUOUS
 10
15.7969130189
 20
11.2392297791
 40
0.1200000078
100
AcDbArc
 50
47.5809321446
 51
80.4427757728
  0
ARC
  5
370
100
AcDbEntity
  8
0
100
AcDbCircle
 62
7
  6
CONTINUOUS
 10
18.2197033714
 20
11.2699662588
 40
0.04
100
AcDbArc
 50
180.0
 51
346.9271076842
  0
ARC
  5
371
100
AcDbEntity
  8
0
100
AcDbCircle
 62
7
  6
CONTINUOUS
 10
11.0473183383
 20
11.6499662588
 40
1.4544334851
100
AcDbArc
 50
299.8102373446
 51
240.1897465647
  0
ARC
  5
372
100
AcDbEntity
  8
0
100
AcDbCircle
 62
9
  6
CONTINUOUS
 10
11.0473183383
 20
11.6499662588
 40
1.4530705181
100
AcDbArc
 50
299.8428641438
 51
240.1571156231
  0
ARC
  5
373
100
AcDbEntity
  8
0
100
AcDbCircle
 62
9
  6
CONTINUOUS
 10
11.0473183383
 20
11.6499662588
 40
1.4268779325
100
AcDbArc
 50
300.495106641
 51
239.5049788943
  0
ARC
  5
374
100
AcDbEntity
  8
0
100
AcDbCircle
 62
9
  6
CONTINUOUS
 10
11.0473183383
 20
11.6499662588
 40
1.3248052694
100
AcDbArc
 50
303.6321007577
 51
236.3679515936
  0
ARC
  5
375
100
AcDbEntity
  8
0
100
AcDbCircle
 62
9
  6
CONTINUOUS
 10
11.0473183383
 20
11.6499662588
 40
1.0243078011
100
AcDbArc
 50
324.3664089761
 51
215.6211715569
  0
ARC
  5
376
100
AcDbEntity
  8
0
100
AcDbCircle
 62
7
  6
CONTINUOUS
 10
11.0473183383
 20
11.6499662588
 40
1.0147992336
100
AcDbArc
 50
324.3981286395
 51
215.5893283738
  0
CIRCLE
  5
377
100
AcDbEntity
  8
0
100
AcDbCircle
 62
7
  6
CONTINUOUS
 10
11.0473183383
 20
11.6499662588
 40
0.96793125
  0
CIRCLE
  5
378
100
AcDbEntity
  8
0
100
AcDbCircle
 62
9
  6
CONTINUOUS
 10
11.0473183383
 20
11.6499662588
 40
0.85060625
  0
CIRCLE
  5
379
100
AcDbEntity
  8
0
100
AcDbCircle
 62
9
  6
CONTINUOUS
 10
11.0473183383
 20
11.6499662588
 40
0.7565
  0
CIRCLE
  5
37A
100
AcDbEntity
  8
0
100
AcDbCircle
 62
7
  6
CONTINUOUS
 10
11.0473183383
 20
11.6499662588
 40
0.625
  0
CIRCLE
  5
37B
100
AcDbEntity
  8
0
100
AcDbCircle
 62
9
  6
CONTINUOUS
 10
11.0473183383
 20
11.6499662588
 40
0.6
  0
CIRCLE
  5
37C
100
AcDbEntity
  8
0
100
AcDbCircle
 62
7
  6
CONTINUOUS
 10
11.0473183383
 20
11.6499662588
 40
0.4789137973
  0
CIRCLE
  5
37D
100
AcDbEntity
  8
0
100
AcDbCircle
 62
9
  6
CONTINUOUS
 10
11.0473183383
 20
11.6499662588
 40
0.451347767
  0
CIRCLE
  5
37E
100
AcDbEntity
  8
0
100
AcDbCircle
 62
9
  6
CONTINUOUS
 10
11.0473183383
 20
11.6499662588
 40
0.3284454531
  0
ARC
  5
37F
100
AcDbEntity
  8
0
100
AcDbCircle
 62
7
  6
CONTINUOUS
 10
16.5832437783
 20
11.6499662588
 40
1.72
100
AcDbArc
 50
346.9271076843
 51
13.0728923157
  0
ARC
  5
380
100
AcDbEntity
  8
0
100
AcDbCircle
 62
7
  6
CONTINUOUS
 10
15.0473183383
 20
11.6499662588
 40
1.1355877937
100
AcDbArc
 50
14.1537354567
 51
345.8461558129
  0
ARC
  5
381
100
AcDbEntity
  8
0
100
AcDbCircle
 62
9
  6
CONTINUOUS
 10
15.0473183383
 20
11.6499662588
 40
1.1018951051
100
AcDbArc
 50
14.5436089534
 51
345.4563753575
  0
ARC
  5
382
100
AcDbEntity
  8
0
100
AcDbCircle
 62
9
  6
CONTINUOUS
 10
15.0473183383
 20
11.6499662588
 40
1.0686940646
100
AcDbArc
 50
14.9664567689
 51
345.0335432311
  0
ARC
  5
383
100
AcDbEntity
  8
0
100
AcDbCircle
 62
9
  6
CONTINUOUS
 10
15.0473183383
 20
11.6499662588
 40
0.9981262705
100
AcDbArc
 50
15.8736322343
 51
344.1264069357
  0
ARC
  5
384
100
AcDbEntity
  8
0
100
AcDbCircle
 62
9
  6
CONTINUOUS
 10
15.0473183383
 20
11.6499662588
 40
0.9302280237
100
AcDbArc
 50
16.9064692115
 51
18.7099479653
  0
ARC
  5
385
100
AcDbEntity
  8
0
100
AcDbCircle
 62
9
  6
CONTINUOUS
 10
15.0473183383
 20
11.6499662588
 40
0.9302280237
100
AcDbArc
 50
18.9469736761
 51
341.0520241998
  0
ARC
  5
386
100
AcDbEntity
  8
0
100
AcDbCircle
 62
9
  6
CONTINUOUS
 10
15.0473183383
 20
11.6499662588
 40
0.9302280237
100
AcDbArc
 50
341.2901686896
 51
343.0934848477
  0
ARC
  5
387
100
AcDbEntity
  8
0
100
AcDbCircle
 62
9
  6
CONTINUOUS
 10
15.0473183383
 20
11.6499662588
 40
0.7616485311
100
AcDbArc
 50
21.520748102
 51
338.4792505012
  0
ARC
  5
388
100
AcDbEntity
  8
0
100
AcDbCircle
 62
7
  6
CONTINUOUS
 10
15.0473183383
 20
11.6499662588
 40
0.6917203626
100
AcDbArc
 50
22.4176078602
 51
337.5840101909
  0
ARC
  5
389
100
AcDbEntity
  8
0
100
AcDbCircle
 62
9
  6
CONTINUOUS
 10
15.0473183383
 20
11.6499662588
 40
0.5085759512
100
AcDbArc
 50
24.9630676548
 51
335.0367938352
  0
CIRCLE
  5
38A
100
AcDbEntity
  8
0
100
AcDbCircle
 62
7
  6
CONTINUOUS
 10
15.0473183383
 20
11.6499662588
 40
0.4959492158
  0
CIRCLE
  5
38B
100
AcDbEntity
  8
0
100
AcDbCircle
 62
9
  6
CONTINUOUS
 10
15.0473183383
 20
11.6499662588
 40
0.4679685478
  0
ARC
  5
38C
100
AcDbEntity
  8
0
100
AcDbCircle
 62
9
  6
CONTINUOUS
 10
15.0473183197
 20
11.6499663157
 40
0.3452421752
100
AcDbArc
 50
359.9999905563
 51
180.0000094437
  0
ARC
  5
38D
100
AcDbEntity
  8
0
100
AcDbCircle
 62
7
  6
CONTINUOUS
 10
15.7969130189
 20
12.0607027385
 40
0.1200000078
100
AcDbArc
 50
279.5572242266
 51
312.4190678546
  0
ARC
  5
38E
100
AcDbEntity
  8
0
100
AcDbCircle
 62
7
  6
CONTINUOUS
 10
18.2197033714
 20
12.0299662588
 40
0.04
100
AcDbArc
 50
13.0728923158
 51
180.0
  0
SPLINE
  5
38F
100
AcDbEntity
  8
0
100
AcDbSpline
 62
7
  6
CONTINUOUS
 70
0
 71
3
 72
21
 73
17
 74
0
 42
0.0000001
 43
0.0000001
 44
0.0000000001
 40
0.0
 40
0.0
 40
0.0
 40
0.0
 40
0.1246853177
 40
0.1873118613
 40
0.2499099749
 40
0.3124082806
 40
0.3748459933
 40
0.4373588076
 40
0.4999663741
 40
0.5625889971
 40
0.6251341666
 40
0.6875827826
 40
0.7500517602
 40
0.8126243109
 40
0.8752529987
 40
1.0
 40
1.0
 40
1.0
 40
1.0
 10
6.1663928983
 20
11.9499659648
 30
0.0
 10
6.1663928983
 20
11.9528499697
 30
0.0
 10
6.167059755
 20
11.9572127464
 30
0.0
 10
6.16911514
 20
11.9626280624
 30
0.0
 10
6.1712142707
 20
11.9664469336
 30
0.0
 10
6.173832642
 20
11.9699243535
 30
0.0
 10
6.1769419111
 20
11.9729700512
 30
0.0
 10
6.1804704169
 20
11.9755202185
 30
0.0
 10
6.1843273367
 20
11.9775465593
 30
0.0
 10
6.1884303526
 20
11.9790141242
 30
0.0
 10
6.1926959877
 20
11.9798888698
 30
0.0
 10
6.1970418183
 20
11.9801317406
 30
0.0
 10
6.2013741498
 20
11.9797133583
 30
0.0
 10
6.205605249
 20
11.9786748311
 30
0.0
 10
6.2109832111
 20
11.9765207058
 30
0.0
 10
6.2146477222
 20
11.9740613283
 30
0.0
 10
6.2167778636
 20
11.9721149949
 30
0.0
  0
SPLINE
  5
390
100
AcDbEntity
  8
0
100
AcDbSpline
 62
7
  6
CONTINUOUS
 70
0
 71
3
 72
21
 73
17
 74
0
 42
0.0000001
 43
0.0000001
 44
0.0000000001
 40
0.0
 40
0.0
 40
0.0
 40
0.0
 40
0.1246853177
 40
0.1873118613
 40
0.2499099749
 40
0.3124082806
 40
0.3748459933
 40
0.4373588076
 40
0.4999663741
 40
0.5625889971
 40
0.6251341666
 40
0.6875827826
 40
0.7500517602
 40
0.8126243109
 40
0.8752529987
 40
1.0
 40
1.0
 40
1.0
 40
1.0
 10
6.1663928983
 20
11.3499665528
 30
0.0
 10
6.1663928983
 20
11.3470825479
 30
0.0
 10
6.167059755
 20
11.3427197712
 30
0.0
 10
6.16911514
 20
11.3373044552
 30
0.0
 10
6.1712142707
 20
11.333485584
 30
0.0
 10
6.173832642
 20
11.3300081641
 30
0.0
 10
6.1769419111
 20
11.3269624665
 30
0.0
 10
6.1804704169
 20
11.3244122991
 30
0.0
 10
6.1843273367
 20
11.3223859583
 30
0.0
 10
6.1884303526
 20
11.3209183935
 30
0.0
 10
6.1926959877
 20
11.3200436478
 30
0.0
 10
6.1970418183
 20
11.319800777
 30
0.0
 10
6.2013741498
 20
11.3202191593
 30
0.0
 10
6.205605249
 20
11.3212576865
 30
0.0
 10
6.2109832111
 20
11.3234118118
 30
0.0
 10
6.2146477222
 20
11.3258711893
 30
0.0
 10
6.2167778636
 20
11.3278175227
 30
0.0
  0
SPLINE
  5
391
100
AcDbEntity
  8
0
100
AcDbSpline
 62
7
  6
CONTINUOUS
 70
0
 71
3
 72
13
 73
9
 74
0
 42
0.0000001
 43
0.0000001
 44
0.0000000001
 40
0.0
 40
0.0
 40
0.0
 40
0.0
 40
0.2508113746
 40
0.5014602759
 40
0.7512533318
 40
0.8757375806
 40
0.9378905297
 40
1.0
 40
1.0
 40
1.0
 40
1.0
 10
6.600480385
 20
11.4399326664
 30
0.0
 10
6.573573404
 20
11.4327256499
 30
0.0
 10
6.5199893219
 20
11.417532602
 30
0.0
 10
6.4397869995
 20
11.3945402609
 30
0.0
 10
6.3726232724
 20
11.3769711477
 30
0.0
 10
6.3252954535
 20
11.3664735389
 30
0.0
 10
6.2981882705
 20
11.3611383786
 30
0.0
 10
6.2846019762
 20
11.3587092311
 30
0.0
 10
6.2777997542
 20
11.3575639411
 30
0.0
  0
SPLINE
  5
392
100
AcDbEntity
  8
0
100
AcDbSpline
 62
7
  6
CONTINUOUS
 70
0
 71
3
 72
13
 73
9
 74
0
 42
0.0000001
 43
0.0000001
 44
0.0000000001
 40
0.0
 40
0.0
 40
0.0
 40
0.0
 40
0.2508114043
 40
0.5014602923
 40
0.7512533287
 40
0.8757375759
 40
0.9378905267
 40
1.0
 40
1.0
 40
1.0
 40
1.0
 10
6.6004737005
 20
11.8600016417
 30
0.0
 10
6.5735672926
 20
11.8672085744
 30
0.0
 10
6.519984338
 20
11.8824013618
 30
0.0
 10
6.4397836658
 20
11.9053931724
 30
0.0
 10
6.3726213149
 20
11.9229618339
 30
0.0
 10
6.3252944715
 20
11.9334591807
 30
0.0
 10
6.2981878484
 20
11.9387942159
 30
0.0
 10
6.2846018353
 20
11.9412233103
 30
0.0
 10
6.2777997542
 20
11.9423685766
 30
0.0
  0
SPLINE
  5
393
100
AcDbEntity
  8
0
100
AcDbSpline
 62
9
  6
CONTINUOUS
 70
0
 71
3
 72
12
 73
8
 74
0
 42
0.0000001
 43
0.0000001
 44
0.0000000001
 40
0.0
 40
0.0
 40
0.0
 40
0.0
 40
0.2334880934
 40
0.4847473292
 40
0.614148467
 40
0.7444061076
 40
1.0
 40
1.0
 40
1.0
 40
1.0
 10
6.5147882023
 20
11.5809654815
 30
0.0
 10
6.5179959996
 20
11.581828632
 30
0.0
 10
6.5247107873
 20
11.583420341
 30
0.0
 10
6.5333191581
 20
11.5849493616
 30
0.0
 10
6.5405297707
 20
11.5858796471
 30
0.0
 10
6.5478292697
 20
11.5865632463
 30
0.0
 10
6.5533208717
 20
11.586793476
 30
0.0
 10
6.5569572724
 20
11.5867945626
 30
0.0
  0
SPLINE
  5
394
100
AcDbEntity
  8
0
100
AcDbSpline
 62
9
  6
CONTINUOUS
 70
0
 71
3
 72
11
 73
7
 74
0
 42
0.0000001
 43
0.0000001
 44
0.0000000001
 40
0.0
 40
0.0
 40
0.0
 40
0.0
 40
0.2241348215
 40
0.4713216756
 40
0.7345849009
 40
1.0
 40
1.0
 40
1.0
 40
1.0
 10
6.514788369
 20
11.7189679123
 30
0.0
 10
6.5178723068
 20
11.71813804
 30
0.0
 10
6.5244078807
 20
11.7165762674
 30
0.0
 10
6.5347156101
 20
11.7147214193
 30
0.0
 10
6.5457063311
 20
11.7134634541
 30
0.0
 10
6.5532411699
 20
11.7131264703
 30
0.0
 10
6.5570230065
 20
11.7131272314
 30
0.0
  0
SPLINE
  5
395
100
AcDbEntity
  8
0
100
AcDbSpline
 62
9
  6
CONTINUOUS
 70
0
 71
3
 72
11
 73
7
 74
0
 42
0.0000001
 43
0.0000001
 44
0.0000000001
 40
0.0
 40
0.0
 40
0.0
 40
0.0
 40
0.2322598493
 40
0.4775146992
 40
0.7350899477
 40
1.0
 40
1.0
 40
1.0
 40
1.0
 10
6.5147880704
 20
11.7189675818
 30
0.0
 10
6.5135280478
 20
11.7136831602
 30
0.0
 10
6.5107698919
 20
11.7028601591
 30
0.0
 10
6.5068616275
 20
11.6861115603
 30
0.0
 10
6.5038672044
 20
11.6683895582
 30
0.0
 10
6.5030204532
 20
11.6561625137
 30
0.0
 10
6.5030196942
 20
11.6499662588
 30
0.0
  0
SPLINE
  5
396
100
AcDbEntity
  8
0
100
AcDbSpline
 62
9
  6
CONTINUOUS
 70
0
 71
3
 72
15
 73
11
 74
0
 42
0.0000001
 43
0.0000001
 44
0.0000000001
 40
0.0
 40
0.0
 40
0.0
 40
0.0
 40
0.0909306318
 40
0.1919268855
 40
0.3027701422
 40
0.4233730099
 40
0.5537835698
 40
0.6939005252
 40
0.842915565
 40
1.0
 40
1.0
 40
1.0
 40
1.0
 10
6.5917832177
 20
11.8425275498
 30
0.0
 10
6.5879798363
 20
11.8400982997
 30
0.0
 10
6.5802795723
 20
11.834447891
 30
0.0
 10
6.5691851003
 20
11.8242753614
 30
0.0
 10
6.5581958191
 20
11.8119316197
 30
0.0
 10
6.5475806241
 20
11.7974124115
 30
0.0
 10
6.537616823
 20
11.7807204826
 30
0.0
 10
6.5285893864
 20
11.7619265175
 30
0.0
 10
6.5207453472
 20
11.741188724
 30
0.0
 10
6.5165965042
 20
11.726551164
 30
0.0
 10
6.5147882861
 20
11.7189674998
 30
0.0
  0
SPLINE
  5
397
100
AcDbEntity
  8
0
100
AcDbSpline
 62
9
  6
CONTINUOUS
 70
0
 71
3
 72
11
 73
7
 74
0
 42
0.0000001
 43
0.0000001
 44
0.0000000001
 40
0.0
 40
0.0
 40
0.0
 40
0.0
 40
0.2649084401
 40
0.5224851686
 40
0.7677404522
 40
1.0
 40
1.0
 40
1.0
 40
1.0
 10
6.5030196207
 20
11.6499662588
 30
0.0
 10
6.5030203716
 20
11.6437700393
 30
0.0
 10
6.5038671155
 20
11.6315429939
 30
0.0
 10
6.5068614895
 20
11.6138209688
 30
0.0
 10
6.5107697954
 20
11.5970723334
 30
0.0
 10
6.5135279818
 20
11.5862493326
 30
0.0
 10
6.5147880017
 20
11.5809649155
 30
0.0
  0
SPLINE
  5
398
100
AcDbEntity
  8
0
100
AcDbSpline
 62
9
  6
CONTINUOUS
 70
0
 71
3
 72
15
 73
11
 74
0
 42
0.0000001
 43
0.0000001
 44
0.0000000001
 40
0.0
 40
0.0
 40
0.0
 40
0.0
 40
0.1569805085
 40
0.3059175892
 40
0.4459877616
 40
0.5763844006
 40
0.697001989
 40
0.807889265
 40
0.9089604476
 40
1.0
 40
1.0
 40
1.0
 40
1.0
 10
6.5147882862
 20
11.5809650195
 30
0.0
 10
6.5165924538
 20
11.5733983463
 30
0.0
 10
6.5207308712
 20
11.5587923017
 30
0.0
 10
6.5285524819
 20
11.5380957304
 30
0.0
 10
6.5375533323
 20
11.519333328
 30
0.0
 10
6.5474879622
 20
11.5026625797
 30
0.0
 10
6.5580736522
 20
11.4881544232
 30
0.0
 10
6.5690346905
 20
11.4758118513
 30
0.0
 10
6.5801040771
 20
11.4656306801
 30
0.0
 10
6.5877883418
 20
11.4599689326
 30
0.0
 10
6.5915847336
 20
11.4575319798
 30
0.0
  0
SPLINE
  5
399
100
AcDbEntity
  8
0
100
AcDbSpline
 62
7
  6
CONTINUOUS
 70
0
 71
3
 72
21
 73
17
 74
0
 42
0.0000001
 43
0.0000001
 44
0.0000000001
 40
0.0
 40
0.0
 40
0.0
 40
0.0
 40
0.1246853177
 40
0.1873118613
 40
0.2499099749
 40
0.3124082806
 40
0.3748459933
 40
0.4373588076
 40
0.4999663741
 40
0.5625889971
 40
0.6251341667
 40
0.6875827826
 40
0.7500517602
 40
0.8126243109
 40
0.8752529987
 40
1.0
 40
1.0
 40
1.0
 40
1.0
 10
15.9282437783
 20
11.3499665528
 30
0.0
 10
15.9282437783
 20
11.3470825479
 30
0.0
 10
15.9275769216
 20
11.3427197712
 30
0.0
 10
15.9255215365
 20
11.3373044551
 30
0.0
 10
15.9234224058
 20
11.333485584
 30
0.0
 10
15.9208040345
 20
11.3300081641
 30
0.0
 10
15.9176947654
 20
11.3269624664
 30
0.0
 10
15.9141662595
 20
11.3244122991
 30
0.0
 10
15.9103093397
 20
11.3223859583
 30
0.0
 10
15.9062063238
 20
11.3209183934
 30
0.0
 10
15.9019406887
 20
11.3200436478
 30
0.0
 10
15.8975948581
 20
11.319800777
 30
0.0
 10
15.8932625266
 20
11.3202191593
 30
0.0
 10
15.8890314274
 20
11.3212576865
 30
0.0
 10
15.8836534652
 20
11.3234118119
 30
0.0
 10
15.8799889541
 20
11.3258711895
 30
0.0
 10
15.8778588128
 20
11.3278175229
 30
0.0
  0
SPLINE
  5
39A
100
AcDbEntity
  8
0
100
AcDbSpline
 62
7
  6
CONTINUOUS
 70
0
 71
3
 72
21
 73
17
 74
0
 42
0.0000001
 43
0.0000001
 44
0.0000000001
 40
0.0
 40
0.0
 40
0.0
 40
0.0
 40
0.1246853177
 40
0.1873118613
 40
0.2499099749
 40
0.3124082806
 40
0.3748459933
 40
0.4373588076
 40
0.4999663741
 40
0.5625889971
 40
0.6251341666
 40
0.6875827826
 40
0.7500517602
 40
0.8126243109
 40
0.8752529987
 40
1.0
 40
1.0
 40
1.0
 40
1.0
 10
15.9282437783
 20
11.9499659648
 30
0.0
 10
15.9282437783
 20
11.9528499697
 30
0.0
 10
15.9275769216
 20
11.9572127465
 30
0.0
 10
15.9255215365
 20
11.9626280625
 30
0.0
 10
15.9234224058
 20
11.9664469336
 30
0.0
 10
15.9208040345
 20
11.9699243535
 30
0.0
 10
15.9176947654
 20
11.9729700512
 30
0.0
 10
15.9141662595
 20
11.9755202186
 30
0.0
 10
15.9103093397
 20
11.9775465594
 30
0.0
 10
15.9062063239
 20
11.9790141242
 30
0.0
 10
15.9019406887
 20
11.9798888698
 30
0.0
 10
15.8975948581
 20
11.9801317406
 30
0.0
 10
15.8932625266
 20
11.9797133583
 30
0.0
 10
15.8890314274
 20
11.9786748311
 30
0.0
 10
15.8836534652
 20
11.9765207057
 30
0.0
 10
15.8799889541
 20
11.9740613282
 30
0.0
 10
15.8778588128
 20
11.9721149948
 30
0.0
  0
SPLINE
  5
39B
100
AcDbEntity
  8
0
100
AcDbSpline
 62
7
  6
CONTINUOUS
 70
0
 71
3
 72
13
 73
9
 74
0
 42
0.0000001
 43
0.0000001
 44
0.0000000001
 40
0.0
 40
0.0
 40
0.0
 40
0.0
 40
0.2508113745
 40
0.5014602759
 40
0.7512533318
 40
0.8757375806
 40
0.9378905297
 40
1.0
 40
1.0
 40
1.0
 40
1.0
 10
15.4941562825
 20
11.8599998488
 30
0.0
 10
15.5210632642
 20
11.8672068654
 30
0.0
 10
15.5746473478
 20
11.8823999136
 30
0.0
 10
15.6548496724
 20
11.9053922555
 30
0.0
 10
15.7220134014
 20
11.9229613692
 30
0.0
 10
15.7693412216
 20
11.9334589784
 30
0.0
 10
15.7964484053
 20
11.9387941389
 30
0.0
 10
15.8100347
 20
11.9412232865
 30
0.0
 10
15.8168369222
 20
11.9423685765
 30
0.0
  0
SPLINE
  5
39C
100
AcDbEntity
  8
0
100
AcDbSpline
 62
7
  6
CONTINUOUS
 70
0
 71
3
 72
13
 73
9
 74
0
 42
0.0000001
 43
0.0000001
 44
0.0000000001
 40
0.0
 40
0.0
 40
0.0
 40
0.0
 40
0.2508114037
 40
0.5014602919
 40
0.7512533287
 40
0.875737576
 40
0.9378905268
 40
1.0
 40
1.0
 40
1.0
 40
1.0
 10
15.494162838
 20
11.4399309129
 30
0.0
 10
15.5210692578
 20
11.4327239785
 30
0.0
 10
15.5746522356
 20
11.4175311857
 30
0.0
 10
15.6548529418
 20
11.3945393642
 30
0.0
 10
15.7220153212
 20
11.3769706934
 30
0.0
 10
15.7693421847
 20
11.3664733412
 30
0.0
 10
15.7964488193
 20
11.3611383033
 30
0.0
 10
15.8100348382
 20
11.3587092079
 30
0.0
 10
15.8168369222
 20
11.3575639411
 30
0.0
  0
SPLINE
  5
39D
100
AcDbEntity
  8
0
100
AcDbSpline
 62
9
  6
CONTINUOUS
 70
0
 71
3
 72
12
 73
8
 74
0
 42
0.0000001
 43
0.0000001
 44
0.0000000001
 40
0.0
 40
0.0
 40
0.0
 40
0.0
 40
0.2334880914
 40
0.4847473257
 40
0.6141484635
 40
0.7444061046
 40
1.0
 40
1.0
 40
1.0
 40
1.0
 10
15.5798484728
 20
11.7189670357
 30
0.0
 10
15.5766406756
 20
11.7181038853
 30
0.0
 10
15.5699258882
 20
11.7165121764
 30
0.0
 10
15.5613175178
 20
11.714983156
 30
0.0
 10
15.5541069054
 20
11.7140528704
 30
0.0
 10
15.5468074066
 20
11.7133692713
 30
0.0
 10
15.5413158048
 20
11.7131390416
 30
0.0
 10
15.5376794042
 20
11.713137955
 30
0.0
  0
SPLINE
  5
39E
100
AcDbEntity
  8
0
100
AcDbSpline
 62
9
  6
CONTINUOUS
 70
0
 71
3
 72
11
 73
7
 74
0
 42
0.0000001
 43
0.0000001
 44
0.0000000001
 40
0.0
 40
0.0
 40
0.0
 40
0.0
 40
0.2241348215
 40
0.4713216756
 40
0.7345849009
 40
1.0
 40
1.0
 40
1.0
 40
1.0
 10
15.5798483076
 20
11.5809646053
 30
0.0
 10
15.5767643698
 20
11.5817944776
 30
0.0
 10
15.5702287958
 20
11.5833562502
 30
0.0
 10
15.5599210665
 20
11.5852110983
 30
0.0
 10
15.5489303455
 20
11.5864690635
 30
0.0
 10
15.5413955066
 20
11.5868060473
 30
0.0
 10
15.53761367
 20
11.5868052863
 30
0.0
  0
SPLINE
  5
39F
100
AcDbEntity
  8
0
100
AcDbSpline
 62
9
  6
CONTINUOUS
 70
0
 71
3
 72
11
 73
7
 74
0
 42
0.0000001
 43
0.0000001
 44
0.0000000001
 40
0.0
 40
0.0
 40
0.0
 40
0.0
 40
0.2322598293
 40
0.4775146721
 40
0.7350899287
 40
1.0
 40
1.0
 40
1.0
 40
1.0
 10
15.5798486303
 20
11.5809649282
 30
0.0
 10
15.5811086529
 20
11.5862493499
 30
0.0
 10
15.5838668089
 20
11.5970723517
 30
0.0
 10
15.5877750735
 20
11.6138209518
 30
0.0
 10
15.5907694969
 20
11.6315429564
 30
0.0
 10
15.5916162482
 20
11.6437700028
 30
0.0
 10
15.5916170072
 20
11.6499662588
 30
0.0
  0
SPLINE
  5
3A0
100
AcDbEntity
  8
0
100
AcDbSpline
 62
9
  6
CONTINUOUS
 70
0
 71
3
 72
15
 73
11
 74
0
 42
0.0000001
 43
0.0000001
 44
0.0000000001
 40
0.0
 40
0.0
 40
0.0
 40
0.0
 40
0.0911446091
 40
0.1922875433
 40
0.3032157051
 40
0.4238457672
 40
0.5542280927
 40
0.6942538309
 40
0.8431175492
 40
1.0
 40
1.0
 40
1.0
 40
1.0
 10
15.5032381194
 20
11.4576518475
 30
0.0
 10
15.5070280522
 20
11.4600960479
 30
0.0
 10
15.5146974662
 20
11.4657684411
 30
0.0
 10
15.5257434721
 20
11.4759576922
 30
0.0
 10
15.5366779866
 20
11.4882990664
 30
0.0
 10
15.5472358485
 20
11.5027966993
 30
0.0
 10
15.5571429672
 20
11.5194474222
 30
0.0
 10
15.566118822
 20
11.5381800871
 30
0.0
 10
15.5739193912
 20
11.55883789
 30
0.0
 10
15.5780480325
 20
11.5734143153
 30
0.0
 10
15.5798483913
 20
11.5809650176
 30
0.0
  0
SPLINE
  5
3A1
100
AcDbEntity
  8
0
100
AcDbSpline
 62
9
  6
CONTINUOUS
 70
0
 71
3
 72
11
 73
7
 74
0
 42
0.0000001
 43
0.0000001
 44
0.0000000001
 40
0.0
 40
0.0
 40
0.0
 40
0.0
 40
0.2649084736
 40
0.5224852163
 40
0.7677404875
 40
1.0
 40
1.0
 40
1.0
 40
1.0
 10
15.5916170996
 20
11.6499662589
 30
0.0
 10
15.5916163487
 20
11.6561624803
 30
0.0
 10
15.5907696046
 20
11.6683895292
 30
0.0
 10
15.5877752302
 20
11.6861115585
 30
0.0
 10
15.5838669239
 20
11.7028601964
 30
0.0
 10
15.5811087373
 20
11.7136831982
 30
0.0
 10
15.5798487174
 20
11.7189676155
 30
0.0
  0
SPLINE
  5
3A2
100
AcDbEntity
  8
0
100
AcDbSpline
 62
9
  6
CONTINUOUS
 70
0
 71
3
 72
15
 73
11
 74
0
 42
0.0000001
 43
0.0000001
 44
0.0000000001
 40
0.0
 40
0.0
 40
0.0
 40
0.0
 40
0.1569697877
 40
0.3058988366
 40
0.4459641669
 40
0.5763593069
 40
0.6969783388
 40
0.8078701219
 40
0.9089490907
 40
1.0
 40
1.0
 40
1.0
 40
1.0
 10
15.5798483889
 20
11.7189674976
 30
0.0
 10
15.5780446384
 20
11.7265324212
 30
0.0
 10
15.5739072934
 20
11.7411352206
 30
0.0
 10
15.5660879899
 20
11.7618275457
 30
0.0
 10
15.5570898773
 20
11.7805866937
 30
0.0
 10
15.5471582561
 20
11.7972552541
 30
0.0
 10
15.5365756094
 20
11.8117622646
 30
0.0
 10
15.5256174782
 20
11.8241047098
 30
0.0
 10
15.5145506645
 20
11.8342867675
 30
0.0
 10
15.5068680377
 20
11.8399496811
 30
0.0
 10
15.5030723601
 20
11.842387427
 30
0.0
  0
SPLINE
  5
3A3
100
AcDbEntity
  8
0
100
AcDbSpline
 62
9
  6
CONTINUOUS
 70
0
 71
3
 72
9
 73
5
 74
0
 42
0.0000001
 43
0.0000001
 44
0.0000000001
 40
0.0
 40
0.0
 40
0.0
 40
0.0
 40
0.4827218363
 40
1.0
 40
1.0
 40
1.0
 40
1.0
 10
11.8724871964
 20
11.059277737
 30
0.0
 10
11.8646997309
 20
11.0484029295
 30
0.0
 10
11.8478665678
 20
11.0263707799
 30
0.0
 10
11.8297720163
 20
11.0053619644
 30
0.0
 10
11.8201049173
 20
10.9947796884
 30
0.0
  0
SPLINE
  5
3A4
100
AcDbEntity
  8
0
100
AcDbSpline
 62
9
  6
CONTINUOUS
 70
0
 71
3
 72
14
 73
10
 74
0
 42
0.0000001
 43
0.0000001
 44
0.0000000001
 40
0.0
 40
0.0
 40
0.0
 40
0.0
 40
0.0950340459
 40
0.1968357913
 40
0.3059291415
 40
0.4231694994
 40
0.5496570426
 40
0.6868858665
 40
1.0
 40
1.0
 40
1.0
 40
1.0
 10
11.8201049173
 20
10.9947796884
 30
0.0
 10
11.8089688814
 20
10.9825894124
 30
0.0
 10
11.7850437105
 20
10.9581134304
 30
0.0
 10
11.7454112325
 20
10.9226385502
 30
0.0
 10
11.7003595611
 20
10.8876234768
 30
0.0
 10
11.6492980188
 20
10.8536097911
 30
0.0
 10
11.5915845542
 20
10.8210743886
 30
0.0
 10
11.50076601
 20
10.7785343325
 30
0.0
 10
11.4261041278
 20
10.7538227056
 30
0.0
 10
11.3734051613
 20
10.7403259787
 30
0.0
  0
SPLINE
  5
3A5
100
AcDbEntity
  8
0
100
AcDbSpline
 62
9
  6
CONTINUOUS
 70
0
 71
3
 72
29
 73
25
 74
0
 42
0.0000001
 43
0.0000001
 44
0.0000000001
 40
0.0
 40
0.0
 40
0.0
 40
0.0
 40
0.0095345311
 40
0.0196492143
 40
0.0307641045
 40
0.0431865499
 40
0.0571274101
 40
0.0727270084
 40
0.0900773941
 40
0.1092381726
 40
0.130238648
 40
0.1530670385
 40
0.1776952837
 40
0.2040873061
 40
0.2619873325
 40
0.3263951606
 40
0.3968478259
 40
0.4726898679
 40
0.5532169614
 40
0.6377211375
 40
0.7254706335
 40
0.8156477045
 40
0.907426482
 40
1.0
 40
1.0
 40
1.0
 40
1.0
 10
11.8940160692
 20
5.1657227083
 30
0.0
 10
11.8939298513
 20
5.1685598846
 30
0.0
 10
11.8930165181
 20
5.1744045953
 30
0.0
 10
11.8895640094
 20
5.1829562163
 30
0.0
 10
11.8840949324
 20
5.1914088746
 30
0.0
 10
11.8766600821
 20
5.199772808
 30
0.0
 10
11.8672849417
 20
5.2080648456
 30
0.0
 10
11.8559849011
 20
5.2162894281
 30
0.0
 10
11.8427734243
 20
5.224444472
 30
0.0
 10
11.8276667312
 20
5.2325217439
 30
0.0
 10
11.8106927459
 20
5.2405085341
 30
0.0
 10
11.7918951251
 20
5.2483956083
 30
0.0
 10
11.771325286
 20
5.2561680285
 30
0.0
 10
11.7406471298
 20
5.2666839304
 30
0.0
 10
11.6981932475
 20
5.2792978136
 30
0.0
 10
11.6425319089
 20
5.2933125846
 30
0.0
 10
11.5811922697
 20
5.3064884376
 30
0.0
 10
11.5147600484
 20
5.3186461012
 30
0.0
 10
11.4438815924
 20
5.329588207
 30
0.0
 10
11.3692246698
 20
5.3391170665
 30
0.0
 10
11.2914908129
 20
5.3470320816
 30
0.0
 10
11.2114137999
 20
5.3530517976
 30
0.0
 10
11.1297642725
 20
5.3568915044
 30
0.0
 10
11.0748780199
 20
5.3578066243
 30
0.0
 10
11.0473183383
 20
5.3578066243
 30
0.0
  0
SPLINE
  5
3A6
100
AcDbEntity
  8
0
100
AcDbSpline
 62
9
  6
CONTINUOUS
 70
0
 71
3
 72
27
 73
23
 74
0
 42
0.0000001
 43
0.0000001
 44
0.0000000001
 40
0.0
 40
0.0
 40
0.0
 40
0.0
 40
0.0311619741
 40
0.0623153283
 40
0.0934718257
 40
0.1246393865
 40
0.1558098039
 40
0.1869760394
 40
0.2181508906
 40
0.2493349808
 40
0.3117180139
 40
0.3741547123
 40
0.4366239855
 40
0.4991263287
 40
0.561676717
 40
0.6242355004
 40
0.686811795
 40
0.7494032815
 40
0.812035896
 40
0.8747077577
 40
0.9373807439
 40
1.0
 40
1.0
 40
1.0
 40
1.0
 10
10.1225773686
 20
2.6117227167
 30
0.0
 10
10.1205277142
 20
2.5979128933
 30
0.0
 10
10.1175629749
 20
2.5701142431
 30
0.0
 10
10.1166488885
 20
2.5281979329
 30
0.0
 10
10.1193526018
 20
2.486354284
 30
0.0
 10
10.1255358019
 20
2.4448784368
 30
0.0
 10
10.1350853199
 20
2.4040424101
 30
0.0
 10
10.1478808061
 20
2.3641041613
 30
0.0
 10
10.16372705
 20
2.3252700643
 30
0.0
 10
10.1886880074
 20
2.2752175738
 30
0.0
 10
10.2266034694
 20
2.2162160566
 30
0.0
 10
10.2807768053
 20
2.1518770937
 30
0.0
 10
10.3420728096
 20
2.0942428759
 30
0.0
 10
10.4091219192
 20
2.043386323
 30
0.0
 10
10.480745676
 20
1.9991764339
 30
0.0
 10
10.5559511836
 20
1.9613455421
 30
0.0
 10
10.6339882919
 20
1.9297477356
 30
0.0
 10
10.7142286217
 20
1.9041801006
 30
0.0
 10
10.7961470116
 20
1.8844942315
 30
0.0
 10
10.879259554
 20
1.8704995924
 30
0.0
 10
10.9631129278
 20
1.8621223768
 30
0.0
 10
11.0192638346
 20
1.8602644075
 30
0.0
 10
11.047318337
 20
1.8602639769
 30
0.0
  0
SPLINE
  5
3A7
100
AcDbEntity
  8
0
100
AcDbSpline
 62
9
  6
CONTINUOUS
 70
0
 71
3
 72
28
 73
24
 74
0
 42
0.0000001
 43
0.0000001
 44
0.0000000001
 40
0.0
 40
0.0
 40
0.0
 40
0.0
 40
0.0117997029
 40
0.0240428627
 40
0.0370665824
 40
0.0511476175
 40
0.0664977173
 40
0.0832655955
 40
0.1015544588
 40
0.1214345738
 40
0.1429477076
 40
0.1661072674
 40
0.2173379083
 40
0.274991057
 40
0.3387355883
 40
0.4081421566
 40
0.4826704257
 40
0.5617230047
 40
0.6446271124
 40
0.7306744022
 40
0.8191076421
 40
0.9091496987
 40
1.0
 40
1.0
 40
1.0
 40
1.0
 10
11.7972954024
 20
8.3446061889
 30
0.0
 10
11.7971991768
 20
8.3477718697
 30
0.0
 10
11.7963773421
 20
8.354218131
 30
0.0
 10
11.7933251399
 20
8.363737646
 30
0.0
 10
11.7884776731
 20
8.3731681579
 30
0.0
 10
11.7818635994
 20
8.3824871013
 30
0.0
 10
11.7735080629
 20
8.3916831393
 30
0.0
 10
11.7634388776
 20
8.4007479658
 30
0.0
 10
11.7516789694
 20
8.4096678584
 30
0.0
 10
11.7382516039
 20
8.4184248203
 30
0.0
 10
11.723185278
 20
8.4269997568
 30
0.0
 10
11.700175316
 20
8.4385599507
 30
0.0
 10
11.6674458239
 20
8.4522670766
 30
0.0
 10
11.623553603
 20
8.4671944048
 30
0.0
 10
11.5742063821
 20
8.4809776703
 30
0.0
 10
11.5198642015
 20
8.4934700486
 30
0.0
 10
11.4610350166
 20
8.5045609774
 30
0.0
 10
11.3982741929
 20
8.5141302719
 30
0.0
 10
11.3321758779
 20
8.5220950982
 30
0.0
 10
11.2633679029
 20
8.5283673835
 30
0.0
 10
11.1925038878
 20
8.532895886
 30
0.0
 10
11.1202586449
 20
8.5356269419
 30
0.0
 10
11.0717033495
 20
8.5362369708
 30
0.0
 10
11.0473183383
 20
8.5362369708
 30
0.0
  0
SPLINE
  5
3A8
100
AcDbEntity
  8
0
100
AcDbSpline
 62
9
  6
CONTINUOUS
 70
0
 71
3
 72
22
 73
18
 74
0
 42
0.0000001
 43
0.0000001
 44
0.0000000001
 40
0.0
 40
0.0
 40
0.0
 40
0.0
 40
0.0343738565
 40
0.0699551478
 40
0.1470274507
 40
0.1896610267
 40
0.2357513738
 40
0.285830582
 40
0.3404199794
 40
0.4000321833
 40
0.4651731341
 40
0.5363438902
 40
0.614042101
 40
0.6987631572
 40
0.7910010558
 40
0.8912490305
 40
1.0
 40
1.0
 40
1.0
 40
1.0
 10
11.8498125317
 20
10.9630556382
 30
0.0
 10
11.8417772402
 20
10.9353964685
 30
0.0
 10
11.8268299516
 20
10.8786878214
 30
0.0
 10
11.801219737
 20
10.7581406209
 30
0.0
 10
11.7830804556
 20
10.6291197968
 30
0.0
 10
11.7707419927
 20
10.4907360773
 30
0.0
 10
11.7638038214
 20
10.3746194745
 30
0.0
 10
11.7592825436
 20
10.2483673649
 30
0.0
 10
11.7569727027
 20
10.1107250806
 30
0.0
 10
11.7566727059
 20
9.9604458415
 30
0.0
 10
11.7581824578
 20
9.7962808013
 30
0.0
 10
11.7613033663
 20
9.616982397
 30
0.0
 10
11.765837736
 20
9.4213033909
 30
0.0
 10
11.7715884882
 20
9.2079970974
 30
0.0
 10
11.7783589286
 20
8.9758171986
 30
0.0
 10
11.7859525292
 20
8.7235176804
 30
0.0
 10
11.7912107168
 20
8.5484712681
 30
0.0
 10
11.7939100017
 20
8.4573861403
 30
0.0
  0
SPLINE
  5
3A9
100
AcDbEntity
  8
0
100
AcDbSpline
 62
9
  6
CONTINUOUS
 70
0
 71
3
 72
30
 73
26
 74
0
 42
0.0000001
 43
0.0000001
 44
0.0000000001
 40
0.0
 40
0.0
 40
0.0
 40
0.0
 40
0.0030908363
 40
0.0062760865
 40
0.0132947951
 40
0.0172952024
 40
0.0216863709
 40
0.0317672156
 40
0.04373122
 40
0.057676339
 40
0.0736548472
 40
0.0916932886
 40
0.1117975981
 40
0.1339381745
 40
0.158070386
 40
0.1841445281
 40
0.2419011704
 40
0.3067613376
 40
0.3782152312
 40
0.4555739371
 40
0.538091115
 40
0.6250111674
 40
0.7155512083
 40
0.8088345333
 40
1.0
 40
1.0
 40
1.0
 40
1.0
 10
11.9371439956
 20
3.6460340093
 30
0.0
 10
11.9371709555
 20
3.6450966717
 30
0.0
 10
11.9370375479
 20
3.6431829025
 30
0.0
 10
11.9359922954
 20
3.6392659088
 30
0.0
 10
11.933783254
 20
3.6354758446
 30
0.0
 10
11.9307455746
 20
3.6319189838
 30
0.0
 10
11.9266792042
 20
3.6280473837
 30
0.0
 10
11.9201661114
 20
3.6233146436
 30
0.0
 10
11.9106319333
 20
3.6179613725
 30
0.0
 10
11.8990468052
 20
3.6127080046
 30
0.0
 10
11.885423511
 20
3.6075732353
 30
0.0
 10
11.8697756479
 20
3.60257854
 30
0.0
 10
11.852131263
 20
3.5977484828
 30
0.0
 10
11.8325354463
 20
3.593093023
 30
0.0
 10
11.8110432138
 20
3.5886250102
 30
0.0
 10
11.7788199733
 20
3.5827338313
 30
0.0
 10
11.7341955955
 20
3.5760452438
 30
0.0
 10
11.6757075022
 20
3.5692056847
 30
0.0
 10
11.6111338405
 20
3.5634185887
 30
0.0
 10
11.5411088077
 20
3.5586518642
 30
0.0
 10
11.4663251272
 20
3.5548865352
 30
0.0
 10
11.3874975508
 20
3.5521006267
 30
0.0
 10
11.3053756196
 20
3.5502699306
 30
0.0
 10
11.191615978
 20
3.5488387988
 30
0.0
 10
11.1053158042
 20
3.5486502965
 30
0.0
 10
11.0473183383
 20
3.5486502965
 30
0.0
  0
SPLINE
  5
3AA
100
AcDbEntity
  8
0
100
AcDbSpline
 62
9
  6
CONTINUOUS
 70
0
 71
3
 72
29
 73
25
 74
0
 42
0.0000001
 43
0.0000001
 44
0.0000000001
 40
0.0
 40
0.0
 40
0.0
 40
0.0
 40
0.092573518
 40
0.1843522955
 40
0.2745293665
 40
0.3622788625
 40
0.4467830386
 40
0.5273101321
 40
0.6031521741
 40
0.6736048394
 40
0.7380126675
 40
0.7959126939
 40
0.8223047163
 40
0.8469329615
 40
0.869761352
 40
0.8907618274
 40
0.9099226059
 40
0.9272729916
 40
0.9428725899
 40
0.9568134501
 40
0.9692358955
 40
0.9803507857
 40
0.9904654689
 40
1.0
 40
1.0
 40
1.0
 40
1.0
 10
11.0473183383
 20
5.3578066243
 30
0.0
 10
11.0197586567
 20
5.3578066243
 30
0.0
 10
10.9648724041
 20
5.3568915044
 30
0.0
 10
10.8832228767
 20
5.3530517976
 30
0.0
 10
10.8031458636
 20
5.3470320816
 30
0.0
 10
10.7254120067
 20
5.3391170665
 30
0.0
 10
10.6507550841
 20
5.329588207
 30
0.0
 10
10.5798766281
 20
5.3186461012
 30
0.0
 10
10.5134444069
 20
5.3064884376
 30
0.0
 10
10.4521047677
 20
5.2933125846
 30
0.0
 10
10.3964434291
 20
5.2792978136
 30
0.0
 10
10.3539895467
 20
5.2666839304
 30
0.0
 10
10.3233113906
 20
5.2561680285
 30
0.0
 10
10.3027415515
 20
5.2483956083
 30
0.0
 10
10.2839439307
 20
5.2405085341
 30
0.0
 10
10.2669699454
 20
5.2325217439
 30
0.0
 10
10.2518632523
 20
5.224444472
 30
0.0
 10
10.2386517754
 20
5.2162894281
 30
0.0
 10
10.2273517349
 20
5.2080648456
 30
0.0
 10
10.2179765944
 20
5.199772808
 30
0.0
 10
10.2105417442
 20
5.1914088746
 30
0.0
 10
10.2050726672
 20
5.1829562163
 30
0.0
 10
10.2016201585
 20
5.1744045953
 30
0.0
 10
10.2007068252
 20
5.1685598846
 30
0.0
 10
10.2006206073
 20
5.1657227083
 30
0.0
  0
SPLINE
  5
3AB
100
AcDbEntity
  8
0
100
AcDbSpline
 62
9
  6
CONTINUOUS
 70
0
 71
3
 72
30
 73
26
 74
0
 42
0.0000001
 43
0.0000001
 44
0.0000000001
 40
0.0
 40
0.0
 40
0.0
 40
0.0
 40
0.1911654667
 40
0.2844487917
 40
0.3749888326
 40
0.461908885
 40
0.5444260629
 40
0.6217847688
 40
0.6932386624
 40
0.7580988296
 40
0.8158554719
 40
0.841929614
 40
0.8660618255
 40
0.8882024019
 40
0.9083067114
 40
0.9263451528
 40
0.942323661
 40
0.95626878
 40
0.9682327844
 40
0.9783136291
 40
0.9827047976
 40
0.9867052049
 40
0.9937239135
 40
0.9969091637
 40
1.0
 40
1.0
 40
1.0
 40
1.0
 10
11.0473183383
 20
3.5486502965
 30
0.0
 10
10.9893208724
 20
3.5486502965
 30
0.0
 10
10.9030206986
 20
3.5488387988
 30
0.0
 10
10.7892610569
 20
3.5502699306
 30
0.0
 10
10.7071391258
 20
3.5521006267
 30
0.0
 10
10.6283115493
 20
3.5548865352
 30
0.0
 10
10.5535278689
 20
3.5586518642
 30
0.0
 10
10.483502836
 20
3.5634185887
 30
0.0
 10
10.4189291743
 20
3.5692056847
 30
0.0
 10
10.360441081
 20
3.5760452438
 30
0.0
 10
10.3158167033
 20
3.5827338313
 30
0.0
 10
10.2835934628
 20
3.5886250102
 30
0.0
 10
10.2621012302
 20
3.593093023
 30
0.0
 10
10.2425054136
 20
3.5977484828
 30
0.0
 10
10.2248610287
 20
3.60257854
 30
0.0
 10
10.2092131656
 20
3.6075732353
 30
0.0
 10
10.1955898713
 20
3.6127080046
 30
0.0
 10
10.1840047432
 20
3.6179613725
 30
0.0
 10
10.1744705651
 20
3.6233146436
 30
0.0
 10
10.1679574724
 20
3.6280473837
 30
0.0
 10
10.163891102
 20
3.6319189838
 30
0.0
 10
10.1608534226
 20
3.6354758446
 30
0.0
 10
10.1586443812
 20
3.6392659088
 30
0.0
 10
10.1575991286
 20
3.6431829025
 30
0.0
 10
10.157465721
 20
3.6450966717
 30
0.0
 10
10.1574926809
 20
3.6460340093
 30
0.0
  0
SPLINE
  5
3AC
100
AcDbEntity
  8
0
100
AcDbSpline
 62
9
  6
CONTINUOUS
 70
0
 71
3
 72
22
 73
18
 74
0
 42
0.0000001
 43
0.0000001
 44
0.0000000001
 40
0.0
 40
0.0
 40
0.0
 40
0.0
 40
0.0343740267
 40
0.0699551047
 40
0.1470261501
 40
0.1896588503
 40
0.2357482626
 40
0.2858265535
 40
0.3404151246
 40
0.4000266644
 40
0.4651671819
 40
0.5363378027
 40
0.6140362423
 40
0.6987579569
 40
0.7909970082
 40
0.8912466949
 40
1.0
 40
1.0
 40
1.0
 40
1.0
 10
10.2448032457
 20
10.9631275714
 30
0.0
 10
10.2528399634
 20
10.9354679455
 30
0.0
 10
10.2677899838
 20
10.8787585915
 30
0.0
 10
10.2934051195
 20
10.7582105094
 30
0.0
 10
10.3115483074
 20
10.6291890071
 30
0.0
 10
10.3238896762
 20
10.4908047656
 30
0.0
 10
10.3308296903
 20
10.3746877524
 30
0.0
 10
10.3353524418
 20
10.2484348949
 30
0.0
 10
10.3376634239
 20
10.1107913307
 30
0.0
 10
10.3379642614
 20
9.960510086
 30
0.0
 10
10.336455082
 20
9.7963421202
 30
0.0
 10
10.3333345091
 20
9.6170396766
 30
0.0
 10
10.3288002691
 20
9.4213553237
 30
0.0
 10
10.3230494715
 20
9.2080421824
 30
0.0
 10
10.3162788409
 20
8.9758537414
 30
0.0
 10
10.308684936
 20
8.7235437932
 30
0.0
 10
10.3034265119
 20
8.5484897769
 30
0.0
 10
10.3007271004
 20
8.4574005001
 30
0.0
  0
SPLINE
  5
3AD
100
AcDbEntity
  8
0
100
AcDbSpline
 62
9
  6
CONTINUOUS
 70
0
 71
3
 72
27
 73
23
 74
0
 42
0.0000001
 43
0.0000001
 44
0.0000000001
 40
0.0
 40
0.0
 40
0.0
 40
0.0
 40
0.0625907686
 40
0.1252383532
 40
0.1878915614
 40
0.250514354
 40
0.3131008543
 40
0.3756828231
 40
0.4382443954
 40
0.5007837616
 40
0.5633079574
 40
0.6258027521
 40
0.6883040578
 40
0.7506973398
 40
0.7818941925
 40
0.8130769409
 40
0.8442450137
 40
0.8754133755
 40
0.9065774083
 40
0.9377260359
 40
0.9688623218
 40
1.0
 40
1.0
 40
1.0
 40
1.0
 10
11.047318337
 20
1.8602639769
 30
0.0
 10
11.0753197464
 20
1.8602642481
 30
0.0
 10
11.1313657121
 20
1.8621122317
 30
0.0
 10
11.2150681364
 20
1.8704541527
 30
0.0
 10
11.2980403598
 20
1.8844067361
 30
0.0
 10
11.3798319818
 20
1.904036272
 30
0.0
 10
11.4599653802
 20
1.9295247831
 30
0.0
 10
11.5379224691
 20
1.9609974869
 30
0.0
 10
11.6130716084
 20
1.9986710879
 30
0.0
 10
11.6846200751
 20
2.042784869
 30
0.0
 10
11.7516436084
 20
2.0934986378
 30
0.0
 10
11.8129797353
 20
2.1509833767
 30
0.0
 10
11.8672565422
 20
2.2151347921
 30
0.0
 10
11.9052590576
 20
2.2740084431
 30
0.0
 10
11.930292553
 20
2.3239494256
 30
0.0
 10
11.9462295058
 20
2.3626913115
 30
0.0
 10
11.9591310612
 20
2.4025356207
 30
0.0
 10
11.968790711
 20
2.4432821111
 30
0.0
 10
11.9750913363
 20
2.4846729449
 30
0.0
 10
11.9779383909
 20
2.5264329959
 30
0.0
 10
11.9771979384
 20
2.5682704015
 30
0.0
 10
11.9743394363
 20
2.5960214587
 30
0.0
 10
11.9723449796
 20
2.609808092
 30
0.0
  0
SPLINE
  5
3AE
100
AcDbEntity
  8
0
100
AcDbSpline
 62
9
  6
CONTINUOUS
 70
0
 71
3
 72
14
 73
10
 74
0
 42
0.0000001
 43
0.0000001
 44
0.0000000001
 40
0.0
 40
0.0
 40
0.0
 40
0.0
 40
0.3141144328
 40
0.4515090529
 40
0.5779751133
 40
0.6950544299
 40
0.803887133
 40
0.905354027
 40
1.0
 40
1.0
 40
1.0
 40
1.0
 10
10.7305195897
 20
10.7379874818
 30
0.0
 10
10.6766283033
 20
10.7513263473
 30
0.0
 10
10.6002856721
 20
10.7759734006
 30
0.0
 10
10.5074589792
 20
10.8187929988
 30
0.0
 10
10.4485862268
 20
10.8516011524
 30
0.0
 10
10.3965692823
 20
10.8859550059
 30
0.0
 10
10.3507368576
 20
10.9213574931
 30
0.0
 10
10.3104759069
 20
10.9572502161
 30
0.0
 10
10.2861964154
 20
10.9820298105
 30
0.0
 10
10.2749047406
 20
10.9943717929
 30
0.0
  0
SPLINE
  5
3AF
100
AcDbEntity
  8
0
100
AcDbSpline
 62
9
  6
CONTINUOUS
 70
0
 71
3
 72
9
 73
5
 74
0
 42
0.0000001
 43
0.0000001
 44
0.0000000001
 40
0.0
 40
0.0
 40
0.0
 40
0.0
 40
0.5173869582
 40
1.0
 40
1.0
 40
1.0
 40
1.0
 10
10.2749047406
 20
10.9943717929
 30
0.0
 10
10.26515927
 20
11.0050237491
 30
0.0
 10
10.2469250797
 20
11.0261711832
 30
0.0
 10
10.2299693039
 20
11.048356497
 30
0.0
 10
10.2221291627
 20
11.0593060892
 30
0.0
  0
SPLINE
  5
3B0
100
AcDbEntity
  8
0
100
AcDbSpline
 62
9
  6
CONTINUOUS
 70
0
 71
3
 72
28
 73
24
 74
0
 42
0.0000001
 43
0.0000001
 44
0.0000000001
 40
0.0
 40
0.0
 40
0.0
 40
0.0
 40
0.090850354
 40
0.1808924614
 40
0.2693257483
 40
0.3553730793
 40
0.4382772208
 40
0.5173298246
 40
0.591858108
 40
0.6612646791
 40
0.7250092009
 40
0.7826623275
 40
0.8338929343
 40
0.857052473
 40
0.8785655833
 40
0.8984456728
 40
0.9167345095
 40
0.933502361
 40
0.9488524349
 40
0.9629334469
 40
0.9759571486
 40
0.9882002978
 40
1.0
 40
1.0
 40
1.0
 40
1.0
 10
11.0473183383
 20
8.5362369708
 30
0.0
 10
11.0229333044
 20
8.5362369708
 30
0.0
 10
10.9743779641
 20
8.5356269408
 30
0.0
 10
10.9021326556
 20
8.5328958798
 30
0.0
 10
10.8312685786
 20
8.528367369
 30
0.0
 10
10.7624605475
 20
8.5220950723
 30
0.0
 10
10.6963621837
 20
8.5141302317
 30
0.0
 10
10.6336013203
 20
8.5045609204
 30
0.0
 10
10.5747721061
 20
8.4934699724
 30
0.0
 10
10.5204299081
 20
8.4809775732
 30
0.0
 10
10.4710826827
 20
8.4671942853
 30
0.0
 10
10.4271904711
 20
8.4522669339
 30
0.0
 10
10.3944609966
 20
8.4385597865
 30
0.0
 10
10.371451057
 20
8.4269995747
 30
0.0
 10
10.3563847527
 20
8.418424626
 30
0.0
 10
10.3429574125
 20
8.4096676521
 30
0.0
 10
10.3311975333
 20
8.4007477474
 30
0.0
 10
10.3211283807
 20
8.391682909
 30
0.0
 10
10.3127728807
 20
8.3824868592
 30
0.0
 10
10.3061588475
 20
8.3731679038
 30
0.0
 10
10.3013114252
 20
8.36373738
 30
0.0
 10
10.2982592717
 20
8.3542178536
 30
0.0
 10
10.2974374732
 20
8.3477715882
 30
0.0
 10
10.2973412656
 20
8.3446059059
 30
0.0
  0
ENDSEC
  0
SECTION
  2
OBJECTS
  0
DICTIONARY
  5
C
100
AcDbDictionary
280
0
281
1
  3
ACAD_GROUP
350
D
  3
ACAD_MLINESTYLE
350
17
  3
ACAD_LAYOUT
350
1A
  3
ACAD_PLOTSETTINGS
350
19
  3
ACAD_PLOTSTYLENAME
350
E
  0
DICTIONARY
  5
D
102
{ACAD_REACTORS
330
C
102
}
100
AcDbDictionary
280
0
281
1
  0
ACDBDICTIONARYWDFLT
  5
E
102
{ACAD_REACTORS
330
C
102
}
100
AcDbDictionary
281
1
  3
Normal
350
F
100
AcDbDictionaryWithDefault
340
F
  0
DICTIONARY
  5
17
102
{ACAD_REACTORS
330
C
102
}
100
AcDbDictionary
280
0
281
1
  3
Standard
350
18
  0
DICTIONARY
  5
19
102
{ACAD_REACTORS
330
C
102
}
100
AcDbDictionary
281
1
  0
DICTIONARY
  5
1A
102
{ACAD_REACTORS
330
C
102
}
100
AcDbDictionary
281
1
  3
Model
350
3B1
  3
Layout1
350
3B2
  0
ACDBPLACEHOLDER
  5
F
102
{ACAD_REACTORS
330
E
102
}
  0
MLINESTYLE
  5
18
102
{ACAD_REACTORS
330
17
102
}
100
AcDbMlineStyle
  2
STANDARD
 70
0
  3

 62
256
 51
90.0
 52
90.0
 71
2
 49
0.5
 62
256
  6
BYLAYER
 49
-0.5
 62
256
  6
BYLAYER
  0
LAYOUT
  5
3B1
102
{ACAD_REACTORS
330
1A
102
}
100
AcDbPlotSettings
  1

  2
none_device
  4
ANSI_C_(22.00_x_17.00_Inches)
  6

 40
0.0
 41
0.0
 42
0.0
 43
0.0
 44
558.8
 45
431.8
 46
0.0
 47
0.0
 48
0.0
 49
0.0
140
0.0
141
0.0
142
1.0
143
1.0
 70
1024
 72
0
 73
0
 74
0
  7

 75
0
147
1.0
148
0.0
149
0.0
100
AcDbLayout
  1
Model
 70
0
 71
0
 10
0.0
 20
0.0
 11
22.0
 21
17.0
 12
0.0
 22
0.0
 32
0.0
 14
0.0
 24
0.0
 34
0.0
 15
0.0
 25
0.0
 35
0.0
146
0.0
 13
0.0
 23
0.0
 33
0.0
 16
1.0
 26
0.0
 36
0.0
 17
0.0
 27
1.0
 37
0.0
 76
0
330
202
345
0
346
0
  0
LAYOUT
  5
3B2
102
{ACAD_REACTORS
330
1A
102
}
100
AcDbPlotSettings
  1

  2
none_device
  4
ANSI_C_(22.00_x_17.00_Inches)
  6

 40
0.0
 41
0.0
 42
0.0
 43
0.0
 44
558.8
 45
431.8
 46
0.0
 47
0.0
 48
0.0
 49
0.0
140
0.0
141
0.0
142
1.0
143
1.0
 70
0
 72
0
 73
0
 74
0
  7

 75
0
147
1.0
148
0.0
149
0.0
100
AcDbLayout
  1
Layout1
 70
0
 71
1
 10
0.0
 20
0.0
 11
22.0
 21
17.0
 12
0.0
 22
0.0
 32
0.0
 14
0.0
 24
0.0
 34
0.0
 15
0.0
 25
0.0
 35
0.0
146
0.0
 13
0.0
 23
0.0
 33
0.0
 16
1.0
 26
0.0
 36
0.0
 17
0.0
 27
1.0
 37
0.0
 76
0
330
203
345
0
346
0
  0
ENDSEC
  0
EOF
