999
DXF file: E:\BT Custom\CADOUTPUT\_TOP.dxf
999
Pro/ENGINEER 2018400 by Parametric Technology Corporation
  0
SECTION
  2
HEADER
  9
$ACADVER
  1
AC1018
  9
$DWGCODEPAGE
  3
ANSI_1252
  9
$EXTMAX
 10
22.0
 20
17.0
 30
0.0
  9
$EXTMIN
 10
0.0
 20
0.0
 30
0.0
  9
$LIMMIN
 10
0.0
 20
0.0
  9
$LIMMAX
 10
22.0
 20
17.0
  9
$VIEWCTR
 10
11.0
 20
8.5
  9
$VIEWSIZE
 40
17.0
  9
$CLAYER
  8
0
  9
$LTSCALE
 40
1.21
  9
$CELTYPE
  6
BYLAYER
  9
$DIMSCALE
 40
1.0
  9
$DIMASZ
 40
0.1
  9
$DIMEXO
 40
0.0625
  9
$DIMDLI
 40
0.836
  9
$DIMEXE
 40
0.125
  9
$DIMCEN
 40
0.198
  9
$DIMLFAC
 40
1.0
  9
$DIMBLK
  1
_FILLED
  9
$DIMALT
 70
1
  9
$DIMALTD
 70
2
  9
$DIMALTTD
 70
2
  9
$DIMALTF
 40
25.4
  9
$DIMTXT
 40
0.08
  9
$DIMTOL
 70
1
  9
$DIMLIM
 70
0
  9
$DIMTFAC
 40
1.0
  9
$DIMTP
 40
0.001
  9
$DIMTM
 40
0.001
  9
$DIMGAP
 40
0.09
  9
$DIMDSEP
 70
46
  9
$AUNITS
 70
0
  9
$PDMODE
 70
3
  9
$PDSIZE
 40
0.06
  9
$HANDSEED
  5
499
  9
$TILEMODE
 70
1
  9
$MEASUREMENT
 70
0
  9
$INSUNITS
 70
1
  0
ENDSEC
  0
SECTION
  2
CLASSES
  0
CLASS
  1
ACDBDICTIONARYWDFLT
  2
AcDbDictionaryWithDefault
  3
AutoCAD 2000
 90
0
 91
1
280
0
281
0
  0
CLASS
  1
ACDBPLACEHOLDER
  2
AcDbPlaceHolder
  3
AutoCAD 2000
 90
0
 91
1
280
0
281
0
  0
CLASS
  1
LAYOUT
  2
AcDbLayout
  3
AutoCAD 2000
 90
0
 91
0
280
0
281
0
  0
ENDSEC
  0
SECTION
  2
TABLES
  0
TABLE
  2
VPORT
  5
8
100
AcDbSymbolTable
 70
2
  0
VPORT
  5
1F4
100
AcDbSymbolTableRecord
100
AcDbViewportTableRecord
  2
*ACTIVE
 70
0
 10
0.0
 20
0.0
 11
1.0
 21
1.0
 12
11.0
 22
8.5
 13
0.0
 23
0.0
 14
1.0
 24
1.0
 15
0.0
 25
0.0
 16
0.0
 26
0.0
 36
1.0
 17
0.0
 27
0.0
 37
0.0
 40
17.0
 41
1.2941176471
 42
50.0
 43
0.0
 44
0.0
 50
0.0
 51
0.0
 71
0
 72
100
 73
1
 74
1
 75
0
 76
0
 77
0
 78
0
  0
ENDTAB
  0
TABLE
  2
LTYPE
  5
5
100
AcDbSymbolTable
 70
6
  0
LTYPE
  5
14
100
AcDbSymbolTableRecord
100
AcDbLinetypeTableRecord
  2
BYBLOCK
 70
0
  3

 72
65
 73
0
 40
0.0
  0
LTYPE
  5
15
100
AcDbSymbolTableRecord
100
AcDbLinetypeTableRecord
  2
BYLAYER
 70
0
  3

 72
65
 73
0
 40
0.0
  0
LTYPE
  5
16
100
AcDbSymbolTableRecord
100
AcDbLinetypeTableRecord
  2
CONTINUOUS
 70
64
  3
Solid line
 72
65
 73
0
 40
0.0
  0
LTYPE
  5
1F5
100
AcDbSymbolTableRecord
100
AcDbLinetypeTableRecord
  2
CENTER
 70
64
  3
____ _ ____ _ ____ _ ____ _ ____ _ ____ _ ____
 72
65
 73
4
 40
0.6
 49
0.375
 74
0
 49
-0.075
 74
0
 49
0.075
 74
0
 49
-0.075
 74
0
  0
LTYPE
  5
1F6
100
AcDbSymbolTableRecord
100
AcDbLinetypeTableRecord
  2
HIDDEN
 70
64
  3
- - - - - - - - - - - - - - - - - - - -
 72
65
 73
2
 40
0.2
 49
0.1
 74
0
 49
-0.1
 74
0
  0
LTYPE
  5
1F7
100
AcDbSymbolTableRecord
100
AcDbLinetypeTableRecord
  2
PHANTOM
 70
64
  3
_____ _ _ _____ _ _ _____ _ _ _____
 72
65
 73
6
 40
0.8
 49
0.45
 74
0
 49
-0.05
 74
0
 49
0.1
 74
0
 49
-0.05
 74
0
 49
0.1
 74
0
 49
-0.05
 74
0
  0
LTYPE
  5
1F8
100
AcDbSymbolTableRecord
100
AcDbLinetypeTableRecord
  2
DOT
 70
64
  3
. . . . . . . . . . . . . . . . . . . .
 72
65
 73
2
 40
0.2
 49
0.1
 74
0
 49
-0.1
 74
0
  0
LTYPE
  5
1F9
100
AcDbSymbolTableRecord
100
AcDbLinetypeTableRecord
  2
DASHED
 70
64
  3
- - - - - - - - - - - - - - - - - - - -
 72
65
 73
2
 40
0.2
 49
0.1
 74
0
 49
-0.1
 74
0
  0
ENDTAB
  0
TABLE
  2
LAYER
  5
2
100
AcDbSymbolTable
 70
36
  0
LAYER
  5
10
100
AcDbSymbolTableRecord
100
AcDbLayerTableRecord
  2
0
 70
0
 62
7
  6
CONTINUOUS
370
-3
390
F
  0
LAYER
  5
1FA
100
AcDbSymbolTableRecord
100
AcDbLayerTableRecord
  2
DEFAULT_1
 70
0
 62
7
  6
CENTER
370
-3
390
F
  0
LAYER
  5
1FB
100
AcDbSymbolTableRecord
100
AcDbLayerTableRecord
  2
DEFAULT_2
 70
0
 62
8
  6
HIDDEN
370
-3
390
F
  0
LAYER
  5
1FC
100
AcDbSymbolTableRecord
100
AcDbLayerTableRecord
  2
DEFAULT_3
 70
0
 62
7
  6
PHANTOM
370
-3
390
F
  0
LAYER
  5
1FD
100
AcDbSymbolTableRecord
100
AcDbLayerTableRecord
  2
ALL_FEATURES
 70
0
 62
7
  6
CONTINUOUS
370
-3
390
F
  0
LAYER
  5
1FE
100
AcDbSymbolTableRecord
100
AcDbLayerTableRecord
  2
AXES_FEATURES
 70
0
 62
7
  6
CONTINUOUS
370
-3
390
F
  0
LAYER
  5
1FF
100
AcDbSymbolTableRecord
100
AcDbLayerTableRecord
  2
DEFAULT_COORDINATE_SYSTEM
 70
0
 62
7
  6
CONTINUOUS
370
-3
390
F
  0
LAYER
  5
200
100
AcDbSymbolTableRecord
100
AcDbLayerTableRecord
  2
DEFAULT_DATUM_AXES
 70
0
 62
7
  6
CONTINUOUS
370
-3
390
F
  0
LAYER
  5
201
100
AcDbSymbolTableRecord
100
AcDbLayerTableRecord
  2
DEFAULT_DATUM_PLANES
 70
0
 62
7
  6
CONTINUOUS
370
-3
390
F
  0
LAYER
  5
202
100
AcDbSymbolTableRecord
100
AcDbLayerTableRecord
  2
DIMENSIONS
 70
0
 62
7
  6
CONTINUOUS
370
-3
390
F
  0
ENDTAB
  0
TABLE
  2
STYLE
  5
3
100
AcDbSymbolTable
 70
1
  0
STYLE
  5
11
100
AcDbSymbolTableRecord
100
AcDbTextStyleTableRecord
  2
STANDARD
 70
0
 40
0.0
 41
0.8
 50
0.0
 71
0
 42
0.2
  3
txt
  4

  0
STYLE
  5
203
100
AcDbSymbolTableRecord
100
AcDbTextStyleTableRecord
  2
TEXTSTYLE_1
 70
0
 40
0.0
 41
0.8
 50
0.0
 71
0
 42
0.2
  3
gdt
  4

  0
ENDTAB
  0
TABLE
  2
VIEW
  5
6
100
AcDbSymbolTable
 70
0
  0
ENDTAB
  0
TABLE
  2
UCS
  5
7
100
AcDbSymbolTable
 70
0
  0
ENDTAB
  0
TABLE
  2
APPID
  5
9
100
AcDbSymbolTable
 70
1
  0
APPID
  5
204
100
AcDbSymbolTableRecord
100
AcDbRegAppTableRecord
  2
ACAD
 70
0
  0
ENDTAB
  0
TABLE
  2
BLOCK_RECORD
  5
1
100
AcDbSymbolTable
 70
0
  0
BLOCK_RECORD
  5
205
100
AcDbSymbolTableRecord
100
AcDbBlockTableRecord
  2
*Model_Space
  0
BLOCK_RECORD
  5
206
100
AcDbSymbolTableRecord
100
AcDbBlockTableRecord
  2
*Paper_Space
  0
BLOCK_RECORD
  5
207
100
AcDbSymbolTableRecord
100
AcDbBlockTableRecord
  2
_FILLED
  0
ENDTAB
  0
TABLE
  2
DIMSTYLE
  5
A
100
AcDbSymbolTable
 70
1
100
AcDbDimStyleTable
 71
0
  0
DIMSTYLE
105
208
100
AcDbSymbolTableRecord
100
AcDbDimStyleTableRecord
  2
STANDARD
 70
0
  3

  4

 40
1.0
 41
0.1
 42
0.0625
 43
0.38
 44
0.125
 45
0.0
 46
0.0
 47
0.001
 48
0.001
140
0.08
141
0.09
142
0.0
143
25.4
144
1.0
145
0.0
146
1.0
147
0.09
 71
1.0
 72
0.0
 73
1
 74
1
 75
0
 76
0
 77
0
 78
4
 79
1
170
1
171
2
172
0
173
0
174
0
175
0
176
0
177
0
178
0
270
2
179
3
271
3
272
3
273
2
274
2
275
0
280
0
281
0
282
0
283
1
284
4
285
0
286
0
287
3
288
0
340
11
278
46
341
207
342
207
343
207
344
207
  0
ENDTAB
  0
ENDSEC
  0
SECTION
  2
BLOCKS
  0
BLOCK
  5
20
100
AcDbEntity
  8
0
100
AcDbBlockBegin
  2
*Model_Space
 70
0
 10
0.0
 20
0.0
 30
0.0
  3
*Model_Space
  1

  0
ENDBLK
  5
21
100
AcDbEntity
  8
0
100
AcDbBlockEnd
  0
BLOCK
  5
1C
100
AcDbEntity
  8
0
100
AcDbBlockBegin
  2
*Paper_Space
 70
0
 10
0.0
 20
0.0
 30
0.0
  3
*Paper_Space
  1

  0
ENDBLK
  5
1D
100
AcDbEntity
  8
0
100
AcDbBlockEnd
  0
BLOCK
  5
209
100
AcDbEntity
  8
0
100
AcDbBlockBegin
  2
_FILLED
 70
64
 10
0.0
 20
0.0
  3
_FILLED
  1

  0
SOLID
  5
20A
100
AcDbEntity
  8
0
  6
BYBLOCK
 62
0
100
AcDbTrace
 10
0.0
 20
0.0
 11
-1.0
 21
0.2
 12
-1.0
 22
-0.2
 13
-1.0
 23
-0.2
  0
ENDBLK
  5
20B
100
AcDbEntity
  8
0
  6
BYBLOCK
 62
0
100
AcDbBlockEnd
  0
ENDSEC
  0
SECTION
  2
ENTITIES
  0
LINE
  5
20C
100
AcDbEntity
  8
0
100
AcDbLine
 62
9
  6
CONTINUOUS
 10
-0.6110358692
 20
11.2609253079
 11
-0.6110358692
 21
12.039020546
  0
LINE
  5
20D
100
AcDbEntity
  8
0
100
AcDbLine
 62
7
  6
CONTINUOUS
 10
-0.5320725456
 20
11.2699729269
 11
-0.5320725456
 21
12.0299725529
  0
LINE
  5
20E
100
AcDbEntity
  8
0
100
AcDbLine
 62
7
  6
CONTINUOUS
 10
2.3044204746
 20
12.1624729269
 11
2.1330030899
 21
11.8655693073
  0
LWPOLYLINE
  5
20F
100
AcDbEntity
  8
0
100
AcDbPolyline
 62
7
  6
CONTINUOUS
 90
19
 70
0
 10
1.7193870476
 20
11.3499729269
 10
1.7196460716
 20
11.3461138827
 10
1.7204335159
 20
11.3422147836
 10
1.7217414267
 20
11.3384001188
 10
1.7235351551
 20
11.3347875257
 10
1.7257594497
 20
11.3314808777
 10
1.728378972
 20
11.3285307782
 10
1.7313824508
 20
11.3259602568
 10
1.7347257917
 20
11.3237959673
 10
1.7383398266
 20
11.3220763147
 10
1.7421498154
 20
11.3208370145
 10
1.7460722917
 20
11.320109713
 10
1.7500285807
 20
11.319917167
 10
1.7539758051
 20
11.3202674358
 10
1.7578783671
 20
11.3211480618
 10
1.7616611892
 20
11.3225412475
 10
1.7652241036
 20
11.3244111529
 10
1.7684732275
 20
11.3267055819
 10
1.7697723481
 20
11.3278241814
  0
LINE
  5
210
100
AcDbEntity
  8
0
100
AcDbLine
 62
7
  6
CONTINUOUS
 10
1.7193870476
 20
11.9499729269
 11
1.7193870476
 21
11.3499729269
  0
LINE
  5
211
100
AcDbEntity
  8
0
100
AcDbLine
 62
9
  6
CONTINUOUS
 10
1.7697722974
 20
11.3278241351
 11
1.7697722974
 21
11.9721217187
  0
LINE
  5
212
100
AcDbEntity
  8
0
100
AcDbLine
 62
9
  6
CONTINUOUS
 10
1.8307939512
 20
11.3575706172
 11
1.8307939512
 21
11.9423752366
  0
LINE
  5
213
100
AcDbEntity
  8
0
100
AcDbLine
 62
7
  6
CONTINUOUS
 10
2.8962045005
 20
11.1374729269
 11
3.1920965135
 21
11.6499729269
  0
LINE
  5
214
100
AcDbEntity
  8
0
100
AcDbLine
 62
7
  6
CONTINUOUS
 10
5.9216959655
 20
12.0857731861
 11
5.9302300026
 21
12.0987843722
  0
LINE
  5
215
100
AcDbEntity
  8
0
100
AcDbLine
 62
7
  6
CONTINUOUS
 10
5.9873580973
 20
12.1741190568
 11
5.9975843376
 21
12.1858470047
  0
LINE
  5
216
100
AcDbEntity
  8
0
100
AcDbLine
 62
7
  6
CONTINUOUS
 10
6.0245560324
 20
12.2147266381
 11
6.0355587764
 21
12.2257293821
  0
LINE
  5
217
100
AcDbEntity
  8
0
100
AcDbLine
 62
7
  6
CONTINUOUS
 10
6.0644384097
 20
12.2527010768
 11
6.0761663577
 21
12.2629273172
  0
LINE
  5
218
100
AcDbEntity
  8
0
100
AcDbLine
 62
7
  6
CONTINUOUS
 10
6.1068192795
 20
12.2878653187
 11
6.1192177502
 21
12.2972673759
  0
LINE
  5
219
100
AcDbEntity
  8
0
100
AcDbLine
 62
7
  6
CONTINUOUS
 10
5.8292834041
 20
11.8865239838
 11
5.8339906001
 21
11.9013551355
  0
LINE
  5
21A
100
AcDbEntity
  8
0
100
AcDbLine
 62
7
  6
CONTINUOUS
 10
5.8935375631
 20
11.2614979367
 11
5.9019907633
 21
11.2881317747
  0
LINE
  5
21B
100
AcDbEntity
  8
0
100
AcDbLine
 62
7
  6
CONTINUOUS
 10
6.2384713354
 20
12.3482946512
 11
6.2469245352
 21
12.3749284879
  0
LINE
  5
21C
100
AcDbEntity
  8
0
100
AcDbLine
 62
7
  6
CONTINUOUS
 10
5.8472236659
 20
11.9385894141
 11
5.8529320019
 21
11.9530647605
  0
LINE
  5
21D
100
AcDbEntity
  8
0
100
AcDbLine
 62
7
  6
CONTINUOUS
 10
5.8686747477
 20
11.3106355881
 11
5.8789257989
 21
11.3366304697
  0
LINE
  5
21E
100
AcDbEntity
  8
0
100
AcDbLine
 62
7
  6
CONTINUOUS
 10
6.2869700304
 20
12.3713596155
 11
6.2972210811
 21
12.3973544959
  0
LINE
  5
21F
100
AcDbEntity
  8
0
100
AcDbLine
 62
7
  6
CONTINUOUS
 10
5.8686751754
 20
11.9893091811
 11
5.8753580365
 21
12.0033612316
  0
LINE
  5
220
100
AcDbEntity
  8
0
100
AcDbLine
 62
7
  6
CONTINUOUS
 10
5.8472231652
 20
11.3613553869
 11
5.8592242723
 21
11.3865901119
  0
LINE
  5
221
100
AcDbEntity
  8
0
100
AcDbLine
 62
7
  6
CONTINUOUS
 10
6.3369296726
 20
12.3910611422
 11
6.3489307791
 21
12.416295866
  0
LINE
  5
222
100
AcDbEntity
  8
0
100
AcDbLine
 62
7
  6
CONTINUOUS
 10
5.8935379158
 20
12.0384468059
 11
5.9011641434
 21
12.0520100432
  0
LINE
  5
223
100
AcDbEntity
  8
0
100
AcDbLine
 62
7
  6
CONTINUOUS
 10
5.8292828328
 20
11.4134208538
 11
5.8429780411
 21
11.4377777664
  0
LINE
  5
224
100
AcDbEntity
  8
0
100
AcDbLine
 62
7
  6
CONTINUOUS
 10
6.3881173271
 20
12.4073073734
 11
6.4018125347
 21
12.4316642848
  0
LINE
  5
225
100
AcDbEntity
  8
0
100
AcDbLine
 62
7
  6
CONTINUOUS
 10
5.8149373965
 20
11.4665892357
 11
5.8302628526
 21
11.4899547726
  0
LINE
  5
226
100
AcDbEntity
  8
0
100
AcDbLine
 62
7
  6
CONTINUOUS
 10
6.4402943333
 20
12.4200225619
 11
6.4556197887
 21
12.4433880976
  0
LINE
  5
227
100
AcDbEntity
  8
0
100
AcDbLine
 62
7
  6
CONTINUOUS
 10
5.8042537414
 20
11.520612637
 11
5.821137991
 21
11.5428778574
  0
LINE
  5
228
100
AcDbEntity
  8
0
100
AcDbLine
 62
7
  6
CONTINUOUS
 10
6.4932174181
 20
12.4291474235
 11
6.5101016668
 21
12.4514126427
  0
LINE
  5
229
100
AcDbEntity
  8
0
100
AcDbLine
 62
7
  6
CONTINUOUS
 10
5.7972816797
 20
11.5752391757
 11
5.8156460006
 21
11.5963002688
  0
LINE
  5
22A
100
AcDbEntity
  8
0
100
AcDbLine
 62
7
  6
CONTINUOUS
 10
6.5466398295
 20
12.4346394139
 11
6.5650041494
 21
12.4557005059
  0
LINE
  5
22B
100
AcDbEntity
  8
0
100
AcDbLine
 62
7
  6
CONTINUOUS
 10
5.7940537184
 20
11.6302141577
 11
5.8138124876
 21
11.6499729269
  0
LINE
  5
22C
100
AcDbEntity
  8
0
100
AcDbLine
 62
7
  6
CONTINUOUS
 10
6.6003124876
 20
12.4364729269
 11
6.6200712601
 21
12.4562316994
  0
LINE
  5
22D
100
AcDbEntity
  8
0
100
AcDbLine
 62
7
  6
CONTINUOUS
 10
5.7945849075
 20
11.6852812642
 11
5.8156460006
 21
11.703645585
  0
LINE
  5
22E
100
AcDbEntity
  8
0
100
AcDbLine
 62
7
  6
CONTINUOUS
 10
6.6539851457
 20
12.4346394139
 11
6.6750462377
 21
12.4530037338
  0
LINE
  5
22F
100
AcDbEntity
  8
0
100
AcDbLine
 62
7
  6
CONTINUOUS
 10
5.7988727706
 20
11.7401837468
 11
5.821137991
 21
11.7570679964
  0
LINE
  5
230
100
AcDbEntity
  8
0
100
AcDbLine
 62
7
  6
CONTINUOUS
 10
6.7074075571
 20
12.4291474235
 11
6.7296727763
 21
12.4460316722
  0
LINE
  5
231
100
AcDbEntity
  8
0
100
AcDbLine
 62
7
  6
CONTINUOUS
 10
6.1515010423
 20
12.3200554118
 11
6.1645122284
 21
12.328589449
  0
LINE
  5
232
100
AcDbEntity
  8
0
100
AcDbLine
 62
7
  6
CONTINUOUS
 10
5.8068973157
 20
11.7946656251
 11
5.8302628526
 21
11.8099910812
  0
LINE
  5
233
100
AcDbEntity
  8
0
100
AcDbLine
 62
7
  6
CONTINUOUS
 10
6.7603306418
 20
12.4200225619
 11
6.7836961776
 21
12.4353480172
  0
LINE
  5
234
100
AcDbEntity
  8
0
100
AcDbLine
 62
7
  6
CONTINUOUS
 10
6.1982753713
 20
12.3491212711
 11
6.2118386086
 21
12.3567474987
  0
LINE
  5
235
100
AcDbEntity
  8
0
100
AcDbLine
 62
7
  6
CONTINUOUS
 10
5.8186211285
 20
11.8484728791
 11
5.8429780411
 21
11.8621680874
  0
LINE
  5
236
100
AcDbEntity
  8
0
100
AcDbLine
 62
7
  6
CONTINUOUS
 10
6.8125076481
 20
12.4073073734
 11
6.8368645595
 21
12.421002581
  0
LINE
  5
237
100
AcDbEntity
  8
0
100
AcDbLine
 62
7
  6
CONTINUOUS
 10
5.8339895473
 20
11.9013546348
 11
5.8592242723
 21
11.9133557419
  0
LINE
  5
238
100
AcDbEntity
  8
0
100
AcDbLine
 62
7
  6
CONTINUOUS
 10
6.8636953025
 20
12.3910611422
 11
6.8889300263
 21
12.4030622487
  0
LINE
  5
239
100
AcDbEntity
  8
0
100
AcDbLine
 62
7
  6
CONTINUOUS
 10
6.297220654
 20
12.3973534126
 11
6.3116960004
 21
12.4030617486
  0
LINE
  5
23A
100
AcDbEntity
  8
0
100
AcDbLine
 62
7
  6
CONTINUOUS
 10
5.8529309173
 20
11.9530643328
 11
5.8789257989
 21
11.9633153841
  0
LINE
  5
23B
100
AcDbEntity
  8
0
100
AcDbLine
 62
7
  6
CONTINUOUS
 10
6.9136549447
 20
12.3713596155
 11
6.939649825
 21
12.3816106663
  0
LINE
  5
23C
100
AcDbEntity
  8
0
100
AcDbLine
 62
7
  6
CONTINUOUS
 10
6.348930279
 20
12.4162948144
 11
6.3637614307
 21
12.4210020103
  0
LINE
  5
23D
100
AcDbEntity
  8
0
100
AcDbLine
 62
7
  6
CONTINUOUS
 10
5.7945857863
 20
11.6146638235
 11
5.7940545427
 21
11.6302149821
  0
LINE
  5
23E
100
AcDbEntity
  8
0
100
AcDbLine
 62
7
  6
CONTINUOUS
 10
5.8762719291
 20
9.2905376547
 11
5.8731236346
 21
9.1617450165
  0
LINE
  5
23F
100
AcDbEntity
  8
0
100
AcDbLine
 62
7
  6
CONTINUOUS
 10
5.8731236346
 20
9.1617450165
 11
5.8696944164
 21
9.0283414923
  0
LINE
  5
240
100
AcDbEntity
  8
0
100
AcDbLine
 62
7
  6
CONTINUOUS
 10
5.8696944164
 20
9.0283414923
 11
5.8659913837
 21
8.8897371702
  0
LINE
  5
241
100
AcDbEntity
  8
0
100
AcDbLine
 62
7
  6
CONTINUOUS
 10
5.7038963203
 20
3.4104672934
 11
5.7023031615
 21
3.3525934563
  0
LINE
  5
242
100
AcDbEntity
  8
0
100
AcDbLine
 62
7
  6
CONTINUOUS
 10
5.8659913837
 20
8.8897371702
 11
5.862007655
 21
8.7452883634
  0
LWPOLYLINE
  5
243
100
AcDbEntity
  8
0
100
AcDbPolyline
 62
7
  6
CONTINUOUS
 90
3
 70
0
 10
5.7374911084
 20
4.6101415886
 10
5.7159978374
 20
3.8397413973
 10
5.7104868262
 20
3.646040539
  0
LINE
  5
244
100
AcDbEntity
  8
0
100
AcDbLine
 62
7
  6
CONTINUOUS
 10
5.7023031615
 20
3.3525934563
 11
5.6976722026
 21
3.1860730865
  0
LWPOLYLINE
  5
245
100
AcDbEntity
  8
0
100
AcDbPolyline
 62
7
  6
CONTINUOUS
 90
3
 70
0
 10
5.7104868244
 20
3.6460404751
 10
5.7088418106
 20
3.5883077823
 10
5.7038963203
 20
3.4104672934
  0
LINE
  5
246
100
AcDbEntity
  8
0
100
AcDbLine
 62
7
  6
CONTINUOUS
 10
5.862007655
 20
8.7452883634
 11
5.85772644
 21
8.5945122079
  0
LINE
  5
247
100
AcDbEntity
  8
0
100
AcDbLine
 62
7
  6
CONTINUOUS
 10
5.6976722026
 20
3.1860730865
 11
5.6946643464
 21
3.081640291
  0
LINE
  5
248
100
AcDbEntity
  8
0
100
AcDbLine
 62
7
  6
CONTINUOUS
 10
5.85772644
 20
8.5945122079
 11
5.8530472534
 21
8.4347190166
  0
LWPOLYLINE
  5
249
100
AcDbEntity
  8
0
100
AcDbPolyline
 62
7
  6
CONTINUOUS
 90
4
 70
0
 10
5.7536146448
 20
5.1657256896
 10
5.7482141202
 20
4.9843757622
 10
5.7428285357
 20
4.7983634463
 10
5.7374911084
 20
4.6101415886
  0
LINE
  5
24A
100
AcDbEntity
  8
0
100
AcDbLine
 62
7
  6
CONTINUOUS
 10
5.7827569051
 20
6.125835705
 11
5.7536146397
 21
5.1657255214
  0
LINE
  5
24B
100
AcDbEntity
  8
0
100
AcDbLine
 62
7
  6
CONTINUOUS
 10
5.8530472534
 20
8.4347190166
 11
5.7827569051
 21
6.125835705
  0
LINE
  5
24C
100
AcDbEntity
  8
0
100
AcDbLine
 62
7
  6
CONTINUOUS
 10
5.6946643464
 20
3.081640291
 11
5.6917968531
 21
2.9868502139
  0
LWPOLYLINE
  5
24D
100
AcDbEntity
  8
0
100
AcDbPolyline
 62
7
  6
CONTINUOUS
 90
20
 70
0
 10
5.6917968531
 20
2.9868502139
 10
5.6891577688
 20
2.9051436545
 10
5.6879215659
 20
2.8690546316
 10
5.6867379981
 20
2.8359554595
 10
5.6856053045
 20
2.80570615
 10
5.6845220943
 20
2.7781701884
 10
5.6834869575
 20
2.7531951452
 10
5.6824991375
 20
2.7306328966
 10
5.6815584302
 20
2.7103484028
 10
5.6806652472
 20
2.6922194082
 10
5.6798207069
 20
2.6761353668
 10
5.6790261458
 20
2.6619785606
 10
5.6782845122
 20
2.6496486833
 10
5.6776001352
 20
2.6390613612
 10
5.6769790078
 20
2.630146974
 10
5.6764295569
 20
2.6228543975
 10
5.6759626327
 20
2.6171421065
 10
5.6755887698
 20
2.6129388009
 10
5.6753223071
 20
2.6101914441
 10
5.6752956806
 20
2.6099315034
  0
LINE
  5
24E
100
AcDbEntity
  8
0
100
AcDbLine
 62
7
  6
CONTINUOUS
 10
5.7940545427
 20
11.6697308718
 11
5.7945857863
 21
11.6852820304
  0
LINE
  5
24F
100
AcDbEntity
  8
0
100
AcDbLine
 62
7
  6
CONTINUOUS
 10
6.0245559925
 20
11.0852180506
 11
6.0255100017
 21
11.1131448798
  0
LINE
  5
250
100
AcDbEntity
  8
0
100
AcDbLine
 62
7
  6
CONTINUOUS
 10
6.0634844404
 20
12.2247754128
 11
6.0644384495
 21
12.2527022406
  0
LINE
  5
251
100
AcDbEntity
  8
0
100
AcDbLine
 62
7
  6
CONTINUOUS
 10
5.7972824459
 20
11.7247057994
 11
5.7988736996
 21
11.7401844513
  0
LINE
  5
252
100
AcDbEntity
  8
0
100
AcDbLine
 62
7
  6
CONTINUOUS
 10
5.9873579781
 20
11.1258256373
 11
5.9902155574
 21
11.1536222587
  0
LINE
  5
253
100
AcDbEntity
  8
0
100
AcDbLine
 62
7
  6
CONTINUOUS
 10
6.1039618194
 20
12.2600698571
 11
6.1068193985
 21
12.2878664771
  0
LINE
  5
254
100
AcDbEntity
  8
0
100
AcDbLine
 62
7
  6
CONTINUOUS
 10
5.8042544459
 20
11.7793322878
 11
5.8068982905
 21
11.7946662645
  0
LINE
  5
255
100
AcDbEntity
  8
0
100
AcDbLine
 62
7
  6
CONTINUOUS
 10
5.9530178405
 20
11.1688770406
 11
5.9577656667
 21
11.1964138536
  0
LINE
  5
256
100
AcDbEntity
  8
0
100
AcDbLine
 62
7
  6
CONTINUOUS
 10
6.1467534142
 20
12.2925197478
 11
6.1515012402
 21
12.3200565594
  0
LINE
  5
257
100
AcDbEntity
  8
0
100
AcDbLine
 62
7
  6
CONTINUOUS
 10
5.9216956894
 20
11.214171535
 11
5.9283116259
 21
11.2413201502
  0
LINE
  5
258
100
AcDbEntity
  8
0
100
AcDbLine
 62
7
  6
CONTINUOUS
 10
6.1916597109
 20
12.3219737886
 11
6.1982756472
 21
12.349122403
  0
LINE
  5
259
100
AcDbEntity
  8
0
100
AcDbLine
 62
7
  6
CONTINUOUS
 10
7.3319502274
 20
11.9893102657
 11
7.3216991762
 21
11.9633153841
  0
LINE
  5
25A
100
AcDbEntity
  8
0
100
AcDbLine
 62
7
  6
CONTINUOUS
 10
6.9136549447
 20
10.9285862383
 11
6.903403894
 21
10.902591358
  0
LINE
  5
25B
100
AcDbEntity
  8
0
100
AcDbLine
 62
7
  6
CONTINUOUS
 10
7.3534018099
 20
11.938590467
 11
7.3414007028
 21
11.9133557419
  0
LINE
  5
25C
100
AcDbEntity
  8
0
100
AcDbLine
 62
7
  6
CONTINUOUS
 10
6.8636953025
 20
10.9088847117
 11
6.851694196
 21
10.8836499879
  0
LINE
  5
25D
100
AcDbEntity
  8
0
100
AcDbLine
 62
7
  6
CONTINUOUS
 10
7.3713421424
 20
11.886525
 11
7.3576469341
 21
11.8621680874
  0
LINE
  5
25E
100
AcDbEntity
  8
0
100
AcDbLine
 62
7
  6
CONTINUOUS
 10
6.8125076481
 20
10.8926384804
 11
6.7988124405
 21
10.868281569
  0
LINE
  5
25F
100
AcDbEntity
  8
0
100
AcDbLine
 62
7
  6
CONTINUOUS
 10
7.3070870594
 20
11.2614990479
 11
7.2994608317
 21
11.2479358107
  0
LINE
  5
260
100
AcDbEntity
  8
0
100
AcDbLine
 62
7
  6
CONTINUOUS
 10
7.3856875787
 20
11.8333566181
 11
7.3703621225
 21
11.8099910812
  0
LINE
  5
261
100
AcDbEntity
  8
0
100
AcDbLine
 62
7
  6
CONTINUOUS
 10
6.7603306418
 20
10.879923292
 11
6.7450051865
 21
10.8565577562
  0
LINE
  5
262
100
AcDbEntity
  8
0
100
AcDbLine
 62
7
  6
CONTINUOUS
 10
7.2789290097
 20
11.2141726677
 11
7.2703949725
 21
11.2011614817
  0
LINE
  5
263
100
AcDbEntity
  8
0
100
AcDbLine
 62
7
  6
CONTINUOUS
 10
7.3963712337
 20
11.7793332168
 11
7.3794869841
 21
11.7570679964
  0
LINE
  5
264
100
AcDbEntity
  8
0
100
AcDbLine
 62
7
  6
CONTINUOUS
 10
6.7074075571
 20
10.8707984304
 11
6.6905233084
 21
10.8485332111
  0
LINE
  5
265
100
AcDbEntity
  8
0
100
AcDbLine
 62
7
  6
CONTINUOUS
 10
7.4033432954
 20
11.7247066781
 11
7.3849789745
 21
11.703645585
  0
LINE
  5
266
100
AcDbEntity
  8
0
100
AcDbLine
 62
7
  6
CONTINUOUS
 10
6.6539851457
 20
10.8653064399
 11
6.6356208257
 21
10.8442453479
  0
LINE
  5
267
100
AcDbEntity
  8
0
100
AcDbLine
 62
7
  6
CONTINUOUS
 10
7.2132668778
 20
11.125826797
 11
7.2030406375
 21
11.1140988491
  0
LINE
  5
268
100
AcDbEntity
  8
0
100
AcDbLine
 62
7
  6
CONTINUOUS
 10
7.4065712568
 20
11.6697316961
 11
7.3868124876
 21
11.6499729269
  0
LINE
  5
269
100
AcDbEntity
  8
0
100
AcDbLine
 62
7
  6
CONTINUOUS
 10
6.6003124876
 20
10.8634729269
 11
6.5805537151
 21
10.8437141544
  0
LINE
  5
26A
100
AcDbEntity
  8
0
100
AcDbLine
 62
7
  6
CONTINUOUS
 10
7.1760689428
 20
11.0852192158
 11
7.1650661987
 21
11.0742164717
  0
LINE
  5
26B
100
AcDbEntity
  8
0
100
AcDbLine
 62
7
  6
CONTINUOUS
 10
7.4060400676
 20
11.6146645897
 11
7.3849789745
 21
11.5963002688
  0
LINE
  5
26C
100
AcDbEntity
  8
0
100
AcDbLine
 62
7
  6
CONTINUOUS
 10
6.5466398295
 20
10.8653064399
 11
6.5255787375
 21
10.84694212
  0
LINE
  5
26D
100
AcDbEntity
  8
0
100
AcDbLine
 62
7
  6
CONTINUOUS
 10
7.1361865654
 20
11.047244777
 11
7.1244586175
 21
11.0370185367
  0
LINE
  5
26E
100
AcDbEntity
  8
0
100
AcDbLine
 62
7
  6
CONTINUOUS
 10
7.4017522045
 20
11.559762107
 11
7.3794869841
 21
11.5428778574
  0
LINE
  5
26F
100
AcDbEntity
  8
0
100
AcDbLine
 62
7
  6
CONTINUOUS
 10
6.4932174181
 20
10.8707984304
 11
6.4709521988
 21
10.8539141816
  0
LINE
  5
270
100
AcDbEntity
  8
0
100
AcDbLine
 62
7
  6
CONTINUOUS
 10
7.0938056957
 20
11.0120805351
 11
7.081407225
 21
11.002678478
  0
LINE
  5
271
100
AcDbEntity
  8
0
100
AcDbLine
 62
7
  6
CONTINUOUS
 10
7.3937276595
 20
11.5052802288
 11
7.3703621225
 21
11.4899547726
  0
LINE
  5
272
100
AcDbEntity
  8
0
100
AcDbLine
 62
7
  6
CONTINUOUS
 10
6.4402943333
 20
10.879923292
 11
6.4169287975
 21
10.8645978366
  0
LINE
  5
273
100
AcDbEntity
  8
0
100
AcDbLine
 62
7
  6
CONTINUOUS
 10
7.0491239328
 20
10.979890442
 11
7.0361127468
 21
10.9713564048
  0
LINE
  5
274
100
AcDbEntity
  8
0
100
AcDbLine
 62
7
  6
CONTINUOUS
 10
7.3820038467
 20
11.4514729747
 11
7.3576469341
 21
11.4377777664
  0
LINE
  5
275
100
AcDbEntity
  8
0
100
AcDbLine
 62
7
  6
CONTINUOUS
 10
6.3881173271
 20
10.8926384804
 11
6.3637604157
 21
10.8789432728
  0
LINE
  5
276
100
AcDbEntity
  8
0
100
AcDbLine
 62
7
  6
CONTINUOUS
 10
7.3666354279
 20
11.3985912191
 11
7.3414007028
 21
11.3865901119
  0
LINE
  5
277
100
AcDbEntity
  8
0
100
AcDbLine
 62
7
  6
CONTINUOUS
 10
6.3369296726
 20
10.9088847117
 11
6.3116949488
 21
10.8968836051
  0
LINE
  5
278
100
AcDbEntity
  8
0
100
AcDbLine
 62
7
  6
CONTINUOUS
 10
5.8753569253
 20
12.0033608789
 11
5.9019907633
 21
12.0118140791
  0
LINE
  5
279
100
AcDbEntity
  8
0
100
AcDbLine
 62
7
  6
CONTINUOUS
 10
6.9621536397
 20
12.3482946512
 11
6.9887874764
 21
12.356747851
  0
LWPOLYLINE
  5
27A
100
AcDbEntity
  8
0
100
AcDbPolyline
 62
7
  6
CONTINUOUS
 90
30
 70
0
 10
6.6003124872
 20
1.8601796336
 10
6.6644632036
 20
1.8618078709
 10
6.7301511642
 20
1.8668515103
 10
6.7947956153
 20
1.8752034752
 10
6.8579986596
 20
1.8867360461
 10
6.9193648567
 20
1.9013031312
 10
6.978506333
 20
1.9187302143
 10
7.0350553002
 20
1.9387836867
 10
7.088703536
 20
1.9611618019
 10
7.139193531
 20
1.9855489331
 10
7.1863322199
 20
2.0116279738
 10
7.2301064192
 20
2.0391664563
 10
7.270545438
 20
2.067976251
 10
7.3076959985
 20
2.0978639956
 10
7.3416156775
 20
2.1286154406
 10
7.3723744441
 20
2.1600342015
 10
7.4000594845
 20
2.1919523626
 10
7.4247855308
 20
2.2242574514
 10
7.4466615888
 20
2.2568679537
 10
7.4657848916
 20
2.2897119117
 10
7.4822519066
 20
2.3227319994
 10
7.4961710468
 20
2.3558713325
 10
7.5076393653
 20
2.3890926052
 10
7.5167329437
 20
2.4223716646
 10
7.523499979
 20
2.4556402273
 10
7.5279807192
 20
2.4888087904
 10
7.5302180397
 20
2.5218798215
 10
7.5302303049
 20
2.5549296089
 10
7.5280194552
 20
2.588036795
 10
7.5253725682
 20
2.6088170642
  0
LINE
  5
27B
100
AcDbEntity
  8
0
100
AcDbLine
 62
7
  6
CONTINUOUS
 10
2.1330030899
 20
11.4343765466
 11
2.3044204746
 21
11.1374729269
  0
LINE
  5
27C
100
AcDbEntity
  8
0
100
AcDbLine
 62
7
  6
CONTINUOUS
 10
5.7988736996
 20
11.5597614025
 11
5.7972824459
 21
11.5752400545
  0
LINE
  5
27D
100
AcDbEntity
  8
0
100
AcDbLine
 62
7
  6
CONTINUOUS
 10
6.1068193987
 20
11.0120793754
 11
6.1039618194
 21
11.0398759968
  0
LINE
  5
27E
100
AcDbEntity
  8
0
100
AcDbLine
 62
7
  6
CONTINUOUS
 10
5.9902155574
 20
12.1463235951
 11
5.9873579783
 21
12.1741202151
  0
LINE
  5
27F
100
AcDbEntity
  8
0
100
AcDbLine
 62
7
  6
CONTINUOUS
 10
6.0644384495
 20
11.0472436118
 11
6.0634844404
 21
11.075170441
  0
LINE
  5
280
100
AcDbEntity
  8
0
100
AcDbLine
 62
7
  6
CONTINUOUS
 10
6.0255100017
 20
12.1868009741
 11
6.0245559926
 21
12.2147278018
  0
LINE
  5
281
100
AcDbEntity
  8
0
100
AcDbLine
 62
9
  6
CONTINUOUS
 10
6.6003124872
 20
1.8601796336
 11
6.6003124876
 21
10.6820416769
  0
LINE
  5
282
100
AcDbEntity
  8
0
100
AcDbLine
 62
7
  6
CONTINUOUS
 10
7.213266997
 20
12.1741202165
 11
7.2104094177
 21
12.1463235951
  0
LINE
  5
283
100
AcDbEntity
  8
0
100
AcDbLine
 62
7
  6
CONTINUOUS
 10
7.0966631558
 20
11.0398759968
 11
7.0938055766
 21
11.0120793768
  0
LWPOLYLINE
  5
284
100
AcDbEntity
  8
0
100
AcDbPolyline
 62
7
  6
CONTINUOUS
 90
30
 70
0
 10
5.6753593312
 20
2.6099235229
 10
5.6725666063
 20
2.5876492407
 10
5.6703816927
 20
2.5545237085
 10
5.6704218113
 20
2.5214531493
 10
5.6726887316
 20
2.4883700301
 10
5.6771992929
 20
2.4552020793
 10
5.6839932071
 20
2.4219471615
 10
5.6931106251
 20
2.3886886427
 10
5.7045993634
 20
2.3554907978
 10
5.7185356178
 20
2.3223783536
 10
5.7350149102
 20
2.2893882897
 10
5.7541432049
 20
2.2565797197
 10
5.7760186829
 20
2.2240081321
 10
5.8007386956
 20
2.1917398876
 10
5.8284182822
 20
2.1598521521
 10
5.8591773433
 20
2.1284538228
 10
5.893102779
 20
2.0977154882
 10
5.9302636408
 20
2.0678369484
 10
5.970714474
 20
2.039035205
 10
6.0144979362
 20
2.0115068465
 10
6.0616384567
 20
1.9854418504
 10
6.1121193415
 20
1.9610729436
 10
6.1657522628
 20
1.9387130139
 10
6.2222872107
 20
1.9186755872
 10
6.2814201578
 20
1.9012611842
 10
6.3427816319
 20
1.886703124
 10
6.4059858465
 20
1.8751792426
 10
6.4706362708
 20
1.86683485
 10
6.536337728
 20
1.8617988381
 10
6.6003124872
 20
1.8601796336
  0
LINE
  5
285
100
AcDbEntity
  8
0
100
AcDbLine
 62
7
  6
CONTINUOUS
 10
7.2476071346
 20
12.1310688132
 11
7.2428593084
 21
12.1035320003
  0
LINE
  5
286
100
AcDbEntity
  8
0
100
AcDbLine
 62
7
  6
CONTINUOUS
 10
7.0538715609
 20
11.0074261061
 11
7.049123735
 21
10.9798892945
  0
LINE
  5
287
100
AcDbEntity
  8
0
100
AcDbLine
 62
7
  6
CONTINUOUS
 10
7.3963705293
 20
11.520613566
 11
7.3937266846
 21
11.5052795894
  0
LINE
  5
288
100
AcDbEntity
  8
0
100
AcDbLine
 62
7
  6
CONTINUOUS
 10
7.2789292857
 20
12.0857743188
 11
7.2723133492
 21
12.0586257036
  0
LINE
  5
289
100
AcDbEntity
  8
0
100
AcDbLine
 62
7
  6
CONTINUOUS
 10
7.0089652643
 20
10.9779720652
 11
7.002349328
 21
10.9508234508
  0
LWPOLYLINE
  5
28A
100
AcDbEntity
  8
0
100
AcDbPolyline
 62
7
  6
CONTINUOUS
 90
15
 70
0
 10
7.4032068799
 20
10.9644377576
 10
7.4065805706
 20
10.9758404294
 10
7.4112536763
 20
10.991082746
 10
7.4156565245
 20
11.0048927567
 10
7.4198104496
 20
11.0174603327
 10
7.423736838
 20
11.0289464228
 10
7.4274592044
 20
11.0394951313
 10
7.430995836
 20
11.0492174458
 10
7.4343497226
 20
11.0581700759
 10
7.437512724
 20
11.0663738684
 10
7.4404656468
 20
11.0738189746
 10
7.44318201
 20
11.0804782395
 10
7.4456338136
 20
11.0863233825
 10
7.4477889631
 20
11.0913197193
 10
7.449321981
 20
11.0947755492
  0
LINE
  5
28B
100
AcDbEntity
  8
0
100
AcDbLine
 62
7
  6
CONTINUOUS
 10
7.3070874121
 20
12.0384479171
 11
7.2986342118
 21
12.0118140791
  0
LINE
  5
28C
100
AcDbEntity
  8
0
100
AcDbLine
 62
7
  6
CONTINUOUS
 10
6.9621536397
 20
10.9516512026
 11
6.95370044
 21
10.925017366
  0
LINE
  5
28D
100
AcDbEntity
  8
0
100
AcDbLine
 62
7
  6
CONTINUOUS
 10
7.371341571
 20
11.41342187
 11
7.366634375
 21
11.3985907184
  0
LINE
  5
28E
100
AcDbEntity
  8
0
100
AcDbLine
 62
7
  6
CONTINUOUS
 10
7.3534013092
 20
11.3613564397
 11
7.3476929733
 21
11.3468810933
  0
LINE
  5
28F
100
AcDbEntity
  8
0
100
AcDbLine
 62
7
  6
CONTINUOUS
 10
7.3319497997
 20
11.3106366727
 11
7.3252669386
 21
11.2965846223
  0
LINE
  5
290
100
AcDbEntity
  8
0
100
AcDbLine
 62
7
  6
CONTINUOUS
 10
7.425690863
 20
11.0595771577
 11
7.425483457
 21
11.0592873494
  0
LINE
  5
291
100
AcDbEntity
  8
0
100
AcDbLine
 62
7
  6
CONTINUOUS
 10
7.0023496038
 20
10.9508245827
 11
6.9887863666
 21
10.9431983551
  0
LINE
  5
292
100
AcDbEntity
  8
0
100
AcDbLine
 62
7
  6
CONTINUOUS
 10
7.3476940578
 20
11.346881521
 11
7.3216991762
 21
11.3366304697
  0
LINE
  5
293
100
AcDbEntity
  8
0
100
AcDbLine
 62
7
  6
CONTINUOUS
 10
6.2869700304
 20
10.9285862383
 11
6.2609751501
 21
10.9183351876
  0
LINE
  5
294
100
AcDbEntity
  8
0
100
AcDbLine
 62
7
  6
CONTINUOUS
 10
6.9034043212
 20
10.9025924412
 11
6.8889289748
 21
10.8968841052
  0
LINE
  5
295
100
AcDbEntity
  8
0
100
AcDbLine
 62
7
  6
CONTINUOUS
 10
7.3252680499
 20
11.296584975
 11
7.2986342118
 21
11.2881317747
  0
LINE
  5
296
100
AcDbEntity
  8
0
100
AcDbLine
 62
7
  6
CONTINUOUS
 10
6.2384713354
 20
10.9516512026
 11
6.2118374987
 21
10.9431980028
  0
LINE
  5
297
100
AcDbEntity
  8
0
100
AcDbLine
 62
7
  6
CONTINUOUS
 10
6.8516946961
 20
10.8836510394
 11
6.8368635445
 21
10.8789438435
  0
LINE
  5
298
100
AcDbEntity
  8
0
100
AcDbLine
 62
7
  6
CONTINUOUS
 10
3.1920965135
 20
11.6499729269
 11
2.8962045005
 21
12.1624729269
  0
LINE
  5
299
100
AcDbEntity
  8
0
100
AcDbLine
 62
7
  6
CONTINUOUS
 10
5.8068982905
 20
11.5052795894
 11
5.8042544459
 21
11.520613566
  0
LINE
  5
29A
100
AcDbEntity
  8
0
100
AcDbLine
 62
7
  6
CONTINUOUS
 10
6.1515012404
 20
10.9798892931
 11
6.1467534142
 21
11.0074261061
  0
LINE
  5
29B
100
AcDbEntity
  8
0
100
AcDbLine
 62
7
  6
CONTINUOUS
 10
5.9577656667
 20
12.1035320003
 11
5.9530178408
 21
12.1310688118
  0
LINE
  5
29C
100
AcDbEntity
  8
0
100
AcDbLine
 62
7
  6
CONTINUOUS
 10
7.0938055765
 20
12.2878664785
 11
7.0966631558
 21
12.2600698571
  0
LINE
  5
29D
100
AcDbEntity
  8
0
100
AcDbLine
 62
7
  6
CONTINUOUS
 10
7.2104094177
 20
11.1536222587
 11
7.2132669969
 21
11.1258256387
  0
LWPOLYLINE
  5
29E
100
AcDbEntity
  8
0
100
AcDbPolyline
 62
7
  6
CONTINUOUS
 90
16
 70
0
 10
7.5250362053
 20
2.6129388009
 10
7.5246623424
 20
2.6171421065
 10
7.5241954183
 20
2.6228543975
 10
7.5236459673
 20
2.630146974
 10
7.5230248399
 20
2.6390613612
 10
7.5223404629
 20
2.6496486833
 10
7.5215988293
 20
2.6619785606
 10
7.5208042683
 20
2.6761353668
 10
7.519959728
 20
2.6922194082
 10
7.5190665449
 20
2.7103484028
 10
7.5181258377
 20
2.7306328966
 10
7.5171380177
 20
2.7531951452
 10
7.5161028809
 20
2.7781701884
 10
7.5150196706
 20
2.80570615
 10
7.513886977
 20
2.8359554595
 10
7.5127034092
 20
2.8690546316
  0
LINE
  5
29F
100
AcDbEntity
  8
0
100
AcDbLine
 62
7
  6
CONTINUOUS
 10
7.1361865256
 20
12.252702242
 11
7.1371405347
 21
12.2247754128
  0
LINE
  5
2A0
100
AcDbEntity
  8
0
100
AcDbLine
 62
7
  6
CONTINUOUS
 10
7.1751149735
 20
11.1131448798
 11
7.1760689825
 21
11.085218052
  0
LINE
  5
2A1
100
AcDbEntity
  8
0
100
AcDbLine
 62
7
  6
CONTINUOUS
 10
7.4060391889
 20
11.6852820304
 11
7.4065704324
 21
11.6697308718
  0
LINE
  5
2A2
100
AcDbEntity
  8
0
100
AcDbLine
 62
7
  6
CONTINUOUS
 10
7.5127034092
 20
2.8690546316
 11
7.5101762667
 21
2.944364411
  0
LINE
  5
2A3
100
AcDbEntity
  8
0
100
AcDbLine
 62
7
  6
CONTINUOUS
 10
7.5101762667
 20
2.944364411
 11
7.507420487
 21
3.0326952293
  0
LINE
  5
2A4
100
AcDbEntity
  8
0
100
AcDbLine
 62
7
  6
CONTINUOUS
 10
7.4470103354
 20
5.1657255214
 11
7.41786807
 21
6.125835705
  0
LINE
  5
2A5
100
AcDbEntity
  8
0
100
AcDbLine
 62
7
  6
CONTINUOUS
 10
7.41786807
 20
6.125835705
 11
7.3476203214
 21
8.4332888708
  0
LINE
  5
2A6
100
AcDbEntity
  8
0
100
AcDbLine
 62
7
  6
CONTINUOUS
 10
7.3476203214
 20
8.4332888708
 11
7.3430338135
 21
8.5898189668
  0
LINE
  5
2A7
100
AcDbEntity
  8
0
100
AcDbLine
 62
7
  6
CONTINUOUS
 10
7.507420487
 20
3.0326952293
 11
7.5044655911
 21
3.1330212526
  0
LWPOLYLINE
  5
2A8
100
AcDbEntity
  8
0
100
AcDbPolyline
 62
7
  6
CONTINUOUS
 90
4
 70
0
 10
7.4631338667
 20
4.6101415886
 10
7.4577964394
 20
4.7983634463
 10
7.4524108549
 20
4.9843757622
 10
7.4470103303
 20
5.1657256896
  0
LINE
  5
2A9
100
AcDbEntity
  8
0
100
AcDbLine
 62
7
  6
CONTINUOUS
 10
7.3430338135
 20
8.5898189668
 11
7.3388221701
 21
8.7379729948
  0
LINE
  5
2AA
100
AcDbEntity
  8
0
100
AcDbLine
 62
7
  6
CONTINUOUS
 10
7.5044655911
 20
3.1330212526
 11
7.5014289039
 21
3.2403472642
  0
LINE
  5
2AB
100
AcDbEntity
  8
0
100
AcDbLine
 62
7
  6
CONTINUOUS
 10
7.4846271377
 20
3.8397413973
 11
7.4631338667
 21
4.6101415886
  0
LINE
  5
2AC
100
AcDbEntity
  8
0
100
AcDbLine
 62
7
  6
CONTINUOUS
 10
7.495107893
 20
3.4692211817
 11
7.4846271377
 21
3.8397413973
  0
LINE
  5
2AD
100
AcDbEntity
  8
0
100
AcDbLine
 62
7
  6
CONTINUOUS
 10
7.3388221701
 20
8.7379729948
 11
7.334897468
 21
8.8800323928
  0
LINE
  5
2AE
100
AcDbEntity
  8
0
100
AcDbLine
 62
7
  6
CONTINUOUS
 10
7.5014289039
 20
3.2403472642
 11
7.495107893
 21
3.4692211817
  0
LINE
  5
2AF
100
AcDbEntity
  8
0
100
AcDbLine
 62
7
  6
CONTINUOUS
 10
7.334897468
 20
8.8800323928
 11
7.3312432334
 21
9.0164457621
  0
LINE
  5
2B0
100
AcDbEntity
  8
0
100
AcDbLine
 62
7
  6
CONTINUOUS
 10
7.3312432334
 20
9.0164457621
 11
7.327852162
 21
9.1478167345
  0
LWPOLYLINE
  5
2B1
100
AcDbEntity
  8
0
100
AcDbPolyline
 62
7
  6
CONTINUOUS
 90
42
 70
0
 10
7.327852162
 20
9.1478167345
 10
7.3247297284
 20
9.2747103301
 10
7.3232746574
 20
9.3366291758
 10
7.32189486
 20
9.3976010136
 10
7.3205952876
 20
9.4576497633
 10
7.319382632
 20
9.5167465215
 10
7.3182643005
 20
9.5748477973
 10
7.3172481812
 20
9.6319003765
 10
7.3163424593
 20
9.6878428214
 10
7.3155554022
 20
9.7426070511
 10
7.3148951171
 20
9.7961199511
 10
7.3143692396
 20
9.8483094458
 10
7.313984157
 20
9.899193216
 10
7.3137460886
 20
9.9488651309
 10
7.3136622722
 20
9.9974144338
 10
7.313741077
 20
10.0449250633
 10
7.3139919985
 20
10.0914600175
 10
7.3144256175
 20
10.1370765826
 10
7.3150537987
 20
10.1818358202
 10
7.3158897305
 20
10.2257915865
 10
7.3169479869
 20
10.2689921982
 10
7.3182446138
 20
10.3114818533
 10
7.3197972405
 20
10.3533018344
 10
7.3216252177
 20
10.3944915186
 10
7.3237497796
 20
10.4350892147
 10
7.3261941878
 20
10.4751321464
 10
7.3289791233
 20
10.5145937398
 10
7.3321171542
 20
10.5533575701
 10
7.3356152476
 20
10.5913009929
 10
7.3394737261
 20
10.6283011347
 10
7.3436848153
 20
10.664234733
 10
7.3482317614
 20
10.6989819659
 10
7.3530948752
 20
10.7324725697
 10
7.3582516469
 20
10.7646699273
 10
7.3636732315
 20
10.7955399164
 10
7.3693233541
 20
10.8250445958
 10
7.3751573295
 20
10.8531381388
 10
7.3811244073
 20
10.8797778397
 10
7.3871577325
 20
10.9048800846
 10
7.393163499
 20
10.9282886991
 10
7.399034617
 20
10.9498401885
 10
7.4032113996
 20
10.9644532671
  0
LINE
  5
2B2
100
AcDbEntity
  8
0
100
AcDbLine
 62
7
  6
CONTINUOUS
 10
7.1760689826
 20
12.2147278032
 11
7.1751149735
 21
12.1868009741
  0
LINE
  5
2B3
100
AcDbEntity
  8
0
100
AcDbLine
 62
7
  6
CONTINUOUS
 10
7.1371405347
 20
11.075170441
 11
7.1361865256
 21
11.0472436132
  0
LINE
  5
2B4
100
AcDbEntity
  8
0
100
AcDbLine
 62
7
  6
CONTINUOUS
 10
7.4065704324
 20
11.6302149821
 11
7.4060391889
 21
11.6146638235
  0
LINE
  5
2B5
100
AcDbEntity
  8
0
100
AcDbLine
 62
7
  6
CONTINUOUS
 10
7.4033425292
 20
11.5752400545
 11
7.4017512755
 21
11.5597614025
  0
LWPOLYLINE
  5
2B6
100
AcDbEntity
  8
0
100
AcDbPolyline
 62
7
  6
CONTINUOUS
 90
15
 70
0
 10
5.7513111376
 20
11.0947559218
 10
5.7527205993
 20
11.0915832371
 10
5.7548453389
 20
11.0866657899
 10
5.757287639
 20
11.080853328
 10
5.7600104422
 20
11.0741887616
 10
5.7629724569
 20
11.0667310323
 10
5.7661413755
 20
11.0585220384
 10
5.7695022426
 20
11.0495609071
 10
5.7730551241
 20
11.0398037086
 10
5.7768077855
 20
11.0291775953
 10
5.7807751183
 20
11.0175774853
 10
5.7849766836
 20
11.0048674121
 10
5.7894294546
 20
10.9908968382
 10
5.7941494538
 20
10.9754905486
 10
5.7974179666
 20
10.9644381988
  0
LINE
  5
2B7
100
AcDbEntity
  8
0
100
AcDbLine
 62
7
  6
CONTINUOUS
 10
5.8529320019
 20
11.3468810933
 11
5.8472236659
 21
11.3613564397
  0
LINE
  5
2B8
100
AcDbEntity
  8
0
100
AcDbLine
 62
7
  6
CONTINUOUS
 10
5.8339906001
 20
11.3985907184
 11
5.8292834041
 21
11.41342187
  0
LINE
  5
2B9
100
AcDbEntity
  8
0
100
AcDbLine
 62
7
  6
CONTINUOUS
 10
6.2469245356
 20
10.9250173646
 11
6.2384713354
 21
10.9516512026
  0
LINE
  5
2BA
100
AcDbEntity
  8
0
100
AcDbLine
 62
7
  6
CONTINUOUS
 10
5.9019907633
 20
12.0118140791
 11
5.8935375635
 21
12.0384479158
  0
LWPOLYLINE
  5
2BB
100
AcDbEntity
  8
0
100
AcDbPolyline
 62
7
  6
CONTINUOUS
 90
40
 70
0
 10
5.797413598
 20
10.9644531901
 10
5.8018133764
 20
10.9490437263
 10
5.8077964071
 20
10.9270211294
 10
5.8139140022
 20
10.9030785594
 10
5.8200539225
 20
10.8773875871
 10
5.8261184977
 20
10.8501106407
 10
5.8320396471
 20
10.8213278481
 10
5.8377645102
 20
10.7910838464
 10
5.8432468194
 20
10.7594265482
 10
5.8484494203
 20
10.726394926
 10
5.8533426217
 20
10.6920273328
 10
5.8579034714
 20
10.6563664564
 10
5.8621111875
 20
10.619501579
 10
5.8659502111
 20
10.5815615443
 10
5.8694146827
 20
10.5426758037
 10
5.8725070162
 20
10.5029734697
 10
5.8752363322
 20
10.4625833877
 10
5.8776181401
 20
10.4216124498
 10
5.8796762943
 20
10.3800534783
 10
5.8814346797
 20
10.3378658094
 10
5.8829150027
 20
10.2950083397
 10
5.8841370037
 20
10.251438501
 10
5.8851186266
 20
10.2071112715
 10
5.8858761592
 20
10.1619779844
 10
5.8864243451
 20
10.11598491
 10
5.8867764674
 20
10.0690715797
 10
5.8869444001
 20
10.0211718495
 10
5.886938723
 20
9.9722295311
 10
5.8867688899
 20
9.92216469
 10
5.8864431287
 20
9.8708878696
 10
5.8859685219
 20
9.8183028199
 10
5.8853515085
 20
9.7643391755
 10
5.8845997247
 20
9.7090494942
 10
5.8837215909
 20
9.6525110606
 10
5.8827257942
 20
9.594796418
 10
5.8816210137
 20
9.5359716113
 10
5.8804156776
 20
9.4760944378
 10
5.8791177523
 20
9.4152127635
 10
5.8777345581
 20
9.3533626288
 10
5.8762719291
 20
9.2905376547
  0
LINE
  5
2BC
100
AcDbEntity
  8
0
100
AcDbLine
 62
7
  6
CONTINUOUS
 10
6.1982756469
 20
10.9508234518
 11
6.1916597109
 21
10.9779720652
  0
LINE
  5
2BD
100
AcDbEntity
  8
0
100
AcDbLine
 62
7
  6
CONTINUOUS
 10
5.9283116259
 20
12.0586257036
 11
5.9216956898
 21
12.0857743174
  0
LWPOLYLINE
  5
2BE
100
AcDbEntity
  8
0
100
AcDbPolyline
 62
7
  6
CONTINUOUS
 90
4
 70
0
 10
7.5254473591
 20
2.6088265907
 10
7.525441281
 20
2.6088807397
 10
7.525302668
 20
2.6101914441
 10
7.5250362053
 20
2.6129388009
  0
LINE
  5
2BF
100
AcDbEntity
  8
0
100
AcDbLine
 62
7
  6
CONTINUOUS
 10
7.4017512755
 20
11.7401844513
 11
7.4033425292
 21
11.7247057994
  0
LINE
  5
2C0
100
AcDbEntity
  8
0
100
AcDbLine
 62
7
  6
CONTINUOUS
 10
10.3044204746
 20
12.1624729269
 11
10.0085284617
 21
11.6499729269
  0
LWPOLYLINE
  5
2C1
100
AcDbEntity
  8
0
100
AcDbPolyline
 62
7
  6
CONTINUOUS
 90
19
 70
0
 10
1.7697723481
 20
11.9721216724
 10
1.7684732275
 20
11.9732402719
 10
1.7652241036
 20
11.9755347009
 10
1.7616611892
 20
11.9774046063
 10
1.7578783671
 20
11.9787977921
 10
1.7539758051
 20
11.979678418
 10
1.7500285807
 20
11.9800286868
 10
1.7460722917
 20
11.9798361408
 10
1.7421498154
 20
11.9791088393
 10
1.7383398266
 20
11.9778695391
 10
1.7347257917
 20
11.9761498866
 10
1.7313824508
 20
11.973985597
 10
1.728378972
 20
11.9714150756
 10
1.7257594497
 20
11.9684649761
 10
1.7235351551
 20
11.9651583282
 10
1.7217414267
 20
11.961545735
 10
1.7204335159
 20
11.9577310702
 10
1.7196460716
 20
11.9538319711
 10
1.7193870476
 20
11.9499729269
  0
LINE
  5
2C2
100
AcDbEntity
  8
0
100
AcDbLine
 62
7
  6
CONTINUOUS
 10
5.9011641434
 20
11.2479358107
 11
5.8935379158
 21
11.2614990479
  0
LINE
  5
2C3
100
AcDbEntity
  8
0
100
AcDbLine
 62
7
  6
CONTINUOUS
 10
5.8753580365
 20
11.2965846223
 11
5.8686751754
 21
11.3106366727
  0
LINE
  5
2C4
100
AcDbEntity
  8
0
100
AcDbLine
 62
7
  6
CONTINUOUS
 10
6.3489307797
 20
10.8836499866
 11
6.3369296726
 21
10.9088847117
  0
LINE
  5
2C5
100
AcDbEntity
  8
0
100
AcDbLine
 62
7
  6
CONTINUOUS
 10
5.8592242723
 20
11.9133557419
 11
5.8472231658
 21
11.9385904657
  0
LINE
  5
2C6
100
AcDbEntity
  8
0
100
AcDbLine
 62
7
  6
CONTINUOUS
 10
6.2972210816
 20
10.9025913567
 11
6.2869700304
 21
10.9285862383
  0
LINE
  5
2C7
100
AcDbEntity
  8
0
100
AcDbLine
 62
7
  6
CONTINUOUS
 10
5.8789257989
 20
11.9633153841
 11
5.8686747482
 21
11.9893102644
  0
LINE
  5
2C8
100
AcDbEntity
  8
0
100
AcDbLine
 62
7
  6
CONTINUOUS
 10
7.0023493282
 20
12.349122402
 11
7.0089652643
 21
12.3219737886
  0
LINE
  5
2C9
100
AcDbEntity
  8
0
100
AcDbLine
 62
7
  6
CONTINUOUS
 10
7.2723133492
 20
11.2413201502
 11
7.2789292854
 21
11.2141715364
  0
LINE
  5
2CA
100
AcDbEntity
  8
0
100
AcDbLine
 62
7
  6
CONTINUOUS
 10
7.0491237347
 20
12.3200565607
 11
7.0538715609
 21
12.2925197478
  0
LINE
  5
2CB
100
AcDbEntity
  8
0
100
AcDbLine
 62
7
  6
CONTINUOUS
 10
7.2428593084
 20
11.1964138536
 11
7.2476071344
 21
11.168877042
  0
LINE
  5
2CC
100
AcDbEntity
  8
0
100
AcDbLine
 62
7
  6
CONTINUOUS
 10
7.3937266846
 20
11.7946662645
 11
7.3963705293
 21
11.7793322878
  0
LINE
  5
2CD
100
AcDbEntity
  8
0
100
AcDbLine
 62
7
  6
CONTINUOUS
 10
10.8962045005
 20
11.1374729269
 11
11.067621902
 21
11.4343765755
  0
LINE
  5
2CE
100
AcDbEntity
  8
0
100
AcDbLine
 62
7
  6
CONTINUOUS
 10
5.77514151
 20
11.0592873384
 11
5.7749334688
 21
11.0595780349
  0
LINE
  5
2CF
100
AcDbEntity
  8
0
100
AcDbLine
 62
7
  6
CONTINUOUS
 10
5.9302300026
 20
11.2011614817
 11
5.9216959655
 21
11.2141726677
  0
LINE
  5
2D0
100
AcDbEntity
  8
0
100
AcDbLine
 62
7
  6
CONTINUOUS
 10
6.4556197894
 20
10.856557755
 11
6.4402943333
 21
10.879923292
  0
LINE
  5
2D1
100
AcDbEntity
  8
0
100
AcDbLine
 62
7
  6
CONTINUOUS
 10
5.8302628526
 20
11.8099910812
 11
5.8149373973
 21
11.8333566169
  0
LINE
  5
2D2
100
AcDbEntity
  8
0
100
AcDbLine
 62
7
  6
CONTINUOUS
 10
6.4018125354
 20
10.8682815678
 11
6.3881173271
 21
10.8926384804
  0
LINE
  5
2D3
100
AcDbEntity
  8
0
100
AcDbLine
 62
7
  6
CONTINUOUS
 10
5.8429780411
 20
11.8621680874
 11
5.8292828334
 21
11.8865249988
  0
LINE
  5
2D4
100
AcDbEntity
  8
0
100
AcDbLine
 62
7
  6
CONTINUOUS
 10
6.8516941954
 20
12.4162958672
 11
6.8636953025
 21
12.3910611422
  0
LINE
  5
2D5
100
AcDbEntity
  8
0
100
AcDbLine
 62
7
  6
CONTINUOUS
 10
7.3414007028
 20
11.3865901119
 11
7.3534018093
 21
11.3613553881
  0
LINE
  5
2D6
100
AcDbEntity
  8
0
100
AcDbLine
 62
7
  6
CONTINUOUS
 10
6.9034038935
 20
12.3973544972
 11
6.9136549447
 21
12.3713596155
  0
LINE
  5
2D7
100
AcDbEntity
  8
0
100
AcDbLine
 62
7
  6
CONTINUOUS
 10
7.3216991762
 20
11.3366304697
 11
7.3319502269
 21
11.3106355894
  0
LINE
  5
2D8
100
AcDbEntity
  8
0
100
AcDbLine
 62
7
  6
CONTINUOUS
 10
7.3476929733
 20
11.9530647605
 11
7.3534013092
 21
11.9385894141
  0
LINE
  5
2D9
100
AcDbEntity
  8
0
100
AcDbLine
 62
7
  6
CONTINUOUS
 10
6.9537004395
 20
12.3749284892
 11
6.9621536397
 21
12.3482946512
  0
LINE
  5
2DA
100
AcDbEntity
  8
0
100
AcDbLine
 62
7
  6
CONTINUOUS
 10
7.2986342118
 20
11.2881317747
 11
7.3070874116
 21
11.261497938
  0
LINE
  5
2DB
100
AcDbEntity
  8
0
100
AcDbLine
 62
7
  6
CONTINUOUS
 10
7.366634375
 20
11.9013551355
 11
7.371341571
 21
11.8865239838
  0
LINE
  5
2DC
100
AcDbEntity
  8
0
100
AcDbLine
 62
7
  6
CONTINUOUS
 10
6.0355587764
 20
11.0742164717
 11
6.0245560324
 21
11.0852192158
  0
LINE
  5
2DD
100
AcDbEntity
  8
0
100
AcDbLine
 62
7
  6
CONTINUOUS
 10
6.6200712577
 20
10.8437141568
 11
6.6003124876
 21
10.8634729269
  0
LINE
  5
2DE
100
AcDbEntity
  8
0
100
AcDbLine
 62
7
  6
CONTINUOUS
 10
5.8138124876
 20
11.6499729269
 11
5.7940537193
 21
11.6697316951
  0
LINE
  5
2DF
100
AcDbEntity
  8
0
100
AcDbLine
 62
7
  6
CONTINUOUS
 10
5.9975843376
 20
11.1140988491
 11
5.9873580973
 21
11.125826797
  0
LINE
  5
2E0
100
AcDbEntity
  8
0
100
AcDbLine
 62
7
  6
CONTINUOUS
 10
6.5650041503
 20
10.8442453469
 11
6.5466398295
 21
10.8653064399
  0
LINE
  5
2E1
100
AcDbEntity
  8
0
100
AcDbLine
 62
7
  6
CONTINUOUS
 10
5.8156460006
 20
11.703645585
 11
5.7972816807
 21
11.724706677
  0
LINE
  5
2E2
100
AcDbEntity
  8
0
100
AcDbLine
 62
7
  6
CONTINUOUS
 10
6.5101016676
 20
10.84853321
 11
6.4932174181
 21
10.8707984304
  0
LINE
  5
2E3
100
AcDbEntity
  8
0
100
AcDbLine
 62
7
  6
CONTINUOUS
 10
5.821137991
 20
11.7570679964
 11
5.8042537423
 21
11.7793332157
  0
LINE
  5
2E4
100
AcDbEntity
  8
0
100
AcDbLine
 62
7
  6
CONTINUOUS
 10
6.7450051857
 20
12.4433880988
 11
6.7603306418
 21
12.4200225619
  0
LINE
  5
2E5
100
AcDbEntity
  8
0
100
AcDbLine
 62
7
  6
CONTINUOUS
 10
7.3703621225
 20
11.4899547726
 11
7.3856875779
 21
11.4665892369
  0
LINE
  5
2E6
100
AcDbEntity
  8
0
100
AcDbLine
 62
7
  6
CONTINUOUS
 10
6.7988124398
 20
12.431664286
 11
6.8125076481
 21
12.4073073734
  0
LINE
  5
2E7
100
AcDbEntity
  8
0
100
AcDbLine
 62
7
  6
CONTINUOUS
 10
7.3576469341
 20
11.4377777664
 11
7.3713421417
 21
11.413420855
  0
LINE
  5
2E8
100
AcDbEntity
  8
0
100
AcDbLine
 62
7
  6
CONTINUOUS
 10
7.2994608317
 20
12.0520100432
 11
7.3070870594
 21
12.0384468059
  0
LINE
  5
2E9
100
AcDbEntity
  8
0
100
AcDbLine
 62
7
  6
CONTINUOUS
 10
7.3252669386
 20
12.0033612316
 11
7.3319497997
 21
11.9893091811
  0
LINE
  5
2EA
100
AcDbEntity
  8
0
100
AcDbLine
 62
7
  6
CONTINUOUS
 10
6.1192177502
 20
11.002678478
 11
6.1068192795
 21
11.0120805351
  0
LINE
  5
2EB
100
AcDbEntity
  8
0
100
AcDbLine
 62
7
  6
CONTINUOUS
 10
6.7296727775
 20
10.8539141808
 11
6.7074075571
 21
10.8707984304
  0
LINE
  5
2EC
100
AcDbEntity
  8
0
100
AcDbLine
 62
7
  6
CONTINUOUS
 10
5.821137991
 20
11.5428778574
 11
5.7988727718
 21
11.5597621061
  0
LINE
  5
2ED
100
AcDbEntity
  8
0
100
AcDbLine
 62
7
  6
CONTINUOUS
 10
6.0761663577
 20
11.0370185367
 11
6.0644384097
 21
11.047244777
  0
LINE
  5
2EE
100
AcDbEntity
  8
0
100
AcDbLine
 62
7
  6
CONTINUOUS
 10
6.6750462387
 20
10.8469421191
 11
6.6539851457
 21
10.8653064399
  0
LINE
  5
2EF
100
AcDbEntity
  8
0
100
AcDbLine
 62
7
  6
CONTINUOUS
 10
5.8156460006
 20
11.5963002688
 11
5.7945849086
 21
11.6146645887
  0
LINE
  5
2F0
100
AcDbEntity
  8
0
100
AcDbLine
 62
7
  6
CONTINUOUS
 10
6.6356208248
 20
12.4557005069
 11
6.6539851457
 21
12.4346394139
  0
LINE
  5
2F1
100
AcDbEntity
  8
0
100
AcDbLine
 62
7
  6
CONTINUOUS
 10
7.3849789745
 20
11.5963002688
 11
7.4033432945
 21
11.5752391768
  0
LINE
  5
2F2
100
AcDbEntity
  8
0
100
AcDbLine
 62
7
  6
CONTINUOUS
 10
6.6905233075
 20
12.4514126438
 11
6.7074075571
 21
12.4291474235
  0
LINE
  5
2F3
100
AcDbEntity
  8
0
100
AcDbLine
 62
7
  6
CONTINUOUS
 10
7.3794869841
 20
11.5428778574
 11
7.3963712329
 21
11.5206126381
  0
LINE
  5
2F4
100
AcDbEntity
  8
0
100
AcDbLine
 62
7
  6
CONTINUOUS
 10
7.2703949725
 20
12.0987843722
 11
7.2789290097
 21
12.0857731861
  0
LWPOLYLINE
  5
2F5
100
AcDbEntity
  8
0
100
AcDbPolyline
 62
7
  6
CONTINUOUS
 90
19
 70
0
 10
11.4812379276
 20
11.9499729269
 10
11.4809789035
 20
11.9538319713
 10
11.4801914591
 20
11.9577310706
 10
11.4788835481
 20
11.9615457356
 10
11.4770898196
 20
11.9651583289
 10
11.4748655247
 20
11.9684649769
 10
11.4722460022
 20
11.9714150765
 10
11.469242523
 20
11.9739855979
 10
11.4658991819
 20
11.9761498875
 10
11.4622851466
 20
11.9778695399
 10
11.4584751575
 20
11.9791088399
 10
11.454552681
 20
11.9798361411
 10
11.4505963919
 20
11.9800286868
 10
11.4466491672
 20
11.9796784176
 10
11.4427466051
 20
11.9787977912
 10
11.4389637829
 20
11.9774046049
 10
11.4354008685
 20
11.975534699
 10
11.4321517446
 20
11.9732402695
 10
11.4308526271
 20
11.9721216724
  0
LINE
  5
2F6
100
AcDbEntity
  8
0
100
AcDbLine
 62
9
  6
CONTINUOUS
 10
11.3698310239
 20
11.9423752366
 11
11.3698310239
 21
11.3575706172
  0
LINE
  5
2F7
100
AcDbEntity
  8
0
100
AcDbLine
 62
9
  6
CONTINUOUS
 10
11.4308526712
 20
11.9721217128
 11
11.4308526712
 21
11.327824141
  0
LINE
  5
2F8
100
AcDbEntity
  8
0
100
AcDbLine
 62
7
  6
CONTINUOUS
 10
11.4812379276
 20
11.3499729269
 11
11.4812379276
 21
11.9499729269
  0
LINE
  5
2F9
100
AcDbEntity
  8
0
100
AcDbLine
 62
7
  6
CONTINUOUS
 10
6.2118386086
 20
10.9431983551
 11
6.1982753713
 21
10.9508245827
  0
LINE
  5
2FA
100
AcDbEntity
  8
0
100
AcDbLine
 62
7
  6
CONTINUOUS
 10
6.8368645607
 20
10.8789432721
 11
6.8125076481
 21
10.8926384804
  0
LINE
  5
2FB
100
AcDbEntity
  8
0
100
AcDbLine
 62
7
  6
CONTINUOUS
 10
5.8429780411
 20
11.4377777664
 11
5.8186211297
 21
11.451472974
  0
LINE
  5
2FC
100
AcDbEntity
  8
0
100
AcDbLine
 62
7
  6
CONTINUOUS
 10
6.1645122284
 20
10.9713564048
 11
6.1515010423
 21
10.979890442
  0
LINE
  5
2FD
100
AcDbEntity
  8
0
100
AcDbLine
 62
7
  6
CONTINUOUS
 10
6.7836961788
 20
10.8645978358
 11
6.7603306418
 21
10.879923292
  0
LINE
  5
2FE
100
AcDbEntity
  8
0
100
AcDbLine
 62
7
  6
CONTINUOUS
 10
5.8302628526
 20
11.4899547726
 11
5.8068973168
 21
11.505280228
  0
LINE
  5
2FF
100
AcDbEntity
  8
0
100
AcDbLine
 62
7
  6
CONTINUOUS
 10
6.5255787364
 20
12.4530037347
 11
6.5466398295
 21
12.4346394139
  0
LINE
  5
300
100
AcDbEntity
  8
0
100
AcDbLine
 62
7
  6
CONTINUOUS
 10
7.3849789745
 20
11.703645585
 11
7.4060400665
 21
11.6852812651
  0
LINE
  5
301
100
AcDbEntity
  8
0
100
AcDbLine
 62
7
  6
CONTINUOUS
 10
6.5805537174
 20
12.4562316971
 11
6.6003124876
 21
12.4364729269
  0
LINE
  5
302
100
AcDbEntity
  8
0
100
AcDbLine
 62
7
  6
CONTINUOUS
 10
7.3868124876
 20
11.6499729269
 11
7.4065712558
 21
11.6302141587
  0
LINE
  5
303
100
AcDbEntity
  8
0
100
AcDbLine
 62
7
  6
CONTINUOUS
 10
7.1650661987
 20
12.2257293821
 11
7.1760689428
 21
12.2147266381
  0
LINE
  5
304
100
AcDbEntity
  8
0
100
AcDbLine
 62
7
  6
CONTINUOUS
 10
7.2030406375
 20
12.1858470047
 11
7.2132668778
 21
12.1741190568
  0
LINE
  5
305
100
AcDbEntity
  8
0
100
AcDbLine
 62
7
  6
CONTINUOUS
 10
15.3044204746
 20
12.1624729269
 11
15.0085284617
 21
11.6499729269
  0
LINE
  5
306
100
AcDbEntity
  8
0
100
AcDbLine
 62
7
  6
CONTINUOUS
 10
6.3637614307
 20
10.8789438435
 11
6.348930279
 21
10.8836510394
  0
LINE
  5
307
100
AcDbEntity
  8
0
100
AcDbLine
 62
7
  6
CONTINUOUS
 10
6.3116960004
 20
10.8968841052
 11
6.297220654
 21
10.9025924412
  0
LINE
  5
308
100
AcDbEntity
  8
0
100
AcDbLine
 62
7
  6
CONTINUOUS
 10
6.9396498264
 20
10.918335187
 11
6.9136549447
 21
10.9285862383
  0
LINE
  5
309
100
AcDbEntity
  8
0
100
AcDbLine
 62
7
  6
CONTINUOUS
 10
5.8789257989
 20
11.3366304697
 11
5.8529309186
 21
11.3468815205
  0
LINE
  5
30A
100
AcDbEntity
  8
0
100
AcDbLine
 62
7
  6
CONTINUOUS
 10
6.8889300276
 20
10.8968836045
 11
6.8636953025
 21
10.9088847117
  0
LINE
  5
30B
100
AcDbEntity
  8
0
100
AcDbLine
 62
7
  6
CONTINUOUS
 10
5.8592242723
 20
11.3865901119
 11
5.8339895485
 21
11.3985912185
  0
LINE
  5
30C
100
AcDbEntity
  8
0
100
AcDbLine
 62
7
  6
CONTINUOUS
 10
6.4169287964
 20
12.435348018
 11
6.4402943333
 21
12.4200225619
  0
LINE
  5
30D
100
AcDbEntity
  8
0
100
AcDbLine
 62
7
  6
CONTINUOUS
 10
7.3703621225
 20
11.8099910812
 11
7.3937276583
 21
11.7946656258
  0
LINE
  5
30E
100
AcDbEntity
  8
0
100
AcDbLine
 62
7
  6
CONTINUOUS
 10
6.4709521977
 20
12.446031673
 11
6.4932174181
 21
12.4291474235
  0
LINE
  5
30F
100
AcDbEntity
  8
0
100
AcDbLine
 62
7
  6
CONTINUOUS
 10
7.3794869841
 20
11.7570679964
 11
7.4017522034
 21
11.7401837477
  0
LINE
  5
310
100
AcDbEntity
  8
0
100
AcDbLine
 62
7
  6
CONTINUOUS
 10
7.081407225
 20
12.2972673759
 11
7.0938056957
 21
12.2878653187
  0
LINE
  5
311
100
AcDbEntity
  8
0
100
AcDbLine
 62
7
  6
CONTINUOUS
 10
7.1244586175
 20
12.2629273172
 11
7.1361865654
 21
12.2527010768
  0
LINE
  5
312
100
AcDbEntity
  8
0
100
AcDbLine
 62
7
  6
CONTINUOUS
 10
10.0085284617
 20
11.6499729269
 11
10.3044204746
 21
11.1374729269
  0
LINE
  5
313
100
AcDbEntity
  8
0
100
AcDbLine
 62
7
  6
CONTINUOUS
 10
13.7326975207
 20
11.269973233
 11
13.7326975207
 21
12.0299726209
  0
LINE
  5
314
100
AcDbEntity
  8
0
100
AcDbLine
 62
7
  6
CONTINUOUS
 10
15.8962045005
 20
11.1374729269
 11
16.067621895
 21
11.4343765634
  0
LINE
  5
315
100
AcDbEntity
  8
0
100
AcDbLine
 62
7
  6
CONTINUOUS
 10
6.4709531266
 20
10.8539148852
 11
6.45561915
 21
10.8565587299
  0
LINE
  5
316
100
AcDbEntity
  8
0
100
AcDbLine
 62
7
  6
CONTINUOUS
 10
6.4169297712
 20
10.8645984752
 11
6.401811964
 21
10.868282584
  0
LINE
  5
317
100
AcDbEntity
  8
0
100
AcDbLine
 62
7
  6
CONTINUOUS
 10
7.0361138795
 20
10.9713561288
 11
7.0089652643
 21
10.9779720652
  0
LINE
  5
318
100
AcDbEntity
  8
0
100
AcDbLine
 62
7
  6
CONTINUOUS
 10
5.9283116259
 20
11.2413201502
 11
5.9011630106
 21
11.2479360867
  0
LINE
  5
319
100
AcDbEntity
  8
0
100
AcDbLine
 62
7
  6
CONTINUOUS
 10
6.9887874778
 20
10.9431980024
 11
6.9621536397
 21
10.9516512026
  0
LINE
  5
31A
100
AcDbEntity
  8
0
100
AcDbLine
 62
7
  6
CONTINUOUS
 10
5.9019907633
 20
11.2881317747
 11
5.8753569266
 21
11.2965849745
  0
LINE
  5
31B
100
AcDbEntity
  8
0
100
AcDbLine
 62
7
  6
CONTINUOUS
 10
6.3116949475
 20
12.4030622493
 11
6.3369296726
 21
12.3910611422
  0
LINE
  5
31C
100
AcDbEntity
  8
0
100
AcDbLine
 62
7
  6
CONTINUOUS
 10
7.3414007028
 20
11.9133557419
 11
7.3666354266
 21
11.9013546354
  0
LINE
  5
31D
100
AcDbEntity
  8
0
100
AcDbLine
 62
7
  6
CONTINUOUS
 10
6.3637604145
 20
12.4210025817
 11
6.3881173271
 21
12.4073073734
  0
LINE
  5
31E
100
AcDbEntity
  8
0
100
AcDbLine
 62
7
  6
CONTINUOUS
 10
7.3576469341
 20
11.8621680874
 11
7.3820038454
 21
11.8484728798
  0
LINE
  5
31F
100
AcDbEntity
  8
0
100
AcDbLine
 62
7
  6
CONTINUOUS
 10
6.9887863666
 20
12.3567474987
 11
7.0023496038
 21
12.3491212711
  0
LINE
  5
320
100
AcDbEntity
  8
0
100
AcDbLine
 62
7
  6
CONTINUOUS
 10
7.0361127468
 20
12.328589449
 11
7.0491239328
 21
12.3200554118
  0
LINE
  5
321
100
AcDbEntity
  8
0
100
AcDbLine
 62
7
  6
CONTINUOUS
 10
11.067621902
 20
11.8655692783
 11
10.8962045005
 21
12.1624729269
  0
LINE
  5
322
100
AcDbEntity
  8
0
100
AcDbLine
 62
9
  6
CONTINUOUS
 10
13.8116608444
 20
11.2609253079
 11
13.8116608444
 21
12.039020546
  0
LINE
  5
323
100
AcDbEntity
  8
0
100
AcDbLine
 62
7
  6
CONTINUOUS
 10
6.635621591
 20
10.8442462256
 11
6.6200704324
 21
10.8437149821
  0
LINE
  5
324
100
AcDbEntity
  8
0
100
AcDbLine
 62
7
  6
CONTINUOUS
 10
6.5805545427
 20
10.8437149821
 11
6.5650033841
 21
10.8442462256
  0
LINE
  5
325
100
AcDbEntity
  8
0
100
AcDbLine
 62
7
  6
CONTINUOUS
 10
7.1650673639
 20
11.0742164319
 11
7.1371405347
 21
11.075170441
  0
LINE
  5
326
100
AcDbEntity
  8
0
100
AcDbLine
 62
7
  6
CONTINUOUS
 10
6.0255100017
 20
11.1131448798
 11
5.9975831739
 21
11.1140988888
  0
LINE
  5
327
100
AcDbEntity
  8
0
100
AcDbLine
 62
7
  6
CONTINUOUS
 10
6.5255796151
 20
10.8469428853
 11
6.5101009632
 21
10.8485341389
  0
LINE
  5
328
100
AcDbEntity
  8
0
100
AcDbLine
 62
7
  6
CONTINUOUS
 10
7.1244597772
 20
11.0370184175
 11
7.0966631558
 21
11.0398759968
  0
LINE
  5
329
100
AcDbEntity
  8
0
100
AcDbLine
 62
7
  6
CONTINUOUS
 10
5.9902155574
 20
11.1536222587
 11
5.9624189374
 21
11.1564798379
  0
LINE
  5
32A
100
AcDbEntity
  8
0
100
AcDbLine
 62
7
  6
CONTINUOUS
 10
7.0814083739
 20
11.0026782799
 11
7.0538715609
 21
11.0074261061
  0
LINE
  5
32B
100
AcDbEntity
  8
0
100
AcDbLine
 62
7
  6
CONTINUOUS
 10
5.9577656667
 20
11.1964138536
 11
5.9302288551
 21
11.2011616795
  0
LINE
  5
32C
100
AcDbEntity
  8
0
100
AcDbLine
 62
7
  6
CONTINUOUS
 10
6.1645110957
 20
12.3285897251
 11
6.1916597109
 21
12.3219737886
  0
LINE
  5
32D
100
AcDbEntity
  8
0
100
AcDbLine
 62
7
  6
CONTINUOUS
 10
7.2723133492
 20
12.0586257036
 11
7.2994619646
 21
12.0520097671
  0
LINE
  5
32E
100
AcDbEntity
  8
0
100
AcDbLine
 62
7
  6
CONTINUOUS
 10
6.2118374974
 20
12.3567478514
 11
6.2384713354
 21
12.3482946512
  0
LINE
  5
32F
100
AcDbEntity
  8
0
100
AcDbLine
 62
7
  6
CONTINUOUS
 10
7.2986342118
 20
12.0118140791
 11
7.3252680485
 21
12.0033608793
  0
LINE
  5
330
100
AcDbEntity
  8
0
100
AcDbLine
 62
7
  6
CONTINUOUS
 10
6.8368635445
 20
12.4210020103
 11
6.8516946961
 21
12.4162948144
  0
LINE
  5
331
100
AcDbEntity
  8
0
100
AcDbLine
 62
7
  6
CONTINUOUS
 10
6.2609751488
 20
12.3816106668
 11
6.2869700304
 21
12.3713596155
  0
LINE
  5
332
100
AcDbEntity
  8
0
100
AcDbLine
 62
7
  6
CONTINUOUS
 10
7.3216991762
 20
11.9633153841
 11
7.3476940565
 21
11.9530643334
  0
LINE
  5
333
100
AcDbEntity
  8
0
100
AcDbLine
 62
7
  6
CONTINUOUS
 10
6.8889289748
 20
12.4030617486
 11
6.9034043212
 21
12.3973534126
  0
LWPOLYLINE
  5
334
100
AcDbEntity
  8
0
100
AcDbPolyline
 62
7
  6
CONTINUOUS
 90
19
 70
0
 10
11.4308526271
 20
11.3278241814
 10
11.4321517446
 20
11.3267055843
 10
11.4354008685
 20
11.3244111548
 10
11.4389637829
 20
11.3225412489
 10
11.4427466051
 20
11.3211480626
 10
11.4466491672
 20
11.3202674363
 10
11.4505963919
 20
11.3199171671
 10
11.454552681
 20
11.3201097127
 10
11.4584751575
 20
11.3208370139
 10
11.4622851466
 20
11.322076314
 10
11.4658991819
 20
11.3237959664
 10
11.469242523
 20
11.3259602559
 10
11.4722460022
 20
11.3285307773
 10
11.4748655247
 20
11.3314808769
 10
11.4770898196
 20
11.3347875249
 10
11.4788835481
 20
11.3384001182
 10
11.4801914591
 20
11.3422147832
 10
11.4809789035
 20
11.3461138825
 10
11.4812379276
 20
11.3499729269
  0
LINE
  5
335
100
AcDbEntity
  8
0
100
AcDbLine
 62
7
  6
CONTINUOUS
 10
6.7988130112
 20
10.868282584
 11
6.7836952039
 21
10.8645984752
  0
LINE
  5
336
100
AcDbEntity
  8
0
100
AcDbLine
 62
7
  6
CONTINUOUS
 10
6.7450058251
 20
10.8565587299
 11
6.7296718485
 21
10.8539148852
  0
LINE
  5
337
100
AcDbEntity
  8
0
100
AcDbLine
 62
7
  6
CONTINUOUS
 10
7.2703961214
 20
11.2011616797
 11
7.2428593084
 21
11.1964138536
  0
LINE
  5
338
100
AcDbEntity
  8
0
100
AcDbLine
 62
7
  6
CONTINUOUS
 10
6.1467534142
 20
11.0074261061
 11
6.1192166026
 21
11.0026782801
  0
LINE
  5
339
100
AcDbEntity
  8
0
100
AcDbLine
 62
7
  6
CONTINUOUS
 10
6.690524012
 20
10.8485341389
 11
6.67504536
 21
10.8469428853
  0
LINE
  5
33A
100
AcDbEntity
  8
0
100
AcDbLine
 62
7
  6
CONTINUOUS
 10
7.2382060391
 20
11.156479838
 11
7.2104094177
 21
11.1536222587
  0
LINE
  5
33B
100
AcDbEntity
  8
0
100
AcDbLine
 62
7
  6
CONTINUOUS
 10
6.1039618194
 20
11.0398759968
 11
6.0761651993
 21
11.0370184176
  0
LINE
  5
33C
100
AcDbEntity
  8
0
100
AcDbLine
 62
7
  6
CONTINUOUS
 10
-0.5320725456
 20
11.2999729269
 11
1.7193870476
 21
11.3799729269
  0
LINE
  5
33D
100
AcDbEntity
  8
0
100
AcDbLine
 62
7
  6
CONTINUOUS
 10
18.7326975207
 20
11.9999729269
 11
16.4812379276
 21
11.9199729269
  0
LINE
  5
33E
100
AcDbEntity
  8
0
100
AcDbLine
 62
7
  6
CONTINUOUS
 10
13.7326975207
 20
11.9999729269
 11
11.4812379276
 21
11.9199729269
  0
LINE
  5
33F
100
AcDbEntity
  8
0
100
AcDbLine
 62
7
  6
CONTINUOUS
 10
7.2030418027
 20
11.1140988889
 11
7.1751149735
 21
11.1131448798
  0
LINE
  5
340
100
AcDbEntity
  8
0
100
AcDbLine
 62
7
  6
CONTINUOUS
 10
6.0634844404
 20
11.075170441
 11
6.0355576126
 21
11.0742164319
  0
LINE
  5
341
100
AcDbEntity
  8
0
100
AcDbLine
 62
7
  6
CONTINUOUS
 10
2.3044204746
 20
11.1374729269
 11
2.8962045005
 21
11.1374729269
  0
LINE
  5
342
100
AcDbEntity
  8
0
100
AcDbLine
 62
7
  6
CONTINUOUS
 10
10.3044204746
 20
11.1374729269
 11
10.8962045005
 21
11.1374729269
  0
LINE
  5
343
100
AcDbEntity
  8
0
100
AcDbLine
 62
7
  6
CONTINUOUS
 10
15.3044204746
 20
11.1374729269
 11
15.8962045005
 21
11.1374729269
  0
LINE
  5
344
100
AcDbEntity
  8
0
100
AcDbLine
 62
9
  6
CONTINUOUS
 10
2.104363023
 20
11.6499719548
 11
2.0560140499
 21
11.6499729269
  0
LINE
  5
345
100
AcDbEntity
  8
0
100
AcDbLine
 62
9
  6
CONTINUOUS
 10
1.7193870476
 20
11.6499729269
 11
1.8307938199
 21
11.6499729269
  0
LINE
  5
346
100
AcDbEntity
  8
0
100
AcDbLine
 62
9
  6
CONTINUOUS
 10
2.1043630231
 20
11.6499729269
 11
2.2550701224
 21
11.6499729269
  0
LINE
  5
347
100
AcDbEntity
  8
0
100
AcDbLine
 62
9
  6
CONTINUOUS
 10
2.9455548528
 20
11.6499729269
 11
3.0962619521
 21
11.6499729269
  0
LINE
  5
348
100
AcDbEntity
  8
0
100
AcDbLine
 62
9
  6
CONTINUOUS
 10
6.1213984296
 20
11.6499729269
 11
6.2718668405
 21
11.6499729269
  0
LINE
  5
349
100
AcDbEntity
  8
0
100
AcDbLine
 62
9
  6
CONTINUOUS
 10
6.9287581346
 20
11.6499729269
 11
7.0792265456
 21
11.6499729269
  0
LINE
  5
34A
100
AcDbEntity
  8
0
100
AcDbLine
 62
9
  6
CONTINUOUS
 10
10.1043630231
 20
11.6499729269
 11
10.2550701224
 21
11.6499729269
  0
LINE
  5
34B
100
AcDbEntity
  8
0
100
AcDbLine
 62
9
  6
CONTINUOUS
 10
11.3698311552
 20
11.6499729269
 11
11.4812379276
 21
11.6499729269
  0
LINE
  5
34C
100
AcDbEntity
  8
0
100
AcDbLine
 62
9
  6
CONTINUOUS
 10
15.1043630231
 20
11.6499729269
 11
15.2550701224
 21
11.6499729269
  0
LINE
  5
34D
100
AcDbEntity
  8
0
100
AcDbLine
 62
9
  6
CONTINUOUS
 10
16.3698311552
 20
11.6499729269
 11
16.4812379276
 21
11.6499729269
  0
LINE
  5
34E
100
AcDbEntity
  8
0
100
AcDbLine
 62
9
  6
CONTINUOUS
 10
10.9455548528
 20
11.6499729269
 11
11.1446109253
 21
11.6499729269
  0
LINE
  5
34F
100
AcDbEntity
  8
0
100
AcDbLine
 62
9
  6
CONTINUOUS
 10
15.9455548528
 20
11.6499729269
 11
16.1446109253
 21
11.6499729269
  0
LINE
  5
350
100
AcDbEntity
  8
0
100
AcDbLine
 62
7
  6
CONTINUOUS
 10
13.7326975207
 20
11.2999729269
 11
11.4812379276
 21
11.3799729269
  0
LINE
  5
351
100
AcDbEntity
  8
0
100
AcDbLine
 62
7
  6
CONTINUOUS
 10
18.7326975207
 20
11.2999729269
 11
16.4812379276
 21
11.3799729269
  0
LINE
  5
352
100
AcDbEntity
  8
0
100
AcDbLine
 62
7
  6
CONTINUOUS
 10
-0.5320725456
 20
11.9999729269
 11
1.7193870476
 21
11.9199729269
  0
LINE
  5
353
100
AcDbEntity
  8
0
100
AcDbLine
 62
7
  6
CONTINUOUS
 10
6.0761651979
 20
12.2629274364
 11
6.1039618194
 21
12.2600698571
  0
LINE
  5
354
100
AcDbEntity
  8
0
100
AcDbLine
 62
7
  6
CONTINUOUS
 10
7.2104094177
 20
12.1463235951
 11
7.2382060377
 21
12.1434660159
  0
LINE
  5
355
100
AcDbEntity
  8
0
100
AcDbLine
 62
7
  6
CONTINUOUS
 10
6.1192166013
 20
12.2972675739
 11
6.1467534142
 21
12.2925197478
  0
LINE
  5
356
100
AcDbEntity
  8
0
100
AcDbLine
 62
7
  6
CONTINUOUS
 10
7.2428593084
 20
12.1035320003
 11
7.27039612
 21
12.0987841743
  0
LINE
  5
357
100
AcDbEntity
  8
0
100
AcDbLine
 62
7
  6
CONTINUOUS
 10
6.7296718485
 20
12.4460309686
 11
6.7450058251
 21
12.443387124
  0
LINE
  5
358
100
AcDbEntity
  8
0
100
AcDbLine
 62
7
  6
CONTINUOUS
 10
6.7836952039
 20
12.4353473786
 11
6.7988130112
 21
12.4316632698
  0
LINE
  5
359
100
AcDbEntity
  8
0
100
AcDbLine
 62
7
  6
CONTINUOUS
 10
7.2994619644
 20
11.2479360867
 11
7.2723133492
 21
11.2413201502
  0
LINE
  5
35A
100
AcDbEntity
  8
0
100
AcDbLine
 62
7
  6
CONTINUOUS
 10
6.1916597109
 20
10.9779720652
 11
6.164511097
 21
10.9713561291
  0
LINE
  5
35B
100
AcDbEntity
  8
0
100
AcDbLine
 62
7
  6
CONTINUOUS
 10
5.962418936
 20
12.1434660158
 11
5.9902155574
 21
12.1463235951
  0
LINE
  5
35C
100
AcDbEntity
  8
0
100
AcDbLine
 62
7
  6
CONTINUOUS
 10
7.0966631558
 20
12.2600698571
 11
7.1244597758
 21
12.2629274362
  0
LINE
  5
35D
100
AcDbEntity
  8
0
100
AcDbLine
 62
7
  6
CONTINUOUS
 10
5.9975831725
 20
12.1858469649
 11
6.0255100017
 21
12.1868009741
  0
LINE
  5
35E
100
AcDbEntity
  8
0
100
AcDbLine
 62
7
  6
CONTINUOUS
 10
7.1371405347
 20
12.2247754128
 11
7.1650673625
 21
12.2257294219
  0
LINE
  5
35F
100
AcDbEntity
  8
0
100
AcDbLine
 62
7
  6
CONTINUOUS
 10
6.5650033841
 20
12.4556996282
 11
6.5805545427
 21
12.4562308718
  0
LINE
  5
360
100
AcDbEntity
  8
0
100
AcDbLine
 62
7
  6
CONTINUOUS
 10
15.8962045005
 20
12.1624729269
 11
15.3044204746
 21
12.1624729269
  0
LINE
  5
361
100
AcDbEntity
  8
0
100
AcDbLine
 62
7
  6
CONTINUOUS
 10
10.8962045005
 20
12.1624729269
 11
10.3044204746
 21
12.1624729269
  0
LINE
  5
362
100
AcDbEntity
  8
0
100
AcDbLine
 62
7
  6
CONTINUOUS
 10
2.8962045005
 20
12.1624729269
 11
2.3044204746
 21
12.1624729269
  0
LINE
  5
363
100
AcDbEntity
  8
0
100
AcDbLine
 62
7
  6
CONTINUOUS
 10
6.0355576112
 20
12.2257294219
 11
6.0634844404
 21
12.2247754128
  0
LINE
  5
364
100
AcDbEntity
  8
0
100
AcDbLine
 62
7
  6
CONTINUOUS
 10
7.1751149735
 20
12.1868009741
 11
7.2030418013
 21
12.185846965
  0
LINE
  5
365
100
AcDbEntity
  8
0
100
AcDbLine
 62
7
  6
CONTINUOUS
 10
6.6200704324
 20
12.4562308718
 11
6.635621591
 21
12.4556996282
  0
LINE
  5
366
100
AcDbEntity
  8
0
100
AcDbLine
 62
7
  6
CONTINUOUS
 10
6.67504536
 20
12.4530029686
 11
6.690524012
 21
12.4514117149
  0
LWPOLYLINE
  5
367
100
AcDbEntity
  8
0
100
AcDbPolyline
 62
7
  6
CONTINUOUS
 90
19
 70
0
 10
16.4812379276
 20
11.9499729269
 10
16.4809789035
 20
11.9538319714
 10
16.4801914591
 20
11.9577310707
 10
16.4788835481
 20
11.9615457358
 10
16.4770898195
 20
11.9651583291
 10
16.4748655246
 20
11.9684649771
 10
16.472246002
 20
11.9714150767
 10
16.4692425228
 20
11.9739855982
 10
16.4658991815
 20
11.9761498877
 10
16.4622851461
 20
11.97786954
 10
16.458475157
 20
11.97910884
 10
16.4545526805
 20
11.9798361412
 10
16.4505963913
 20
11.9800286868
 10
16.4466491665
 20
11.9796784175
 10
16.4427466044
 20
11.978797791
 10
16.4389637822
 20
11.9774046046
 10
16.4354008678
 20
11.9755346986
 10
16.432151744
 20
11.9732402689
 10
16.4308526271
 20
11.9721216724
  0
LINE
  5
368
100
AcDbEntity
  8
0
100
AcDbLine
 62
9
  6
CONTINUOUS
 10
16.3698310717
 20
11.9423752447
 11
16.3698310717
 21
11.3575706092
  0
LINE
  5
369
100
AcDbEntity
  8
0
100
AcDbLine
 62
9
  6
CONTINUOUS
 10
16.4308526271
 20
11.9721216725
 11
16.4308526271
 21
11.3278241814
  0
LINE
  5
36A
100
AcDbEntity
  8
0
100
AcDbLine
 62
7
  6
CONTINUOUS
 10
16.4812379276
 20
11.3499729269
 11
16.4812379276
 21
11.9499729269
  0
LINE
  5
36B
100
AcDbEntity
  8
0
100
AcDbLine
 62
7
  6
CONTINUOUS
 10
5.9011630107
 20
12.0520097672
 11
5.9283116259
 21
12.0586257036
  0
LINE
  5
36C
100
AcDbEntity
  8
0
100
AcDbLine
 62
7
  6
CONTINUOUS
 10
7.0089652643
 20
12.3219737886
 11
7.0361138781
 21
12.3285897247
  0
LINE
  5
36D
100
AcDbEntity
  8
0
100
AcDbLine
 62
7
  6
CONTINUOUS
 10
6.401811964
 20
12.4316632698
 11
6.4169297712
 21
12.4353473786
  0
LINE
  5
36E
100
AcDbEntity
  8
0
100
AcDbLine
 62
7
  6
CONTINUOUS
 10
5.9302288538
 20
12.0987841741
 11
5.9577656667
 21
12.1035320003
  0
LINE
  5
36F
100
AcDbEntity
  8
0
100
AcDbLine
 62
7
  6
CONTINUOUS
 10
7.0538715609
 20
12.2925197478
 11
7.0814083725
 21
12.2972675737
  0
LINE
  5
370
100
AcDbEntity
  8
0
100
AcDbLine
 62
7
  6
CONTINUOUS
 10
6.45561915
 20
12.443387124
 11
6.4709531266
 21
12.4460309686
  0
LINE
  5
371
100
AcDbEntity
  8
0
100
AcDbLine
 62
7
  6
CONTINUOUS
 10
6.5101009632
 20
12.4514117149
 11
6.5255796151
 21
12.4530029686
  0
LINE
  5
372
100
AcDbEntity
  8
0
100
AcDbLine
 62
7
  6
CONTINUOUS
 10
15.0085284617
 20
11.6499729269
 11
15.3044204746
 21
11.1374729269
  0
LWPOLYLINE
  5
373
100
AcDbEntity
  8
0
100
AcDbPolyline
 62
7
  6
CONTINUOUS
 90
19
 70
0
 10
16.4308526271
 20
11.3278241814
 10
16.432151744
 20
11.3267055849
 10
16.4354008678
 20
11.3244111552
 10
16.4389637822
 20
11.3225412492
 10
16.4427466044
 20
11.3211480628
 10
16.4466491665
 20
11.3202674364
 10
16.4505963913
 20
11.3199171671
 10
16.4545526805
 20
11.3201097127
 10
16.458475157
 20
11.3208370138
 10
16.4622851461
 20
11.3220763138
 10
16.4658991815
 20
11.3237959662
 10
16.4692425228
 20
11.3259602557
 10
16.472246002
 20
11.3285307771
 10
16.4748655246
 20
11.3314808767
 10
16.4770898195
 20
11.3347875247
 10
16.4788835481
 20
11.3384001181
 10
16.4801914591
 20
11.3422147831
 10
16.4809789035
 20
11.3461138824
 10
16.4812379276
 20
11.3499729269
  0
LINE
  5
374
100
AcDbEntity
  8
0
100
AcDbLine
 62
7
  6
CONTINUOUS
 10
16.0676218949
 20
11.8655692905
 11
15.8962045005
 21
12.1624729269
  0
LINE
  5
375
100
AcDbEntity
  8
0
100
AcDbLine
 62
7
  6
CONTINUOUS
 10
18.6953124876
 20
4.7738625179
 11
18.6953124876
 21
4.6336389807
  0
LINE
  5
376
100
AcDbEntity
  8
0
100
AcDbLine
 62
7
  6
CONTINUOUS
 10
18.7326975207
 20
11.2699731798
 11
18.7326975207
 21
12.0299726741
  0
LINE
  5
377
100
AcDbEntity
  8
0
100
AcDbLine
 62
9
  6
CONTINUOUS
 10
18.8116608444
 20
11.2609253079
 11
18.8116608444
 21
12.039020546
  0
LWPOLYLINE
  5
378
100
AcDbEntity
  8
0
100
AcDbPolyline
 62
7
  6
CONTINUOUS
 90
12
 70
0
 10
21.1053242741
 20
11.438502182
 10
21.1063984146
 20
11.4410853498
 10
21.1075116134
 20
11.4438040614
 10
21.1086571096
 20
11.4466456034
 10
21.1098351807
 20
11.4496150742
 10
21.1110411939
 20
11.4527090722
 10
21.1122688086
 20
11.4559181974
 10
21.1135126516
 20
11.4592326988
 10
21.1147706586
 20
11.4626515353
 10
21.1160384568
 20
11.4661703402
 10
21.1173110657
 20
11.4697816006
 10
21.118584291
 20
11.4734776469
  0
LINE
  5
379
100
AcDbEntity
  8
0
100
AcDbLine
 62
7
  6
CONTINUOUS
 10
21.1042971848
 20
11.4360670735
 11
21.1053242741
 21
11.438502182
  0
LINE
  5
37A
100
AcDbEntity
  8
0
100
AcDbLine
 62
7
  6
CONTINUOUS
 10
21.1024023942
 20
11.4316551209
 11
21.1042971848
 21
11.4360670735
  0
LINE
  5
37B
100
AcDbEntity
  8
0
100
AcDbLine
 62
7
  6
CONTINUOUS
 10
21.1007400396
 20
11.4278725061
 11
21.1024023942
 21
11.4316551209
  0
LINE
  5
37C
100
AcDbEntity
  8
0
100
AcDbLine
 62
7
  6
CONTINUOUS
 10
21.0993136406
 20
11.4246852248
 11
21.1007400396
 21
11.4278725061
  0
LINE
  5
37D
100
AcDbEntity
  8
0
100
AcDbLine
 62
7
  6
CONTINUOUS
 10
21.098094266
 20
11.4220042427
 11
21.0993136406
 21
11.4246852248
  0
LINE
  5
37E
100
AcDbEntity
  8
0
100
AcDbLine
 62
7
  6
CONTINUOUS
 10
21.0967085572
 20
11.419002689
 11
21.098094266
 21
11.4220042427
  0
LINE
  5
37F
100
AcDbEntity
  8
0
100
AcDbLine
 62
7
  6
CONTINUOUS
 10
21.0960588672
 20
11.4176125093
 11
21.0967085572
 21
11.419002689
  0
LINE
  5
380
100
AcDbEntity
  8
0
100
AcDbLine
 62
7
  6
CONTINUOUS
 10
18.9803124876
 20
4.9443628139
 11
18.9803124876
 21
4.918326164
  0
LWPOLYLINE
  5
381
100
AcDbEntity
  8
0
100
AcDbPolyline
 62
7
  6
CONTINUOUS
 90
9
 70
0
 10
21.118584291
 20
11.4734776469
 10
21.1198555138
 20
11.4772549832
 10
21.1211210656
 20
11.4811090866
 10
21.1223771801
 20
11.485033903
 10
21.123620629
 20
11.4890231359
 10
21.1248489273
 20
11.4930719871
 10
21.1260591892
 20
11.4971759111
 10
21.1272485171
 20
11.5013294544
 10
21.1277717177
 20
11.503197112
  0
LINE
  5
382
100
AcDbEntity
  8
0
100
AcDbLine
 62
7
  6
CONTINUOUS
 10
20.9803483883
 20
5.7685915189
 11
21.0219395304
 21
5.6742492611
  0
LINE
  5
383
100
AcDbEntity
  8
0
100
AcDbLine
 62
7
  6
CONTINUOUS
 10
19.9653124876
 20
11.028541882
 11
19.9653124876
 21
10.9835467493
  0
LINE
  5
384
100
AcDbEntity
  8
0
100
AcDbLine
 62
7
  6
CONTINUOUS
 10
19.9653124876
 20
8.5538095847
 11
19.9653124876
 21
8.508814452
  0
LINE
  5
385
100
AcDbEntity
  8
0
100
AcDbLine
 62
7
  6
CONTINUOUS
 10
20.1103124876
 20
11.3443061976
 11
20.1103124876
 21
11.3531496249
  0
LINE
  5
386
100
AcDbEntity
  8
0
100
AcDbLine
 62
7
  6
CONTINUOUS
 10
20.1128124876
 20
11.6499729269
 11
20.1128124876
 21
11.3894529736
  0
LINE
  5
387
100
AcDbEntity
  8
0
100
AcDbLine
 62
7
  6
CONTINUOUS
 10
20.1163124876
 20
5.5235944808
 11
20.1163124876
 21
5.508273592
  0
LINE
  5
388
100
AcDbEntity
  8
0
100
AcDbLine
 62
7
  6
CONTINUOUS
 10
20.1303124876
 20
11.3757334673
 11
20.1303124876
 21
11.3621116513
  0
LINE
  5
389
100
AcDbEntity
  8
0
100
AcDbLine
 62
7
  6
CONTINUOUS
 10
20.2253124876
 20
8.3290041311
 11
20.2253124876
 21
5.7336264884
  0
LINE
  5
38A
100
AcDbEntity
  8
0
100
AcDbLine
 62
7
  6
CONTINUOUS
 10
20.2202765868
 20
5.7685915189
 11
20.1786854448
 21
5.6742492611
  0
LINE
  5
38B
100
AcDbEntity
  8
0
100
AcDbLine
 62
7
  6
CONTINUOUS
 10
20.9753124876
 20
8.3290041309
 11
20.9753124876
 21
5.7336264884
  0
LINE
  5
38C
100
AcDbEntity
  8
0
100
AcDbLine
 62
7
  6
CONTINUOUS
 10
21.0703124876
 20
11.3757334673
 11
21.0703124876
 21
11.3621080296
  0
LINE
  5
38D
100
AcDbEntity
  8
0
100
AcDbLine
 62
7
  6
CONTINUOUS
 10
21.0843124876
 20
5.5235944808
 11
21.0843124876
 21
5.508273592
  0
LINE
  5
38E
100
AcDbEntity
  8
0
100
AcDbLine
 62
7
  6
CONTINUOUS
 10
21.0878124876
 20
11.6499729269
 11
21.0878124876
 21
11.3894510953
  0
LINE
  5
38F
100
AcDbEntity
  8
0
100
AcDbLine
 62
7
  6
CONTINUOUS
 10
21.0903124876
 20
11.3443101402
 11
21.0903124876
 21
11.3531496249
  0
LINE
  5
390
100
AcDbEntity
  8
0
100
AcDbLine
 62
7
  6
CONTINUOUS
 10
21.2353124876
 20
11.028541882
 11
21.2353124876
 21
10.9835467493
  0
LINE
  5
391
100
AcDbEntity
  8
0
100
AcDbLine
 62
7
  6
CONTINUOUS
 10
21.2353124876
 20
8.5538095847
 11
21.2353124876
 21
8.508814452
  0
LINE
  5
392
100
AcDbEntity
  8
0
100
AcDbLine
 62
7
  6
CONTINUOUS
 10
22.2203124876
 20
4.9443628139
 11
22.2203124876
 21
4.918326164
  0
LINE
  5
393
100
AcDbEntity
  8
0
100
AcDbLine
 62
7
  6
CONTINUOUS
 10
21.0967495298
 20
11.8808550187
 11
21.0956852544
 21
11.8831280353
  0
LINE
  5
394
100
AcDbEntity
  8
0
100
AcDbLine
 62
7
  6
CONTINUOUS
 10
21.0981926095
 20
11.8777269196
 11
21.0967495298
 21
11.8808550187
  0
LINE
  5
395
100
AcDbEntity
  8
0
100
AcDbLine
 62
7
  6
CONTINUOUS
 10
21.0994772435
 20
11.8748977446
 11
21.0981926095
 21
11.8777269196
  0
LINE
  5
396
100
AcDbEntity
  8
0
100
AcDbLine
 62
7
  6
CONTINUOUS
 10
21.1009663515
 20
11.8715630135
 11
21.0994772435
 21
11.8748977446
  0
LINE
  5
397
100
AcDbEntity
  8
0
100
AcDbLine
 62
7
  6
CONTINUOUS
 10
21.1026598632
 20
11.8676974698
 11
21.1009663515
 21
11.8715630135
  0
LWPOLYLINE
  5
398
100
AcDbEntity
  8
0
100
AcDbPolyline
 62
7
  6
CONTINUOUS
 90
4
 70
0
 10
21.1061462098
 20
11.8594663918
 10
21.1054987708
 20
11.8610266545
 10
21.1045129275
 20
11.86336994
 10
21.1026598632
 20
11.8676974698
  0
LINE
  5
399
100
AcDbEntity
  8
0
100
AcDbLine
 62
7
  6
CONTINUOUS
 10
21.1195781167
 20
11.8235229061
 11
21.1187231926
 21
11.8260501501
  0
LWPOLYLINE
  5
39A
100
AcDbEntity
  8
0
100
AcDbPolyline
 62
7
  6
CONTINUOUS
 90
8
 70
0
 10
21.1277717207
 20
11.7967487391
 10
21.1271391169
 20
11.7990037269
 10
21.1259007946
 20
11.8033138652
 10
21.1246496067
 20
11.8075385702
 10
21.1233888402
 20
11.8116744633
 10
21.1221214214
 20
11.8157194559
 10
21.1208500594
 20
11.819670313
 10
21.1195781167
 20
11.8235229061
  0
LINE
  5
39B
100
AcDbEntity
  8
0
100
AcDbLine
 62
7
  6
CONTINUOUS
 10
22.5053124876
 20
4.7738625179
 11
22.5053124876
 21
4.6336389807
  0
ARC
  5
39C
100
AcDbEntity
  8
0
100
AcDbCircle
 62
7
  6
CONTINUOUS
 10
1.8507177917
 20
11.2392369727
 40
0.1199997729
100
AcDbArc
 50
99.5572542794
 51
132.4191124384
  0
ARC
  5
39D
100
AcDbEntity
  8
0
100
AcDbCircle
 62
7
  6
CONTINUOUS
 10
-0.5720725456
 20
11.2699729269
 40
0.04
100
AcDbArc
 50
193.0728923157
 51
360.0
  0
ARC
  5
39E
100
AcDbEntity
  8
0
100
AcDbCircle
 62
7
  6
CONTINUOUS
 10
1.0643870476
 20
11.6499729269
 40
1.72
100
AcDbArc
 50
166.9271076843
 51
193.0728923157
  0
ARC
  5
39F
100
AcDbEntity
  8
0
100
AcDbCircle
 62
7
  6
CONTINUOUS
 10
2.6003124876
 20
11.6499729269
 40
1.1355877937
100
AcDbArc
 50
194.1627585669
 51
165.8372414331
  0
ARC
  5
3A0
100
AcDbEntity
  8
0
100
AcDbCircle
 62
9
  6
CONTINUOUS
 10
2.6003124876
 20
11.6499729269
 40
1.1018951051
100
AcDbArc
 50
194.5389053175
 51
165.4610946825
  0
ARC
  5
3A1
100
AcDbEntity
  8
0
100
AcDbCircle
 62
9
  6
CONTINUOUS
 10
2.6003124876
 20
11.6499729269
 40
1.0686940646
100
AcDbArc
 50
194.9346962646
 51
165.0653037354
  0
ARC
  5
3A2
100
AcDbEntity
  8
0
100
AcDbCircle
 62
9
  6
CONTINUOUS
 10
2.6003124876
 20
11.6499729269
 40
0.9981262705
100
AcDbArc
 50
195.8687894361
 51
164.1312105639
  0
ARC
  5
3A3
100
AcDbEntity
  8
0
100
AcDbCircle
 62
9
  6
CONTINUOUS
 10
2.6003124876
 20
11.6499729269
 40
0.9302280237
100
AcDbArc
 50
161.2636875765
 51
163.0979139997
  0
ARC
  5
3A4
100
AcDbEntity
  8
0
100
AcDbCircle
 62
9
  6
CONTINUOUS
 10
2.6003124876
 20
11.6499729269
 40
0.9302280237
100
AcDbArc
 50
196.9020860003
 51
198.7363124235
  0
ARC
  5
3A5
100
AcDbEntity
  8
0
100
AcDbCircle
 62
9
  6
CONTINUOUS
 10
2.6003124876
 20
11.6499729269
 40
0.9302280237
100
AcDbArc
 50
200.1639776067
 51
159.8360223933
  0
ARC
  5
3A6
100
AcDbEntity
  8
0
100
AcDbCircle
 62
9
  6
CONTINUOUS
 10
2.6003124876
 20
11.6499729269
 40
0.7616485311
100
AcDbArc
 50
201.6035577847
 51
158.3964422139
  0
ARC
  5
3A7
100
AcDbEntity
  8
0
100
AcDbCircle
 62
7
  6
CONTINUOUS
 10
2.6003124876
 20
11.6499729269
 40
0.6917203626
100
AcDbArc
 50
202.4114957507
 51
157.5885044376
  0
ARC
  5
3A8
100
AcDbEntity
  8
0
100
AcDbCircle
 62
9
  6
CONTINUOUS
 10
2.6003124876
 20
11.6499729269
 40
0.5085759512
100
AcDbArc
 50
204.8849574131
 51
155.1150425918
  0
CIRCLE
  5
3A9
100
AcDbEntity
  8
0
100
AcDbCircle
 62
7
  6
CONTINUOUS
 10
2.6003124876
 20
11.6499729269
 40
0.4959494645
  0
CIRCLE
  5
3AA
100
AcDbEntity
  8
0
100
AcDbCircle
 62
9
  6
CONTINUOUS
 10
2.6003124876
 20
11.6499729269
 40
0.467968562
  0
CIRCLE
  5
3AB
100
AcDbEntity
  8
0
100
AcDbCircle
 62
9
  6
CONTINUOUS
 10
2.6003124876
 20
11.6499729269
 40
0.3452421718
  0
ARC
  5
3AC
100
AcDbEntity
  8
0
100
AcDbCircle
 62
7
  6
CONTINUOUS
 10
1.8507177917
 20
12.0607088812
 40
0.1199997729
100
AcDbArc
 50
227.5808875616
 51
260.4427457206
  0
ARC
  5
3AD
100
AcDbEntity
  8
0
100
AcDbCircle
 62
7
  6
CONTINUOUS
 10
-0.5720725456
 20
12.0299729269
 40
0.04
100
AcDbArc
 50
0.0
 51
166.9271076843
  0
ARC
  5
3AE
100
AcDbEntity
  8
0
100
AcDbCircle
 62
7
  6
CONTINUOUS
 10
6.6003124876
 20
11.6499729269
 40
1.4544334851
100
AcDbArc
 50
299.7196019209
 51
240.2804093858
  0
ARC
  5
3AF
100
AcDbEntity
  8
0
100
AcDbCircle
 62
9
  6
CONTINUOUS
 10
6.6003124876
 20
11.6499729269
 40
1.4530705181
100
AcDbArc
 50
299.7660418347
 51
240.2334393643
  0
ARC
  5
3B0
100
AcDbEntity
  8
0
100
AcDbCircle
 62
9
  6
CONTINUOUS
 10
6.6003124876
 20
11.6499729269
 40
1.4268779325
100
AcDbArc
 50
300.44363099
 51
239.5580010659
  0
ARC
  5
3B1
100
AcDbEntity
  8
0
100
AcDbCircle
 62
9
  6
CONTINUOUS
 10
6.6003124876
 20
11.6499729269
 40
1.3248052694
100
AcDbArc
 50
303.5157993512
 51
236.4850846995
  0
ARC
  5
3B2
100
AcDbEntity
  8
0
100
AcDbCircle
 62
7
  6
CONTINUOUS
 10
10.6003124876
 20
11.6499729269
 40
1.1355877937
100
AcDbArc
 50
14.163145671
 51
345.836854329
  0
ARC
  5
3B3
100
AcDbEntity
  8
0
100
AcDbCircle
 62
9
  6
CONTINUOUS
 10
10.6003124876
 20
11.6499729269
 40
1.1018951051
100
AcDbArc
 50
14.5418203008
 51
345.4581796992
  0
ARC
  5
3B4
100
AcDbEntity
  8
0
100
AcDbCircle
 62
9
  6
CONTINUOUS
 10
10.6003124876
 20
11.6499729269
 40
1.0686940646
100
AcDbArc
 50
14.9382510525
 51
345.0617489475
  0
ARC
  5
3B5
100
AcDbEntity
  8
0
100
AcDbCircle
 62
9
  6
CONTINUOUS
 10
6.6003124876
 20
11.6499729269
 40
1.0243078011
100
AcDbArc
 50
324.37436078
 51
215.6256587718
  0
ARC
  5
3B6
100
AcDbEntity
  8
0
100
AcDbCircle
 62
7
  6
CONTINUOUS
 10
6.6003124876
 20
11.6499729269
 40
1.0147992336
100
AcDbArc
 50
324.4029053952
 51
215.5970948148
  0
ARC
  5
3B7
100
AcDbEntity
  8
0
100
AcDbCircle
 62
9
  6
CONTINUOUS
 10
10.6003124876
 20
11.6499729269
 40
0.9981262705
100
AcDbArc
 50
15.8689801432
 51
344.1310198568
  0
CIRCLE
  5
3B8
100
AcDbEntity
  8
0
100
AcDbCircle
 62
7
  6
CONTINUOUS
 10
6.6003124876
 20
11.6499729269
 40
0.96793125
  0
ARC
  5
3B9
100
AcDbEntity
  8
0
100
AcDbCircle
 62
9
  6
CONTINUOUS
 10
10.6003124876
 20
11.6499729269
 40
0.9302280237
100
AcDbArc
 50
341.3136575771
 51
343.0998730141
  0
ARC
  5
3BA
100
AcDbEntity
  8
0
100
AcDbCircle
 62
9
  6
CONTINUOUS
 10
10.6003124876
 20
11.6499729269
 40
0.9302280237
100
AcDbArc
 50
16.9001269859
 51
18.6863424229
  0
ARC
  5
3BB
100
AcDbEntity
  8
0
100
AcDbCircle
 62
9
  6
CONTINUOUS
 10
10.6003124876
 20
11.6499729269
 40
0.9302280237
100
AcDbArc
 50
20.1594361601
 51
339.8405638399
  0
CIRCLE
  5
3BC
100
AcDbEntity
  8
0
100
AcDbCircle
 62
9
  6
CONTINUOUS
 10
6.6003124876
 20
11.6499729269
 40
0.85060625
  0
ARC
  5
3BD
100
AcDbEntity
  8
0
100
AcDbCircle
 62
7
  6
CONTINUOUS
 10
6.6003124876
 20
11.6499729269
 40
0.8065
100
AcDbArc
 50
193.1429247542
 51
194.2483795936
  0
ARC
  5
3BE
100
AcDbEntity
  8
0
100
AcDbCircle
 62
7
  6
CONTINUOUS
 10
6.6003124876
 20
11.6499729269
 40
0.8065
100
AcDbArc
 50
216.6211856238
 51
217.7266404632
  0
ARC
  5
3BF
100
AcDbEntity
  8
0
100
AcDbCircle
 62
7
  6
CONTINUOUS
 10
6.6003124876
 20
11.6499729269
 40
0.8065
100
AcDbArc
 50
244.0124899716
 51
245.117944811
  0
ARC
  5
3C0
100
AcDbEntity
  8
0
100
AcDbCircle
 62
7
  6
CONTINUOUS
 10
6.6003124876
 20
11.6499729269
 40
0.8065
100
AcDbArc
 50
294.882055189
 51
295.9875100284
  0
ARC
  5
3C1
100
AcDbEntity
  8
0
100
AcDbCircle
 62
7
  6
CONTINUOUS
 10
6.6003124876
 20
11.6499729269
 40
0.8065
100
AcDbArc
 50
322.2733595368
 51
323.3788143762
  0
ARC
  5
3C2
100
AcDbEntity
  8
0
100
AcDbCircle
 62
7
  6
CONTINUOUS
 10
6.6003124876
 20
11.6499729269
 40
0.8065
100
AcDbArc
 50
345.7516204064
 51
346.8570752458
  0
ARC
  5
3C3
100
AcDbEntity
  8
0
100
AcDbCircle
 62
7
  6
CONTINUOUS
 10
6.6003124876
 20
11.6499729269
 40
0.8065
100
AcDbArc
 50
13.1429247542
 51
14.2483795936
  0
ARC
  5
3C4
100
AcDbEntity
  8
0
100
AcDbCircle
 62
7
  6
CONTINUOUS
 10
6.6003124876
 20
11.6499729269
 40
0.8065
100
AcDbArc
 50
36.6211856238
 51
37.7266404632
  0
ARC
  5
3C5
100
AcDbEntity
  8
0
100
AcDbCircle
 62
7
  6
CONTINUOUS
 10
6.6003124876
 20
11.6499729269
 40
0.8065
100
AcDbArc
 50
64.0124899716
 51
65.117944811
  0
ARC
  5
3C6
100
AcDbEntity
  8
0
100
AcDbCircle
 62
7
  6
CONTINUOUS
 10
6.6003124876
 20
11.6499729269
 40
0.8065
100
AcDbArc
 50
114.882055189
 51
115.9875100284
  0
ARC
  5
3C7
100
AcDbEntity
  8
0
100
AcDbCircle
 62
7
  6
CONTINUOUS
 10
6.6003124876
 20
11.6499729269
 40
0.8065
100
AcDbArc
 50
142.2733595368
 51
143.3788143762
  0
ARC
  5
3C8
100
AcDbEntity
  8
0
100
AcDbCircle
 62
7
  6
CONTINUOUS
 10
6.6003124876
 20
11.6499729269
 40
0.8065
100
AcDbArc
 50
165.7516204064
 51
166.8570752458
  0
ARC
  5
3C9
100
AcDbEntity
  8
0
100
AcDbCircle
 62
9
  6
CONTINUOUS
 10
10.6003124876
 20
11.6499729269
 40
0.7616485311
100
AcDbArc
 50
21.6013857338
 51
338.3986142676
  0
CIRCLE
  5
3CA
100
AcDbEntity
  8
0
100
AcDbCircle
 62
9
  6
CONTINUOUS
 10
6.6003124876
 20
11.6499729269
 40
0.7565
  0
ARC
  5
3CB
100
AcDbEntity
  8
0
100
AcDbCircle
 62
7
  6
CONTINUOUS
 10
10.6003124876
 20
11.6499729269
 40
0.6917203626
100
AcDbArc
 50
22.4102521653
 51
337.5897479804
  0
CIRCLE
  5
3CC
100
AcDbEntity
  8
0
100
AcDbCircle
 62
7
  6
CONTINUOUS
 10
6.6003124876
 20
11.6499729269
 40
0.625
  0
CIRCLE
  5
3CD
100
AcDbEntity
  8
0
100
AcDbCircle
 62
9
  6
CONTINUOUS
 10
6.6003124876
 20
11.6499729269
 40
0.6
  0
ARC
  5
3CE
100
AcDbEntity
  8
0
100
AcDbCircle
 62
9
  6
CONTINUOUS
 10
10.6003124876
 20
11.6499729269
 40
0.5085759512
100
AcDbArc
 50
24.887093062
 51
335.1129069335
  0
CIRCLE
  5
3CF
100
AcDbEntity
  8
0
100
AcDbCircle
 62
7
  6
CONTINUOUS
 10
10.6003124876
 20
11.6499729269
 40
0.4959494645
  0
CIRCLE
  5
3D0
100
AcDbEntity
  8
0
100
AcDbCircle
 62
7
  6
CONTINUOUS
 10
6.6003124876
 20
11.6499729269
 40
0.478914058
  0
CIRCLE
  5
3D1
100
AcDbEntity
  8
0
100
AcDbCircle
 62
9
  6
CONTINUOUS
 10
10.6003124876
 20
11.6499729269
 40
0.467968562
  0
CIRCLE
  5
3D2
100
AcDbEntity
  8
0
100
AcDbCircle
 62
9
  6
CONTINUOUS
 10
6.6003124876
 20
11.6499729269
 40
0.4513477798
  0
CIRCLE
  5
3D3
100
AcDbEntity
  8
0
100
AcDbCircle
 62
9
  6
CONTINUOUS
 10
10.6003124876
 20
11.6499729269
 40
0.3452421714
  0
CIRCLE
  5
3D4
100
AcDbEntity
  8
0
100
AcDbCircle
 62
9
  6
CONTINUOUS
 10
6.6003124876
 20
11.6499729269
 40
0.3284454015
  0
ARC
  5
3D5
100
AcDbEntity
  8
0
100
AcDbCircle
 62
9
  6
CONTINUOUS
 10
20.6013970504
 20
6.2131319664
 40
3.0805224302
100
AcDbArc
 50
269.9798278512
 51
277.6959103431
  0
ARC
  5
3D6
100
AcDbEntity
  8
0
100
AcDbCircle
 62
9
  6
CONTINUOUS
 10
20.5992280084
 20
6.2131319608
 40
3.0805224302
100
AcDbArc
 50
262.3040881001
 51
270.0201705921
  0
ARC
  5
3D7
100
AcDbEntity
  8
0
100
AcDbCircle
 62
9
  6
CONTINUOUS
 10
20.6136140451
 20
6.1105653978
 40
2.977236631
100
AcDbArc
 50
277.7272462588
 51
279.4182721027
  0
ARC
  5
3D8
100
AcDbEntity
  8
0
100
AcDbCircle
 62
9
  6
CONTINUOUS
 10
20.585667113
 20
6.1016511587
 40
2.9682226556
100
AcDbArc
 50
260.5791600345
 51
262.275321604
  0
ARC
  5
3D9
100
AcDbEntity
  8
0
100
AcDbCircle
 62
9
  6
CONTINUOUS
 10
20.5997925781
 20
6.5029444365
 40
2.8725054554
100
AcDbArc
 50
263.6411767318
 51
270.0103702558
  0
ARC
  5
3DA
100
AcDbEntity
  8
0
100
AcDbCircle
 62
9
  6
CONTINUOUS
 10
20.6010056871
 20
6.4983180712
 40
2.8678791268
100
AcDbArc
 50
269.9861509475
 51
277.0061197795
  0
ARC
  5
3DB
100
AcDbEntity
  8
0
100
AcDbCircle
 62
9
  6
CONTINUOUS
 10
20.2790995473
 20
5.5333319271
 40
1.8437853048
100
AcDbArc
 50
238.941816476
 51
241.1098470183
  0
ARC
  5
3DC
100
AcDbEntity
  8
0
100
AcDbCircle
 62
9
  6
CONTINUOUS
 10
20.976596922
 20
5.2784795719
 40
1.7957123113
100
AcDbArc
 50
301.8331740164
 51
301.9850230033
  0
ARC
  5
3DD
100
AcDbEntity
  8
0
100
AcDbCircle
 62
9
  6
CONTINUOUS
 10
20.2240268461
 20
5.2784776314
 40
1.795710026
100
AcDbArc
 50
238.0148893399
 51
238.1667961724
  0
ARC
  5
3DE
100
AcDbEntity
  8
0
100
AcDbCircle
 62
9
  6
CONTINUOUS
 10
20.9895043129
 20
5.2578862105
 40
1.7714082853
100
AcDbArc
 50
301.9837414283
 51
303.1527798186
  0
ARC
  5
3DF
100
AcDbEntity
  8
0
100
AcDbCircle
 62
9
  6
CONTINUOUS
 10
20.2111194928
 20
5.2578843855
 40
1.7714061178
100
AcDbArc
 50
236.847219572
 51
238.016170663
  0
ARC
  5
3E0
100
AcDbEntity
  8
0
100
AcDbCircle
 62
7
  6
CONTINUOUS
 10
21.8594700745
 20
4.308017063
 40
0.8907774173
100
AcDbArc
 50
352.2912735889
 51
2.9595191855
  0
ARC
  5
3E1
100
AcDbEntity
  8
0
100
AcDbCircle
 62
7
  6
CONTINUOUS
 10
19.3411549005
 20
4.3080170629
 40
0.8907774172
100
AcDbArc
 50
177.0404808127
 51
187.7087261901
  0
ARC
  5
3E2
100
AcDbEntity
  8
0
100
AcDbCircle
 62
9
  6
CONTINUOUS
 10
19.6499889751
 20
4.9443657028
 40
0.6696764615
100
AcDbArc
 50
180.0002471662
 51
182.2250727728
  0
ARC
  5
3E3
100
AcDbEntity
  8
0
100
AcDbCircle
 62
9
  6
CONTINUOUS
 10
20.8838901291
 20
5.5236055759
 40
0.2004223588
100
AcDbArc
 50
355.6229905421
 51
359.996828191
  0
ARC
  5
3E4
100
AcDbEntity
  8
0
100
AcDbCircle
 62
9
  6
CONTINUOUS
 10
20.3165287349
 20
5.5235976936
 40
0.2002162474
100
AcDbArc
 50
180.0009194026
 51
184.3792618642
  0
ARC
  5
3E5
100
AcDbEntity
  8
0
100
AcDbCircle
 62
7
  6
CONTINUOUS
 10
20.8023255198
 20
5.690041853
 40
0.1945820911
100
AcDbArc
 50
23.8086822618
 51
27.0970748253
  0
ARC
  5
3E6
100
AcDbEntity
  8
0
100
AcDbCircle
 62
7
  6
CONTINUOUS
 10
20.3969877566
 20
5.6906661775
 40
0.1931299947
100
AcDbArc
 50
152.89055944
 51
156.2036834746
  0
ARC
  5
3E7
100
AcDbEntity
  8
0
100
AcDbCircle
 62
7
  6
CONTINUOUS
 10
12.1362379276
 20
11.6499729269
 40
1.72
100
AcDbArc
 50
346.9271076843
 51
13.0728923157
  0
ARC
  5
3E8
100
AcDbEntity
  8
0
100
AcDbCircle
 62
7
  6
CONTINUOUS
 10
15.6003124876
 20
11.6499729269
 40
1.1355877937
100
AcDbArc
 50
14.165726479
 51
345.834273521
  0
ARC
  5
3E9
100
AcDbEntity
  8
0
100
AcDbCircle
 62
9
  6
CONTINUOUS
 10
15.6003124876
 20
11.6499729269
 40
1.1018951051
100
AcDbArc
 50
14.5430612806
 51
345.4569387194
  0
ARC
  5
3EA
100
AcDbEntity
  8
0
100
AcDbCircle
 62
9
  6
CONTINUOUS
 10
15.6003124876
 20
11.6499729269
 40
1.0686940646
100
AcDbArc
 50
14.9384733567
 51
345.0615266433
  0
ARC
  5
3EB
100
AcDbEntity
  8
0
100
AcDbCircle
 62
9
  6
CONTINUOUS
 10
15.6003124876
 20
11.6499729269
 40
0.9981262705
100
AcDbArc
 50
15.8675949828
 51
344.1324050172
  0
ARC
  5
3EC
100
AcDbEntity
  8
0
100
AcDbCircle
 62
9
  6
CONTINUOUS
 10
15.6003124876
 20
11.6499729269
 40
0.9302280237
100
AcDbArc
 50
341.3358782881
 51
343.1033112898
  0
ARC
  5
3ED
100
AcDbEntity
  8
0
100
AcDbCircle
 62
9
  6
CONTINUOUS
 10
15.6003124876
 20
11.6499729269
 40
0.9302280237
100
AcDbArc
 50
16.8966887102
 51
18.6641217119
  0
ARC
  5
3EE
100
AcDbEntity
  8
0
100
AcDbCircle
 62
9
  6
CONTINUOUS
 10
15.6003124876
 20
11.6499729269
 40
0.9302280237
100
AcDbArc
 50
20.1303129584
 51
339.8696870416
  0
ARC
  5
3EF
100
AcDbEntity
  8
0
100
AcDbCircle
 62
9
  6
CONTINUOUS
 10
15.6003124876
 20
11.6499729269
 40
0.7616485311
100
AcDbArc
 50
21.5981246254
 51
338.4018753762
  0
ARC
  5
3F0
100
AcDbEntity
  8
0
100
AcDbCircle
 62
7
  6
CONTINUOUS
 10
15.6003124876
 20
11.6499729269
 40
0.6917203626
100
AcDbArc
 50
22.407957978
 51
337.5920427567
  0
ARC
  5
3F1
100
AcDbEntity
  8
0
100
AcDbCircle
 62
9
  6
CONTINUOUS
 10
15.6003124876
 20
11.6499729269
 40
0.5085759512
100
AcDbArc
 50
24.8850454323
 51
335.1149545628
  0
CIRCLE
  5
3F2
100
AcDbEntity
  8
0
100
AcDbCircle
 62
7
  6
CONTINUOUS
 10
15.6003124876
 20
11.6499729269
 40
0.4959494645
  0
CIRCLE
  5
3F3
100
AcDbEntity
  8
0
100
AcDbCircle
 62
9
  6
CONTINUOUS
 10
15.6003124876
 20
11.6499729269
 40
0.4679685626
  0
CIRCLE
  5
3F4
100
AcDbEntity
  8
0
100
AcDbCircle
 62
9
  6
CONTINUOUS
 10
15.6003124876
 20
11.6499729269
 40
0.3452421707
  0
ARC
  5
3F5
100
AcDbEntity
  8
0
100
AcDbCircle
 62
7
  6
CONTINUOUS
 10
11.3499071834
 20
12.0607088812
 40
0.1199997729
100
AcDbArc
 50
279.5572542794
 51
312.4191124384
  0
ARC
  5
3F6
100
AcDbEntity
  8
0
100
AcDbCircle
 62
7
  6
CONTINUOUS
 10
11.3499071834
 20
11.2392369727
 40
0.1199997729
100
AcDbArc
 50
47.5808875616
 51
80.4427457206
  0
ARC
  5
3F7
100
AcDbEntity
  8
0
100
AcDbCircle
 62
7
  6
CONTINUOUS
 10
13.7726975207
 20
11.2699729269
 40
0.04
100
AcDbArc
 50
180.0
 51
346.9271076843
  0
ARC
  5
3F8
100
AcDbEntity
  8
0
100
AcDbCircle
 62
7
  6
CONTINUOUS
 10
13.7726975207
 20
12.0299729269
 40
0.04
100
AcDbArc
 50
13.0728923157
 51
180.0
  0
ARC
  5
3F9
100
AcDbEntity
  8
0
100
AcDbCircle
 62
9
  6
CONTINUOUS
 10
20.3389161085
 20
8.50878923
 40
0.3736036218
100
AcDbArc
 50
173.1324929337
 51
179.9961319539
  0
ARC
  5
3FA
100
AcDbEntity
  8
0
100
AcDbCircle
 62
9
  6
CONTINUOUS
 10
20.8617088666
 20
8.50878923
 40
0.3736036218
100
AcDbArc
 50
0.0038680462
 51
6.8675070662
  0
ARC
  5
3FB
100
AcDbEntity
  8
0
100
AcDbCircle
 62
7
  6
CONTINUOUS
 10
16.3499071834
 20
11.2392369727
 40
0.1199997729
100
AcDbArc
 50
47.5808875616
 51
80.4427457206
  0
ARC
  5
3FC
100
AcDbEntity
  8
0
100
AcDbCircle
 62
7
  6
CONTINUOUS
 10
17.1362379276
 20
11.6499729269
 40
1.72
100
AcDbArc
 50
346.9271076843
 51
13.0728923157
  0
ARC
  5
3FD
100
AcDbEntity
  8
0
100
AcDbCircle
 62
7
  6
CONTINUOUS
 10
16.3499071834
 20
12.0607088812
 40
0.1199997729
100
AcDbArc
 50
279.5572542794
 51
312.4191124384
  0
ARC
  5
3FE
100
AcDbEntity
  8
0
100
AcDbCircle
 62
9
  6
CONTINUOUS
 10
20.3389161085
 20
10.9835215273
 40
0.3736036218
100
AcDbArc
 50
173.1324929338
 51
179.9961319538
  0
ARC
  5
3FF
100
AcDbEntity
  8
0
100
AcDbCircle
 62
9
  6
CONTINUOUS
 10
20.8617088666
 20
10.9835215273
 40
0.3736036218
100
AcDbArc
 50
0.0038680461
 51
6.8675070662
  0
ARC
  5
400
100
AcDbEntity
  8
0
100
AcDbCircle
 62
7
  6
CONTINUOUS
 10
20.4200643538
 20
11.2642157507
 40
0.3104711663
100
AcDbArc
 50
158.9496238775
 51
160.6519891693
  0
ARC
  5
401
100
AcDbEntity
  8
0
100
AcDbCircle
 62
7
  6
CONTINUOUS
 10
20.7811317104
 20
11.2644258614
 40
0.3098627196
100
AcDbArc
 50
19.3463393246
 51
21.0520476287
  0
ARC
  5
402
100
AcDbEntity
  8
0
100
AcDbCircle
 62
7
  6
CONTINUOUS
 10
20.4162552713
 20
11.265559862
 40
0.3064318959
100
AcDbArc
 50
160.6531544608
 51
162.8158980504
  0
ARC
  5
403
100
AcDbEntity
  8
0
100
AcDbCircle
 62
7
  6
CONTINUOUS
 10
20.7850943515
 20
11.265799033
 40
0.3056689351
100
AcDbArc
 50
17.1811000718
 51
19.3495448157
  0
ARC
  5
404
100
AcDbEntity
  8
0
100
AcDbCircle
 62
7
  6
CONTINUOUS
 10
20.4062779467
 20
11.3531462576
 40
0.2959654592
100
AcDbArc
 50
177.4921575599
 51
179.9993481342
  0
ARC
  5
405
100
AcDbEntity
  8
0
100
AcDbCircle
 62
7
  6
CONTINUOUS
 10
20.7944504958
 20
11.3531485232
 40
0.2958619917
100
AcDbArc
 50
0.0002133349
 51
2.5082833663
  0
ARC
  5
406
100
AcDbEntity
  8
0
100
AcDbCircle
 62
7
  6
CONTINUOUS
 10
18.7726975207
 20
11.2699729269
 40
0.04
100
AcDbArc
 50
180.0
 51
346.9271076843
  0
ARC
  5
407
100
AcDbEntity
  8
0
100
AcDbCircle
 62
7
  6
CONTINUOUS
 10
18.7726975207
 20
12.0299729269
 40
0.04
100
AcDbArc
 50
13.0728923157
 51
180.0
  0
ARC
  5
408
100
AcDbEntity
  8
0
100
AcDbCircle
 62
7
  6
CONTINUOUS
 10
20.6003124876
 20
11.6499729269
 40
1.125
100
AcDbArc
 50
300.5470728842
 51
239.4522323958
  0
ARC
  5
409
100
AcDbEntity
  8
0
100
AcDbCircle
 62
9
  6
CONTINUOUS
 10
20.6003124876
 20
11.6499729269
 40
1.105
100
AcDbArc
 50
301.00421224
 51
238.9951357743
  0
ARC
  5
40A
100
AcDbEntity
  8
0
100
AcDbCircle
 62
7
  6
CONTINUOUS
 10
20.6003124876
 20
11.6499729269
 40
0.5475
100
AcDbArc
 50
332.9644643063
 51
207.0355356937
  0
ARC
  5
40B
100
AcDbEntity
  8
0
100
AcDbCircle
 62
9
  6
CONTINUOUS
 10
20.6003124876
 20
11.6499729269
 40
0.5175
100
AcDbArc
 50
340.4301071549
 51
199.5698928451
  0
ARC
  5
40C
100
AcDbEntity
  8
0
100
AcDbCircle
 62
7
  6
CONTINUOUS
 10
20.6003124876
 20
11.6499729269
 40
0.4875
100
AcDbArc
 50
0.0
 51
180.0
  0
SPLINE
  5
40D
100
AcDbEntity
  8
0
100
AcDbSpline
 62
7
  6
CONTINUOUS
 70
0
 71
3
 72
17
 73
13
 74
0
 42
0.0000001
 43
0.0000001
 44
0.0000000001
 40
0.0
 40
0.0
 40
0.0
 40
0.0
 40
0.250815981
 40
0.3762058564
 40
0.5014580939
 40
0.6264911428
 40
0.7512523622
 40
0.8135278727
 40
0.8757374379
 40
0.9378899509
 40
0.9689492292
 40
1.0
 40
1.0
 40
1.0
 40
1.0
 10
16.0490584855
 20
11.8605182886
 30
0.0
 10
16.0758019355
 20
11.8677010807
 30
0.0
 10
16.1157607087
 20
11.8790434062
 30
0.0
 10
16.1689920067
 20
11.8942572417
 30
0.0
 10
16.208931505
 20
11.905445009
 30
0.0
 10
16.2489337197
 20
11.9161437146
 30
0.0
 10
16.2823785604
 20
11.9244340522
 30
0.0
 10
16.3092083555
 20
11.9305529785
 30
0.0
 10
16.3293617957
 20
11.9348497763
 30
0.0
 10
16.346199249
 20
11.9381618726
 30
0.0
 10
16.3596942794
 20
11.9406323718
 30
0.0
 10
16.3664504581
 20
11.9418060506
 30
0.0
 10
16.3698310239
 20
11.9423752366
 30
0.0
  0
SPLINE
  5
40E
100
AcDbEntity
  8
0
100
AcDbSpline
 62
7
  6
CONTINUOUS
 70
0
 71
3
 72
17
 73
13
 74
0
 42
0.0000001
 43
0.0000001
 44
0.0000000001
 40
0.0
 40
0.0
 40
0.0
 40
0.0
 40
0.2508159874
 40
0.3762058621
 40
0.5014580973
 40
0.6264911438
 40
0.7512523614
 40
0.8135278716
 40
0.8757374368
 40
0.9378899503
 40
0.9689492288
 40
1.0
 40
1.0
 40
1.0
 40
1.0
 10
16.0490599547
 20
11.4394271706
 30
0.0
 10
16.0758032787
 20
11.4322443974
 30
0.0
 10
16.1157618665
 20
11.4209021152
 30
0.0
 10
16.1689929212
 20
11.4056883526
 30
0.0
 10
16.2089322376
 20
11.3945006442
 30
0.0
 10
16.2489342706
 20
11.3838019978
 30
0.0
 10
16.2823789593
 20
11.375511707
 30
0.0
 10
16.3092086323
 20
11.3693928146
 30
0.0
 10
16.3293619807
 20
11.36509604
 30
0.0
 10
16.3461993572
 20
11.3617839609
 30
0.0
 10
16.3596943258
 20
11.3593134739
 30
0.0
 10
16.3664504736
 20
11.3581398006
 30
0.0
 10
16.3698310239
 20
11.3575706172
 30
0.0
  0
SPLINE
  5
40F
100
AcDbEntity
  8
0
100
AcDbSpline
 62
7
  6
CONTINUOUS
 70
0
 71
3
 72
17
 73
13
 74
0
 42
0.0000001
 43
0.0000001
 44
0.0000000001
 40
0.0
 40
0.0
 40
0.0
 40
0.0
 40
0.2508159809
 40
0.3762058564
 40
0.5014580939
 40
0.6264911428
 40
0.7512523622
 40
0.8135278727
 40
0.8757374379
 40
0.9378899509
 40
0.9689492292
 40
1.0
 40
1.0
 40
1.0
 40
1.0
 10
11.0490584818
 20
11.8605182876
 30
0.0
 10
11.0758019321
 20
11.8677010797
 30
0.0
 10
11.1157607058
 20
11.8790434054
 30
0.0
 10
11.1689920044
 20
11.894257241
 30
0.0
 10
11.2089315031
 20
11.9054450085
 30
0.0
 10
11.2489337183
 20
11.9161437143
 30
0.0
 10
11.2823785594
 20
11.924434052
 30
0.0
 10
11.3092083548
 20
11.9305529784
 30
0.0
 10
11.3293617953
 20
11.9348497763
 30
0.0
 10
11.3461992488
 20
11.9381618726
 30
0.0
 10
11.3596942793
 20
11.9406323718
 30
0.0
 10
11.3664504581
 20
11.9418060506
 30
0.0
 10
11.3698310239
 20
11.9423752366
 30
0.0
  0
SPLINE
  5
410
100
AcDbEntity
  8
0
100
AcDbSpline
 62
7
  6
CONTINUOUS
 70
0
 71
3
 72
17
 73
13
 74
0
 42
0.0000001
 43
0.0000001
 44
0.0000000001
 40
0.0
 40
0.0
 40
0.0
 40
0.0
 40
0.2508159874
 40
0.3762058621
 40
0.5014580973
 40
0.6264911438
 40
0.7512523614
 40
0.8135278716
 40
0.8757374368
 40
0.9378899503
 40
0.9689492288
 40
1.0
 40
1.0
 40
1.0
 40
1.0
 10
11.0490599509
 20
11.4394271716
 30
0.0
 10
11.0758032753
 20
11.4322443984
 30
0.0
 10
11.1157618636
 20
11.4209021161
 30
0.0
 10
11.1689929189
 20
11.4056883533
 30
0.0
 10
11.2089322357
 20
11.3945006447
 30
0.0
 10
11.2489342692
 20
11.3838019982
 30
0.0
 10
11.2823789583
 20
11.3755117072
 30
0.0
 10
11.3092086316
 20
11.3693928147
 30
0.0
 10
11.3293619802
 20
11.3650960401
 30
0.0
 10
11.3461993569
 20
11.361783961
 30
0.0
 10
11.3596943257
 20
11.3593134739
 30
0.0
 10
11.3664504736
 20
11.3581398006
 30
0.0
 10
11.3698310239
 20
11.3575706172
 30
0.0
  0
SPLINE
  5
411
100
AcDbEntity
  8
0
100
AcDbSpline
 62
7
  6
CONTINUOUS
 70
0
 71
3
 72
17
 73
13
 74
0
 42
0.0000001
 43
0.0000001
 44
0.0000000001
 40
0.0
 40
0.0
 40
0.0
 40
0.0
 40
0.250815981
 40
0.3762058564
 40
0.5014580939
 40
0.6264911428
 40
0.7512523622
 40
0.8135278727
 40
0.8757374379
 40
0.9378899509
 40
0.9689492292
 40
1.0
 40
1.0
 40
1.0
 40
1.0
 10
2.1515664845
 20
11.4394275638
 30
0.0
 10
2.124823035
 20
11.4322447718
 30
0.0
 10
2.0848642623
 20
11.4209024464
 30
0.0
 10
2.0316329653
 20
11.4056886112
 30
0.0
 10
1.9916934676
 20
11.3945008442
 30
0.0
 10
1.9516912535
 20
11.3838021387
 30
0.0
 10
1.9182464133
 20
11.3755118013
 30
0.0
 10
1.8914166187
 20
11.3693928751
 30
0.0
 10
1.8712631788
 20
11.3650960773
 30
0.0
 10
1.8544257257
 20
11.3617839811
 30
0.0
 10
1.8409306956
 20
11.359313482
 30
0.0
 10
1.8341745169
 20
11.3581398032
 30
0.0
 10
1.8307939512
 20
11.3575706172
 30
0.0
  0
SPLINE
  5
412
100
AcDbEntity
  8
0
100
AcDbSpline
 62
7
  6
CONTINUOUS
 70
0
 71
3
 72
17
 73
13
 74
0
 42
0.0000001
 43
0.0000001
 44
0.0000000001
 40
0.0
 40
0.0
 40
0.0
 40
0.0
 40
0.2508159874
 40
0.3762058621
 40
0.5014580974
 40
0.6264911438
 40
0.7512523614
 40
0.8135278716
 40
0.8757374368
 40
0.9378899503
 40
0.9689492288
 40
1.0
 40
1.0
 40
1.0
 40
1.0
 10
2.1515650153
 20
11.8605186846
 30
0.0
 10
2.1248216917
 20
11.8677014577
 30
0.0
 10
2.0848631046
 20
11.8790437398
 30
0.0
 10
2.0316320507
 20
11.8942575021
 30
0.0
 10
1.991692735
 20
11.9054452103
 30
0.0
 10
1.9516907026
 20
11.9161438565
 30
0.0
 10
1.9182460144
 20
11.9244341472
 30
0.0
 10
1.8914163419
 20
11.9305530394
 30
0.0
 10
1.8712629938
 20
11.9348498139
 30
0.0
 10
1.8544256176
 20
11.938161893
 30
0.0
 10
1.8409306491
 20
11.94063238
 30
0.0
 10
1.8341745015
 20
11.9418060532
 30
0.0
 10
1.8307939512
 20
11.9423752366
 30
0.0
  0
SPLINE
  5
413
100
AcDbEntity
  8
0
100
AcDbSpline
 62
7
  6
CONTINUOUS
 70
0
 71
3
 72
38
 73
34
 74
0
 42
0.0000001
 43
0.0000001
 44
0.0000000001
 40
0.0
 40
0.0
 40
0.0
 40
0.0
 40
0.0728346986
 40
0.1091515518
 40
0.1453436148
 40
0.1813705516
 40
0.2171930783
 40
0.2527732289
 40
0.2880745954
 40
0.3230625579
 40
0.3577044976
 40
0.3919699869
 40
0.4258309545
 40
0.4592618184
 40
0.4922395861
 40
0.5247439197
 40
0.5567571699
 40
0.5882643867
 40
0.6192533245
 40
0.6497144632
 40
0.6796410797
 40
0.7090294032
 40
0.7378788849
 40
0.7661926103
 40
0.7939778528
 40
0.8212467404
 40
0.8480169847
 40
0.874312578
 40
0.9001643627
 40
0.9256103636
 40
0.9506958397
 40
0.975472852
 40
1.0
 40
1.0
 40
1.0
 40
1.0
 10
20.6003124876
 20
2.8991596272
 30
0.0
 10
20.6659496049
 20
2.8991596407
 30
0.0
 10
20.7643492758
 20
2.9021188076
 30
0.0
 10
20.8949705324
 20
2.911995749
 30
0.0
 10
20.9922490547
 20
2.9223386571
 30
0.0
 10
21.088721229
 20
2.9356038813
 30
0.0
 10
21.184191839
 20
2.9517673704
 30
0.0
 10
21.2784654353
 20
2.97079979
 30
0.0
 10
21.3713501016
 20
2.9926669327
 30
0.0
 10
21.4626568612
 20
3.0173298152
 30
0.0
 10
21.5522001434
 20
3.0447448574
 30
0.0
 10
21.6397978541
 20
3.0748640152
 30
0.0
 10
21.7252714241
 20
3.107634876
 30
0.0
 10
21.808445727
 20
3.143000684
 30
0.0
 10
21.8891488981
 20
3.1809002683
 30
0.0
 10
21.9672120602
 20
3.2212678449
 30
0.0
 10
22.0424689913
 20
3.2640326669
 30
0.0
 10
22.1147557856
 20
3.3091185073
 30
0.0
 10
22.1839105806
 20
3.3564429759
 30
0.0
 10
22.2497734463
 20
3.4059166979
 30
0.0
 10
22.312186541
 20
3.4574424153
 30
0.0
 10
22.3709946344
 20
3.5109141074
 30
0.0
 10
22.4260460753
 20
3.5662162617
 30
0.0
 10
22.477194229
 20
3.6232234401
 30
0.0
 10
22.5242993406
 20
3.6818002848
 30
0.0
 10
22.5672306971
 20
3.7418020591
 30
0.0
 10
22.6058688924
 20
3.8030757771
 30
0.0
 10
22.640107953
 20
3.8654618034
 30
0.0
 10
22.6698571002
 20
3.9287960219
 30
0.0
 10
22.6950419136
 20
3.9929115186
 30
0.0
 10
22.7156050331
 20
4.0576426435
 30
0.0
 10
22.731505389
 20
4.1228201038
 30
0.0
 10
22.7390137382
 20
4.1666567856
 30
0.0
 10
22.741971124
 20
4.1885614022
 30
0.0
  0
SPLINE
  5
414
100
AcDbEntity
  8
0
100
AcDbSpline
 62
7
  6
CONTINUOUS
 70
0
 71
3
 72
38
 73
34
 74
0
 42
0.0000001
 43
0.0000001
 44
0.0000000001
 40
0.0
 40
0.0
 40
0.0
 40
0.0
 40
0.0245271479
 40
0.0493041601
 40
0.074389636
 40
0.0998356368
 40
0.1256874214
 40
0.1519830145
 40
0.1787532586
 40
0.2060221462
 40
0.2338073885
 40
0.2621211137
 40
0.2909705952
 40
0.3203589185
 40
0.3502855349
 40
0.3807466733
 40
0.4117356109
 40
0.4432428276
 40
0.4752560775
 40
0.507760411
 40
0.5407381784
 40
0.5741690421
 40
0.6080300095
 40
0.6422954986
 40
0.6769374381
 40
0.7119254004
 40
0.7472267667
 40
0.7828069171
 40
0.8186294436
 40
0.8546563802
 40
0.8908484429
 40
0.9271652964
 40
1.0
 40
1.0
 40
1.0
 40
1.0
 10
18.4586538507
 20
4.1885614057
 30
0.0
 10
18.4616112364
 20
4.1666567891
 30
0.0
 10
18.4691195854
 20
4.1228201073
 30
0.0
 10
18.485019941
 20
4.0576426473
 30
0.0
 10
18.5055830602
 20
3.9929115225
 30
0.0
 10
18.5307678732
 20
3.9287960259
 30
0.0
 10
18.5605170201
 20
3.8654618076
 30
0.0
 10
18.5947560802
 20
3.8030757815
 30
0.0
 10
18.6333942751
 20
3.7418020635
 30
0.0
 10
18.6763256312
 20
3.6818002893
 30
0.0
 10
18.7234307423
 20
3.6232234447
 30
0.0
 10
18.7745788955
 20
3.5662162663
 30
0.0
 10
18.8296303358
 20
3.5109141121
 30
0.0
 10
18.8884384287
 20
3.45744242
 30
0.0
 10
18.9508515229
 20
3.4059167026
 30
0.0
 10
19.0167143881
 20
3.3564429805
 30
0.0
 10
19.0858691825
 20
3.3091185119
 30
0.0
 10
19.1581559762
 20
3.2640326714
 30
0.0
 10
19.2334129068
 20
3.2212678494
 30
0.0
 10
19.3114760683
 20
3.1809002726
 30
0.0
 10
19.3921792388
 20
3.1430006881
 30
0.0
 10
19.4753535412
 20
3.1076348799
 30
0.0
 10
19.5608271106
 20
3.074864019
 30
0.0
 10
19.6484248208
 20
3.044744861
 30
0.0
 10
19.7379681024
 20
3.0173298185
 30
0.0
 10
19.8292748615
 20
2.9926669357
 30
0.0
 10
19.9221595273
 20
2.9707997928
 30
0.0
 10
20.016433123
 20
2.9517673728
 30
0.0
 10
20.1119037326
 20
2.9356038834
 30
0.0
 10
20.2083759063
 20
2.9223386588
 30
0.0
 10
20.3056544286
 20
2.9119957503
 30
0.0
 10
20.4362756898
 20
2.9021188079
 30
0.0
 10
20.5346753656
 20
2.8991596419
 30
0.0
 10
20.6003124876
 20
2.8991596273
 30
0.0
  0
SPLINE
  5
415
100
AcDbEntity
  8
0
100
AcDbSpline
 62
7
  6
CONTINUOUS
 70
0
 71
3
 72
35
 73
31
 74
0
 42
0.0000001
 43
0.0000001
 44
0.0000000001
 40
0.0
 40
0.0
 40
0.0
 40
0.0
 40
0.0757129883
 40
0.1502833697
 40
0.22344693
 40
0.2594298364
 40
0.2949741093
 40
0.3300549548
 40
0.3646499459
 40
0.3987392195
 40
0.4323056843
 40
0.4653352385
 40
0.4978169761
 40
0.5297433968
 40
0.5611106154
 40
0.6221566516
 40
0.6518621487
 40
0.6810330001
 40
0.7096861997
 40
0.7378433086
 40
0.7655304909
 40
0.7927784904
 40
0.8196225372
 40
0.8461021781
 40
0.8722610058
 40
0.8981462952
 40
0.9238086144
 40
0.9493011235
 40
0.9746794227
 40
1.0
 40
1.0
 40
1.0
 40
1.0
 10
20.9753947025
 20
5.9644005882
 30
0.0
 10
21.0188871937
 20
5.9577167654
 30
0.0
 10
21.1048711399
 20
5.9420655471
 30
0.0
 10
21.2311691712
 20
5.911557498
 30
0.0
 10
21.3333680759
 20
5.8803928102
 30
0.0
 10
21.4125887406
 20
5.8521539979
 30
0.0
 10
21.4702752066
 20
5.8295151758
 30
0.0
 10
21.5264573477
 20
5.8053392451
 30
0.0
 10
21.5810390079
 20
5.7796663065
 30
0.0
 10
21.6339260087
 20
5.7525391652
 30
0.0
 10
21.685027218
 20
5.724002842
 30
0.0
 10
21.7342546338
 20
5.6941044249
 30
0.0
 10
21.7815227523
 20
5.6628936229
 30
0.0
 10
21.8267515542
 20
5.6304202388
 30
0.0
 10
21.8837068312
 20
5.5859212847
 30
0.0
 10
21.9368774755
 20
5.538745927
 30
0.0
 10
21.9857323049
 20
5.4890099966
 30
0.0
 10
22.0196453996
 20
5.4510652358
 30
0.0
 10
22.0510960514
 20
5.4122068074
 30
0.0
 10
22.0800271726
 20
5.3724980245
 30
0.0
 10
22.1063839655
 20
5.3320054751
 30
0.0
 10
22.1301156717
 20
5.2907975491
 30
0.0
 10
22.1511753244
 20
5.2489449755
 30
0.0
 10
22.1695201077
 20
5.2065208213
 30
0.0
 10
22.1851116541
 20
5.1636006248
 30
0.0
 10
22.1979164564
 20
5.1202622839
 30
0.0
 10
22.2079061721
 20
5.0765862881
 30
0.0
 10
22.2150583203
 20
5.0326542771
 30
0.0
 10
22.2193562507
 20
4.9885528891
 30
0.0
 10
22.2203124876
 20
4.9590786927
 30
0.0
 10
22.2203124876
 20
4.9443628139
 30
0.0
  0
SPLINE
  5
416
100
AcDbEntity
  8
0
100
AcDbSpline
 62
7
  6
CONTINUOUS
 70
0
 71
3
 72
35
 73
31
 74
0
 42
0.0000001
 43
0.0000001
 44
0.0000000001
 40
0.0
 40
0.0
 40
0.0
 40
0.0
 40
0.0253205738
 40
0.0506988693
 40
0.0761913761
 40
0.1018536932
 40
0.1277389812
 40
0.153897808
 40
0.1803774485
 40
0.2072214954
 40
0.2344694953
 40
0.2621566785
 40
0.2903137885
 40
0.3189669896
 40
0.3481378427
 40
0.3778433416
 40
0.4388893817
 40
0.4702566023
 40
0.5021830249
 40
0.5346647643
 40
0.5676943202
 40
0.6012607865
 40
0.6353500615
 40
0.6699450535
 40
0.7050258997
 40
0.7405701729
 40
0.7765530793
 40
0.8497166385
 40
0.9242870168
 40
1.0
 40
1.0
 40
1.0
 40
1.0
 10
18.9803124876
 20
4.9443628139
 30
0.0
 10
18.9803124876
 20
4.9590786948
 30
0.0
 10
18.9812687246
 20
4.9885528952
 30
0.0
 10
18.9855666564
 20
5.0326542899
 30
0.0
 10
18.9927188067
 20
5.0765863084
 30
0.0
 10
19.0027085262
 20
5.1202623127
 30
0.0
 10
19.0155133334
 20
5.1636006627
 30
0.0
 10
19.0311048862
 20
5.2065208688
 30
0.0
 10
19.0494496773
 20
5.2489450328
 30
0.0
 10
19.0705093395
 20
5.2907976164
 30
0.0
 10
19.0942410566
 20
5.3320055523
 30
0.0
 10
19.1205978622
 20
5.3724981114
 30
0.0
 10
19.1495289973
 20
5.4122069035
 30
0.0
 10
19.1809796645
 20
5.4510653407
 30
0.0
 10
19.2148927757
 20
5.4890101095
 30
0.0
 10
19.2637476291
 20
5.5387460496
 30
0.0
 10
19.316918299
 20
5.5859214151
 30
0.0
 10
19.3738736027
 20
5.6304203751
 30
0.0
 10
19.4191024254
 20
5.6628937627
 30
0.0
 10
19.4663705651
 20
5.694104567
 30
0.0
 10
19.5155980024
 20
5.7240029851
 30
0.0
 10
19.5666992336
 20
5.7525393082
 30
0.0
 10
19.619586256
 20
5.7796664484
 30
0.0
 10
19.6741679377
 20
5.8053393848
 30
0.0
 10
19.7303501001
 20
5.8295153123
 30
0.0
 10
19.7880365869
 20
5.8521541301
 30
0.0
 10
19.8672572787
 20
5.8803929349
 30
0.0
 10
19.9694562157
 20
5.9115576105
 30
0.0
 10
20.0957542829
 20
5.9420656422
 30
0.0
 10
20.1817382516
 20
5.9577168469
 30
0.0
 10
20.2252307533
 20
5.9644006621
 30
0.0
  0
SPLINE
  5
417
100
AcDbEntity
  8
0
100
AcDbSpline
 62
7
  6
CONTINUOUS
 70
0
 71
3
 72
38
 73
34
 74
0
 42
0.0000001
 43
0.0000001
 44
0.0000000001
 40
0.0
 40
0.0
 40
0.0
 40
0.0
 40
0.0747483089
 40
0.1117649567
 40
0.1484943243
 40
0.1849034264
 40
0.2209609556
 40
0.2566374834
 40
0.2919056652
 40
0.3267404576
 40
0.3611193376
 40
0.3950224971
 40
0.4284330629
 40
0.4613373197
 40
0.4937249141
 40
0.5255890509
 40
0.5569266688
 40
0.5877386359
 40
0.6180299012
 40
0.6478095923
 40
0.6770911071
 40
0.7058921504
 40
0.7342347344
 40
0.7621450736
 40
0.7896534397
 40
0.8167939647
 40
0.8436043617
 40
0.8701255712
 40
0.8964013678
 40
0.922477908
 40
0.948403342
 40
0.9742271568
 40
1.0
 40
1.0
 40
1.0
 40
1.0
 10
20.9753705608
 20
6.0008519729
 30
0.0
 10
21.0280083337
 20
5.9939587936
 30
0.0
 10
21.1064486849
 20
5.9814296144
 30
0.0
 10
21.209775373
 20
5.9602602806
 30
0.0
 10
21.2859326358
 20
5.9423016425
 30
0.0
 10
21.360857844
 20
5.9222419977
 30
0.0
 10
21.4344188356
 20
5.9001145227
 30
0.0
 10
21.5064842847
 20
5.8759559729
 30
0.0
 10
21.5769262257
 20
5.8498060733
 30
0.0
 10
21.6456196394
 20
5.8217074941
 30
0.0
 10
21.7124427759
 20
5.7917056733
 30
0.0
 10
21.7772772405
 20
5.7598486692
 30
0.0
 10
21.8400081059
 20
5.7261870139
 30
0.0
 10
21.900523983
 20
5.6907735707
 30
0.0
 10
21.958717041
 20
5.6536634
 30
0.0
 10
22.0144829727
 20
5.6149136686
 30
0.0
 10
22.0677209367
 20
5.5745835956
 30
0.0
 10
22.1183334551
 20
5.5327344362
 30
0.0
 10
22.1662262847
 20
5.4894295565
 30
0.0
 10
22.2113082487
 20
5.4447345855
 30
0.0
 10
22.2534910809
 20
5.3987176859
 30
0.0
 10
22.292689314
 20
5.3514499097
 30
0.0
 10
22.3288202268
 20
5.3030056979
 30
0.0
 10
22.3618038977
 20
5.2534634787
 30
0.0
 10
22.39156343
 20
5.2029063526
 30
0.0
 10
22.4180254025
 20
5.1514227915
 30
0.0
 10
22.4411205607
 20
5.0991072861
 30
0.0
 10
22.4607847811
 20
5.0460609011
 30
0.0
 10
22.4769602448
 20
4.9923914535
 30
0.0
 10
22.4895968791
 20
4.9382137689
 30
0.0
 10
22.4986536896
 20
4.8836478434
 30
0.0
 10
22.5041003264
 20
4.8288228182
 30
0.0
 10
22.5053124876
 20
4.7921667198
 30
0.0
 10
22.5053124876
 20
4.7738625179
 30
0.0
  0
SPLINE
  5
418
100
AcDbEntity
  8
0
100
AcDbSpline
 62
7
  6
CONTINUOUS
 70
0
 71
3
 72
38
 73
34
 74
0
 42
0.0000001
 43
0.0000001
 44
0.0000000001
 40
0.0
 40
0.0
 40
0.0
 40
0.0
 40
0.0257728375
 40
0.0515966498
 40
0.0775220825
 40
0.1035986233
 40
0.1298744218
 40
0.1563956343
 40
0.1832060351
 40
0.2103465648
 40
0.2378549362
 40
0.2657652809
 40
0.2941078706
 40
0.3229089194
 40
0.3521904396
 40
0.3819701356
 40
0.4122614054
 40
0.4430733763
 40
0.4744109973
 40
0.5062751364
 40
0.5386627323
 40
0.5715669898
 40
0.6049775556
 40
0.6388807142
 40
0.6732595923
 40
0.7080943819
 40
0.7433625601
 40
0.7790390835
 40
0.8150966076
 40
0.851505704
 40
0.8882350652
 40
0.9252517062
 40
1.0
 40
1.0
 40
1.0
 40
1.0
 10
18.6953124876
 20
4.7738625179
 30
0.0
 10
18.6953124876
 20
4.792166703
 30
0.0
 10
18.6965246466
 20
4.8288227701
 30
0.0
 10
18.7019712737
 20
4.8836477507
 30
0.0
 10
18.7110280702
 20
4.9382136369
 30
0.0
 10
18.7236646862
 20
4.9923912867
 30
0.0
 10
18.7398401283
 20
5.0460607038
 30
0.0
 10
18.7595043243
 20
5.0991070623
 30
0.0
 10
18.7825994556
 20
5.1514225449
 30
0.0
 10
18.8090613992
 20
5.2029060864
 30
0.0
 10
18.8388209008
 20
5.2534631957
 30
0.0
 10
18.8718045391
 20
5.3030054006
 30
0.0
 10
18.9079354179
 20
5.3514496
 30
0.0
 10
18.9471336152
 20
5.3987173654
 30
0.0
 10
18.9893164099
 20
5.4447342556
 30
0.0
 10
19.0343983342
 20
5.4894292184
 30
0.0
 10
19.082291122
 20
5.5327340912
 30
0.0
 10
19.1329035961
 20
5.5745832449
 30
0.0
 10
19.1861415133
 20
5.6149133133
 30
0.0
 10
19.2419073955
 20
5.6536630412
 30
0.0
 10
19.3001004015
 20
5.6907732098
 30
0.0
 10
19.3606162241
 20
5.7261866523
 30
0.0
 10
19.4233470325
 20
5.7598483082
 30
0.0
 10
19.4881814375
 20
5.7917053145
 30
0.0
 10
19.5550045115
 20
5.8217071397
 30
0.0
 10
19.6236978601
 20
5.8498057255
 30
0.0
 10
19.6941397336
 20
5.8759556343
 30
0.0
 10
19.7662051129
 20
5.9001141959
 30
0.0
 10
19.8397660328
 20
5.9222416854
 30
0.0
 10
19.9146911677
 20
5.9423013476
 30
0.0
 10
19.9908483558
 20
5.9602600059
 30
0.0
 10
20.0941749418
 20
5.9814293709
 30
0.0
 10
20.1726152164
 20
5.9939585783
 30
0.0
 10
20.2252529382
 20
6.0008517793
 30
0.0
  0
SPLINE
  5
419
100
AcDbEntity
  8
0
100
AcDbSpline
 62
7
  6
CONTINUOUS
 70
0
 71
3
 72
21
 73
17
 74
0
 42
0.0000001
 43
0.0000001
 44
0.0000000001
 40
0.0
 40
0.0
 40
0.0
 40
0.0
 40
0.1328292041
 40
0.2627889153
 40
0.3267835225
 40
0.3901620841
 40
0.4529643697
 40
0.515232939
 40
0.577012817
 40
0.6383513258
 40
0.6992979671
 40
0.7599039861
 40
0.8202224168
 40
0.8803076019
 40
0.940214304
 40
1.0
 40
1.0
 40
1.0
 40
1.0
 10
22.4747213881
 20
4.9989891116
 30
0.0
 10
22.4952705967
 20
4.9749808882
 30
0.0
 10
22.534322019
 20
4.9260807411
 30
0.0
 10
22.5783484196
 20
4.8619099924
 30
0.0
 10
22.6100361594
 20
4.8095104162
 30
0.0
 10
22.6319278909
 20
4.7699003332
 30
0.0
 10
22.6520390383
 20
4.7298161419
 30
0.0
 10
22.670345155
 20
4.6892925223
 30
0.0
 10
22.6868227654
 20
4.6483664049
 30
0.0
 10
22.7014501793
 20
4.6070762343
 30
0.0
 10
22.7142070651
 20
4.5654620427
 30
0.0
 10
22.725075353
 20
4.5235655109
 30
0.0
 10
22.7340391599
 20
4.4814299369
 30
0.0
 10
22.7410846942
 20
4.439099688
 30
0.0
 10
22.7462012834
 20
4.3966216415
 30
0.0
 10
22.7483225842
 20
4.3682128805
 30
0.0
 10
22.7490584973
 20
4.354008198
 30
0.0
  0
SPLINE
  5
41A
100
AcDbEntity
  8
0
100
AcDbSpline
 62
7
  6
CONTINUOUS
 70
0
 71
3
 72
21
 73
17
 74
0
 42
0.0000001
 43
0.0000001
 44
0.0000000001
 40
0.0
 40
0.0
 40
0.0
 40
0.0
 40
0.0597857189
 40
0.1196924394
 40
0.1797776498
 40
0.2400961037
 40
0.3007021442
 40
0.3616488052
 40
0.42298733
 40
0.4847672194
 40
0.5470357949
 40
0.6098380804
 40
0.673216635
 40
0.7372112275
 40
0.867170885
 40
1.0
 40
1.0
 40
1.0
 40
1.0
 10
18.4515664778
 20
4.354008198
 30
0.0
 10
18.4523023844
 20
4.3682127529
 30
0.0
 10
18.4544236594
 20
4.396621258
 30
0.0
 10
18.4595401779
 20
4.4390989252
 30
0.0
 10
18.4665856053
 20
4.4814288004
 30
0.0
 10
18.4755492729
 20
4.5235640085
 30
0.0
 10
18.4864173899
 20
4.5654601815
 30
0.0
 10
18.4991740708
 20
4.6070740237
 30
0.0
 10
18.5138012503
 20
4.6483638538
 30
0.0
 10
18.5302785958
 20
4.689289641
 30
0.0
 10
18.548584417
 20
4.7298129415
 30
0.0
 10
18.5686952412
 20
4.7698968248
 30
0.0
 10
18.5905866206
 20
4.809506612
 30
0.0
 10
18.6222738506
 20
4.8619058053
 30
0.0
 10
18.6662995449
 20
4.9260761083
 30
0.0
 10
18.7053503527
 20
4.9749759519
 30
0.0
 10
18.72589924
 20
4.9989840329
 30
0.0
  0
SPLINE
  5
41B
100
AcDbEntity
  8
0
100
AcDbSpline
 62
7
  6
CONTINUOUS
 70
0
 71
3
 72
49
 73
45
 74
0
 42
0.0000001
 43
0.0000001
 44
0.0000000001
 40
0.0
 40
0.0
 40
0.0
 40
0.0
 40
0.0134126057
 40
0.0268419508
 40
0.0403081089
 40
0.0538279884
 40
0.0674206608
 40
0.0811047409
 40
0.0948990991
 40
0.1088223801
 40
0.1228925397
 40
0.1371265424
 40
0.1661360386
 40
0.1959666991
 40
0.2266861243
 40
0.2583217874
 40
0.2908604175
 40
0.3242499362
 40
0.3584035101
 40
0.3932045049
 40
0.4285122676
 40
0.4641679593
 40
0.5000006446
 40
0.5358333208
 40
0.5714889858
 40
0.6067966997
 40
0.6415976357
 40
0.6757511245
 40
0.7091405565
 40
0.7416790806
 40
0.7733146281
 40
0.8040339352
 40
0.8338644724
 40
0.8628738379
 40
0.8771077841
 40
0.8911778892
 40
0.9051011116
 40
0.9188954173
 40
0.9325794532
 40
0.9461720879
 40
0.9596919356
 40
0.9731580612
 40
0.9865874079
 40
1.0
 40
1.0
 40
1.0
 40
1.0
 10
21.0843124876
 20
5.508273592
 30
0.0
 10
21.0843124876
 20
5.502482633
 30
0.0
 10
21.083883881
 20
5.4908889361
 30
0.0
 10
21.0819597175
 20
5.4735774348
 30
0.0
 10
21.0787687826
 20
5.4564063254
 30
0.0
 10
21.0743322231
 20
5.4394419664
 30
0.0
 10
21.0686792907
 20
5.4227444266
 30
0.0
 10
21.0618438396
 20
5.4063673545
 30
0.0
 10
21.053863693
 20
5.3903576162
 30
0.0
 10
21.0447788197
 20
5.3747556932
 30
0.0
 10
21.034629583
 20
5.3595956135
 30
0.0
 10
21.0196415809
 20
5.3398898707
 30
0.0
 10
20.9983717197
 20
5.3164896728
 30
0.0
 10
20.969412826
 20
5.290767755
 30
0.0
 10
20.9371596357
 20
5.267344648
 30
0.0
 10
20.9019225576
 20
5.2463401054
 30
0.0
 10
20.8640161594
 20
5.2278630365
 30
0.0
 10
20.8237703442
 20
5.2120184448
 30
0.0
 10
20.78153378
 20
5.1989036265
 30
0.0
 10
20.7376751707
 20
5.1886051013
 30
0.0
 10
20.6925817787
 20
5.1811947472
 30
0.0
 10
20.6466561632
 20
5.1767262638
 30
0.0
 10
20.6003116552
 20
5.175233097
 30
0.0
 10
20.5539671632
 20
5.176726378
 30
0.0
 10
20.5080415921
 20
5.181194946
 30
0.0
 10
20.462948279
 20
5.1886054206
 30
0.0
 10
20.4190897685
 20
5.1989040022
 30
0.0
 10
20.3768533364
 20
5.2120189109
 30
0.0
 10
20.3366076648
 20
5.2278635382
 30
0.0
 10
20.2987014308
 20
5.2463406412
 30
0.0
 10
20.2634645276
 20
5.2673451893
 30
0.0
 10
20.2312115089
 20
5.2907682701
 30
0.0
 10
20.2022527912
 20
5.3164901434
 30
0.0
 10
20.1809830564
 20
5.3398902736
 30
0.0
 10
20.1659951466
 20
5.3595959556
 30
0.0
 10
20.1558459758
 20
5.374755991
 30
0.0
 10
20.1467611515
 20
5.3903578596
 30
0.0
 10
20.1387810467
 20
5.4063675437
 30
0.0
 10
20.13194563
 20
5.4227445673
 30
0.0
 10
20.126292726
 20
5.4394420647
 30
0.0
 10
20.1218561817
 20
5.4564063818
 30
0.0
 10
20.1186652495
 20
5.4735774643
 30
0.0
 10
20.116741096
 20
5.4908889474
 30
0.0
 10
20.1163124876
 20
5.5024826389
 30
0.0
 10
20.1163124876
 20
5.508273592
 30
0.0
  0
SPLINE
  5
41C
100
AcDbEntity
  8
0
100
AcDbSpline
 62
7
  6
CONTINUOUS
 70
0
 71
3
 72
23
 73
19
 74
0
 42
0.0000001
 43
0.0000001
 44
0.0000000001
 40
0.0
 40
0.0
 40
0.0
 40
0.0
 40
0.068125519
 40
0.1354091693
 40
0.2018327292
 40
0.2673896907
 40
0.3320855812
 40
0.3959380745
 40
0.4589770403
 40
0.5212443391
 40
0.5827932892
 40
0.6436879673
 40
0.7040023721
 40
0.7638192825
 40
0.8232289729
 40
0.8823277404
 40
0.9412167787
 40
1.0
 40
1.0
 40
1.0
 40
1.0
 10
20.9753263668
 20
8.1083993905
 30
0.0
 10
20.9851986755
 20
8.1140269861
 30
0.0
 10
21.0045329255
 20
8.1257283977
 30
0.0
 10
21.032364407
 20
8.1447003204
 30
0.0
 10
21.0587592468
 20
8.1649308545
 30
0.0
 10
21.0836254733
 20
8.1863586066
 30
0.0
 10
21.1068762626
 20
8.20891898
 30
0.0
 10
21.1284283649
 20
8.2325430905
 30
0.0
 10
21.148202707
 20
8.2571578336
 30
0.0
 10
21.1661245222
 20
8.2826855733
 30
0.0
 10
21.1821237359
 20
8.3090438754
 30
0.0
 10
21.196135463
 20
8.3361452483
 30
0.0
 10
21.2081006752
 20
8.3638969481
 30
0.0
 10
21.2179670361
 20
8.3922010152
 30
0.0
 10
21.2256897975
 20
8.4209541927
 30
0.0
 10
21.2312328492
 20
8.4500493847
 30
0.0
 10
21.2345695491
 20
8.479372832
 30
0.0
 10
21.2353124876
 20
8.4990091489
 30
0.0
 10
21.2353124876
 20
8.508814452
 30
0.0
  0
SPLINE
  5
41D
100
AcDbEntity
  8
0
100
AcDbSpline
 62
7
  6
CONTINUOUS
 70
0
 71
3
 72
30
 73
26
 74
0
 42
0.0000001
 43
0.0000001
 44
0.0000000001
 40
0.0
 40
0.0
 40
0.0
 40
0.0
 40
0.0277216734
 40
0.0554788581
 40
0.083305857
 40
0.1112371639
 40
0.1393056677
 40
0.1675429579
 40
0.195978815
 40
0.224640921
 40
0.2535545383
 40
0.2827422222
 40
0.3122236151
 40
0.3420152777
 40
0.4025593419
 40
0.464461674
 40
0.5277336
 40
0.5923334165
 40
0.6581700704
 40
0.7251081763
 40
0.7929743859
 40
0.8271991393
 40
0.8615771441
 40
0.9306623898
 40
1.0
 40
1.0
 40
1.0
 40
1.0
 10
21.2353124876
 20
8.5538095847
 30
0.0
 10
21.2353124876
 20
8.5620478831
 30
0.0
 10
21.2347883741
 20
8.5785398172
 30
0.0
 10
21.2324332278
 20
8.6032000933
 30
0.0
 10
21.2285169449
 20
8.6277250138
 30
0.0
 10
21.2230529563
 20
8.6520464433
 30
0.0
 10
21.2160593941
 20
8.676099695
 30
0.0
 10
21.2075590649
 20
8.6998215777
 30
0.0
 10
21.1975789782
 20
8.7231514246
 30
0.0
 10
21.1861498939
 20
8.7460310321
 30
0.0
 10
21.1733058867
 20
8.7684048448
 30
0.0
 10
21.1590842328
 20
8.7902197025
 30
0.0
 10
21.1435242247
 20
8.8114256864
 30
0.0
 10
21.1209332295
 20
8.8389672246
 30
0.0
 10
21.0894981012
 20
8.8716260174
 30
0.0
 10
21.0473814708
 20
8.9074261179
 30
0.0
 10
21.0010743177
 20
8.9397595244
 30
0.0
 10
20.9510255764
 20
8.9683530163
 30
0.0
 10
20.8977075602
 20
8.9929693321
 30
0.0
 10
20.8416220392
 20
9.0134013097
 30
0.0
 10
20.7931403443
 20
9.0267619327
 30
0.0
 10
20.7534697193
 20
9.0352296695
 30
0.0
 10
20.7131428867
 20
9.04221428
 30
0.0
 10
20.6620704932
 20
9.0480494262
 30
0.0
 10
20.6209181673
 20
9.0496060283
 30
0.0
 10
20.6003124876
 20
9.0496060283
 30
0.0
  0
SPLINE
  5
41E
100
AcDbEntity
  8
0
100
AcDbSpline
 62
7
  6
CONTINUOUS
 70
0
 71
3
 72
23
 73
19
 74
0
 42
0.0000001
 43
0.0000001
 44
0.0000000001
 40
0.0
 40
0.0
 40
0.0
 40
0.0
 40
0.0587832359
 40
0.1176722927
 40
0.176771089
 40
0.2361808091
 40
0.29599775
 40
0.3563121829
 40
0.4172068847
 40
0.4787558523
 40
0.541023161
 40
0.6040621274
 40
0.6679146115
 40
0.7326104824
 40
0.7981674142
 40
0.8645909346
 40
0.9318745366
 40
1.0
 40
1.0
 40
1.0
 40
1.0
 10
19.9653124876
 20
8.508814452
 30
0.0
 10
19.9653124876
 20
8.4990092511
 30
0.0
 10
19.9660554103
 20
8.4793731382
 30
0.0
 10
19.9693920415
 20
8.45004999
 30
0.0
 10
19.9749349799
 20
8.4209550853
 30
0.0
 10
19.9826575871
 20
8.3922021803
 30
0.0
 10
19.9925237537
 20
8.3638983689
 30
0.0
 10
20.0044887345
 20
8.3361469057
 30
0.0
 10
20.0185001951
 20
8.3090457488
 30
0.0
 10
20.0344991095
 20
8.2826876401
 30
0.0
 10
20.0524205949
 20
8.25716007
 30
0.0
 10
20.0721945789
 20
8.2325454711
 30
0.0
 10
20.0937462972
 20
8.2089214785
 30
0.0
 10
20.1169966787
 20
8.1863611955
 30
0.0
 10
20.1418624761
 20
8.1649335046
 30
0.0
 10
20.1682568683
 20
8.1447030021
 30
0.0
 10
20.1960878858
 20
8.1257310791
 30
0.0
 10
20.2154218214
 20
8.1140296474
 30
0.0
 10
20.2252939701
 20
8.1084020346
 30
0.0
  0
SPLINE
  5
41F
100
AcDbEntity
  8
0
100
AcDbSpline
 62
7
  6
CONTINUOUS
 70
0
 71
3
 72
30
 73
26
 74
0
 42
0.0000001
 43
0.0000001
 44
0.0000000001
 40
0.0
 40
0.0
 40
0.0
 40
0.0
 40
0.0693376524
 40
0.1384229248
 40
0.1728009414
 40
0.2070257031
 40
0.2748919235
 40
0.3418300304
 40
0.4076666776
 40
0.4722664797
 40
0.5355383861
 40
0.5974406949
 40
0.6579847346
 40
0.6877763853
 40
0.717257767
 40
0.7464454408
 40
0.7753590496
 40
0.804021149
 40
0.8324570018
 40
0.8606942902
 40
0.8887627951
 40
0.9166941067
 40
0.9445211125
 40
0.9722783124
 40
1.0
 40
1.0
 40
1.0
 40
1.0
 10
20.6003124876
 20
9.0496060283
 30
0.0
 10
20.5797067953
 20
9.0496060283
 30
0.0
 10
20.5385544489
 20
9.0480494244
 30
0.0
 10
20.4874820317
 20
9.0422142729
 30
0.0
 10
20.4471551862
 20
9.0352296559
 30
0.0
 10
20.407484553
 20
9.0267619132
 30
0.0
 10
20.3590028534
 20
9.0134012847
 30
0.0
 10
20.3029173343
 20
8.9929692976
 30
0.0
 10
20.2495993257
 20
8.9683529797
 30
0.0
 10
20.1995505992
 20
8.939759486
 30
0.0
 10
20.1532434626
 20
8.9074260859
 30
0.0
 10
20.111126851
 20
8.8716259943
 30
0.0
 10
20.0796917361
 20
8.8389672135
 30
0.0
 10
20.0571007502
 20
8.8114256859
 30
0.0
 10
20.0415407479
 20
8.79021971
 30
0.0
 10
20.0273190979
 20
8.7684048604
 30
0.0
 10
20.0144750933
 20
8.7460310549
 30
0.0
 10
20.0030460102
 20
8.7231514532
 30
0.0
 10
19.9930659235
 20
8.6998216104
 30
0.0
 10
19.9845655925
 20
8.6760997299
 30
0.0
 10
19.9775720272
 20
8.6520464779
 30
0.0
 10
19.9721080361
 20
8.627725045
 30
0.0
 10
19.9681917502
 20
8.6032001169
 30
0.0
 10
19.9658366022
 20
8.5785398301
 30
0.0
 10
19.9653124876
 20
8.5620478873
 30
0.0
 10
19.9653124876
 20
8.5538095847
 30
0.0
  0
SPLINE
  5
420
100
AcDbEntity
  8
0
100
AcDbSpline
 62
7
  6
CONTINUOUS
 70
0
 71
3
 72
13
 73
9
 74
0
 42
0.0000001
 43
0.0000001
 44
0.0000000001
 40
0.0
 40
0.0
 40
0.0
 40
0.0
 40
0.2497657449
 40
0.3750411773
 40
0.5003956813
 40
0.62570138
 40
0.750829464
 40
1.0
 40
1.0
 40
1.0
 40
1.0
 10
21.1642047895
 20
8.7831083013
 30
0.0
 10
21.1848620466
 20
8.9636255724
 30
0.0
 10
21.2073061017
 20
9.2357689933
 30
0.0
 10
21.2201020101
 20
9.5996034804
 30
0.0
 10
21.2211184302
 20
9.8731289698
 30
0.0
 10
21.2135379555
 20
10.1464440861
 30
0.0
 10
21.1920391496
 20
10.5092913848
 30
0.0
 10
21.1631142424
 20
10.7802793436
 30
0.0
 10
21.1381666377
 20
10.9598167114
 30
0.0
  0
SPLINE
  5
421
100
AcDbEntity
  8
0
100
AcDbSpline
 62
7
  6
CONTINUOUS
 70
0
 71
3
 72
15
 73
11
 74
0
 42
0.0000001
 43
0.0000001
 44
0.0000000001
 40
0.0
 40
0.0
 40
0.0
 40
0.0
 40
0.1286789776
 40
0.2559480981
 40
0.3819651177
 40
0.5069074745
 40
0.6309693779
 40
0.7543586329
 40
0.877293822
 40
1.0
 40
1.0
 40
1.0
 40
1.0
 10
21.16337384
 20
10.7538768605
 30
0.0
 10
21.1691870762
 20
10.7625881526
 30
0.0
 10
21.1801723041
 20
10.7803096555
 30
0.0
 10
21.1946902962
 20
10.8078261896
 30
0.0
 10
21.2070925828
 20
10.8360296526
 30
0.0
 10
21.2173220386
 20
10.8648155716
 30
0.0
 10
21.2253309258
 20
10.8940756718
 30
0.0
 10
21.2310803647
 20
10.9236969597
 30
0.0
 10
21.2345417363
 20
10.9535594142
 30
0.0
 10
21.2353124876
 20
10.973560022
 30
0.0
 10
21.2353124876
 20
10.9835467493
 30
0.0
  0
SPLINE
  5
422
100
AcDbEntity
  8
0
100
AcDbSpline
 62
7
  6
CONTINUOUS
 70
0
 71
3
 72
30
 73
26
 74
0
 42
0.0000001
 43
0.0000001
 44
0.0000000001
 40
0.0
 40
0.0
 40
0.0
 40
0.0
 40
0.0277216734
 40
0.0554788581
 40
0.083305857
 40
0.1112371639
 40
0.1393056677
 40
0.1675429579
 40
0.195978815
 40
0.224640921
 40
0.2535545383
 40
0.2827422222
 40
0.3122236151
 40
0.3420152777
 40
0.4025593419
 40
0.464461674
 40
0.5277336
 40
0.5923334165
 40
0.6581700704
 40
0.7251081763
 40
0.7929743859
 40
0.8271991393
 40
0.8615771441
 40
0.9306623898
 40
1.0
 40
1.0
 40
1.0
 40
1.0
 10
21.2353124876
 20
11.028541882
 30
0.0
 10
21.2353124876
 20
11.0367801804
 30
0.0
 10
21.2347883741
 20
11.0532721145
 30
0.0
 10
21.2324332278
 20
11.0779323906
 30
0.0
 10
21.2285169449
 20
11.1024573111
 30
0.0
 10
21.2230529563
 20
11.1267787406
 30
0.0
 10
21.2160593941
 20
11.1508319923
 30
0.0
 10
21.2075590649
 20
11.174553875
 30
0.0
 10
21.1975789782
 20
11.1978837219
 30
0.0
 10
21.1861498939
 20
11.2207633294
 30
0.0
 10
21.1733058867
 20
11.2431371421
 30
0.0
 10
21.1590842328
 20
11.2649519998
 30
0.0
 10
21.1435242247
 20
11.2861579837
 30
0.0
 10
21.1209332295
 20
11.3136995219
 30
0.0
 10
21.0894981012
 20
11.3463583147
 30
0.0
 10
21.0473814708
 20
11.3821584152
 30
0.0
 10
21.0010743177
 20
11.4144918217
 30
0.0
 10
20.9510255764
 20
11.4430853136
 30
0.0
 10
20.8977075602
 20
11.4677016294
 30
0.0
 10
20.8416220392
 20
11.488133607
 30
0.0
 10
20.7931403443
 20
11.50149423
 30
0.0
 10
20.7534697193
 20
11.5099619668
 30
0.0
 10
20.7131428867
 20
11.5169465773
 30
0.0
 10
20.6620704932
 20
11.5227817235
 30
0.0
 10
20.6209181673
 20
11.5243383256
 30
0.0
 10
20.6003124876
 20
11.5243383256
 30
0.0
  0
SPLINE
  5
423
100
AcDbEntity
  8
0
100
AcDbSpline
 62
7
  6
CONTINUOUS
 70
0
 71
3
 72
13
 73
9
 74
0
 42
0.0000001
 43
0.0000001
 44
0.0000000001
 40
0.0
 40
0.0
 40
0.0
 40
0.0
 40
0.2491704883
 40
0.3742985559
 40
0.4996042419
 40
0.624958746
 40
0.7502341907
 40
1.0
 40
1.0
 40
1.0
 40
1.0
 10
20.0624583374
 20
10.9598167114
 30
0.0
 10
20.0375108507
 20
10.7802801925
 30
0.0
 10
20.0085860374
 20
10.5092935162
 30
0.0
 10
19.9870871956
 20
10.1464479279
 30
0.0
 10
19.9795066164
 20
9.8731340769
 30
0.0
 10
19.9805228537
 20
9.5996098284
 30
0.0
 10
19.9933184182
 20
9.2357769263
 30
0.0
 10
20.0157621001
 20
8.9636346637
 30
0.0
 10
20.036419061
 20
8.7831181413
 30
0.0
  0
SPLINE
  5
424
100
AcDbEntity
  8
0
100
AcDbSpline
 62
7
  6
CONTINUOUS
 70
0
 71
3
 72
15
 73
11
 74
0
 42
0.0000001
 43
0.0000001
 44
0.0000000001
 40
0.0
 40
0.0
 40
0.0
 40
0.0
 40
0.1227063592
 40
0.2456417182
 40
0.3690311217
 40
0.4930931158
 40
0.6180354865
 40
0.7440524223
 40
0.8713213454
 40
1.0
 40
1.0
 40
1.0
 40
1.0
 10
19.9653124876
 20
10.9835467493
 30
0.0
 10
19.9653124876
 20
10.9735605922
 30
0.0
 10
19.9660831505
 20
10.9535611282
 30
0.0
 10
19.9695441275
 20
10.9237003629
 30
0.0
 10
19.9752929139
 20
10.8940807181
 30
0.0
 10
19.9833008995
 20
10.8648221951
 30
0.0
 10
19.9935292131
 20
10.8360377705
 30
0.0
 10
20.0059301282
 20
10.8078357024
 30
0.0
 10
20.0204465318
 20
10.7803204488
 30
0.0
 10
20.0314305772
 20
10.7625997017
 30
0.0
 10
20.0372431919
 20
10.753888764
 30
0.0
  0
SPLINE
  5
425
100
AcDbEntity
  8
0
100
AcDbSpline
 62
7
  6
CONTINUOUS
 70
0
 71
3
 72
30
 73
26
 74
0
 42
0.0000001
 43
0.0000001
 44
0.0000000001
 40
0.0
 40
0.0
 40
0.0
 40
0.0
 40
0.0693376524
 40
0.1384229248
 40
0.1728009414
 40
0.2070257031
 40
0.2748919235
 40
0.3418300304
 40
0.4076666776
 40
0.4722664797
 40
0.5355383861
 40
0.5974406949
 40
0.6579847346
 40
0.6877763853
 40
0.717257767
 40
0.7464454408
 40
0.7753590496
 40
0.804021149
 40
0.8324570018
 40
0.8606942902
 40
0.8887627951
 40
0.9166941067
 40
0.9445211125
 40
0.9722783124
 40
1.0
 40
1.0
 40
1.0
 40
1.0
 10
20.6003124876
 20
11.5243383256
 30
0.0
 10
20.5797067953
 20
11.5243383256
 30
0.0
 10
20.5385544489
 20
11.5227817217
 30
0.0
 10
20.4874820317
 20
11.5169465702
 30
0.0
 10
20.4471551862
 20
11.5099619531
 30
0.0
 10
20.407484553
 20
11.5014942105
 30
0.0
 10
20.3590028534
 20
11.488133582
 30
0.0
 10
20.3029173343
 20
11.4677015949
 30
0.0
 10
20.2495993257
 20
11.443085277
 30
0.0
 10
20.1995505992
 20
11.4144917833
 30
0.0
 10
20.1532434626
 20
11.3821583832
 30
0.0
 10
20.111126851
 20
11.3463582916
 30
0.0
 10
20.0796917361
 20
11.3136995108
 30
0.0
 10
20.0571007502
 20
11.2861579832
 30
0.0
 10
20.0415407479
 20
11.2649520073
 30
0.0
 10
20.0273190979
 20
11.2431371577
 30
0.0
 10
20.0144750933
 20
11.2207633521
 30
0.0
 10
20.0030460102
 20
11.1978837505
 30
0.0
 10
19.9930659235
 20
11.1745539077
 30
0.0
 10
19.9845655925
 20
11.1508320272
 30
0.0
 10
19.9775720272
 20
11.1267787752
 30
0.0
 10
19.9721080361
 20
11.1024573423
 30
0.0
 10
19.9681917502
 20
11.0779324142
 30
0.0
 10
19.9658366022
 20
11.0532721274
 30
0.0
 10
19.9653124876
 20
11.0367801846
 30
0.0
 10
19.9653124876
 20
11.028541882
 30
0.0
  0
SPLINE
  5
426
100
AcDbEntity
  8
0
100
AcDbSpline
 62
7
  6
CONTINUOUS
 70
0
 71
3
 72
15
 73
11
 74
0
 42
0.0000001
 43
0.0000001
 44
0.0000000001
 40
0.0
 40
0.0
 40
0.0
 40
0.0
 40
0.1284474283
 40
0.2554222457
 40
0.3811814665
 40
0.5059799308
 40
0.6300590873
 40
0.7536330787
 40
0.8768940812
 40
1.0
 40
1.0
 40
1.0
 40
1.0
 10
21.0021745206
 20
5.7193762577
 30
0.0
 10
21.0085411154
 20
5.7125846238
 30
0.0
 10
21.0206787281
 20
5.6985762287
 30
0.0
 10
21.0369893639
 20
5.6762394601
 30
0.0
 10
21.0511480475
 20
5.6527829157
 30
0.0
 10
21.063004271
 20
5.628312534
 30
0.0
 10
21.0724128485
 20
5.6029667008
 30
0.0
 10
21.0792422787
 20
5.5769196446
 30
0.0
 10
21.0833859988
 20
5.5503854298
 30
0.0
 10
21.0843124876
 20
5.5325164849
 30
0.0
 10
21.0843124876
 20
5.5235944808
 30
0.0
  0
SPLINE
  5
427
100
AcDbEntity
  8
0
100
AcDbSpline
 62
7
  6
CONTINUOUS
 70
0
 71
3
 72
15
 73
11
 74
0
 42
0.0000001
 43
0.0000001
 44
0.0000000001
 40
0.0
 40
0.0
 40
0.0
 40
0.0
 40
0.1230998614
 40
0.2463555891
 40
0.369925258
 40
0.4940017462
 40
0.6187997087
 40
0.7445614169
 40
0.8715423253
 40
1.0
 40
1.0
 40
1.0
 40
1.0
 10
20.1163124876
 20
5.5235944808
 30
0.0
 10
20.1163124876
 20
5.5325280412
 30
0.0
 10
20.1172413912
 20
5.5504202234
 30
0.0
 10
20.1213958332
 20
5.5769882731
 30
0.0
 10
20.1282427797
 20
5.6030673581
 30
0.0
 10
20.1376751323
 20
5.6284426607
 30
0.0
 10
20.1495608041
 20
5.6529394341
 30
0.0
 10
20.163753988
 20
5.6764189448
 30
0.0
 10
20.1801035833
 20
5.6987750657
 30
0.0
 10
20.1922694342
 20
5.7127935792
 30
0.0
 10
20.1986506672
 20
5.719589662
 30
0.0
  0
SPLINE
  5
428
100
AcDbEntity
  8
0
100
AcDbSpline
 62
7
  6
CONTINUOUS
 70
0
 71
3
 72
49
 73
45
 74
0
 42
0.0000001
 43
0.0000001
 44
0.0000000001
 40
0.0
 40
0.0
 40
0.0
 40
0.0
 40
0.0137138195
 40
0.0274585701
 40
0.0412527236
 40
0.0551137034
 40
0.0690581277
 40
0.0831017522
 40
0.0972591848
 40
0.1115437911
 40
0.1259675349
 40
0.1405408656
 40
0.1701600397
 40
0.200463185
 40
0.2314740939
 40
0.2631898265
 40
0.2955820085
 40
0.3285991229
 40
0.3621691373
 40
0.3962026717
 40
0.4305962595
 40
0.4652358125
 40
0.5000001301
 40
0.5347644456
 40
0.5694039924
 40
0.6037975696
 40
0.6378310904
 40
0.6714010868
 40
0.7044181813
 40
0.7368103405
 40
0.768526049
 40
0.799536933
 40
0.8298400534
 40
0.8594592038
 40
0.8740325233
 40
0.8884562566
 40
0.9027408531
 40
0.9168982769
 40
0.9309418936
 40
0.944886311
 40
0.9587472851
 40
0.9725414343
 40
0.9862861816
 40
1.0
 40
1.0
 40
1.0
 40
1.0
 10
21.0900290237
 20
11.3660965746
 30
0.0
 10
21.0897597923
 20
11.3722442247
 30
0.0
 10
21.0888365751
 20
11.3845399907
 30
0.0
 10
21.0863058859
 20
11.402888091
 30
0.0
 10
21.0826358594
 20
11.4211106097
 30
0.0
 10
21.0778373919
 20
11.4391613129
 30
0.0
 10
21.0719243514
 20
11.456995999
 30
0.0
 10
21.0649135164
 20
11.4745713572
 30
0.0
 10
21.0568243348
 20
11.4918456026
 30
0.0
 10
21.047678963
 20
11.5087782596
 30
0.0
 10
21.0375012514
 20
11.5253308853
 30
0.0
 10
21.0225122059
 20
11.5469569538
 30
0.0
 10
21.001274828
 20
11.5728572716
 30
0.0
 10
20.9722825278
 20
11.6016603638
 30
0.0
 10
20.9399170976
 20
11.62812202
 30
0.0
 10
20.9044835757
 20
11.6520179392
 30
0.0
 10
20.8663074209
 20
11.6731500001
 30
0.0
 10
20.825735733
 20
11.6913414929
 30
0.0
 10
20.7831350223
 20
11.7064401538
 30
0.0
 10
20.7388889534
 20
11.71831865
 30
0.0
 10
20.6933956385
 20
11.7268763151
 30
0.0
 10
20.6470644244
 20
11.7320403832
 30
0.0
 10
20.6003123065
 20
11.7337665908
 30
0.0
 10
20.5535601928
 20
11.7320403542
 30
0.0
 10
20.5072289893
 20
11.7268762664
 30
0.0
 10
20.4617356942
 20
11.7183185708
 30
0.0
 10
20.417489648
 20
11.7064400629
 30
0.0
 10
20.3748889694
 20
11.6913413802
 30
0.0
 10
20.3343173143
 20
11.6731498815
 30
0.0
 10
20.2961411969
 20
11.6520178146
 30
0.0
 10
20.2607077141
 20
11.6281218956
 30
0.0
 10
20.2283423186
 20
11.6016602494
 30
0.0
 10
20.1993500559
 20
11.5728571664
 30
0.0
 10
20.1781127003
 20
11.5469568653
 30
0.0
 10
20.1631236742
 20
11.5253308081
 30
0.0
 10
20.1529459739
 20
11.508778192
 30
0.0
 10
20.143800611
 20
11.4918455451
 30
0.0
 10
20.1357114376
 20
11.4745713089
 30
0.0
 10
20.1287006099
 20
11.4569959593
 30
0.0
 10
20.1227875739
 20
11.4391612814
 30
0.0
 10
20.1179891099
 20
11.4211105851
 30
0.0
 10
20.1143190862
 20
11.4028880718
 30
0.0
 10
20.1117883984
 20
11.3845399753
 30
0.0
 10
20.110865182
 20
11.3722442112
 30
0.0
 10
20.1105959509
 20
11.3660965616
 30
0.0
  0
SPLINE
  5
429
100
AcDbEntity
  8
0
100
AcDbSpline
 62
9
  6
CONTINUOUS
 70
0
 71
3
 72
22
 73
18
 74
0
 42
0.0000001
 43
0.0000001
 44
0.0000000001
 40
0.0
 40
0.0
 40
0.0
 40
0.0
 40
0.0896409194
 40
0.1375738723
 40
0.1876127878
 40
0.2398111857
 40
0.2942335964
 40
0.350962395
 40
0.4101319948
 40
0.4719204261
 40
0.5365434929
 40
0.6042557953
 40
0.6753468193
 40
0.7501349339
 40
0.8289583451
 40
0.912147823
 40
1.0
 40
1.0
 40
1.0
 40
1.0
 10
7.4254814933
 20
11.0592871662
 30
0.0
 10
7.4152268727
 20
11.0449647707
 30
0.0
 10
7.3985911785
 20
11.0236105369
 30
0.0
 10
7.3743217964
 20
10.9958507556
 30
0.0
 10
7.3540386083
 20
10.9744055742
 30
0.0
 10
7.3320013816
 20
10.9528984382
 30
0.0
 10
7.3081278423
 20
10.9314276582
 30
0.0
 10
7.2823306725
 20
10.9100888007
 30
0.0
 10
7.2544848845
 20
10.8890042237
 30
0.0
 10
7.2244558759
 20
10.8682909911
 30
0.0
 10
7.1921108029
 20
10.8480443237
 30
0.0
 10
7.1572932272
 20
10.8283771972
 30
0.0
 10
7.119835428
 20
10.8094092438
 30
0.0
 10
7.0795603328
 20
10.7912715331
 30
0.0
 10
7.036285846
 20
10.7741206696
 30
0.0
 10
6.9898471265
 20
10.7581249057
 30
0.0
 10
6.9575856754
 20
10.7486474692
 30
0.0
 10
6.9409181799
 20
10.7441504603
 30
0.0
  0
SPLINE
  5
42A
100
AcDbEntity
  8
0
100
AcDbSpline
 62
9
  6
CONTINUOUS
 70
0
 71
3
 72
42
 73
38
 74
0
 42
0.0000001
 43
0.0000001
 44
0.0000000001
 40
0.0
 40
0.0
 40
0.0
 40
0.0
 40
0.0058732982
 40
0.0118121127
 40
0.0178635626
 40
0.0240714995
 40
0.0371030258
 40
0.0440034339
 40
0.0511951416
 40
0.0587019148
 40
0.0665441426
 40
0.0747392267
 40
0.0833019612
 40
0.0922448849
 40
0.1015785981
 40
0.121449972
 40
0.1429675784
 40
0.16614012
 40
0.1909577367
 40
0.2173997076
 40
0.245437386
 40
0.2750362667
 40
0.3061574665
 40
0.3387587987
 40
0.3727897931
 40
0.4081794483
 40
0.4448509481
 40
0.4827257214
 40
0.5217238464
 40
0.561764366
 40
0.6027655407
 40
0.6446450547
 40
0.6873174307
 40
0.7306869489
 40
0.8191211685
 40
0.9091574218
 40
1.0
 40
1.0
 40
1.0
 40
1.0
 10
5.8503355808
 20
8.3446146189
 30
0.0
 10
5.8503839036
 20
8.3461904014
 30
0.0
 10
5.8506339487
 20
8.3493568792
 30
0.0
 10
5.8514616141
 20
8.3540864863
 30
0.0
 10
5.8527402894
 20
8.3588079732
 30
0.0
 10
5.8550791676
 20
8.365188392
 30
0.0
 10
5.8583104156
 20
8.3714534959
 30
0.0
 10
5.8623038691
 20
8.3775449051
 30
0.0
 10
5.8657936137
 20
8.3821799618
 30
0.0
 10
5.869717501
 20
8.3867896232
 30
0.0
 10
5.8740736346
 20
8.3913722615
 30
0.0
 10
5.8788597254
 20
8.3959251819
 30
0.0
 10
5.8840736709
 20
8.4004459069
 30
0.0
 10
5.8897133799
 20
8.4049319321
 30
0.0
 10
5.8979712817
 20
8.4109903546
 30
0.0
 10
5.9093834593
 20
8.4184361994
 30
0.0
 10
5.9244553805
 20
8.4270067816
 30
0.0
 10
5.9411370727
 20
8.4353789477
 30
0.0
 10
5.959382346
 20
8.4435343028
 30
0.0
 10
5.9791442304
 20
8.4514544879
 30
0.0
 10
6.0003751228
 20
8.4591206217
 30
0.0
 10
6.0230271523
 20
8.4665137773
 30
0.0
 10
6.0470521701
 20
8.473615026
 30
0.0
 10
6.0724004492
 20
8.4804047478
 30
0.0
 10
6.0990153622
 20
8.4868630798
 30
0.0
 10
6.1268302689
 20
8.4929797514
 30
0.0
 10
6.1557732985
 20
8.4987419837
 30
0.0
 10
6.1857714837
 20
8.5041370795
 30
0.0
 10
6.2167518239
 20
8.5091522913
 30
0.0
 10
6.2486412671
 20
8.5137749084
 30
0.0
 10
6.2813667306
 20
8.5179922704
 30
0.0
 10
6.3148543716
 20
8.5217915151
 30
0.0
 10
6.3490269205
 20
8.5251600412
 30
0.0
 10
6.3956956482
 20
8.5290971814
 30
0.0
 10
6.4551294153
 20
8.5328874042
 30
0.0
 10
6.5273741663
 20
8.5356280063
 30
0.0
 10
6.5759283285
 20
8.5362438572
 30
0.0
 10
6.6003124876
 20
8.5362438572
 30
0.0
  0
SPLINE
  5
42B
100
AcDbEntity
  8
0
100
AcDbSpline
 62
9
  6
CONTINUOUS
 70
0
 71
3
 72
39
 73
35
 74
0
 42
0.0000001
 43
0.0000001
 44
0.0000000001
 40
0.0
 40
0.0
 40
0.0
 40
0.0
 40
0.055494013
 40
0.1087973553
 40
0.1599717962
 40
0.2090791049
 40
0.2561810592
 40
0.3013394557
 40
0.3446161228
 40
0.3860729355
 40
0.4257718341
 40
0.4637748445
 40
0.5001441043
 40
0.534941891
 40
0.5682306561
 40
0.6000730636
 40
0.6305320333
 40
0.6596707903
 40
0.6875529186
 40
0.7142424211
 40
0.7398037818
 40
0.7643020327
 40
0.7878028197
 40
0.8103724679
 40
0.8320780396
 40
0.8529873835
 40
0.8731691667
 40
0.8926928848
 40
0.9116288449
 40
0.930048113
 40
0.9480224244
 40
0.9656240531
 40
0.9829256422
 40
1.0
 40
1.0
 40
1.0
 40
1.0
 10
5.8537151555
 20
8.4572015242
 30
0.0
 10
5.855093465
 20
8.5037122899
 30
0.0
 10
5.8578139831
 20
8.594897229
 30
0.0
 10
5.861844305
 20
8.7289714428
 30
0.0
 10
5.8657157784
 20
8.857692824
 30
0.0
 10
5.8694037145
 20
8.9812175704
 30
0.0
 10
5.8728834254
 20
9.0997018832
 30
0.0
 10
5.8761302205
 20
9.2133019667
 30
0.0
 10
5.8791194072
 20
9.3221740294
 30
0.0
 10
5.8818262891
 20
9.4264742845
 30
0.0
 10
5.8842261656
 20
9.5263589503
 30
0.0
 10
5.8862943297
 20
9.6219842516
 30
0.0
 10
5.8880060672
 20
9.7135064199
 30
0.0
 10
5.889336654
 20
9.8010816944
 30
0.0
 10
5.8902613542
 20
9.8848663226
 30
0.0
 10
5.890755417
 20
9.9650165607
 30
0.0
 10
5.8907940736
 20
10.041688674
 30
0.0
 10
5.8903525334
 20
10.1150389365
 30
0.0
 10
5.8894059797
 20
10.1852236299
 30
0.0
 10
5.8879295659
 20
10.252399042
 30
0.0
 10
5.88589841
 20
10.3167214637
 30
0.0
 10
5.8832875909
 20
10.3783471843
 30
0.0
 10
5.8800721446
 20
10.4374324856
 30
0.0
 10
5.8762270614
 20
10.4941336339
 30
0.0
 10
5.8717272861
 20
10.5486068699
 30
0.0
 10
5.8665477203
 20
10.6010083973
 30
0.0
 10
5.8606632298
 20
10.6514943697
 30
0.0
 10
5.854048656
 20
10.7002208794
 30
0.0
 10
5.8466788345
 20
10.747343944
 30
0.0
 10
5.8385286146
 20
10.7930195107
 30
0.0
 10
5.8295728985
 20
10.8374034153
 30
0.0
 10
5.8197866262
 20
10.8806515396
 30
0.0
 10
5.8091449648
 20
10.9229192848
 30
0.0
 10
5.8014233347
 20
10.9506932223
 30
0.0
 10
5.7974179666
 20
10.9644381988
 30
0.0
  0
SPLINE
  5
42C
100
AcDbEntity
  8
0
100
AcDbSpline
 62
9
  6
CONTINUOUS
 70
0
 71
3
 72
47
 73
43
 74
0
 42
0.0000001
 43
0.0000001
 44
0.0000000001
 40
0.0
 40
0.0
 40
0.0
 40
0.0
 40
0.0030906951
 40
0.0062758071
 40
0.0096557615
 40
0.0133135975
 40
0.0173138431
 40
0.021704834
 40
0.0265221443
 40
0.0317918031
 40
0.0375328556
 40
0.0437592607
 40
0.0504812559
 40
0.0577063291
 40
0.0654399125
 40
0.073685882
 40
0.0824469197
 40
0.0917247816
 40
0.1015199376
 40
0.1118291195
 40
0.1226474036
 40
0.1339693917
 40
0.1581005261
 40
0.1841734972
 40
0.2121351667
 40
0.2419300047
 40
0.2735007803
 40
0.3067890342
 40
0.3417308482
 40
0.3782409748
 40
0.4162273605
 40
0.4555970488
 40
0.4962563733
 40
0.5381111023
 40
0.5810665495
 40
0.6250276608
 40
0.6698965058
 40
0.7155638625
 40
0.8088428463
 40
0.8562280629
 40
0.9039587272
 40
1.0
 40
1.0
 40
1.0
 40
1.0
 10
5.7104868244
 20
3.6460404751
 30
0.0
 10
5.7104598776
 20
3.6451031373
 30
0.0
 10
5.7105932418
 20
3.6431894746
 30
0.0
 10
5.7113527922
 20
3.6403440147
 30
0.0
 10
5.7126610806
 20
3.6375168511
 30
0.0
 10
5.7145078172
 20
3.6347108174
 30
0.0
 10
5.7168862528
 20
3.6319243592
 30
0.0
 10
5.7197925171
 20
3.6291565828
 30
0.0
 10
5.7232242107
 20
3.6264074422
 30
0.0
 10
5.7271794638
 20
3.6236779164
 30
0.0
 10
5.7316564797
 20
3.6209696623
 30
0.0
 10
5.7366533653
 20
3.6182847776
 30
0.0
 10
5.7421680914
 20
3.6156256166
 30
0.0
 10
5.7481985013
 20
3.6129946813
 30
0.0
 10
5.7547423344
 20
3.6103945563
 30
0.0
 10
5.7617972486
 20
3.6078278689
 30
0.0
 10
5.7693608418
 20
3.6052972755
 30
0.0
 10
5.7774304987
 20
3.6028054685
 30
0.0
 10
5.7860024998
 20
3.60035554
 30
0.0
 10
5.7950710651
 20
3.5979487629
 30
0.0
 10
5.8046291898
 20
3.5955865687
 30
0.0
 10
5.8183093646
 20
3.592431277
 30
0.0
 10
5.8365882619
 20
3.588631858
 30
0.0
 10
5.8599188937
 20
3.5843652397
 30
0.0
 10
5.8850298027
 20
3.580313217
 30
0.0
 10
5.9118620951
 20
3.5764887182
 30
0.0
 10
5.9403569924
 20
3.5729047515
 30
0.0
 10
5.970454152
 20
3.569574295
 30
0.0
 10
6.0020855023
 20
3.5665110264
 30
0.0
 10
6.0351718257
 20
3.5637109676
 30
0.0
 10
6.0696262368
 20
3.5611709255
 30
0.0
 10
6.105360075
 20
3.5588878378
 30
0.0
 10
6.14228465
 20
3.5568585888
 30
0.0
 10
6.1803112447
 20
3.5550800278
 30
0.0
 10
6.2193511228
 20
3.5535489773
 30
0.0
 10
6.2593147597
 20
3.5522622527
 30
0.0
 10
6.3001084647
 20
3.5512167701
 30
0.0
 10
6.3558676277
 20
3.550105067
 30
0.0
 10
6.4123974302
 20
3.5493936097
 30
0.0
 10
6.4695553874
 20
3.5489701066
 30
0.0
 10
6.5275524472
 20
3.548706699
 30
0.0
 10
6.5711733136
 20
3.5486569646
 30
0.0
 10
6.6003124876
 20
3.5486569646
 30
0.0
  0
SPLINE
  5
42D
100
AcDbEntity
  8
0
100
AcDbSpline
 62
9
  6
CONTINUOUS
 70
0
 71
3
 72
46
 73
42
 74
0
 42
0.0000001
 43
0.0000001
 44
0.0000000001
 40
0.0
 40
0.0
 40
0.0
 40
0.0
 40
0.0047334436
 40
0.0095503765
 40
0.0145130979
 40
0.0196777405
 40
0.0250933151
 40
0.0308015743
 40
0.0368374495
 40
0.0432297995
 40
0.0500022672
 40
0.0571741175
 40
0.0647609916
 40
0.0727755537
 40
0.0812280299
 40
0.0901266505
 40
0.0994780078
 40
0.1092873404
 40
0.1195574553
 40
0.1302871288
 40
0.1531132768
 40
0.1777391811
 40
0.2041287679
 40
0.2322402784
 40
0.2620278392
 40
0.2934425465
 40
0.3264332294
 40
0.3609405513
 40
0.3968825022
 40
0.4341717886
 40
0.4727205388
 40
0.5124405031
 40
0.5532432144
 40
0.5950401217
 40
0.6377427054
 40
0.7254855923
 40
0.8156559426
 40
0.8613938401
 40
0.9074303744
 40
0.9536653229
 40
1.0
 40
1.0
 40
1.0
 40
1.0
 10
5.7536146448
 20
5.1657256896
 30
0.0
 10
5.7536573018
 20
5.1671343412
 30
0.0
 10
5.7539177569
 20
5.169974057
 30
0.0
 10
5.7548226726
 20
5.1742086833
 30
0.0
 10
5.7562391543
 20
5.1784359905
 30
0.0
 10
5.7581626711
 20
5.1826533339
 30
0.0
 10
5.7605890303
 20
5.1868599447
 30
0.0
 10
5.763514555
 20
5.1910552007
 30
0.0
 10
5.7669360837
 20
5.1952387063
 30
0.0
 10
5.770850852
 20
5.1994099883
 30
0.0
 10
5.7752563586
 20
5.2035684409
 30
0.0
 10
5.7801502552
 20
5.2077132969
 30
0.0
 10
5.7855302692
 20
5.211843645
 30
0.0
 10
5.7913941561
 20
5.2159584549
 30
0.0
 10
5.7977396713
 20
5.2200566067
 30
0.0
 10
5.8045645601
 20
5.2241369068
 30
0.0
 10
5.8118665374
 20
5.2281981356
 30
0.0
 10
5.8196429883
 20
5.2322387631
 30
0.0
 10
5.8278899093
 20
5.2362570845
 30
0.0
 10
5.8397517724
 20
5.2416960563
 30
0.0
 10
5.8557299975
 20
5.2483999338
 30
0.0
 10
5.87629937
 20
5.2561722671
 30
0.0
 10
5.8985877937
 20
5.2638137708
 30
0.0
 10
5.922540678
 20
5.2713086595
 30
0.0
 10
5.9481036849
 20
5.2786410641
 30
0.0
 10
5.9752220634
 20
5.2857951844
 30
0.0
 10
6.0038390789
 20
5.2927548127
 30
0.0
 10
6.0338897741
 20
5.2995020765
 30
0.0
 10
6.0653002873
 20
5.3060146419
 30
0.0
 10
6.097989192
 20
5.3122682949
 30
0.0
 10
6.1318737209
 20
5.3182385736
 30
0.0
 10
6.1668710762
 20
5.3239010535
 30
0.0
 10
6.2028984137
 20
5.3292313225
 30
0.0
 10
6.2398729537
 20
5.3342050514
 30
0.0
 10
6.2907825614
 20
5.3403841804
 30
0.0
 10
6.3561368147
 20
5.3470383203
 30
0.0
 10
6.4225463513
 20
5.3520310021
 30
0.0
 10
6.4766395026
 20
5.3549590692
 30
0.0
 10
6.5176988754
 20
5.3565810305
 30
0.0
 10
6.5589557448
 20
5.3575828267
 30
0.0
 10
6.5865171751
 20
5.3578132924
 30
0.0
 10
6.6003124876
 20
5.3578132924
 30
0.0
  0
SPLINE
  5
42E
100
AcDbEntity
  8
0
100
AcDbSpline
 62
7
  6
CONTINUOUS
 70
0
 71
3
 72
39
 73
35
 74
0
 42
0.0000001
 43
0.0000001
 44
0.0000000001
 40
0.0
 40
0.0
 40
0.0
 40
0.0
 40
0.0787269604
 40
0.1178378316
 40
0.1566373193
 40
0.195026793
 40
0.2329118885
 40
0.2702038832
 40
0.3068207921
 40
0.3426886344
 40
0.3777428278
 40
0.4119295115
 40
0.4452070207
 40
0.4775474784
 40
0.5089383055
 40
0.5393838296
 40
0.5542611816
 40
0.5689123826
 40
0.5975554485
 40
0.6253818898
 40
0.6524762853
 40
0.6789440272
 40
0.7049099149
 40
0.7305154633
 40
0.755914838
 40
0.7812697539
 40
0.806743595
 40
0.8324953143
 40
0.8586738768
 40
0.8854135879
 40
0.9128306247
 40
0.9410209833
 40
0.9700595324
 40
1.0
 40
1.0
 40
1.0
 40
1.0
 10
20.6003124876
 20
5.1152056161
 30
0.0
 10
20.5760638793
 20
5.1152056161
 30
0.0
 10
20.5397419179
 20
5.1167749995
 30
0.0
 10
20.4917716278
 20
5.1220210457
 30
0.0
 10
20.4563576137
 20
5.1274935923
 30
0.0
 10
20.4215982101
 20
5.1344869707
 30
0.0
 10
20.3876495168
 20
5.1429697431
 30
0.0
 10
20.3546659312
 20
5.1529035194
 30
0.0
 10
20.3227969006
 20
5.1642434698
 30
0.0
 10
20.2921869188
 20
5.1769384696
 30
0.0
 10
20.2629747169
 20
5.190931375
 30
0.0
 10
20.2352926746
 20
5.206159342
 30
0.0
 10
20.2092663553
 20
5.2225540435
 30
0.0
 10
20.1850136415
 20
5.2400423913
 30
0.0
 10
20.1626455871
 20
5.2585455085
 30
0.0
 10
20.1455291616
 20
5.2748678473
 30
0.0
 10
20.1329018826
 20
5.2883563207
 30
0.0
 10
20.1211697537
 20
5.3019033755
 30
0.0
 10
20.1078210411
 20
5.3193056627
 30
0.0
 10
20.0939228044
 20
5.341007164
 30
0.0
 10
20.0823303198
 20
5.3632741949
 30
0.0
 10
20.0731006587
 20
5.3860051415
 30
0.0
 10
20.0662797512
 20
5.4090958416
 30
0.0
 10
20.0619025409
 20
5.4324387514
 30
0.0
 10
20.0599918883
 20
5.4559238078
 30
0.0
 10
20.0605579157
 20
5.4794393133
 30
0.0
 10
20.063597616
 20
5.5028732083
 30
0.0
 10
20.0690949717
 20
5.5261143983
 30
0.0
 10
20.0770215053
 20
5.549053884
 30
0.0
 10
20.0873371238
 20
5.571585582
 30
0.0
 10
20.0999908189
 20
5.5936066104
 30
0.0
 10
20.1149219095
 20
5.6150179659
 30
0.0
 10
20.1320584776
 20
5.6357225453
 30
0.0
 10
20.1447052227
 20
5.6487914709
 30
0.0
 10
20.151351926
 20
5.6551840731
 30
0.0
  0
SPLINE
  5
42F
100
AcDbEntity
  8
0
100
AcDbSpline
 62
9
  6
CONTINUOUS
 70
0
 71
3
 72
39
 73
35
 74
0
 42
0.0000001
 43
0.0000001
 44
0.0000000001
 40
0.0
 40
0.0
 40
0.0
 40
0.0
 40
0.0554940062
 40
0.1087973425
 40
0.1599717784
 40
0.2090790829
 40
0.2561810338
 40
0.3013394276
 40
0.3446160927
 40
0.3860729042
 40
0.425771802
 40
0.4637748123
 40
0.5001440724
 40
0.5349418598
 40
0.5682306262
 40
0.6000730352
 40
0.6305320068
 40
0.6596707658
 40
0.6875528965
 40
0.7142424015
 40
0.7398037648
 40
0.7643020183
 40
0.787802808
 40
0.8103724586
 40
0.8320780328
 40
0.852987379
 40
0.8731691642
 40
0.8926928841
 40
0.9116288455
 40
0.9300481146
 40
0.9480224265
 40
0.9656240551
 40
0.9829256435
 40
1.0
 40
1.0
 40
1.0
 40
1.0
 10
7.3469098267
 20
8.4572012869
 30
0.0
 10
7.3455315175
 20
8.5037120428
 30
0.0
 10
7.3428109999
 20
8.5948969631
 30
0.0
 10
7.3387806789
 20
8.7289711502
 30
0.0
 10
7.3349092061
 20
8.8576925073
 30
0.0
 10
7.3312212704
 20
8.9812172322
 30
0.0
 10
7.3277415599
 20
9.0997015259
 30
0.0
 10
7.3244947649
 20
9.2133015926
 30
0.0
 10
7.3215055781
 20
9.3221736407
 30
0.0
 10
7.3187986958
 20
9.4264738832
 30
0.0
 10
7.3163988187
 20
9.5263585383
 30
0.0
 10
7.3143306537
 20
9.6219838307
 30
0.0
 10
7.312618915
 20
9.7135059917
 30
0.0
 10
7.3112883266
 20
9.8010812603
 30
0.0
 10
7.3103636245
 20
9.884865884
 30
0.0
 10
7.3098695594
 20
9.9650161189
 30
0.0
 10
7.3098309001
 20
10.04168823
 30
0.0
 10
7.3102724372
 20
10.1150384914
 30
0.0
 10
7.3112189873
 20
10.1852231844
 30
0.0
 10
7.3126953972
 20
10.2523985969
 30
0.0
 10
7.3147265486
 20
10.3167210195
 30
0.0
 10
7.3173373627
 20
10.3783467414
 30
0.0
 10
7.3205528035
 20
10.4374320443
 30
0.0
 10
7.3243978806
 20
10.4941331944
 30
0.0
 10
7.3288976493
 20
10.5486064323
 30
0.0
 10
7.3340772079
 20
10.6010079613
 30
0.0
 10
7.3399616906
 20
10.6514939352
 30
0.0
 10
7.3465762559
 20
10.7002204461
 30
0.0
 10
7.3539460682
 20
10.7473435112
 30
0.0
 10
7.3620962784
 20
10.7930190779
 30
0.0
 10
7.3710519839
 20
10.8374029817
 30
0.0
 10
7.380838245
 20
10.8806511043
 30
0.0
 10
7.3914798943
 20
10.9229188467
 30
0.0
 10
7.3992015161
 20
10.9506927822
 30
0.0
 10
7.4032068799
 20
10.9644377576
 30
0.0
  0
SPLINE
  5
430
100
AcDbEntity
  8
0
100
AcDbSpline
 62
9
  6
CONTINUOUS
 70
0
 71
3
 72
11
 73
7
 74
0
 42
0.0000001
 43
0.0000001
 44
0.0000000001
 40
0.0
 40
0.0
 40
0.0
 40
0.0
 40
0.2528102994
 40
0.5044841648
 40
0.7539063101
 40
1.0
 40
1.0
 40
1.0
 40
1.0
 10
20.6003124876
 20
3.9280895637
 30
0.0
 10
20.5534908154
 20
3.9280895637
 30
0.0
 10
20.4600366568
 20
3.9307170784
 30
0.0
 10
20.3208365156
 20
3.9425203455
 30
0.0
 10
20.1837696469
 20
3.9620912742
 30
0.0
 10
20.0937710167
 20
3.9803694319
 30
0.0
 10
20.0494021685
 20
3.9907970028
 30
0.0
  0
SPLINE
  5
431
100
AcDbEntity
  8
0
100
AcDbSpline
 62
9
  6
CONTINUOUS
 70
0
 71
3
 72
16
 73
12
 74
0
 42
0.0000001
 43
0.0000001
 44
0.0000000001
 40
0.0
 40
0.0
 40
0.0
 40
0.0
 40
0.1355088029
 40
0.2685849816
 40
0.3988854021
 40
0.5261074719
 40
0.6499960503
 40
0.7703510526
 40
0.8291666056
 40
0.8870530603
 40
1.0
 40
1.0
 40
1.0
 40
1.0
 10
20.0494021685
 20
3.9907970028
 30
0.0
 10
20.012505107
 20
3.9994685537
 30
0.0
 10
19.9397938711
 20
4.0185135372
 30
0.0
 10
19.833457983
 20
4.0524547084
 30
0.0
 10
19.7313048759
 20
4.0913568722
 30
0.0
 10
19.6338942916
 20
4.1350089066
 30
0.0
 10
19.5417590859
 20
4.1831739025
 30
0.0
 10
19.4692393204
 20
4.227192837
 30
0.0
 10
19.4143853396
 20
4.2644645886
 30
0.0
 10
19.362545625
 20
4.3024080418
 30
0.0
 10
19.3255156626
 20
4.332699389
 30
0.0
 10
19.3018670441
 20
4.3536464503
 30
0.0
  0
LINE
  5
432
100
AcDbEntity
  8
0
100
AcDbLine
 62
9
  6
CONTINUOUS
 10
19.3018670441
 20
4.3536464503
 11
19.3016014586
 21
4.3538817658
  0
SPLINE
  5
433
100
AcDbEntity
  8
0
100
AcDbSpline
 62
9
  6
CONTINUOUS
 70
0
 71
3
 72
51
 73
47
 74
0
 42
0.0000001
 43
0.0000001
 44
0.0000000001
 40
0.0
 40
0.0
 40
0.0
 40
0.0
 40
0.0314865299
 40
0.0621046431
 40
0.0918877833
 40
0.1208853473
 40
0.1491631155
 40
0.1630602191
 40
0.1768095271
 40
0.1904237469
 40
0.203916478
 40
0.2173021636
 40
0.2305959922
 40
0.2438138225
 40
0.256972077
 40
0.2700876223
 40
0.2831776559
 40
0.2962595701
 40
0.3093508195
 40
0.3224687868
 40
0.335630651
 40
0.3488532517
 40
0.3621529746
 40
0.3755456368
 40
0.3890463759
 40
0.4026695791
 40
0.4164287868
 40
0.43033664
 40
0.444404839
 40
0.4730584007
 40
0.5024689908
 40
0.5174790856
 40
0.5326984274
 40
0.5637778412
 40
0.5957372555
 40
0.6285871664
 40
0.6623243949
 40
0.6969331785
 40
0.7323862986
 40
0.7686461895
 40
0.8056660067
 40
0.8433906455
 40
0.8817577227
 40
0.9206985166
 40
0.9601388609
 40
1.0
 40
1.0
 40
1.0
 40
1.0
 10
19.3016014586
 20
4.3538817658
 30
0.0
 10
19.2826180411
 20
4.3707065437
 30
0.0
 10
19.2462093507
 20
4.4050858113
 30
0.0
 10
19.1959079184
 20
4.4594748935
 30
0.0
 10
19.1508720643
 20
4.5157634817
 30
0.0
 10
19.1112789862
 20
4.5737377931
 30
0.0
 10
19.0827796365
 20
4.6235724931
 30
0.0
 10
19.0629183057
 20
4.6640247654
 30
0.0
 10
19.0495520813
 20
4.6944711347
 30
0.0
 10
19.0376445087
 20
4.72516766
 30
0.0
 10
19.0272067769
 20
4.7560859989
 30
0.0
 10
19.0182488418
 20
4.787196786
 30
0.0
 10
19.0107794763
 20
4.8184707262
 30
0.0
 10
19.0048058487
 20
4.8498782095
 30
0.0
 10
19.0003336678
 20
4.8813894938
 30
0.0
 10
18.9973674547
 20
4.9129747345
 30
0.0
 10
18.9959098971
 20
4.9446039512
 30
0.0
 10
18.9959625207
 20
4.9762471421
 30
0.0
 10
18.9975253013
 20
5.0078742655
 30
0.0
 10
19.0005965718
 20
5.0394553231
 30
0.0
 10
19.0051735472
 20
5.0709603407
 30
0.0
 10
19.0112516353
 20
5.1023594767
 30
0.0
 10
19.0188249755
 20
5.1336230063
 30
0.0
 10
19.0278863551
 20
5.164721333
 30
0.0
 10
19.0384268517
 20
5.195625135
 30
0.0
 10
19.0504365112
 20
5.2263052435
 30
0.0
 10
19.0639036538
 20
5.2567326625
 30
0.0
 10
19.0788156636
 20
5.2868792596
 30
0.0
 10
19.1007370077
 20
5.32690221
 30
0.0
 10
19.1317684736
 20
5.3761129268
 30
0.0
 10
19.1669667456
 20
5.4233742509
 30
0.0
 10
19.1977353339
 20
5.4602886218
 30
0.0
 10
19.2307003283
 20
5.4970821077
 30
0.0
 10
19.2752129983
 20
5.5418048002
 30
0.0
 10
19.3332226474
 20
5.5928958414
 30
0.0
 10
19.3959820072
 20
5.6415985503
 30
0.0
 10
19.4632534314
 20
5.6877311105
 30
0.0
 10
19.5347850523
 20
5.7311234478
 30
0.0
 10
19.6103087007
 20
5.7716146432
 30
0.0
 10
19.6895416035
 20
5.8090544478
 30
0.0
 10
19.7721871057
 20
5.843303636
 30
0.0
 10
19.8579358088
 20
5.8742347157
 30
0.0
 10
19.9464664614
 20
5.9017323992
 30
0.0
 10
20.0374480191
 20
5.9256941741
 30
0.0
 10
20.1305376295
 20
5.9460302132
 30
0.0
 10
20.1934850096
 20
5.9570696456
 30
0.0
 10
20.2252210775
 20
5.9619750306
 30
0.0
  0
SPLINE
  5
434
100
AcDbEntity
  8
0
100
AcDbSpline
 62
9
  6
CONTINUOUS
 70
0
 71
3
 72
38
 73
34
 74
0
 42
0.0000001
 43
0.0000001
 44
0.0000000001
 40
0.0
 40
0.0
 40
0.0
 40
0.0
 40
0.0748519899
 40
0.1121546266
 40
0.149304641
 40
0.1862523491
 40
0.2229492261
 40
0.2593480824
 40
0.2954033857
 40
0.3310715396
 40
0.3663111864
 40
0.4010835143
 40
0.4353525765
 40
0.4690856207
 40
0.5022534323
 40
0.5348306893
 40
0.5667963311
 40
0.5981339388
 40
0.6288321258
 40
0.6588849347
 40
0.688292234
 40
0.7170601061
 40
0.7452012135
 40
0.7727351255
 40
0.7996885839
 40
0.8260956805
 40
0.8519979145
 40
0.8774440963
 40
0.9024900636
 40
0.9271981828
 40
0.9516366149
 40
0.9758783462
 40
1.0
 40
1.0
 40
1.0
 40
1.0
 10
20.6003124876
 20
3.9030468862
 30
0.0
 10
20.5481967647
 20
3.9030468862
 30
0.0
 10
20.4700798783
 20
3.9054673636
 30
0.0
 10
20.3664295189
 20
3.9135473057
 30
0.0
 10
20.2893151871
 20
3.9220028897
 30
0.0
 10
20.2129265738
 20
3.9328404711
 30
0.0
 10
20.1374398264
 20
3.9460349647
 30
0.0
 10
20.0630311888
 20
3.9615556603
 30
0.0
 10
19.9898737964
 20
3.9793664805
 30
0.0
 10
19.9181380094
 20
3.9994260309
 30
0.0
 10
19.8479908206
 20
4.0216877087
 30
0.0
 10
19.7795955188
 20
4.0460998183
 30
0.0
 10
19.7131112971
 20
4.0726056987
 30
0.0
 10
19.6486928896
 20
4.1011438651
 30
0.0
 10
19.5864902166
 20
4.1316481615
 30
0.0
 10
19.526648045
 20
4.1640479251
 30
0.0
 10
19.4693056646
 20
4.1982681615
 30
0.0
 10
19.4145965818
 20
4.2342297284
 30
0.0
 10
19.3626482319
 20
4.2718495276
 30
0.0
 10
19.3135817124
 20
4.3110407011
 30
0.0
 10
19.2675115361
 20
4.3517128301
 30
0.0
 10
19.2245454061
 20
4.3937721325
 30
0.0
 10
19.1847840098
 20
4.4371216544
 30
0.0
 10
19.1483208291
 20
4.4816614515
 30
0.0
 10
19.1152419616
 20
4.5272887588
 30
0.0
 10
19.0856259439
 20
4.5738981407
 30
0.0
 10
19.059543568
 20
4.6213816408
 30
0.0
 10
19.0370576796
 20
4.6696288817
 30
0.0
 10
19.0182229448
 20
4.71852733
 30
0.0
 10
19.0030856069
 20
4.7679620119
 30
0.0
 10
18.9916831407
 20
4.8178173819
 30
0.0
 10
18.9840441938
 20
4.8679715365
 30
0.0
 10
18.981469453
 20
4.9015834089
 30
0.0
 10
18.9808174349
 20
4.918365457
 30
0.0
  0
SPLINE
  5
435
100
AcDbEntity
  8
0
100
AcDbSpline
 62
9
  6
CONTINUOUS
 70
0
 71
3
 72
39
 73
35
 74
0
 42
0.0000001
 43
0.0000001
 44
0.0000000001
 40
0.0
 40
0.0
 40
0.0
 40
0.0
 40
0.0751233499
 40
0.1125572627
 40
0.1498329822
 40
0.1868991669
 40
0.2237055885
 40
0.2602034944
 40
0.2963458914
 40
0.3320878649
 40
0.3673868978
 40
0.4022032027
 40
0.4365000642
 40
0.4702441948
 40
0.5034061032
 40
0.5359604785
 40
0.5678865863
 40
0.5991686797
 40
0.6297964184
 40
0.6597652948
 40
0.6890770567
 40
0.7177401169
 40
0.7318343197
 40
0.7457727579
 40
0.7731921674
 40
0.8000316361
 40
0.8263294094
 40
0.8521315146
 40
0.8774915823
 40
0.902470451
 40
0.9271355272
 40
0.9515598872
 40
0.9758211283
 40
1.0
 40
1.0
 40
1.0
 40
1.0
 10
20.6003124876
 20
3.5493521214
 30
0.0
 10
20.5380405901
 20
3.5493521214
 30
0.0
 10
20.4447026202
 20
3.5522907522
 30
0.0
 10
20.3208756667
 20
3.5621007671
 30
0.0
 10
20.2287744913
 20
3.5723657807
 30
0.0
 10
20.1375685217
 20
3.5855211532
 30
0.0
 10
20.0474748532
 20
3.6015354867
 30
0.0
 10
19.9587106859
 20
3.6203702792
 30
0.0
 10
19.8714892607
 20
3.6419803401
 30
0.0
 10
19.7860202861
 20
3.6663138149
 30
0.0
 10
19.7025091841
 20
3.693312344
 30
0.0
 10
19.6211566635
 20
3.7229112051
 30
0.0
 10
19.5421582228
 20
3.7550394807
 30
0.0
 10
19.4657036902
 20
3.7896202414
 30
0.0
 10
19.3919767759
 20
3.8265707423
 30
0.0
 10
19.3211546416
 20
3.865802639
 30
0.0
 10
19.2534075025
 20
3.9072222026
 30
0.0
 10
19.1888982081
 20
3.9507305962
 30
0.0
 10
19.1277820131
 20
3.9962239793
 30
0.0
 10
19.0702057759
 20
4.0435942708
 30
0.0
 10
19.0163093485
 20
4.0927275553
 30
0.0
 10
18.9743354566
 20
4.1352823903
 30
0.0
 10
18.942758419
 20
4.170097676
 30
0.0
 10
18.9128530789
 20
4.2050118727
 30
0.0
 10
18.8779486808
 20
4.2495253091
 30
0.0
 10
18.8399803388
 20
4.3045070685
 30
0.0
 10
18.8062503936
 20
4.3606320198
 30
0.0
 10
18.7768432516
 20
4.4177648147
 30
0.0
 10
18.7518322074
 20
4.4757683609
 30
0.0
 10
18.7312804512
 20
4.534502598
 30
0.0
 10
18.715240373
 20
4.5938245838
 30
0.0
 10
18.7037532763
 20
4.6535907286
 30
0.0
 10
18.6968489869
 20
4.7136497646
 30
0.0
 10
18.6953124876
 20
4.7538199583
 30
0.0
 10
18.6953124876
 20
4.7738625179
 30
0.0
  0
SPLINE
  5
436
100
AcDbEntity
  8
0
100
AcDbSpline
 62
9
  6
CONTINUOUS
 70
0
 71
3
 72
15
 73
11
 74
0
 42
0.0000001
 43
0.0000001
 44
0.0000000001
 40
0.0
 40
0.0
 40
0.0
 40
0.0
 40
0.129063241
 40
0.2577243248
 40
0.3855874698
 40
0.5122653287
 40
0.6373853729
 40
0.7605947577
 40
0.8815655037
 40
1.0
 40
1.0
 40
1.0
 40
1.0
 10
20.6003124876
 20
3.4091285843
 30
0.0
 10
20.5540570791
 20
3.4091285843
 30
0.0
 10
20.4616756933
 20
3.4112901194
 30
0.0
 10
20.3237767998
 20
3.4210049275
 30
0.0
 10
20.1873376234
 20
3.4371393216
 30
0.0
 10
20.053083351
 20
3.4596081682
 30
0.0
 10
19.9217232886
 20
3.4882929992
 30
0.0
 10
19.7939505911
 20
3.5230432421
 30
0.0
 10
19.6704456035
 20
3.563674022
 30
0.0
 10
19.5904708398
 20
3.5948980768
 30
0.0
 10
19.5513921362
 20
3.6114670075
 30
0.0
  0
SPLINE
  5
437
100
AcDbEntity
  8
0
100
AcDbSpline
 62
9
  6
CONTINUOUS
 70
0
 71
3
 72
11
 73
7
 74
0
 42
0.0000001
 43
0.0000001
 44
0.0000000001
 40
0.0
 40
0.0
 40
0.0
 40
0.0
 40
0.2563486022
 40
0.5085775583
 40
0.7565106435
 40
1.0
 40
1.0
 40
1.0
 40
1.0
 10
19.5513921362
 20
3.6114670075
 30
0.0
 10
19.5270771602
 20
3.6217762837
 30
0.0
 10
19.4791996753
 20
3.6430960293
 30
0.0
 10
19.4092153285
 20
3.6774404028
 30
0.0
 10
19.3417716221
 20
3.713827033
 30
0.0
 10
19.2981949871
 20
3.7396341764
 30
0.0
 10
19.276882765
 20
3.7528654306
 30
0.0
  0
SPLINE
  5
438
100
AcDbEntity
  8
0
100
AcDbSpline
 62
9
  6
CONTINUOUS
 70
0
 71
3
 72
24
 73
20
 74
0
 42
0.0000001
 43
0.0000001
 44
0.0000000001
 40
0.0
 40
0.0
 40
0.0
 40
0.0
 40
0.0722789037
 40
0.1430539925
 40
0.212317097
 40
0.2800742411
 40
0.3463465456
 40
0.3789399928
 40
0.411177522
 40
0.4746079594
 40
0.5367152178
 40
0.5975876948
 40
0.6573312597
 40
0.7160688215
 40
0.7739394157
 40
0.8310967479
 40
0.8877071704
 40
0.9439471075
 40
1.0
 40
1.0
 40
1.0
 40
1.0
 10
19.2423845547
 20
3.7748360876
 30
0.0
 10
19.2209719827
 20
3.788825081
 30
0.0
 10
19.1791949363
 20
3.8174493995
 30
0.0
 10
19.1192281255
 20
3.8627576167
 30
0.0
 10
19.062747555
 20
3.9098891685
 30
0.0
 10
19.0098892414
 20
3.9587319589
 30
0.0
 10
18.9687349753
 20
4.0010001494
 30
0.0
 10
18.9377791398
 20
4.0355626597
 30
0.0
 10
18.9084608284
 20
4.0702169992
 30
0.0
 10
18.8742462099
 20
4.114380455
 30
0.0
 10
18.8370367511
 20
4.1688978981
 30
0.0
 10
18.8039857121
 20
4.2245239947
 30
0.0
 10
18.7751741078
 20
4.2811272902
 30
0.0
 10
18.7506722625
 20
4.3385747145
 30
0.0
 10
18.7305407845
 20
4.3967303686
 30
0.0
 10
18.7148299037
 20
4.4554556163
 30
0.0
 10
18.7035792047
 20
4.5146112456
 30
0.0
 10
18.696817262
 20
4.5740506499
 30
0.0
 10
18.6953124876
 20
4.6138036941
 30
0.0
 10
18.6953124876
 20
4.6336389807
 30
0.0
  0
SPLINE
  5
439
100
AcDbEntity
  8
0
100
AcDbSpline
 62
9
  6
CONTINUOUS
 70
0
 71
3
 72
46
 73
42
 74
0
 42
0.0000001
 43
0.0000001
 44
0.0000000001
 40
0.0
 40
0.0
 40
0.0
 40
0.0
 40
0.0463346771
 40
0.0925696256
 40
0.1386061599
 40
0.1843440574
 40
0.2745144077
 40
0.3622572946
 40
0.4049598783
 40
0.4467567856
 40
0.4875594969
 40
0.5272794612
 40
0.5658282114
 40
0.6031174978
 40
0.6390594487
 40
0.6735667706
 40
0.7065574535
 40
0.7379721608
 40
0.7677597216
 40
0.7958712321
 40
0.8222608189
 40
0.8468867232
 40
0.8697128712
 40
0.8804425447
 40
0.8907126596
 40
0.9005219922
 40
0.9098733495
 40
0.9187719701
 40
0.9272244463
 40
0.9352390084
 40
0.9428258825
 40
0.9499977328
 40
0.9567702005
 40
0.9631625505
 40
0.9691984257
 40
0.9749066849
 40
0.9803222595
 40
0.9854869021
 40
0.9904496235
 40
0.9952665564
 40
1.0
 40
1.0
 40
1.0
 40
1.0
 10
6.6003124876
 20
5.3578132924
 30
0.0
 10
6.6141078
 20
5.3578132924
 30
0.0
 10
6.6416692304
 20
5.3575828267
 30
0.0
 10
6.6829260998
 20
5.3565810305
 30
0.0
 10
6.7239854726
 20
5.3549590692
 30
0.0
 10
6.7780786239
 20
5.3520310021
 30
0.0
 10
6.8444881605
 20
5.3470383203
 30
0.0
 10
6.9098424137
 20
5.3403841804
 30
0.0
 10
6.9607520214
 20
5.3342050514
 30
0.0
 10
6.9977265615
 20
5.3292313225
 30
0.0
 10
7.0337538989
 20
5.3239010535
 30
0.0
 10
7.0687512542
 20
5.3182385736
 30
0.0
 10
7.1026357832
 20
5.3122682949
 30
0.0
 10
7.1353246879
 20
5.3060146419
 30
0.0
 10
7.1667352011
 20
5.2995020765
 30
0.0
 10
7.1967858963
 20
5.2927548127
 30
0.0
 10
7.2254029117
 20
5.2857951844
 30
0.0
 10
7.2525212903
 20
5.2786410641
 30
0.0
 10
7.2780842971
 20
5.2713086595
 30
0.0
 10
7.3020371814
 20
5.2638137708
 30
0.0
 10
7.3243256051
 20
5.2561722671
 30
0.0
 10
7.3448949776
 20
5.2483999338
 30
0.0
 10
7.3608732027
 20
5.2416960563
 30
0.0
 10
7.3727350658
 20
5.2362570845
 30
0.0
 10
7.3809819869
 20
5.2322387631
 30
0.0
 10
7.3887584377
 20
5.2281981356
 30
0.0
 10
7.3960604151
 20
5.2241369068
 30
0.0
 10
7.4028853038
 20
5.2200566067
 30
0.0
 10
7.4092308191
 20
5.2159584549
 30
0.0
 10
7.4150947059
 20
5.211843645
 30
0.0
 10
7.4204747199
 20
5.2077132969
 30
0.0
 10
7.4253686166
 20
5.2035684409
 30
0.0
 10
7.4297741232
 20
5.1994099883
 30
0.0
 10
7.4336888914
 20
5.1952387063
 30
0.0
 10
7.4371104202
 20
5.1910552007
 30
0.0
 10
7.4400359448
 20
5.1868599447
 30
0.0
 10
7.442462304
 20
5.1826533339
 30
0.0
 10
7.4443858208
 20
5.1784359905
 30
0.0
 10
7.4458023026
 20
5.1742086833
 30
0.0
 10
7.4467072183
 20
5.169974057
 30
0.0
 10
7.4469676733
 20
5.1671343412
 30
0.0
 10
7.4470103303
 20
5.1657256896
 30
0.0
  0
SPLINE
  5
43A
100
AcDbEntity
  8
0
100
AcDbSpline
 62
9
  6
CONTINUOUS
 70
0
 71
3
 72
42
 73
38
 74
0
 42
0.0000001
 43
0.0000001
 44
0.0000000001
 40
0.0
 40
0.0
 40
0.0
 40
0.0
 40
0.090842578
 40
0.1808788312
 40
0.2693130507
 40
0.3126825688
 40
0.3553549448
 40
0.3972344587
 40
0.4382356333
 40
0.4782761529
 40
0.5172742778
 40
0.5551490512
 40
0.5918205509
 40
0.6272102061
 40
0.6612412005
 40
0.6938425327
 40
0.7249637325
 40
0.7545626133
 40
0.7826002917
 40
0.8090422627
 40
0.8338598794
 40
0.857032421
 40
0.8785500276
 40
0.8984214015
 40
0.9077551147
 40
0.9166980385
 40
0.925260773
 40
0.9334558571
 40
0.941298085
 40
0.9488048583
 40
0.955996566
 40
0.9628969741
 40
0.9759285004
 40
0.9821364374
 40
0.9881878873
 40
0.9941267018
 40
1.0
 40
1.0
 40
1.0
 40
1.0
 10
6.6003124876
 20
8.5362438572
 30
0.0
 10
6.6246966466
 20
8.5362438572
 30
0.0
 10
6.6732508087
 20
8.5356280063
 30
0.0
 10
6.7454955595
 20
8.5328874042
 30
0.0
 10
6.8049293264
 20
8.5290971815
 30
0.0
 10
6.851598054
 20
8.5251600412
 30
0.0
 10
6.8857706028
 20
8.5217915152
 30
0.0
 10
6.9192582437
 20
8.5179922705
 30
0.0
 10
6.9519837072
 20
8.5137749085
 30
0.0
 10
6.9838731503
 20
8.5091522914
 30
0.0
 10
7.0148534904
 20
8.5041370796
 30
0.0
 10
7.0448516756
 20
8.4987419839
 30
0.0
 10
7.0737947052
 20
8.4929797516
 30
0.0
 10
7.1016096119
 20
8.4868630801
 30
0.0
 10
7.1282245248
 20
8.4804047481
 30
0.0
 10
7.1535728039
 20
8.4736150263
 30
0.0
 10
7.1775978217
 20
8.4665137776
 30
0.0
 10
7.2002498512
 20
8.4591206221
 30
0.0
 10
7.2214807437
 20
8.4514544883
 30
0.0
 10
7.241242628
 20
8.4435343032
 30
0.0
 10
7.2594879013
 20
8.4353789482
 30
0.0
 10
7.2761695936
 20
8.4270067822
 30
0.0
 10
7.2912415149
 20
8.4184361999
 30
0.0
 10
7.3026536926
 20
8.4109903552
 30
0.0
 10
7.3109115945
 20
8.4049319328
 30
0.0
 10
7.3165513035
 20
8.4004459075
 30
0.0
 10
7.321765249
 20
8.3959251825
 30
0.0
 10
7.3265513399
 20
8.3913722622
 30
0.0
 10
7.3309074735
 20
8.3867896239
 30
0.0
 10
7.3348313608
 20
8.3821799625
 30
0.0
 10
7.3383211055
 20
8.3775449058
 30
0.0
 10
7.3423145591
 20
8.3714534966
 30
0.0
 10
7.3455458072
 20
8.3651883928
 30
0.0
 10
7.3478846855
 20
8.358807974
 30
0.0
 10
7.3491633609
 20
8.3540864871
 30
0.0
 10
7.3499910263
 20
8.34935688
 30
0.0
 10
7.3502410715
 20
8.3461904022
 30
0.0
 10
7.3502893944
 20
8.3446146197
 30
0.0
  0
SPLINE
  5
43B
100
AcDbEntity
  8
0
100
AcDbSpline
 62
7
  6
CONTINUOUS
 70
0
 71
3
 72
39
 73
35
 74
0
 42
0.0000001
 43
0.0000001
 44
0.0000000001
 40
0.0
 40
0.0
 40
0.0
 40
0.0
 40
0.0787265596
 40
0.1178373404
 40
0.1566368729
 40
0.1950265666
 40
0.2329120939
 40
0.2702047638
 40
0.3068226171
 40
0.3426916912
 40
0.3777474137
 40
0.4119359239
 40
0.4452155456
 40
0.4775583778
 40
0.5089518032
 40
0.5394000957
 40
0.5542788723
 40
0.5689315126
 40
0.5975774592
 40
0.6254066903
 40
0.652503667
 40
0.6789736538
 40
0.7049413179
 40
0.7305480459
 40
0.7559478879
 40
0.7813024646
 40
0.8067750958
 40
0.8325247037
 40
0.8587002567
 40
0.885436097
 40
0.9128484662
 40
0.9410334467
 40
0.9700660106
 40
1.0
 40
1.0
 40
1.0
 40
1.0
 10
20.6003124876
 20
5.1152056161
 30
0.0
 10
20.6245558561
 20
5.1152056161
 30
0.0
 10
20.6608699904
 20
5.1167743237
 30
0.0
 10
20.7088301425
 20
5.1220181043
 30
0.0
 10
20.7442369172
 20
5.1274883029
 30
0.0
 10
20.7789895027
 20
5.1344786994
 30
0.0
 10
20.8129318972
 20
5.1429578827
 30
0.0
 10
20.8459097986
 20
5.1528874954
 30
0.0
 10
20.8777738497
 20
5.1642227458
 30
0.0
 10
20.9083796418
 20
5.1769125523
 30
0.0
 10
20.9375885227
 20
5.1908998186
 30
0.0
 10
20.9652681847
 20
5.2061217527
 30
0.0
 10
20.9912931295
 20
5.2225100833
 30
0.0
 10
21.0155455325
 20
5.2399917813
 30
0.0
 10
21.0379143899
 20
5.2584880332
 30
0.0
 10
21.0550324312
 20
5.2748044515
 30
0.0
 10
21.0676616289
 20
5.2882881593
 30
0.0
 10
21.079396075
 20
5.3018305408
 30
0.0
 10
21.0927484042
 20
5.3192269544
 30
0.0
 10
21.1066522365
 20
5.3409214018
 30
0.0
 10
21.1182515573
 20
5.3631815142
 30
0.0
 10
21.1274892937
 20
5.3859057578
 30
0.0
 10
21.1343195016
 20
5.4089900528
 30
0.0
 10
21.1387072104
 20
5.4323269394
 30
0.0
 10
21.1406295178
 20
5.455806438
 30
0.0
 10
21.1400762454
 20
5.4793169312
 30
0.0
 10
21.1370503309
 20
5.502746433
 30
0.0
 10
21.1315677127
 20
5.5259839146
 30
0.0
 10
21.1236567811
 20
5.5489204353
 30
0.0
 10
21.1133575371
 20
5.5714499633
 30
0.0
 10
21.1007208917
 20
5.5934696636
 30
0.0
 10
21.085807424
 20
5.6148805753
 30
0.0
 10
21.0686889452
 20
5.6355856347
 30
0.0
 10
21.0560542591
 20
5.6486555513
 30
0.0
 10
21.0494136376
 20
5.6550487906
 30
0.0
  0
SPLINE
  5
43C
100
AcDbEntity
  8
0
100
AcDbSpline
 62
9
  6
CONTINUOUS
 70
0
 71
3
 72
51
 73
47
 74
0
 42
0.0000001
 43
0.0000001
 44
0.0000000001
 40
0.0
 40
0.0
 40
0.0
 40
0.0
 40
0.0398578219
 40
0.0792933819
 40
0.1182274786
 40
0.1565855454
 40
0.1942985172
 40
0.2313037342
 40
0.2675458959
 40
0.3029780525
 40
0.3375626375
 40
0.37127255
 40
0.4040922791
 40
0.4360190423
 40
0.4670638885
 40
0.4822654667
 40
0.4972576042
 40
0.5266321191
 40
0.555250348
 40
0.5693015548
 40
0.5831930609
 40
0.5969367303
 40
0.6105453777
 40
0.6240327135
 40
0.6374132978
 40
0.6507024393
 40
0.6639161176
 40
0.677070877
 40
0.6901837035
 40
0.70327191
 40
0.7163529988
 40
0.7294445274
 40
0.7425639715
 40
0.7557285932
 40
0.7689553043
 40
0.7822605485
 40
0.7956601901
 40
0.809169399
 40
0.8228025807
 40
0.8365732841
 40
0.8504941413
 40
0.8788261399
 40
0.9078861695
 40
0.9377389928
 40
0.9684328645
 40
1.0
 40
1.0
 40
1.0
 40
1.0
 10
20.9754038977
 20
5.9619750306
 30
0.0
 10
21.0072341691
 20
5.9570550847
 30
0.0
 10
21.0703666638
 20
5.9459792804
 30
0.0
 10
21.1637250429
 20
5.9255663157
 30
0.0
 10
21.2549607523
 20
5.901506479
 30
0.0
 10
21.3437279354
 20
5.8738904987
 30
0.0
 10
21.429692688
 20
5.8428219371
 30
0.0
 10
21.5125310321
 20
5.8084172751
 30
0.0
 10
21.5919310055
 20
5.7708053449
 30
0.0
 10
21.6675935583
 20
5.7301268322
 30
0.0
 10
21.739233708
 20
5.6865335647
 30
0.0
 10
21.8065812689
 20
5.6401881454
 30
0.0
 10
21.8693825818
 20
5.591262435
 30
0.0
 10
21.9273983967
 20
5.5399401534
 30
0.0
 10
21.9718859341
 20
5.4950172447
 30
0.0
 10
22.0048107861
 20
5.4580617733
 30
0.0
 10
22.0355260574
 20
5.4209877388
 30
0.0
 10
22.0706342681
 20
5.3735248525
 30
0.0
 10
22.101541177
 20
5.3241098644
 30
0.0
 10
22.1233421107
 20
5.2839257476
 30
0.0
 10
22.1381545127
 20
5.253659659
 30
0.0
 10
22.1515119992
 20
5.2231139543
 30
0.0
 10
22.1634020498
 20
5.1923170773
 30
0.0
 10
22.1738129657
 20
5.1612982882
 30
0.0
 10
22.1827348721
 20
5.1300870524
 30
0.0
 10
22.1901589661
 20
5.0987129895
 30
0.0
 10
22.1960780535
 20
5.067205964
 30
0.0
 10
22.20048647
 20
5.0355960032
 30
0.0
 10
22.2033797198
 20
5.0039132234
 30
0.0
 10
22.204755152
 20
4.9721878798
 30
0.0
 10
22.2046113517
 20
4.9404502483
 30
0.0
 10
22.2029483881
 20
4.9087306419
 30
0.0
 10
22.1997680605
 20
4.8770593279
 30
0.0
 10
22.1950732895
 20
4.8454665424
 30
0.0
 10
22.188868768
 20
4.8139823975
 30
0.0
 10
22.181160566
 20
4.7826368611
 30
0.0
 10
22.1719560384
 20
4.7514598038
 30
0.0
 10
22.1612642746
 20
4.7204807501
 30
0.0
 10
22.1490955849
 20
4.6897292698
 30
0.0
 10
22.1354613731
 20
4.6592339679
 30
0.0
 10
22.1152306241
 20
4.6187215291
 30
0.0
 10
22.0862532218
 20
4.5688291317
 30
0.0
 10
22.0460709989
 20
4.5108172815
 30
0.0
 10
22.0004277972
 20
4.4545197736
 30
0.0
 10
21.9495040995
 20
4.400151592
 30
0.0
 10
21.9126797826
 20
4.3658073776
 30
0.0
 10
21.8934868531
 20
4.3490047914
 30
0.0
  0
SPLINE
  5
43D
100
AcDbEntity
  8
0
100
AcDbSpline
 62
9
  6
CONTINUOUS
 70
0
 71
3
 72
23
 73
19
 74
0
 42
0.0000001
 43
0.0000001
 44
0.0000000001
 40
0.0
 40
0.0
 40
0.0
 40
0.0
 40
0.0539782446
 40
0.1093723964
 40
0.1661679592
 40
0.2243329518
 40
0.283819456
 40
0.3445651257
 40
0.4064946502
 40
0.4695211628
 40
0.5335475821
 40
0.598467894
 40
0.66416838
 40
0.730528802
 40
0.7974235136
 40
0.8647227693
 40
0.9322930398
 40
1.0
 40
1.0
 40
1.0
 40
1.0
 10
21.8934868531
 20
4.3490047914
 30
0.0
 10
21.8746992675
 20
4.3325570662
 30
0.0
 10
21.8355954498
 20
4.300396259
 30
0.0
 10
21.7734784766
 20
4.2550522288
 30
0.0
 10
21.7073451531
 20
4.2121262058
 30
0.0
 10
21.6374247502
 20
4.1717660238
 30
0.0
 10
21.5639556474
 20
4.1341077752
 30
0.0
 10
21.4871893082
 20
4.0992794815
 30
0.0
 10
21.4073881731
 20
4.0673994471
 30
0.0
 10
21.3248251463
 20
4.0385761646
 30
0.0
 10
21.2397825899
 20
4.0129078099
 30
0.0
 10
21.1525513965
 20
3.9904818994
 30
0.0
 10
21.0634300063
 20
3.9713749565
 30
0.0
 10
20.9727233567
 20
3.9556522102
 30
0.0
 10
20.8807419549
 20
3.9433673146
 30
0.0
 10
20.7878003281
 20
3.9345623225
 30
0.0
 10
20.6942181474
 20
3.9292671807
 30
0.0
 10
20.6316333094
 20
3.9280895637
 30
0.0
 10
20.6003124876
 20
3.9280895637
 30
0.0
  0
SPLINE
  5
43E
100
AcDbEntity
  8
0
100
AcDbSpline
 62
9
  6
CONTINUOUS
 70
0
 71
3
 72
17
 73
13
 74
0
 42
0.0000001
 43
0.0000001
 44
0.0000000001
 40
0.0
 40
0.0
 40
0.0
 40
0.0
 40
0.0452732776
 40
0.0928961499
 40
0.1428442871
 40
0.1951037122
 40
0.3065063307
 40
0.4271502195
 40
0.5570568895
 40
0.6961358945
 40
0.8440375551
 40
1.0
 40
1.0
 40
1.0
 40
1.0
 10
16.0579182687
 20
11.8411785983
 30
0.0
 10
16.0597524336
 20
11.8399460094
 30
0.0
 10
16.0634396411
 20
11.8373017145
 30
0.0
 10
16.0688725669
 20
11.8329264836
 30
0.0
 10
16.0743196121
 20
11.8280411535
 30
0.0
 10
16.0817192858
 20
11.8206901035
 30
0.0
 10
16.0908156204
 20
11.8101785935
 30
0.0
 10
16.1010963243
 20
11.7957812331
 30
0.0
 10
16.110729129
 20
11.7793539151
 30
0.0
 10
16.1194661857
 20
11.7609481589
 30
0.0
 10
16.1270522602
 20
11.7406758933
 30
0.0
 10
16.1310768387
 20
11.7263793182
 30
0.0
 10
16.1328425232
 20
11.7189741757
 30
0.0
  0
SPLINE
  5
43F
100
AcDbEntity
  8
0
100
AcDbSpline
 62
9
  6
CONTINUOUS
 70
0
 71
3
 72
47
 73
43
 74
0
 42
0.0000001
 43
0.0000001
 44
0.0000000001
 40
0.0
 40
0.0
 40
0.0
 40
0.0
 40
0.0960412728
 40
0.1437719371
 40
0.1911571537
 40
0.2844361375
 40
0.3301034942
 40
0.3749723392
 40
0.4189334505
 40
0.4618888977
 40
0.5037436267
 40
0.5444029512
 40
0.5837726395
 40
0.6217590252
 40
0.6582691518
 40
0.6932109658
 40
0.7264992197
 40
0.7580699953
 40
0.7878648333
 40
0.8158265028
 40
0.8418994739
 40
0.8660306083
 40
0.8773525964
 40
0.8881708805
 40
0.8984800624
 40
0.9082752184
 40
0.9175530803
 40
0.926314118
 40
0.9345600875
 40
0.9422936709
 40
0.9495187441
 40
0.9562407393
 40
0.9624671444
 40
0.9682081969
 40
0.9734778557
 40
0.978295166
 40
0.9826861569
 40
0.9866864025
 40
0.9903442385
 40
0.9937241929
 40
0.9969093049
 40
1.0
 40
1.0
 40
1.0
 40
1.0
 10
6.6003124876
 20
3.5486569646
 30
0.0
 10
6.6294516616
 20
3.5486569646
 30
0.0
 10
6.673072528
 20
3.548706699
 30
0.0
 10
6.7310695877
 20
3.5489701066
 30
0.0
 10
6.7882275449
 20
3.5493936097
 30
0.0
 10
6.8447573474
 20
3.550105067
 30
0.0
 10
6.9005165104
 20
3.5512167701
 30
0.0
 10
6.9413102154
 20
3.5522622527
 30
0.0
 10
6.9812738524
 20
3.5535489773
 30
0.0
 10
7.0203137304
 20
3.5550800278
 30
0.0
 10
7.0583403252
 20
3.5568585888
 30
0.0
 10
7.0952649001
 20
3.5588878378
 30
0.0
 10
7.1309987383
 20
3.5611709255
 30
0.0
 10
7.1654531494
 20
3.5637109676
 30
0.0
 10
7.1985394728
 20
3.5665110264
 30
0.0
 10
7.2301708231
 20
3.569574295
 30
0.0
 10
7.2602679827
 20
3.5729047515
 30
0.0
 10
7.28876288
 20
3.5764887182
 30
0.0
 10
7.3155951725
 20
3.580313217
 30
0.0
 10
7.3407060814
 20
3.5843652397
 30
0.0
 10
7.3640367132
 20
3.588631858
 30
0.0
 10
7.3823156106
 20
3.592431277
 30
0.0
 10
7.3959957853
 20
3.5955865687
 30
0.0
 10
7.40555391
 20
3.5979487629
 30
0.0
 10
7.4146224754
 20
3.60035554
 30
0.0
 10
7.4231944764
 20
3.6028054685
 30
0.0
 10
7.4312641334
 20
3.6052972755
 30
0.0
 10
7.4388277266
 20
3.6078278689
 30
0.0
 10
7.4458826408
 20
3.6103945563
 30
0.0
 10
7.4524264738
 20
3.6129946813
 30
0.0
 10
7.4584568838
 20
3.6156256166
 30
0.0
 10
7.4639716098
 20
3.6182847776
 30
0.0
 10
7.4689684954
 20
3.6209696623
 30
0.0
 10
7.4734455113
 20
3.6236779164
 30
0.0
 10
7.4774007644
 20
3.6264074422
 30
0.0
 10
7.480832458
 20
3.6291565828
 30
0.0
 10
7.4837387224
 20
3.6319243592
 30
0.0
 10
7.486117158
 20
3.6347108174
 30
0.0
 10
7.4879638946
 20
3.6375168511
 30
0.0
 10
7.489272183
 20
3.6403440147
 30
0.0
 10
7.4900317334
 20
3.6431894746
 30
0.0
 10
7.4901650975
 20
3.6451031373
 30
0.0
 10
7.4901381507
 20
3.6460404751
 30
0.0
  0
SPLINE
  5
440
100
AcDbEntity
  8
0
100
AcDbSpline
 62
9
  6
CONTINUOUS
 70
0
 71
3
 72
40
 73
36
 74
0
 42
0.0000001
 43
0.0000001
 44
0.0000000001
 40
0.0
 40
0.0
 40
0.0
 40
0.0
 40
0.0626578285
 40
0.1253120682
 40
0.1566413722
 40
0.187968753
 40
0.2192934948
 40
0.2506152394
 40
0.2819334537
 40
0.3132476448
 40
0.3445572384
 40
0.3758618271
 40
0.438439323
 40
0.4697248997
 40
0.5010025087
 40
0.5322715664
 40
0.5635313362
 40
0.5947810749
 40
0.626019914
 40
0.6572472991
 40
0.6884626035
 40
0.7196652033
 40
0.735263818
 40
0.7508593273
 40
0.7664515096
 40
0.7820406081
 40
0.8132038728
 40
0.84435504
 40
0.8754953237
 40
0.9066262554
 40
0.9377499242
 40
0.9533132238
 40
0.9688758077
 40
0.98443795
 40
1.0
 40
1.0
 40
1.0
 40
1.0
 10
6.6003124876
 20
1.860270645
 30
0.0
 10
6.5722731733
 20
1.860270708
 30
0.0
 10
6.5161799493
 20
1.8621412555
 30
0.0
 10
6.4463763562
 20
1.8691093255
 30
0.0
 10
6.3909178766
 20
1.8774731456
 30
0.0
 10
6.3495599552
 20
1.8851539012
 30
0.0
 10
6.3084952594
 20
1.8942576375
 30
0.0
 10
6.2677825772
 20
1.9048106167
 30
0.0
 10
6.227484616
 20
1.9168360881
 30
0.0
 10
6.1876694536
 20
1.9303582658
 30
0.0
 10
6.1484044816
 20
1.9453908572
 30
0.0
 10
6.0968980083
 20
1.9674544719
 30
0.0
 10
6.0467674434
 20
1.9926165324
 30
0.0
 10
5.9984492472
 20
2.0209546046
 30
0.0
 10
5.9632241092
 20
2.0438388463
 30
0.0
 10
5.9291481626
 20
2.0683831306
 30
0.0
 10
5.8963656069
 20
2.0946129742
 30
0.0
 10
5.8650183389
 20
2.1225242725
 30
0.0
 10
5.8352633275
 20
2.1521093728
 30
0.0
 10
5.8072772834
 20
2.1833560068
 30
0.0
 10
5.7812561701
 20
2.2162384039
 30
0.0
 10
5.7613824272
 20
2.2449764931
 30
0.0
 10
5.7466968811
 20
2.2687307724
 30
0.0
 10
5.7363179934
 20
2.286919195
 30
0.0
 10
5.7266022353
 20
2.3054658659
 30
0.0
 10
5.7145715735
 20
2.3306434424
 30
0.0
 10
5.7013127301
 20
2.3629247912
 30
0.0
 10
5.688444647
 20
2.40276087
 30
0.0
 10
5.6787907651
 20
2.4434847615
 30
0.0
 10
5.6725001529
 20
2.4848497902
 30
0.0
 10
5.6701577336
 20
2.5196397825
 30
0.0
 10
5.6700626894
 20
2.5475031768
 30
0.0
 10
5.6708813928
 20
2.568386623
 30
0.0
 10
5.672580297
 20
2.5892155124
 30
0.0
 10
5.6742926836
 20
2.6030426895
 30
0.0
 10
5.6752912338
 20
2.6099347294
 30
0.0
  0
SPLINE
  5
441
100
AcDbEntity
  8
0
100
AcDbSpline
 62
9
  6
CONTINUOUS
 70
0
 71
3
 72
22
 73
18
 74
0
 42
0.0000001
 43
0.0000001
 44
0.0000000001
 40
0.0
 40
0.0
 40
0.0
 40
0.0
 40
0.0878521773
 40
0.171041656
 40
0.2498650653
 40
0.3246531779
 40
0.3957442063
 40
0.4634565175
 40
0.5280795838
 40
0.5898680012
 40
0.6490375987
 40
0.7057664048
 40
0.7601888207
 40
0.8123872231
 40
0.8624261442
 40
0.9103591013
 40
1.0
 40
1.0
 40
1.0
 40
1.0
 10
6.2597067948
 20
10.7441504605
 30
0.0
 10
6.2430392993
 20
10.7486474694
 30
0.0
 10
6.210777848
 20
10.7581249054
 30
0.0
 10
6.1643391288
 20
10.7741206694
 30
0.0
 10
6.1210646427
 20
10.7912715326
 30
0.0
 10
6.0807895474
 20
10.8094092431
 30
0.0
 10
6.0433317471
 20
10.8283771989
 30
0.0
 10
6.0085141704
 20
10.8480443283
 30
0.0
 10
5.9761690978
 20
10.8682909939
 30
0.0
 10
5.9461400891
 20
10.8890042204
 30
0.0
 10
5.9182943006
 20
10.9100887937
 30
0.0
 10
5.892497128
 20
10.931427651
 30
0.0
 10
5.8686235866
 20
10.9528984336
 30
0.0
 10
5.8465863594
 20
10.9744055732
 30
0.0
 10
5.8263031712
 20
10.9958507582
 30
0.0
 10
5.8020337889
 20
11.0236105362
 30
0.0
 10
5.7853980915
 20
11.0449647635
 30
0.0
 10
5.7751434743
 20
11.0592871563
 30
0.0
  0
SPLINE
  5
442
100
AcDbEntity
  8
0
100
AcDbSpline
 62
9
  6
CONTINUOUS
 70
0
 71
3
 72
38
 73
34
 74
0
 42
0.0000001
 43
0.0000001
 44
0.0000000001
 40
0.0
 40
0.0
 40
0.0
 40
0.0
 40
0.0751235856
 40
0.1125575723
 40
0.1498334095
 40
0.1868996951
 40
0.2237062224
 40
0.2602042313
 40
0.296346731
 40
0.3320888057
 40
0.3673879387
 40
0.4022043423
 40
0.4365013011
 40
0.4702455272
 40
0.5034075296
 40
0.535961997
 40
0.5678881951
 40
0.5991703767
 40
0.6297982019
 40
0.6597671627
 40
0.6890790071
 40
0.7177421479
 40
0.7457720439
 40
0.7731915304
 40
0.8000310744
 40
0.8263289215
 40
0.8521310991
 40
0.877491238
 40
0.9024701768
 40
0.9271353223
 40
0.951559751
 40
0.9758210603
 40
1.0
 40
1.0
 40
1.0
 40
1.0
 10
20.6003124876
 20
3.8770102363
 30
0.0
 10
20.6532681333
 20
3.8770102363
 30
0.0
 10
20.7326421493
 20
3.8795092213
 30
0.0
 10
20.837943812
 20
3.8878516093
 30
0.0
 10
20.9162660557
 20
3.896580902
 30
0.0
 10
20.9938270442
 20
3.9077681524
 30
0.0
 10
21.070442131
 20
3.9213866377
 30
0.0
 10
21.1459266209
 20
3.937403627
 30
0.0
 10
21.220099172
 20
3.9557806857
 30
0.0
 10
21.2927814504
 20
3.9764737191
 30
0.0
 10
21.3637987661
 20
3.999433098
 30
0.0
 10
21.4329804377
 20
4.0246037828
 30
0.0
 10
21.5001602145
 20
4.0519254662
 30
0.0
 10
21.5651766676
 20
4.0813327274
 30
0.0
 10
21.6278735713
 20
4.1127552012
 30
0.0
 10
21.6881002672
 20
4.1461177586
 30
0.0
 10
21.7457120102
 20
4.1813406987
 30
0.0
 10
21.8005702954
 20
4.2183399507
 30
0.0
 10
21.8525431631
 20
4.2570272832
 30
0.0
 10
21.9015054809
 20
4.297310518
 30
0.0
 10
21.9473392033
 20
4.339093745
 30
0.0
 10
21.9899336072
 20
4.3822775344
 30
0.0
 10
22.029185508
 20
4.4267591398
 30
0.0
 10
22.0649994585
 20
4.4724326887
 30
0.0
 10
22.0972879401
 20
4.5191893576
 30
0.0
 10
22.1259715545
 20
4.5669175261
 30
0.0
 10
22.1509792301
 20
4.6155029307
 30
0.0
 10
22.1722484539
 20
4.6648287717
 30
0.0
 10
22.1897255375
 20
4.7147759991
 30
0.0
 10
22.2033659163
 20
4.765223041
 30
0.0
 10
22.2131344693
 20
4.8160477936
 30
0.0
 10
22.2190058324
 20
4.8671216187
 30
0.0
 10
22.2203124615
 20
4.9012820978
 30
0.0
 10
22.2203124615
 20
4.918326164
 30
0.0
  0
SPLINE
  5
443
100
AcDbEntity
  8
0
100
AcDbSpline
 62
9
  6
CONTINUOUS
 70
0
 71
3
 72
40
 73
36
 74
0
 42
0.0000001
 43
0.0000001
 44
0.0000000001
 40
0.0
 40
0.0
 40
0.0
 40
0.0
 40
0.0395521149
 40
0.0787491499
 40
0.1175369238
 40
0.1558638553
 40
0.1936813672
 40
0.2309443076
 40
0.2676113858
 40
0.3036456249
 40
0.3390148336
 40
0.3736920957
 40
0.4076562764
 40
0.4408925458
 40
0.4733929106
 40
0.5051567488
 40
0.5361913318
 40
0.5514412931
 40
0.5665155493
 40
0.5961474168
 40
0.6251238138
 40
0.6534877709
 40
0.681291737
 40
0.7085973843
 40
0.7354751342
 40
0.7620033647
 40
0.7882672828
 40
0.8143574688
 40
0.840368138
 40
0.8663951979
 40
0.8925342057
 40
0.9188783469
 40
0.9455165516
 40
0.9725318449
 40
1.0
 40
1.0
 40
1.0
 40
1.0
 10
21.1008107743
 20
3.1734618409
 30
0.0
 10
21.1336558082
 20
3.1789123409
 30
0.0
 10
21.1988727913
 20
3.1908739665
 30
0.0
 10
21.2955328424
 20
3.2120828162
 30
0.0
 10
21.3903875521
 20
3.2364316345
 30
0.0
 10
21.4831890479
 20
3.2638570702
 30
0.0
 10
21.5736966879
 20
3.2942881299
 30
0.0
 10
21.6616753226
 20
3.3276459976
 30
0.0
 10
21.7468965221
 20
3.3638443553
 30
0.0
 10
21.8291389972
 20
3.4027895969
 30
0.0
 10
21.9081892075
 20
3.4443810958
 30
0.0
 10
21.9838418697
 20
3.4885114765
 30
0.0
 10
22.0559005066
 20
3.5350669555
 30
0.0
 10
22.1241777611
 20
3.5839274894
 30
0.0
 10
22.188496392
 20
3.6349676793
 30
0.0
 10
22.2486876491
 20
3.6880549797
 30
0.0
 10
22.2955498979
 20
3.7341556644
 30
0.0
 10
22.3307825671
 20
3.7719329042
 30
0.0
 10
22.3641173164
 20
3.8098355358
 30
0.0
 10
22.4029897218
 20
3.8582209042
 30
0.0
 10
22.4452138681
 20
3.918089263
 30
0.0
 10
22.4826375573
 20
3.979278562
 30
0.0
 10
22.5151594826
 20
4.0416294789
 30
0.0
 10
22.5426918458
 20
4.1049804216
 30
0.0
 10
22.5651592262
 20
4.1691659507
 30
0.0
 10
22.582499449
 20
4.2340175292
 30
0.0
 10
22.5946639872
 20
4.2993637964
 30
0.0
 10
22.6016184855
 20
4.3650311374
 30
0.0
 10
22.6033431673
 20
4.4308443794
 30
0.0
 10
22.5998331214
 20
4.496627587
 30
0.0
 10
22.5910983167
 20
4.5622050686
 30
0.0
 10
22.5771636708
 20
4.6274018234
 30
0.0
 10
22.5580679228
 20
4.6920459527
 30
0.0
 10
22.5338662197
 20
4.7559631305
 30
0.0
 10
22.5145439948
 20
4.7976075953
 30
0.0
 10
22.5040920099
 20
4.8182325904
 30
0.0
  0
SPLINE
  5
444
100
AcDbEntity
  8
0
100
AcDbSpline
 62
9
  6
CONTINUOUS
 70
0
 71
3
 72
15
 73
11
 74
0
 42
0.0000001
 43
0.0000001
 44
0.0000000001
 40
0.0
 40
0.0
 40
0.0
 40
0.0
 40
0.12907913
 40
0.257754476
 40
0.3856286559
 40
0.5123128108
 40
0.6374330155
 40
0.7606351867
 40
0.8815903136
 40
1.0
 40
1.0
 40
1.0
 40
1.0
 10
20.6003124876
 20
3.4091285843
 30
0.0
 10
20.6466589963
 20
3.4091285843
 30
0.0
 10
20.7392218196
 20
3.4112986251
 30
0.0
 10
20.8773888953
 20
3.4210516153
 30
0.0
 10
21.0140876526
 20
3.4372491958
 30
0.0
 10
21.1485886672
 20
3.4598055712
 30
0.0
 10
21.2801785418
 20
3.4886013358
 30
0.0
 10
21.408160182
 20
3.5234847614
 30
0.0
 10
21.5318494556
 20
3.5642695177
 30
0.0
 10
21.6119329281
 20
3.5956117027
 30
0.0
 10
21.6510606345
 20
3.6122429419
 30
0.0
  0
SPLINE
  5
445
100
AcDbEntity
  8
0
100
AcDbSpline
 62
9
  6
CONTINUOUS
 70
0
 71
3
 72
11
 73
7
 74
0
 42
0.0000001
 43
0.0000001
 44
0.0000000001
 40
0.0
 40
0.0
 40
0.0
 40
0.0
 40
0.2563142796
 40
0.508530167
 40
0.7564740019
 40
1.0
 40
1.0
 40
1.0
 40
1.0
 10
21.6510606345
 20
3.6122429419
 30
0.0
 10
21.6752068945
 20
3.6225063145
 30
0.0
 10
21.7227551188
 20
3.6437251591
 30
0.0
 10
21.7922659159
 20
3.6778882913
 30
0.0
 10
21.8592657205
 20
3.7140674271
 30
0.0
 10
21.9025629625
 20
3.7397167461
 30
0.0
 10
21.9237414147
 20
3.7528649368
 30
0.0
  0
SPLINE
  5
446
100
AcDbEntity
  8
0
100
AcDbSpline
 62
9
  6
CONTINUOUS
 70
0
 71
3
 72
24
 73
20
 74
0
 42
0.0000001
 43
0.0000001
 44
0.0000000001
 40
0.0
 40
0.0
 40
0.0
 40
0.0
 40
0.0722789037
 40
0.1430539925
 40
0.212317097
 40
0.2800742411
 40
0.3463465456
 40
0.3789399928
 40
0.411177522
 40
0.4746079594
 40
0.5367152178
 40
0.5975876948
 40
0.6573312596
 40
0.7160688215
 40
0.7739394157
 40
0.8310967479
 40
0.8877071704
 40
0.9439471075
 40
1.0
 40
1.0
 40
1.0
 40
1.0
 10
21.9582404206
 20
3.7748360877
 30
0.0
 10
21.9796529925
 20
3.788825081
 30
0.0
 10
22.0214300389
 20
3.8174493996
 30
0.0
 10
22.0813968497
 20
3.8627576168
 30
0.0
 10
22.1378774202
 20
3.9098891686
 30
0.0
 10
22.1907357338
 20
3.9587319589
 30
0.0
 10
22.2318899999
 20
4.0010001494
 30
0.0
 10
22.2628458353
 20
4.0355626597
 30
0.0
 10
22.2921641468
 20
4.0702169992
 30
0.0
 10
22.3263787653
 20
4.1143804551
 30
0.0
 10
22.363588224
 20
4.1688978982
 30
0.0
 10
22.3966392631
 20
4.2245239947
 30
0.0
 10
22.4254508673
 20
4.2811272902
 30
0.0
 10
22.4499527127
 20
4.3385747145
 30
0.0
 10
22.4700841906
 20
4.3967303686
 30
0.0
 10
22.4857950714
 20
4.4554556163
 30
0.0
 10
22.4970457704
 20
4.5146112456
 30
0.0
 10
22.5038077131
 20
4.57405065
 30
0.0
 10
22.5053124876
 20
4.6138036941
 30
0.0
 10
22.5053124876
 20
4.6336389807
 30
0.0
  0
SPLINE
  5
447
100
AcDbEntity
  8
0
100
AcDbSpline
 62
9
  6
CONTINUOUS
 70
0
 71
3
 72
50
 73
46
 74
0
 42
0.0000001
 43
0.0000001
 44
0.0000000001
 40
0.0
 40
0.0
 40
0.0
 40
0.0
 40
0.0281611372
 40
0.0555888309
 40
0.0690556416
 40
0.082371152
 40
0.0955481991
 40
0.1086005943
 40
0.1215430503
 40
0.1343911077
 40
0.1471610367
 40
0.1598697204
 40
0.1725345359
 40
0.1851732194
 40
0.197803721
 40
0.210444059
 40
0.2231121696
 40
0.2358257618
 40
0.2486021736
 40
0.261458236
 40
0.2744101561
 40
0.2874734041
 40
0.3006626116
 40
0.3139915024
 40
0.3274728229
 40
0.3411182825
 40
0.3689373897
 40
0.3975271153
 40
0.4269420263
 40
0.4572195252
 40
0.4883806512
 40
0.5204311094
 40
0.5533624243
 40
0.5871531941
 40
0.6217703096
 40
0.6571701495
 40
0.693299759
 40
0.7300979385
 40
0.767496298
 40
0.8054202743
 40
0.8437900758
 40
0.8825216181
 40
0.9215274311
 40
0.9607173182
 40
1.0
 40
1.0
 40
1.0
 40
1.0
 10
18.7160019243
 20
4.959506942
 30
0.0
 10
18.6966294977
 20
4.9342624898
 30
0.0
 10
18.6602685294
 20
4.8829517937
 30
0.0
 10
18.620440466
 20
4.8157394264
 30
0.0
 10
18.5926789815
 20
4.7611174646
 30
0.0
 10
18.5740006031
 20
4.7199927029
 30
0.0
 10
18.5573600294
 20
4.6785062344
 30
0.0
 10
18.5427738559
 20
4.6366992366
 30
0.0
 10
18.5302573139
 20
4.5946139937
 30
0.0
 10
18.5198232801
 20
4.5522929777
 30
0.0
 10
18.511482474
 20
4.50977902
 30
0.0
 10
18.5052436457
 20
4.4671151501
 30
0.0
 10
18.5011132862
 20
4.4243446313
 30
0.0
 10
18.4990955913
 20
4.381510871
 30
0.0
 10
18.4991927517
 20
4.3386573479
 30
0.0
 10
18.5014046936
 20
4.2958275853
 30
0.0
 10
18.5057289981
 20
4.2530650579
 30
0.0
 10
18.5121612378
 20
4.2104131566
 30
0.0
 10
18.5206947757
 20
4.1679151353
 30
0.0
 10
18.5313206405
 20
4.125614005
 30
0.0
 10
18.5440278948
 20
4.0835525466
 30
0.0
 10
18.5588034777
 20
4.0417732717
 30
0.0
 10
18.5756320992
 20
4.0003182177
 30
0.0
 10
18.594496391
 20
3.9592293099
 30
0.0
 10
18.6153776261
 20
3.9185472103
 30
0.0
 10
18.646072836
 20
3.864560967
 30
0.0
 10
18.6895062599
 20
3.7982671373
 30
0.0
 10
18.7489577166
 20
3.721532955
 30
0.0
 10
18.8158361854
 20
3.6473974144
 30
0.0
 10
18.889866602
 20
3.576156764
 30
0.0
 10
18.9707500659
 20
3.5080902348
 30
0.0
 10
19.0581607179
 20
3.4434664067
 30
0.0
 10
19.1517476031
 20
3.3825400842
 30
0.0
 10
19.251135694
 20
3.325552215
 30
0.0
 10
19.3559270748
 20
3.2727285541
 30
0.0
 10
19.4657023036
 20
3.2242786279
 30
0.0
 10
19.5800221115
 20
3.1803951024
 30
0.0
 10
19.6984289478
 20
3.1412526564
 30
0.0
 10
19.8204488038
 20
3.1070072183
 30
0.0
 10
19.9455931268
 20
3.0777955138
 30
0.0
 10
20.0733607717
 20
3.0537341404
 30
0.0
 10
20.2032397513
 20
3.0349191811
 30
0.0
 10
20.3347103318
 20
3.0214260055
 30
0.0
 10
20.4672431037
 20
3.0133083613
 30
0.0
 10
20.5559246312
 20
3.0115027615
 30
0.0
 10
20.6003124876
 20
3.0115027615
 30
0.0
  0
SPLINE
  5
448
100
AcDbEntity
  8
0
100
AcDbSpline
 62
7
  6
CONTINUOUS
 70
0
 71
3
 72
38
 73
34
 74
0
 42
0.0000001
 43
0.0000001
 44
0.0000000001
 40
0.0
 40
0.0
 40
0.0
 40
0.0
 40
0.0741569659
 40
0.1111227987
 40
0.1479491194
 40
0.1845904884
 40
0.2210023712
 40
0.2571413821
 40
0.2929655192
 40
0.3284344088
 40
0.3635095552
 40
0.3981545973
 40
0.4323355735
 40
0.4660211953
 40
0.499183131
 40
0.5317962992
 40
0.5638391736
 40
0.5952940971
 40
0.6261476063
 40
0.656390762
 40
0.6860194845
 40
0.7150348867
 40
0.7434435974
 40
0.7712580651
 40
0.7984968276
 40
0.825184729
 40
0.8513530641
 40
0.8770396242
 40
0.9022886188
 40
0.9271504469
 40
0.9516812949
 40
0.9759425464
 40
1.0
 40
1.0
 40
1.0
 40
1.0
 10
20.6003124876
 20
2.9260597672
 30
0.0
 10
20.5338990933
 20
2.9260597672
 30
0.0
 10
20.4343456327
 20
2.9290220443
 30
0.0
 10
20.3022015705
 20
2.9389094388
 30
0.0
 10
20.2038262012
 20
2.9492592338
 30
0.0
 10
20.1063039309
 20
2.9625278531
 30
0.0
 10
20.0098420768
 20
2.9786870003
 30
0.0
 10
19.9146483131
 20
2.9977019787
 30
0.0
 10
19.8209268729
 20
3.0195320322
 30
0.0
 10
19.728878999
 20
3.0441303662
 30
0.0
 10
19.6387022745
 20
3.0714442734
 30
0.0
 10
19.5505902616
 20
3.1014152481
 30
0.0
 10
19.4647320709
 20
3.1339791205
 30
0.0
 10
19.3813119625
 20
3.1690662031
 30
0.0
 10
19.300508955
 20
3.2066014496
 30
0.0
 10
19.2224964487
 20
3.2465046261
 30
0.0
 10
19.1474418645
 20
3.2886904939
 30
0.0
 10
19.0755062994
 20
3.3330690027
 30
0.0
 10
19.0068442013
 20
3.3795454925
 30
0.0
 10
18.9416030617
 20
3.4280209032
 30
0.0
 10
18.8799231315
 20
3.4783919883
 30
0.0
 10
18.8219371562
 20
3.5305515316
 30
0.0
 10
18.7677701338
 20
3.5843885608
 30
0.0
 10
18.7175390909
 20
3.6397885565
 30
0.0
 10
18.6713528762
 20
3.6966336522
 30
0.0
 10
18.6293119649
 20
3.7548028179
 30
0.0
 10
18.5915082637
 20
3.8141720435
 30
0.0
 10
18.5580249178
 20
3.87461446
 30
0.0
 10
18.5289360759
 20
3.9360006386
 30
0.0
 10
18.504306723
 20
3.998198226
 30
0.0
 10
18.4841921494
 20
4.0610740536
 30
0.0
 10
18.4686386284
 20
4.124487322
 30
0.0
 10
18.4613086731
 20
4.1671789063
 30
0.0
 10
18.4584259747
 20
4.1885305289
 30
0.0
  0
SPLINE
  5
449
100
AcDbEntity
  8
0
100
AcDbSpline
 62
9
  6
CONTINUOUS
 70
0
 71
3
 72
50
 73
46
 74
0
 42
0.0000001
 43
0.0000001
 44
0.0000000001
 40
0.0
 40
0.0
 40
0.0
 40
0.0
 40
0.0392826706
 40
0.0784725471
 40
0.1174783508
 40
0.1562098857
 40
0.1945796823
 40
0.2325036566
 40
0.2699020176
 40
0.3067002024
 40
0.3428298214
 40
0.378229675
 40
0.4128468088
 40
0.4466376013
 40
0.479568943
 40
0.5116194319
 40
0.5427805919
 40
0.5730581273
 40
0.6024730764
 40
0.6310628405
 40
0.6588819851
 40
0.6725274626
 40
0.6860088
 40
0.6993377067
 40
0.7125269289
 40
0.7255901899
 40
0.7385421213
 40
0.751398193
 40
0.764174612
 40
0.7768882089
 40
0.7895563216
 40
0.802196659
 40
0.8148271572
 40
0.8274658341
 40
0.8401306399
 40
0.8528393108
 40
0.8656092237
 40
0.8784572617
 40
0.891399695
 40
0.9044520644
 40
0.9176290824
 40
0.9309445607
 40
0.9444113364
 40
0.9718389515
 40
1.0
 40
1.0
 40
1.0
 40
1.0
 10
20.6003124876
 20
3.0115027615
 30
0.0
 10
20.6447001962
 20
3.0115027615
 30
0.0
 10
20.7333814292
 20
3.0133083493
 30
0.0
 10
20.8659137642
 20
3.0214259396
 30
0.0
 10
20.9973839184
 20
3.0349190259
 30
0.0
 10
21.1272624874
 20
3.0537338611
 30
0.0
 10
21.2550297427
 20
3.0777950766
 30
0.0
 10
21.380173702
 20
3.1070065908
 30
0.0
 10
21.5021932248
 20
3.1412518076
 30
0.0
 10
21.6205997631
 20
3.1803940031
 30
0.0
 10
21.7349193126
 20
3.2242772511
 30
0.0
 10
21.8446943266
 20
3.2727268748
 30
0.0
 10
21.9494855399
 20
3.3255502108
 30
0.0
 10
22.0488735142
 20
3.3825377353
 30
0.0
 10
22.1424603369
 20
3.4434636962
 30
0.0
 10
22.2298709829
 20
3.5080871487
 30
0.0
 10
22.3107544999
 20
3.5761532914
 30
0.0
 10
22.3847850309
 20
3.6473935478
 30
0.0
 10
22.4516636767
 20
3.7215286902
 30
0.0
 10
22.5111153745
 20
3.7982624737
 30
0.0
 10
22.5545490555
 20
3.864555972
 30
0.0
 10
22.5852445049
 20
3.9185419555
 30
0.0
 10
22.6061259342
 20
3.9592238631
 30
0.0
 10
22.6249904364
 20
4.0003125817
 30
0.0
 10
22.6418192844
 20
4.0417674497
 30
0.0
 10
22.6565951097
 20
4.0835465423
 30
0.0
 10
22.6693026223
 20
4.1256078226
 30
0.0
 10
22.679928761
 20
4.1679087794
 30
0.0
 10
22.6884625883
 20
4.2104066324
 30
0.0
 10
22.6948951325
 20
4.2530583708
 30
0.0
 10
22.6992197566
 20
4.2958207415
 30
0.0
 10
22.7014320326
 20
4.3386503539
 30
0.0
 10
22.7015295414
 20
4.3815037336
 30
0.0
 10
22.6995122089
 20
4.424337358
 30
0.0
 10
22.6953822254
 20
4.4671077486
 30
0.0
 10
22.6891437862
 20
4.5097714986
 30
0.0
 10
22.6808033819
 20
4.5522853451
 30
0.0
 10
22.670369762
 20
4.5946062588
 30
0.0
 10
22.6578536457
 20
4.6366914089
 30
0.0
 10
22.6432679091
 20
4.6784983236
 30
0.0
 10
22.6266277829
 20
4.7199847191
 30
0.0
 10
22.6079498621
 20
4.7611094183
 30
0.0
 10
22.5801890066
 20
4.8157313059
 30
0.0
 10
22.540361753
 20
4.8829436111
 30
0.0
 10
22.5040014322
 20
4.9342542999
 30
0.0
 10
22.4846293333
 20
4.9594987552
 30
0.0
  0
SPLINE
  5
44A
100
AcDbEntity
  8
0
100
AcDbSpline
 62
9
  6
CONTINUOUS
 70
0
 71
3
 72
11
 73
7
 74
0
 42
0.0000001
 43
0.0000001
 44
0.0000000001
 40
0.0
 40
0.0
 40
0.0
 40
0.0
 40
0.2386368107
 40
0.4894169516
 40
0.7455398562
 40
1.0
 40
1.0
 40
1.0
 40
1.0
 10
11.0921550024
 20
11.5868063496
 30
0.0
 10
11.0954321356
 20
11.5867701181
 30
0.0
 10
11.1021518543
 20
11.5864416865
 30
0.0
 10
11.1123316474
 20
11.5852880231
 30
0.0
 10
11.1226381998
 20
11.5834906364
 30
0.0
 10
11.1294679307
 20
11.5818797349
 30
0.0
 10
11.1328425396
 20
11.580971686
 30
0.0
  0
SPLINE
  5
44B
100
AcDbEntity
  8
0
100
AcDbSpline
 62
9
  6
CONTINUOUS
 70
0
 71
3
 72
17
 73
13
 74
0
 42
0.0000001
 43
0.0000001
 44
0.0000000001
 40
0.0
 40
0.0
 40
0.0
 40
0.0
 40
0.0452811615
 40
0.0929101674
 40
0.1428639835
 40
0.1951275915
 40
0.306535992
 40
0.42718153
 40
0.5570860003
 40
0.6961596756
 40
0.8440506086
 40
1.0
 40
1.0
 40
1.0
 40
1.0
 10
11.0579468777
 20
11.8411593249
 30
0.0
 10
11.0597805406
 20
11.8399262318
 30
0.0
 10
11.0634666209
 20
11.8372810299
 30
0.0
 10
11.0688978845
 20
11.8329048272
 30
0.0
 10
11.0743430851
 20
11.8280188548
 30
0.0
 10
11.0817400546
 20
11.8206674885
 30
0.0
 10
11.0908328031
 20
11.8101564758
 30
0.0
 10
11.1011092782
 20
11.795760921
 30
0.0
 10
11.1107380134
 20
11.7793367663
 30
0.0
 10
11.1194713155
 20
11.7609355421
 30
0.0
 10
11.1270542807
 20
11.7406690892
 30
0.0
 10
11.131077402
 20
11.7263769558
 30
0.0
 10
11.1328425232
 20
11.7189741757
 30
0.0
  0
SPLINE
  5
44C
100
AcDbEntity
  8
0
100
AcDbSpline
 62
9
  6
CONTINUOUS
 70
0
 71
3
 72
23
 73
19
 74
0
 42
0.0000001
 43
0.0000001
 44
0.0000000001
 40
0.0
 40
0.0
 40
0.0
 40
0.0
 40
0.0619880051
 40
0.1234319433
 40
0.184458968
 40
0.245201564
 40
0.3057959216
 40
0.3663801854
 40
0.4270926341
 40
0.4880698551
 40
0.5494449745
 40
0.6113460164
 40
0.6738944397
 40
0.7372038834
 40
0.8013791419
 40
0.8665153661
 40
0.9326975098
 40
1.0
 40
1.0
 40
1.0
 40
1.0
 10
19.0021589783
 20
5.1164395493
 30
0.0
 10
18.9977667769
 20
5.1027661628
 30
0.0
 10
18.9898185605
 20
5.0752751323
 30
0.0
 10
18.9804361629
 20
5.0335562479
 30
0.0
 10
18.9736676474
 20
4.9916245815
 30
0.0
 10
18.9695250791
 20
4.9495504439
 30
0.0
 10
18.9680153357
 20
4.907402165
 30
0.0
 10
18.9691410329
 20
4.8652488819
 30
0.0
 10
18.9729002489
 20
4.8231595797
 30
0.0
 10
18.9792866151
 20
4.7812031296
 30
0.0
 10
18.9882892629
 20
4.7394480535
 30
0.0
 10
18.999892937
 20
4.697962378
 30
0.0
 10
19.0140780928
 20
4.6568135084
 30
0.0
 10
19.0308209992
 20
4.6160680751
 30
0.0
 10
19.0500937465
 20
4.5757919744
 30
0.0
 10
19.0718646309
 20
4.5360497555
 30
0.0
 10
19.0960969141
 20
4.4969064634
 30
0.0
 10
19.1137148941
 20
4.4714705744
 30
0.0
 10
19.1229064634
 20
4.4588749471
 30
0.0
  0
SPLINE
  5
44D
100
AcDbEntity
  8
0
100
AcDbSpline
 62
9
  6
CONTINUOUS
 70
0
 71
3
 72
16
 73
12
 74
0
 42
0.0000001
 43
0.0000001
 44
0.0000000001
 40
0.0
 40
0.0
 40
0.0
 40
0.0
 40
0.1112739735
 40
0.1683461059
 40
0.2263996458
 40
0.3454909239
 40
0.4686367654
 40
0.5958085302
 40
0.7268943874
 40
0.8617084952
 40
1.0
 40
1.0
 40
1.0
 40
1.0
 10
19.1229064634
 20
4.4588749471
 30
0.0
 10
19.1404690815
 20
4.4348080893
 30
0.0
 10
19.1687723888
 20
4.3996258241
 30
0.0
 10
19.2097401366
 20
4.3549309376
 30
0.0
 10
19.254024369
 20
4.3105033695
 30
0.0
 10
19.3142294241
 20
4.2570765732
 30
0.0
 10
19.3930223587
 20
4.1971465802
 30
0.0
 10
19.4785366889
 20
4.1411788306
 30
0.0
 10
19.5702938985
 20
4.0894818386
 30
0.0
 10
19.6677802718
 20
4.042339716
 30
0.0
 10
19.7354293808
 20
4.0144512395
 30
0.0
 10
19.7700434566
 20
4.0013018828
 30
0.0
  0
SPLINE
  5
44E
100
AcDbEntity
  8
0
100
AcDbSpline
 62
9
  6
CONTINUOUS
 70
0
 71
3
 72
15
 73
11
 74
0
 42
0.0000001
 43
0.0000001
 44
0.0000000001
 40
0.0
 40
0.0
 40
0.0
 40
0.0
 40
0.1194608913
 40
0.2410749037
 40
0.3645793854
 40
0.4896906288
 40
0.6161076774
 40
0.743515982
 40
0.8715900686
 40
1.0
 40
1.0
 40
1.0
 40
1.0
 10
19.7700434566
 20
4.0013018828
 30
0.0
 10
19.8015908739
 20
3.9893175026
 30
0.0
 10
19.8658816574
 20
3.9667531854
 30
0.0
 10
19.9646401146
 20
3.9373984892
 30
0.0
 10
20.0662199678
 20
3.9123360316
 30
0.0
 10
20.1701677158
 20
3.8916776996
 30
0.0
 10
20.2760232632
 20
3.875514448
 30
0.0
 10
20.3833175125
 20
3.8639180065
 30
0.0
 10
20.491572318
 20
3.8569394457
 30
0.0
 10
20.5640373583
 20
3.8553870611
 30
0.0
 10
20.6003124876
 20
3.8553870611
 30
0.0
  0
SPLINE
  5
44F
100
AcDbEntity
  8
0
100
AcDbSpline
 62
9
  6
CONTINUOUS
 70
0
 71
3
 72
15
 73
11
 74
0
 42
0.0000001
 43
0.0000001
 44
0.0000000001
 40
0.0
 40
0.0
 40
0.0
 40
0.0
 40
0.1313728157
 40
0.2615190884
 40
0.3901168501
 40
0.5168608047
 40
0.6414662318
 40
0.7636730973
 40
0.8832502499
 40
1.0
 40
1.0
 40
1.0
 40
1.0
 10
20.2816490616
 20
3.64811129
 30
0.0
 10
20.2407824248
 20
3.6526779926
 30
0.0
 10
20.1596175991
 20
3.663548781
 30
0.0
 10
20.0393918272
 20
3.6851437532
 30
0.0
 10
19.9216828692
 20
3.7118694431
 30
0.0
 10
19.8070220925
 20
3.743606003
 30
0.0
 10
19.6959236259
 20
3.7802115404
 30
0.0
 10
19.5888848852
 20
3.8215231466
 30
0.0
 10
19.4863903678
 20
3.867354352
 30
0.0
 10
19.4205690023
 20
3.9012116835
 30
0.0
 10
19.3885717435
 20
3.918864655
 30
0.0
  0
LINE
  5
450
100
AcDbEntity
  8
0
100
AcDbLine
 62
9
  6
CONTINUOUS
 10
19.3885717435
 20
3.918864655
 11
19.3883080199
 21
3.9190101796
  0
SPLINE
  5
451
100
AcDbEntity
  8
0
100
AcDbSpline
 62
9
  6
CONTINUOUS
 70
0
 71
3
 72
51
 73
47
 74
0
 42
0.0000001
 43
0.0000001
 44
0.0000000001
 40
0.0
 40
0.0
 40
0.0
 40
0.0
 40
0.0338448307
 40
0.0667175944
 40
0.0986081363
 40
0.1295244853
 40
0.159494486
 40
0.1885671702
 40
0.2027918298
 40
0.2168207571
 40
0.230666362
 40
0.2443424185
 40
0.2578640257
 40
0.2712475415
 40
0.284510484
 40
0.2976714199
 40
0.3107498353
 40
0.3237659736
 40
0.3367406598
 40
0.3496951138
 40
0.3626507499
 40
0.3756289705
 40
0.3886509626
 40
0.4017374956
 40
0.4149087369
 40
0.4281840795
 40
0.4415819814
 40
0.4551198364
 40
0.4688138675
 40
0.482679033
 40
0.4967289568
 40
0.5109758942
 40
0.5400963953
 40
0.5701174844
 40
0.6010869997
 40
0.6330316501
 40
0.6659584224
 40
0.699856205
 40
0.7346974554
 40
0.7704399332
 40
0.8070283137
 40
0.8443957865
 40
0.8824655496
 40
0.9211522204
 40
0.9603632101
 40
1.0
 40
1.0
 40
1.0
 40
1.0
 10
19.3278754835
 20
3.9538646022
 30
0.0
 10
19.2974102866
 20
3.9722222656
 30
0.0
 10
19.2384149324
 20
4.0102119136
 30
0.0
 10
19.15499298
 20
4.0718155148
 30
0.0
 10
19.0782801402
 20
4.1369513594
 30
0.0
 10
19.0086384895
 20
4.2053215841
 30
0.0
 10
18.9463973508
 20
4.2766110938
 30
0.0
 10
18.9006062858
 20
4.3386400835
 30
0.0
 10
18.8680704113
 20
4.3893651081
 30
0.0
 10
18.8458622387
 20
4.4276491699
 30
0.0
 10
18.8257002909
 20
4.4664004246
 30
0.0
 10
18.8076080191
 20
4.5055744609
 30
0.0
 10
18.791607134
 20
4.5451254142
 30
0.0
 10
18.777716639
 20
4.5850070915
 30
0.0
 10
18.7659532154
 20
4.6251728099
 30
0.0
 10
18.7563311021
 20
4.6655754901
 30
0.0
 10
18.7488618336
 20
4.7061676416
 30
0.0
 10
18.7435544239
 20
4.7469015018
 30
0.0
 10
18.740415397
 20
4.7877290862
 30
0.0
 10
18.7394485526
 20
4.8286022366
 30
0.0
 10
18.7406549925
 20
4.869472727
 30
0.0
 10
18.744033293
 20
4.9102923399
 30
0.0
 10
18.7495794164
 20
4.951012927
 30
0.0
 10
18.7572865399
 20
4.9915865242
 30
0.0
 10
18.7671453353
 20
5.0319654039
 30
0.0
 10
18.7791439962
 20
5.0721021133
 30
0.0
 10
18.7932680394
 20
5.1119496057
 30
0.0
 10
18.8095004793
 20
5.1514612559
 30
0.0
 10
18.8278220237
 20
5.1905909366
 30
0.0
 10
18.8482107471
 20
5.2292928224
 30
0.0
 10
18.8706429164
 20
5.2675225688
 30
0.0
 10
18.9034763924
 20
5.3181695033
 30
0.0
 10
18.9496306645
 20
5.380087032
 30
0.0
 10
19.0122875716
 20
5.4512237767
 30
0.0
 10
19.0823280194
 20
5.5194237903
 30
0.0
 10
19.1594197973
 20
5.5843722128
 30
0.0
 10
19.2432033895
 20
5.6457744581
 30
0.0
 10
19.333288565
 20
5.7033497788
 30
0.0
 10
19.4292567596
 20
5.7568349944
 30
0.0
 10
19.5306626318
 20
5.8059846126
 30
0.0
 10
19.6370356486
 20
5.850572816
 30
0.0
 10
19.747882375
 20
5.8903942058
 30
0.0
 10
19.8626882408
 20
5.9252649711
 30
0.0
 10
19.9809211876
 20
5.9550242267
 30
0.0
 10
20.1020290829
 20
5.9795337586
 30
0.0
 10
20.1839466154
 20
5.9922415573
 30
0.0
 10
20.2252424391
 20
5.9977050026
 30
0.0
  0
SPLINE
  5
452
100
AcDbEntity
  8
0
100
AcDbSpline
 62
9
  6
CONTINUOUS
 70
0
 71
3
 72
23
 73
19
 74
0
 42
0.0000001
 43
0.0000001
 44
0.0000000001
 40
0.0
 40
0.0
 40
0.0
 40
0.0
 40
0.0699139693
 40
0.1396224289
 40
0.2089234003
 40
0.2776185303
 40
0.3455167527
 40
0.4124364324
 40
0.478207893
 40
0.5426759968
 40
0.6057029388
 40
0.6671710897
 40
0.7269860717
 40
0.785079974
 40
0.8414146549
 40
0.8959852154
 40
0.9488232597
 40
1.0
 40
1.0
 40
1.0
 40
1.0
 10
20.6003124876
 20
3.8553870611
 30
0.0
 10
20.6387820259
 20
3.8553870611
 30
0.0
 10
20.7156195447
 20
3.8571325977
 30
0.0
 10
20.8303479657
 20
3.8649783451
 30
0.0
 10
20.9439315968
 20
3.878011153
 30
0.0
 10
21.0558012483
 20
3.8961662761
 30
0.0
 10
21.1653999507
 20
3.9193534011
 30
0.0
 10
21.2721812642
 20
3.9474574786
 30
0.0
 10
21.375613285
 20
3.9803389202
 30
0.0
 10
21.4751808013
 20
4.0178349705
 30
0.0
 10
21.5703880887
 20
4.0597600242
 30
0.0
 10
21.6607611572
 20
4.1059071846
 30
0.0
 10
21.7458499841
 20
4.1560491448
 30
0.0
 10
21.8252308055
 20
4.209939651
 30
0.0
 10
21.8985069761
 20
4.2673142453
 30
0.0
 10
21.9653132861
 20
4.327894461
 30
0.0
 10
22.0253081322
 20
4.3913774529
 30
0.0
 10
22.0611191357
 20
4.4361280638
 30
0.0
 10
22.0777185117
 20
4.4588749471
 30
0.0
  0
SPLINE
  5
453
100
AcDbEntity
  8
0
100
AcDbSpline
 62
9
  6
CONTINUOUS
 70
0
 71
3
 72
23
 73
19
 74
0
 42
0.0000001
 43
0.0000001
 44
0.0000000001
 40
0.0
 40
0.0
 40
0.0
 40
0.0
 40
0.067302495
 40
0.1334846578
 40
0.198620913
 40
0.2627962121
 40
0.3261057026
 40
0.3886541758
 40
0.4505552667
 40
0.5119304304
 40
0.5729076868
 40
0.6336201582
 40
0.6942044277
 40
0.7547987702
 40
0.8155413266
 40
0.8765682843
 40
0.938012125
 40
1.0
 40
1.0
 40
1.0
 40
1.0
 10
22.0777185117
 20
4.4588749471
 30
0.0
 10
22.0869099575
 20
4.4714704051
 30
0.0
 10
22.1045277108
 20
4.4969059487
 30
0.0
 10
22.1287597141
 20
4.5360486967
 30
0.0
 10
22.1505303864
 20
4.5757903568
 30
0.0
 10
22.1698029907
 20
4.6160658867
 30
0.0
 10
22.1865458245
 20
4.6568107399
 30
0.0
 10
22.2007309789
 20
4.6979590228
 30
0.0
 10
22.2123347234
 20
4.7394441077
 30
0.0
 10
22.2213375139
 20
4.7811985923
 30
0.0
 10
22.2277240954
 20
4.8231544527
 30
0.0
 10
22.231483599
 20
4.86524317
 30
0.0
 10
22.2326096562
 20
4.9073958758
 30
0.0
 10
22.2311003443
 20
4.9495435878
 30
0.0
 10
22.2269582782
 20
4.9916171717
 30
0.0
 10
22.2201903347
 20
5.0335483005
 30
0.0
 10
22.2108085774
 20
5.0752666661
 30
0.0
 10
22.2028608282
 20
5.1027573738
 30
0.0
 10
22.1984688705
 20
5.1164306031
 30
0.0
  0
SPLINE
  5
454
100
AcDbEntity
  8
0
100
AcDbSpline
 62
9
  6
CONTINUOUS
 70
0
 71
3
 72
67
 73
63
 74
0
 42
0.0000001
 43
0.0000001
 44
0.0000000001
 40
0.0
 40
0.0
 40
0.0
 40
0.0
 40
0.0380183658
 40
0.056834608
 40
0.0754959005
 40
0.0939843082
 40
0.1122826802
 40
0.1303747472
 40
0.148245223
 40
0.1658799086
 40
0.1832657997
 40
0.2003911979
 40
0.2172458263
 40
0.2338209482
 40
0.2501094891
 40
0.2661061616
 40
0.2818075927
 40
0.2972124517
 40
0.3123215771
 40
0.3416591094
 40
0.3559095543
 40
0.3698916321
 40
0.3836186463
 40
0.3971065838
 40
0.4103741015
 40
0.4234424615
 40
0.436335409
 40
0.4490789854
 40
0.4617012736
 40
0.474232076
 40
0.4867025305
 40
0.4991446744
 40
0.5115909721
 40
0.5240738252
 40
0.5366250846
 40
0.5492755868
 40
0.5620547292
 40
0.5749901015
 40
0.5881071803
 40
0.6014290912
 40
0.6149764398
 40
0.6287672046
 40
0.6428166862
 40
0.657137505
 40
0.6866221605
 40
0.7018066348
 40
0.7172872709
 40
0.733064341
 40
0.74913598
 40
0.7654983133
 40
0.7821455846
 40
0.7990702829
 40
0.8162632665
 40
0.8337138849
 40
0.851410096
 40
0.8693385797
 40
0.8874848487
 40
0.9058333556
 40
0.9243675961
 40
0.9430702099
 40
0.9619230764
 40
1.0
 40
1.0
 40
1.0
 40
1.0
 10
20.9753825361
 20
5.9977050026
 30
0.0
 10
21.0272106648
 20
5.9908481314
 30
0.0
 10
21.1044275468
 20
5.9784191407
 30
0.0
 10
21.206118652
 20
5.9574728295
 30
0.0
 10
21.2810188403
 20
5.9397346068
 30
0.0
 10
21.3546662511
 20
5.9199483611
 30
0.0
 10
21.4269269064
 20
5.8981501147
 30
0.0
 10
21.4976676084
 20
5.8743799441
 30
0.0
 10
21.5667584309
 20
5.8486814298
 30
0.0
 10
21.6340723634
 20
5.8211016971
 30
0.0
 10
21.6994856982
 20
5.791691292
 30
0.0
 10
21.762878214
 20
5.7605040898
 30
0.0
 10
21.8241333999
 20
5.7275971979
 30
0.0
 10
21.883138685
 20
5.6930308284
 30
0.0
 10
21.9397855543
 20
5.6568682528
 30
0.0
 10
21.9939700204
 20
5.6191753974
 30
0.0
 10
22.04559177
 20
5.5800217588
 30
0.0
 10
22.0945580693
 20
5.5394765039
 30
0.0
 10
22.1555738374
 20
5.4842145215
 30
0.0
 10
22.2116540441
 20
5.4259558729
 30
0.0
 10
22.2621138118
 20
5.3649196573
 30
0.0
 10
22.2965407875
 20
5.3185814037
 30
0.0
 10
22.3278449182
 20
5.2713316
 30
0.0
 10
22.3559688562
 20
5.2232552794
 30
0.0
 10
22.3808592822
 20
5.1744409655
 30
0.0
 10
22.4024691122
 20
5.1249783084
 30
0.0
 10
22.420757095
 20
5.0749585646
 30
0.0
 10
22.4356881049
 20
5.0244743172
 30
0.0
 10
22.4472332601
 20
4.9736193639
 30
0.0
 10
22.4553700963
 20
4.9224885241
 30
0.0
 10
22.4600827079
 20
4.8711774192
 30
0.0
 10
22.4613618496
 20
4.8197822127
 30
0.0
 10
22.459205009
 20
4.7683993279
 30
0.0
 10
22.4536164265
 20
4.7171251494
 30
0.0
 10
22.4446070611
 20
4.6660557276
 30
0.0
 10
22.4321945086
 20
4.6152865004
 30
0.0
 10
22.4164028802
 20
4.564912045
 30
0.0
 10
22.3972626574
 20
4.51502587
 30
0.0
 10
22.374810536
 20
4.4657202266
 30
0.0
 10
22.3490893047
 20
4.4170860018
 30
0.0
 10
22.3201475478
 20
4.3692124503
 30
0.0
 10
22.2880400474
 20
4.3221876631
 30
0.0
 10
22.2528255958
 20
4.2760962526
 30
0.0
 10
22.2013274907
 20
4.2154192984
 30
0.0
 10
22.1442604661
 20
4.1575630643
 30
0.0
 10
22.0823063676
 20
4.1027347203
 30
0.0
 10
22.0326524173
 20
4.0625376356
 30
0.0
 10
21.9803668415
 20
4.0237506202
 30
0.0
 10
21.9255435782
 20
3.9864422518
 30
0.0
 10
21.868284105
 20
3.9506813138
 30
0.0
 10
21.8086935288
 20
3.9165330118
 30
0.0
 10
21.7468814361
 20
3.884059859
 30
0.0
 10
21.6829614188
 20
3.8533212795
 30
0.0
 10
21.617050952
 20
3.8243735702
 30
0.0
 10
21.5492711652
 20
3.7972697734
 30
0.0
 10
21.4797466236
 20
3.7720595689
 30
0.0
 10
21.408605139
 20
3.7487891886
 30
0.0
 10
21.3359773783
 20
3.7275012993
 30
0.0
 10
21.261997218
 20
3.7082350397
 30
0.0
 10
21.1867992523
 20
3.6910254866
 30
0.0
 10
21.0847711431
 20
3.6707994898
 30
0.0
 10
21.0073367958
 20
3.658912575
 30
0.0
 10
20.9553806667
 20
3.6524196355
 30
0.0
  0
LINE
  5
455
100
AcDbEntity
  8
0
100
AcDbLine
 62
9
  6
CONTINUOUS
 10
20.9553806667
 20
3.6524196355
 11
20.950816267
 21
3.6518530276
  0
SPLINE
  5
456
100
AcDbEntity
  8
0
100
AcDbSpline
 62
9
  6
CONTINUOUS
 70
0
 71
3
 72
49
 73
45
 74
0
 42
0.0000001
 43
0.0000001
 44
0.0000000001
 40
0.0
 40
0.0
 40
0.0
 40
0.0
 40
0.0135006962
 40
0.0270249863
 40
0.0405939641
 40
0.0542303173
 40
0.0679546956
 40
0.0817867306
 40
0.0957446176
 40
0.1098448256
 40
0.1241019956
 40
0.138528798
 40
0.1679210106
 40
0.198092887
 40
0.229070982
 40
0.2608500384
 40
0.2933955279
 40
0.3266468206
 40
0.3605207566
 40
0.3949153309
 40
0.4297135118
 40
0.4647869946
 40
0.5
 40
0.5352130054
 40
0.5702864882
 40
0.6050846691
 40
0.6394792434
 40
0.6733531794
 40
0.7066044721
 40
0.7391499616
 40
0.770929018
 40
0.801907113
 40
0.8320789894
 40
0.861471202
 40
0.8758980044
 40
0.8901551744
 40
0.9042553824
 40
0.9182132694
 40
0.9320453044
 40
0.9457696827
 40
0.9594060359
 40
0.9729750137
 40
0.9864993038
 40
1.0
 40
1.0
 40
1.0
 40
1.0
 10
20.1103124876
 20
11.3531496249
 30
0.0
 10
20.1103124876
 20
11.3592920128
 30
0.0
 10
20.1107069838
 20
11.3715911508
 30
0.0
 10
20.1124797929
 20
11.3899868371
 30
0.0
 10
20.1154298912
 20
11.4082939496
 30
0.0
 10
20.1195495968
 20
11.4264667628
 30
0.0
 10
20.1248289942
 20
11.4444617378
 30
0.0
 10
20.1312549449
 20
11.4622351701
 30
0.0
 10
20.1388116584
 20
11.4797441872
 30
0.0
 10
20.147480567
 20
11.4969463949
 30
0.0
 10
20.1572408991
 20
11.5138008252
 30
0.0
 10
20.1717646182
 20
11.5358881897
 30
0.0
 10
20.192589743
 20
11.5624290765
 30
0.0
 10
20.2213325139
 20
11.5920356336
 30
0.0
 10
20.2537094318
 20
11.6193302482
 30
0.0
 10
20.2894050758
 20
11.6440529916
 30
0.0
 10
20.3280762746
 20
11.6659722369
 30
0.0
 10
20.3693517645
 20
11.6848814868
 30
0.0
 10
20.4128362946
 20
11.7006024755
 30
0.0
 10
20.4581137244
 20
11.7129869121
 30
0.0
 10
20.5047510368
 20
11.7219175582
 30
0.0
 10
20.5523021949
 20
11.7273100902
 30
0.0
 10
20.6003124876
 20
11.7291132209
 30
0.0
 10
20.6483227802
 20
11.7273100902
 30
0.0
 10
20.6958739383
 20
11.7219175582
 30
0.0
 10
20.7425112507
 20
11.7129869121
 30
0.0
 10
20.7877886805
 20
11.7006024755
 30
0.0
 10
20.8312732106
 20
11.6848814868
 30
0.0
 10
20.8725487005
 20
11.6659722369
 30
0.0
 10
20.9112198993
 20
11.6440529916
 30
0.0
 10
20.9469155433
 20
11.6193302482
 30
0.0
 10
20.9792924612
 20
11.5920356336
 30
0.0
 10
21.0080352322
 20
11.5624290765
 30
0.0
 10
21.0288603569
 20
11.5358881897
 30
0.0
 10
21.0433840761
 20
11.5138008252
 30
0.0
 10
21.0531444081
 20
11.4969463949
 30
0.0
 10
21.0618133168
 20
11.4797441872
 30
0.0
 10
21.0693700302
 20
11.4622351701
 30
0.0
 10
21.075795981
 20
11.4444617378
 30
0.0
 10
21.0810753783
 20
11.4264667628
 30
0.0
 10
21.0851950839
 20
11.4082939496
 30
0.0
 10
21.0881451822
 20
11.3899868371
 30
0.0
 10
21.0899179913
 20
11.3715911508
 30
0.0
 10
21.0903124876
 20
11.3592920128
 30
0.0
 10
21.0903124876
 20
11.3531496249
 30
0.0
  0
SPLINE
  5
457
100
AcDbEntity
  8
0
100
AcDbSpline
 62
9
  6
CONTINUOUS
 70
0
 71
3
 72
28
 73
24
 74
0
 42
0.0000001
 43
0.0000001
 44
0.0000000001
 40
0.0
 40
0.0
 40
0.0
 40
0.0
 40
0.0704265042
 40
0.1405729153
 40
0.2101693332
 40
0.278958489
 40
0.3467063606
 40
0.413208946
 40
0.4782999188
 40
0.541858043
 40
0.6038142224
 40
0.6641579781
 40
0.7229424087
 40
0.7517960153
 40
0.7803103438
 40
0.8085107631
 40
0.8364265383
 40
0.8640906226
 40
0.8915393535
 40
0.9188120062
 40
0.9459503243
 40
0.9729979908
 40
1.0
 40
1.0
 40
1.0
 40
1.0
 10
20.6003124876
 20
8.6162708023
 30
0.0
 10
20.6125733889
 20
8.6162708023
 30
0.0
 10
20.6370564764
 20
8.6153514146
 30
0.0
 10
20.673445966
 20
8.6112244732
 30
0.0
 10
20.7091381536
 20
8.6043898116
 30
0.0
 10
20.7437891375
 20
8.5949119164
 30
0.0
 10
20.7770681497
 20
8.5828805572
 30
0.0
 10
20.8086565288
 20
8.5684091967
 30
0.0
 10
20.8382518205
 20
8.5516342381
 30
0.0
 10
20.865569942
 20
8.5327138115
 30
0.0
 10
20.8903481708
 20
8.5118250438
 30
0.0
 10
20.9123451935
 20
8.4891669715
 30
0.0
 10
20.9282828027
 20
8.4688550774
 30
0.0
 10
20.9393979023
 20
8.4519514872
 30
0.0
 10
20.9468674987
 20
8.4390526637
 30
0.0
 10
20.9535018914
 20
8.425887724
 30
0.0
 10
20.9592851227
 20
8.412487975
 30
0.0
 10
20.9642028988
 20
8.3988858439
 30
0.0
 10
20.9682432454
 20
8.3851141912
 30
0.0
 10
20.971396155
 20
8.37120639
 30
0.0
 10
20.9736537705
 20
8.3571959338
 30
0.0
 10
20.9750106107
 20
8.3431176023
 30
0.0
 10
20.9753124876
 20
8.3337050454
 30
0.0
 10
20.9753124876
 20
8.329004131
 30
0.0
  0
SPLINE
  5
458
100
AcDbEntity
  8
0
100
AcDbSpline
 62
9
  6
CONTINUOUS
 70
0
 71
3
 72
11
 73
7
 74
0
 42
0.0000001
 43
0.0000001
 44
0.0000000001
 40
0.0
 40
0.0
 40
0.0
 40
0.0
 40
0.2386599246
 40
0.4894414671
 40
0.7455551961
 40
1.0
 40
1.0
 40
1.0
 40
1.0
 10
16.0921795667
 20
11.7131394129
 30
0.0
 10
16.0954550604
 20
11.7131762476
 30
0.0
 10
16.1021710524
 20
11.7135056183
 30
0.0
 10
16.1123448694
 20
11.7146596618
 30
0.0
 10
16.1226448482
 20
11.7164566265
 30
0.0
 10
16.1294701344
 20
11.7180666888
 30
0.0
 10
16.1328425234
 20
11.7189741755
 30
0.0
  0
SPLINE
  5
459
100
AcDbEntity
  8
0
100
AcDbSpline
 62
7
  6
CONTINUOUS
 70
0
 71
3
 72
51
 73
47
 74
0
 42
0.0000001
 43
0.0000001
 44
0.0000000001
 40
0.0
 40
0.0
 40
0.0
 40
0.0
 40
0.013443449
 40
0.0269592942
 40
0.0405641325
 40
0.0542737389
 40
0.06810264
 40
0.0820640361
 40
0.0961697019
 40
0.1104299001
 40
0.1248533553
 40
0.1394471903
 40
0.1542169161
 40
0.1691664779
 40
0.1996053243
 40
0.2307728213
 40
0.2626470047
 40
0.2951852698
 40
0.3283267523
 40
0.3619948758
 40
0.3960999687
 40
0.4305419275
 40
0.4652127895
 40
0.499999411
 40
0.5347860412
 40
0.5694569287
 40
0.6038989293
 40
0.6380040796
 40
0.6716722743
 40
0.7048138405
 40
0.7373521995
 40
0.7692264844
 40
0.8003940877
 40
0.8308330422
 40
0.8457826574
 40
0.8605524357
 40
0.8751463219
 40
0.8895698263
 40
0.9038300715
 40
0.9179357814
 40
0.9318972184
 40
0.9457261567
 40
0.9594357962
 40
0.9730406632
 40
0.9865565321
 40
1.0
 40
1.0
 40
1.0
 40
1.0
 10
21.0835781744
 20
11.4151190946
 30
0.0
 10
21.0826151741
 20
11.4206796143
 30
0.0
 10
21.0803591856
 20
11.431777053
 30
0.0
 10
21.0760118307
 20
11.4482498691
 30
0.0
 10
21.0707018006
 20
11.4645560134
 30
0.0
 10
21.0644401627
 20
11.4806616149
 30
0.0
 10
21.057239864
 20
11.4965343236
 30
0.0
 10
21.04911559
 20
11.5121419373
 30
0.0
 10
21.0400839264
 20
11.5274528997
 30
0.0
 10
21.0301634366
 20
11.5424363632
 30
0.0
 10
21.0193742328
 20
11.5570620795
 30
0.0
 10
21.0077383416
 20
11.5713004772
 30
0.0
 10
20.9952791765
 20
11.5851232417
 30
0.0
 10
20.9774990672
 20
11.6030671914
 30
0.0
 10
20.953311297
 20
11.6242991433
 30
0.0
 10
20.9216244739
 20
11.6475260309
 30
0.0
 10
20.887352771
 20
11.6684763497
 30
0.0
 10
20.8507742319
 20
11.6869822429
 30
0.0
 10
20.812182828
 20
11.7028973488
 30
0.0
 10
20.7718890549
 20
11.7160952106
 30
0.0
 10
20.7302166998
 20
11.7264708884
 30
0.0
 10
20.6875006108
 20
11.7339417179
 30
0.0
 10
20.6440840078
 20
11.7384482811
 30
0.0
 10
20.6003157189
 20
11.7399546492
 30
0.0
 10
20.5565474041
 20
11.7384487251
 30
0.0
 10
20.5131307234
 20
11.7339426021
 30
0.0
 10
20.4704145057
 20
11.726472206
 30
0.0
 10
20.4287419717
 20
11.7160969509
 30
0.0
 10
20.3884479712
 20
11.7028994981
 30
0.0
 10
20.349856293
 20
11.6869847841
 30
0.0
 10
20.3132774349
 20
11.6684792626
 30
0.0
 10
20.279005371
 20
11.6475292924
 30
0.0
 10
20.2473181475
 20
11.6243027275
 30
0.0
 10
20.2231300115
 20
11.6030710228
 30
0.0
 10
20.205349592
 20
11.5851272541
 30
0.0
 10
20.1928901878
 20
11.5713046165
 30
0.0
 10
20.1812540503
 20
11.5570663372
 30
0.0
 10
20.1704645934
 20
11.5424407308
 30
0.0
 10
20.1605438444
 20
11.5274573684
 30
0.0
 10
20.1515119158
 20
11.512146498
 30
0.0
 10
20.1433873717
 20
11.4965389672
 30
0.0
 10
20.1361867982
 20
11.480666332
 30
0.0
 10
20.1299248815
 20
11.4645607945
 30
0.0
 10
20.1246145691
 20
11.4482547044
 30
0.0
 10
20.1202669289
 20
11.4317819327
 30
0.0
 10
20.1180107478
 20
11.4206845148
 30
0.0
 10
20.117047651
 20
11.4151240038
 30
0.0
  0
SPLINE
  5
45A
100
AcDbEntity
  8
0
100
AcDbSpline
 62
9
  6
CONTINUOUS
 70
0
 71
3
 72
28
 73
24
 74
0
 42
0.0000001
 43
0.0000001
 44
0.0000000001
 40
0.0
 40
0.0
 40
0.0
 40
0.0
 40
0.0704265038
 40
0.1405729151
 40
0.210169333
 40
0.2789584888
 40
0.3467063605
 40
0.4132089458
 40
0.4782999187
 40
0.5418580429
 40
0.6038142223
 40
0.664157978
 40
0.7229424086
 40
0.7517960152
 40
0.7803103438
 40
0.8085107631
 40
0.8364265382
 40
0.8640906226
 40
0.8915393534
 40
0.9188120062
 40
0.9459503243
 40
0.9729979908
 40
1.0
 40
1.0
 40
1.0
 40
1.0
 10
20.6003124876
 20
7.2501769169
 30
0.0
 10
20.5880515863
 20
7.2501769169
 30
0.0
 10
20.5635684985
 20
7.2492575381
 30
0.0
 10
20.5271790092
 20
7.2451305918
 30
0.0
 10
20.4914868215
 20
7.2382959317
 30
0.0
 10
20.4568358377
 20
7.2288180361
 30
0.0
 10
20.4235568254
 20
7.216786677
 30
0.0
 10
20.3919684463
 20
7.2023153165
 30
0.0
 10
20.3623731546
 20
7.1855403579
 30
0.0
 10
20.3350550331
 20
7.1666199313
 30
0.0
 10
20.3102768043
 20
7.1457311636
 30
0.0
 10
20.2882797817
 20
7.1230730912
 30
0.0
 10
20.2723421725
 20
7.1027611972
 30
0.0
 10
20.2612270728
 20
7.0858576069
 30
0.0
 10
20.2537574765
 20
7.0729587835
 30
0.0
 10
20.2471230837
 20
7.0597938438
 30
0.0
 10
20.2413398524
 20
7.0463940948
 30
0.0
 10
20.2364220763
 20
7.0327919636
 30
0.0
 10
20.2323817298
 20
7.019020311
 30
0.0
 10
20.2292288201
 20
7.0051125098
 30
0.0
 10
20.2269712046
 20
6.9911020535
 30
0.0
 10
20.2256143645
 20
6.977023722
 30
0.0
 10
20.2253124876
 20
6.9676111651
 30
0.0
 10
20.2253124876
 20
6.9629102507
 30
0.0
  0
SPLINE
  5
45B
100
AcDbEntity
  8
0
100
AcDbSpline
 62
9
  6
CONTINUOUS
 70
0
 71
3
 72
30
 73
26
 74
0
 42
0.0000001
 43
0.0000001
 44
0.0000000001
 40
0.0
 40
0.0
 40
0.0
 40
0.0
 40
0.0751314398
 40
0.1498384392
 40
0.2237086687
 40
0.2963458972
 40
0.3673829585
 40
0.4364910163
 40
0.5033904933
 40
0.567862632
 40
0.6297619005
 40
0.6597338059
 40
0.6890485074
 40
0.7177144404
 40
0.7457470891
 40
0.7731692545
 40
0.8000114088
 40
0.8263118378
 40
0.8521165426
 40
0.8774791238
 40
0.9024605749
 40
0.9271281208
 40
0.9515545518
 40
0.9758194162
 40
1.0
 40
1.0
 40
1.0
 40
1.0
 10
20.6003124876
 20
5.4925811915
 30
0.0
 10
20.5880541529
 20
5.4925811915
 30
0.0
 10
20.5635996445
 20
5.4933510393
 30
0.0
 10
20.5272400957
 20
5.4968081693
 30
0.0
 10
20.4915777854
 20
5.5025332678
 30
0.0
 10
20.456955254
 20
5.5104721879
 30
0.0
 10
20.4237026389
 20
5.520549519
 30
0.0
 10
20.3921374964
 20
5.532670037
 30
0.0
 10
20.3625601828
 20
5.546720071
 30
0.0
 10
20.3352544879
 20
5.5625666993
 30
0.0
 10
20.3143849789
 20
5.577305999
 30
0.0
 10
20.299110515
 20
5.5898727472
 30
0.0
 10
20.2885007263
 20
5.5995449424
 30
0.0
 10
20.2786409605
 20
5.6095411646
 30
0.0
 10
20.269554839
 20
5.619837821
 30
0.0
 10
20.2612645801
 20
5.6304104042
 30
0.0
 10
20.2537904155
 20
5.6412337213
 30
0.0
 10
20.2471506684
 20
5.6522818952
 30
0.0
 10
20.2413618507
 20
5.663528512
 30
0.0
 10
20.2364384362
 20
5.6749465448
 30
0.0
 10
20.2323928142
 20
5.6865084067
 30
0.0
 10
20.2292353216
 20
5.6981859067
 30
0.0
 10
20.2269740104
 20
5.709951016
 30
0.0
 10
20.2256150315
 20
5.7217736882
 30
0.0
 10
20.2253124876
 20
5.7296812768
 30
0.0
 10
20.2253124876
 20
5.7336265451
 30
0.0
  0
SPLINE
  5
45C
100
AcDbEntity
  8
0
100
AcDbSpline
 62
9
  6
CONTINUOUS
 70
0
 71
3
 72
30
 73
26
 74
0
 42
0.0000001
 43
0.0000001
 44
0.0000000001
 40
0.0
 40
0.0
 40
0.0
 40
0.0
 40
0.0751314523
 40
0.1498384583
 40
0.2237086963
 40
0.2963459329
 40
0.3673830021
 40
0.4364910676
 40
0.5033905521
 40
0.5678626979
 40
0.6297619733
 40
0.659733882
 40
0.6890485867
 40
0.717714523
 40
0.7457471747
 40
0.7731693429
 40
0.800011502
 40
0.8263119303
 40
0.8521166366
 40
0.8774792473
 40
0.9024606327
 40
0.9271281969
 40
0.9515550109
 40
0.9758186928
 40
1.0
 40
1.0
 40
1.0
 40
1.0
 10
20.6003124876
 20
5.8413448641
 30
0.0
 10
20.5880541522
 20
5.8413448641
 30
0.0
 10
20.5635996468
 20
5.8421148096
 30
0.0
 10
20.5272400948
 20
5.8455718863
 30
0.0
 10
20.4915777856
 20
5.8512970002
 30
0.0
 10
20.456955254
 20
5.8592359164
 30
0.0
 10
20.4237026389
 20
5.8693132485
 30
0.0
 10
20.3921374964
 20
5.8814337663
 30
0.0
 10
20.3625601828
 20
5.8954838003
 30
0.0
 10
20.3352544879
 20
5.9113304285
 30
0.0
 10
20.3143849789
 20
5.9260697283
 30
0.0
 10
20.2991105151
 20
5.9386364765
 30
0.0
 10
20.2885007263
 20
5.9483086716
 30
0.0
 10
20.2786409605
 20
5.9583048939
 30
0.0
 10
20.2695548391
 20
5.9686015503
 30
0.0
 10
20.2612645797
 20
5.9791741334
 30
0.0
 10
20.2537904163
 20
5.9899974509
 30
0.0
 10
20.2471506687
 20
6.0010456237
 30
0.0
 10
20.2413618459
 20
6.0122922423
 30
0.0
 10
20.2364384468
 20
6.0237102741
 30
0.0
 10
20.2323928098
 20
6.0352721248
 30
0.0
 10
20.2292352905
 20
6.046949676
 30
0.0
 10
20.2269740892
 20
6.0587146725
 30
0.0
 10
20.2256149718
 20
6.070537314
 30
0.0
 10
20.2253124876
 20
6.0784448318
 30
0.0
 10
20.2253124876
 20
6.0823902177
 30
0.0
  0
SPLINE
  5
45D
100
AcDbEntity
  8
0
100
AcDbSpline
 62
9
  6
CONTINUOUS
 70
0
 71
3
 72
11
 73
7
 74
0
 42
0.0000001
 43
0.0000001
 44
0.0000000001
 40
0.0
 40
0.0
 40
0.0
 40
0.0
 40
0.2459685473
 40
0.4935874098
 40
0.7444423366
 40
1.0
 40
1.0
 40
1.0
 40
1.0
 10
21.0385413388
 20
5.5974498249
 30
0.0
 10
21.0385413388
 20
5.6039360287
 30
0.0
 10
21.0378394342
 20
5.6169625744
 30
0.0
 10
21.0346899589
 20
5.6363751358
 30
0.0
 10
21.0294610238
 20
5.6555947374
 30
0.0
 10
21.0246580168
 20
5.668082829
 30
0.0
 10
21.02193953
 20
5.674249261
 30
0.0
  0
SPLINE
  5
45E
100
AcDbEntity
  8
0
100
AcDbSpline
 62
9
  6
CONTINUOUS
 70
0
 71
3
 72
15
 73
11
 74
0
 42
0.0000001
 43
0.0000001
 44
0.0000000001
 40
0.0
 40
0.0
 40
0.0
 40
0.0
 40
0.1197083085
 40
0.2399633521
 40
0.3612862122
 40
0.4841832824
 40
0.6091151384
 40
0.7364974496
 40
0.8666912603
 40
1.0
 40
1.0
 40
1.0
 40
1.0
 10
21.0538701389
 20
5.578631099
 30
0.0
 10
21.0538701389
 20
5.5841410065
 30
0.0
 10
21.0533817762
 20
5.5951921275
 30
0.0
 10
21.0511887381
 20
5.6116964179
 30
0.0
 10
21.047542118
 20
5.6280926689
 30
0.0
 10
21.0424551498
 20
5.6443252529
 30
0.0
 10
21.0359453292
 20
5.6603418301
 30
0.0
 10
21.0280349146
 20
5.6760907504
 30
0.0
 10
21.0187512471
 20
5.6915207027
 30
0.0
 10
21.0117525949
 20
5.7014408105
 30
0.0
 10
21.0080460261
 20
5.7063306653
 30
0.0
  0
SPLINE
  5
45F
100
AcDbEntity
  8
0
100
AcDbSpline
 62
9
  6
CONTINUOUS
 70
0
 71
3
 72
49
 73
45
 74
0
 42
0.0000001
 43
0.0000001
 44
0.0000000001
 40
0.0
 40
0.0
 40
0.0
 40
0.0
 40
0.0135006553
 40
0.0270249995
 40
0.040593967
 40
0.0542303119
 40
0.0679546978
 40
0.0817867296
 40
0.0957446166
 40
0.109844827
 40
0.1241019953
 40
0.1385287959
 40
0.1679210124
 40
0.1980928841
 40
0.2290709837
 40
0.260850037
 40
0.293395528
 40
0.3266468216
 40
0.3605207552
 40
0.3949153328
 40
0.4297135102
 40
0.4647869955
 40
0.5
 40
0.5352130045
 40
0.5702864898
 40
0.6050846672
 40
0.6394792448
 40
0.6733531784
 40
0.706604472
 40
0.739149963
 40
0.7709290163
 40
0.8019071159
 40
0.8320789876
 40
0.8614712041
 40
0.8758980047
 40
0.890155173
 40
0.9042553834
 40
0.9182132704
 40
0.9320453022
 40
0.9457696881
 40
0.959406033
 40
0.9729750005
 40
0.9864993447
 40
1.0
 40
1.0
 40
1.0
 40
1.0
 10
21.0878124876
 20
11.4979018149
 30
0.0
 10
21.0878124876
 20
11.5040128456
 30
0.0
 10
21.0874199939
 20
11.5162492384
 30
0.0
 10
21.085656244
 20
11.5345510715
 30
0.0
 10
21.0827211991
 20
11.5527647975
 30
0.0
 10
21.0786224975
 20
11.5708448837
 30
0.0
 10
21.0733700396
 20
11.5887480464
 30
0.0
 10
21.0669768825
 20
11.6064308028
 30
0.0
 10
21.0594587305
 20
11.6238504913
 30
0.0
 10
21.0508340266
 20
11.6409649208
 30
0.0
 10
21.0411235016
 20
11.6577333628
 30
0.0
 10
21.0266739074
 20
11.6797080543
 30
0.0
 10
21.0059549857
 20
11.7061134881
 30
0.0
 10
20.9773589155
 20
11.7355690454
 30
0.0
 10
20.9451471407
 20
11.7627243476
 30
0.0
 10
20.9096336504
 20
11.7873210012
 30
0.0
 10
20.8711597342
 20
11.8091283831
 30
0.0
 10
20.8300948385
 20
11.8279411621
 30
0.0
 10
20.7868321734
 20
11.8435819648
 30
0.0
 10
20.7417857397
 20
11.8559031621
 30
0.0
 10
20.6953863856
 20
11.8647883243
 30
0.0
 10
20.6480778261
 20
11.8701532424
 30
0.0
 10
20.6003124876
 20
11.8719472865
 30
0.0
 10
20.5525471491
 20
11.8701532424
 30
0.0
 10
20.5052385895
 20
11.8647883243
 30
0.0
 10
20.4588392354
 20
11.8559031621
 30
0.0
 10
20.4137928017
 20
11.8435819648
 30
0.0
 10
20.3705301366
 20
11.8279411621
 30
0.0
 10
20.329465241
 20
11.8091283831
 30
0.0
 10
20.2909913248
 20
11.7873210012
 30
0.0
 10
20.2554778345
 20
11.7627243476
 30
0.0
 10
20.2232660597
 20
11.7355690454
 30
0.0
 10
20.1946699894
 20
11.7061134881
 30
0.0
 10
20.1739510677
 20
11.6797080543
 30
0.0
 10
20.1595014735
 20
11.6577333628
 30
0.0
 10
20.1497909485
 20
11.6409649208
 30
0.0
 10
20.1411662447
 20
11.6238504913
 30
0.0
 10
20.1336480926
 20
11.6064308028
 30
0.0
 10
20.1272549355
 20
11.5887480464
 30
0.0
 10
20.1220024776
 20
11.5708448837
 30
0.0
 10
20.117903776
 20
11.5527647975
 30
0.0
 10
20.1149687311
 20
11.5345510715
 30
0.0
 10
20.1132049813
 20
11.5162492384
 30
0.0
 10
20.1128124876
 20
11.5040128456
 30
0.0
 10
20.1128124876
 20
11.4979018149
 30
0.0
  0
SPLINE
  5
460
100
AcDbEntity
  8
0
100
AcDbSpline
 62
9
  6
CONTINUOUS
 70
0
 71
3
 72
17
 73
13
 74
0
 42
0.0000001
 43
0.0000001
 44
0.0000000001
 40
0.0
 40
0.0
 40
0.0
 40
0.0
 40
0.1559486992
 40
0.3038384228
 40
0.4429119173
 40
0.5728163131
 40
0.6934618798
 40
0.8048705695
 40
0.8571343862
 40
0.9070886466
 40
0.954718115
 40
1.0
 40
1.0
 40
1.0
 40
1.0
 10
2.0677824462
 20
11.7189741788
 30
0.0
 10
2.0695475199
 20
11.7263767677
 30
0.0
 10
2.0735705224
 20
11.7406685069
 30
0.0
 10
2.0811532373
 20
11.7609344466
 30
0.0
 10
2.0898861908
 20
11.7793352717
 30
0.0
 10
2.0995145683
 20
11.7957591484
 30
0.0
 10
2.1097906487
 20
11.8101545309
 30
0.0
 10
2.1188830454
 20
11.820665485
 30
0.0
 10
2.1262797421
 20
11.8280168734
 30
0.0
 10
2.131724759
 20
11.8329028963
 30
0.0
 10
2.1371558579
 20
11.8372791928
 30
0.0
 10
2.1408418525
 20
11.8399244453
 30
0.0
 10
2.1426754659
 20
11.8411575903
 30
0.0
  0
SPLINE
  5
461
100
AcDbEntity
  8
0
100
AcDbSpline
 62
9
  6
CONTINUOUS
 70
0
 71
3
 72
16
 73
12
 74
0
 42
0.0000001
 43
0.0000001
 44
0.0000000001
 40
0.0
 40
0.0
 40
0.0
 40
0.0
 40
0.127980873
 40
0.1918678621
 40
0.2556105284
 40
0.382523012
 40
0.5084925991
 40
0.6333303561
 40
0.7569241798
 40
0.8791780591
 40
1.0
 40
1.0
 40
1.0
 40
1.0
 10
2.0560140557
 20
11.6499729269
 30
0.0
 10
2.0560144504
 20
11.6529671194
 30
0.0
 10
2.056152139
 20
11.6574573913
 30
0.0
 10
2.0565964149
 20
11.6634215624
 30
0.0
 10
2.0572037887
 20
11.6693463956
 30
0.0
 10
2.0582413928
 20
11.6766840334
 30
0.0
 10
2.0598450836
 20
11.6853761692
 30
0.0
 10
2.0616999732
 20
11.6939378349
 30
0.0
 10
2.0637074738
 20
11.7023750007
 30
0.0
 10
2.0657701358
 20
11.710701767
 30
0.0
 10
2.0671268236
 20
11.7162245572
 30
0.0
 10
2.0677824462
 20
11.7189741788
 30
0.0
  0
SPLINE
  5
462
100
AcDbEntity
  8
0
100
AcDbSpline
 62
9
  6
CONTINUOUS
 70
0
 71
3
 72
16
 73
12
 74
0
 42
0.0000001
 43
0.0000001
 44
0.0000000001
 40
0.0
 40
0.0
 40
0.0
 40
0.0
 40
0.1208219376
 40
0.2430758064
 40
0.3666696217
 40
0.4915073762
 40
0.6174769774
 40
0.7443894694
 40
0.8081321378
 40
0.8720191276
 40
1.0
 40
1.0
 40
1.0
 40
1.0
 10
2.067782452
 20
11.5809716781
 30
0.0
 10
2.0671268303
 20
11.5837212999
 30
0.0
 10
2.0657701382
 20
11.5892440888
 30
0.0
 10
2.0637074603
 20
11.5975708506
 30
0.0
 10
2.0616999416
 20
11.6060080118
 30
0.0
 10
2.0598450465
 20
11.6145696765
 30
0.0
 10
2.0582413711
 20
11.6232618159
 30
0.0
 10
2.0572037823
 20
11.6305994565
 30
0.0
 10
2.0565964176
 20
11.6365242908
 30
0.0
 10
2.0561521462
 20
11.6424884623
 30
0.0
 10
2.056014459
 20
11.6469787344
 30
0.0
 10
2.0560140696
 20
11.6499729269
 30
0.0
  0
SPLINE
  5
463
100
AcDbEntity
  8
0
100
AcDbSpline
 62
7
  6
CONTINUOUS
 70
0
 71
3
 72
30
 73
26
 74
0
 42
0.0000001
 43
0.0000001
 44
0.0000000001
 40
0.0
 40
0.0
 40
0.0
 40
0.0
 40
0.0241806026
 40
0.0484454837
 40
0.0728719204
 40
0.0975394651
 40
0.1225209052
 40
0.1478834799
 40
0.1736881941
 40
0.1999886306
 40
0.2268307781
 40
0.2542529286
 40
0.2822855801
 40
0.3109515255
 40
0.3402662296
 40
0.3702381182
 40
0.432137389
 40
0.4966095297
 40
0.5635089912
 40
0.6326170673
 40
0.7036541005
 40
0.7762913523
 40
0.8501615555
 40
0.924868569
 40
1.0
 40
1.0
 40
1.0
 40
1.0
 10
20.9953124876
 20
5.6993679961
 30
0.0
 10
20.9953124876
 20
5.6952123098
 30
0.0
 10
20.9949938341
 20
5.6868829757
 30
0.0
 10
20.9935623941
 20
5.674429749
 30
0.0
 10
20.9911804658
 20
5.6620371645
 30
0.0
 10
20.9878545754
 20
5.6497368639
 30
0.0
 10
20.9835931892
 20
5.6375583703
 30
0.0
 10
20.978407191
 20
5.6255313762
 30
0.0
 10
20.9723096353
 20
5.6136849365
 30
0.0
 10
20.9653157664
 20
5.6020475239
 30
0.0
 10
20.9574429802
 20
5.5906469639
 30
0.0
 10
20.9487105752
 20
5.5795105108
 30
0.0
 10
20.9391398591
 20
5.5686646983
 30
0.0
 10
20.9287542361
 20
5.5581353405
 30
0.0
 10
20.9175785904
 20
5.5479472944
 30
0.0
 10
20.9014894886
 20
5.5347103186
 30
0.0
 10
20.8795069377
 20
5.5191849231
 30
0.0
 10
20.8507449377
 20
5.5024931395
 30
0.0
 10
20.8195901627
 20
5.487693769
 30
0.0
 10
20.7863415461
 20
5.4749268228
 30
0.0
 10
20.7513154518
 20
5.4643120331
 30
0.0
 10
20.7148463864
 20
5.4559497013
 30
0.0
 10
20.6772820791
 20
5.4499192745
 30
0.0
 10
20.6389833554
 20
5.4462777247
 30
0.0
 10
20.6132246002
 20
5.4454668903
 30
0.0
 10
20.6003124876
 20
5.4454668903
 30
0.0
  0
SPLINE
  5
464
100
AcDbEntity
  8
0
100
AcDbSpline
 62
9
  6
CONTINUOUS
 70
0
 71
3
 72
53
 73
49
 74
0
 42
0.0000001
 43
0.0000001
 44
0.0000000001
 40
0.0
 40
0.0
 40
0.0
 40
0.0
 40
0.0120903004
 40
0.0242226501
 40
0.0364358797
 40
0.0487696674
 40
0.0612603857
 40
0.0739416805
 40
0.0868440319
 40
0.0999942484
 40
0.1134153312
 40
0.1271264106
 40
0.1411427353
 40
0.1554757102
 40
0.17013306
 40
0.1851190079
 40
0.2160686557
 40
0.2483047236
 40
0.281754462
 40
0.3163085045
 40
0.351827031
 40
0.3881456505
 40
0.4250807379
 40
0.4624345364
 40
0.5
 40
0.5375654636
 40
0.5749192621
 40
0.6118543495
 40
0.648172969
 40
0.6836914955
 40
0.718245538
 40
0.7516952764
 40
0.7839313443
 40
0.8148809921
 40
0.82986694
 40
0.8445242898
 40
0.8588572647
 40
0.8728735894
 40
0.8865846688
 40
0.9000057516
 40
0.9131559681
 40
0.9260583195
 40
0.9387396143
 40
0.9512303326
 40
0.9635641203
 40
0.9757773499
 40
0.9879096996
 40
1.0
 40
1.0
 40
1.0
 40
1.0
 10
20.1620836364
 20
5.5974498249
 30
0.0
 10
20.1620836364
 20
5.5928393411
 30
0.0
 10
20.1624371807
 20
5.5835984804
 30
0.0
 10
20.1640253179
 20
5.5697824107
 30
0.0
 10
20.166667907
 20
5.5560336062
 30
0.0
 10
20.1703577633
 20
5.5423871466
 30
0.0
 10
20.1750855347
 20
5.5288758378
 30
0.0
 10
20.180839099
 20
5.5155326168
 30
0.0
 10
20.1876039456
 20
5.5023896917
 30
0.0
 10
20.1953632286
 20
5.4894786837
 30
0.0
 10
20.2040976349
 20
5.4768304593
 30
0.0
 10
20.2137856963
 20
5.4644752159
 30
0.0
 10
20.2244038243
 20
5.4524424297
 30
0.0
 10
20.2359260716
 20
5.4407607635
 30
0.0
 10
20.2483247734
 20
5.4294577328
 30
0.0
 10
20.2661746443
 20
5.41477207
 30
0.0
 10
20.2905630038
 20
5.3975476245
 30
0.0
 10
20.3224726983
 20
5.3790290606
 30
0.0
 10
20.3570370452
 20
5.3626100301
 30
0.0
 10
20.3939244208
 20
5.3484459263
 30
0.0
 10
20.4327837218
 20
5.3366693785
 30
0.0
 10
20.4732440653
 20
5.3273919442
 30
0.0
 10
20.5149191299
 20
5.3207014654
 30
0.0
 10
20.5574106787
 20
5.3166615127
 30
0.0
 10
20.6003124876
 20
5.3153106225
 30
0.0
 10
20.6432142964
 20
5.3166615127
 30
0.0
 10
20.6857058453
 20
5.3207014654
 30
0.0
 10
20.7273809098
 20
5.3273919442
 30
0.0
 10
20.7678412533
 20
5.3366693785
 30
0.0
 10
20.8067005544
 20
5.3484459263
 30
0.0
 10
20.84358793
 20
5.3626100301
 30
0.0
 10
20.8781522768
 20
5.3790290606
 30
0.0
 10
20.9100619714
 20
5.3975476245
 30
0.0
 10
20.9344503308
 20
5.41477207
 30
0.0
 10
20.9523002017
 20
5.4294577328
 30
0.0
 10
20.9646989036
 20
5.4407607635
 30
0.0
 10
20.9762211508
 20
5.4524424297
 30
0.0
 10
20.9868392788
 20
5.4644752159
 30
0.0
 10
20.9965273403
 20
5.4768304593
 30
0.0
 10
21.0052617466
 20
5.4894786837
 30
0.0
 10
21.0130210295
 20
5.5023896917
 30
0.0
 10
21.0197858761
 20
5.5155326168
 30
0.0
 10
21.0255394404
 20
5.5288758378
 30
0.0
 10
21.0302672118
 20
5.5423871466
 30
0.0
 10
21.0339570681
 20
5.5560336062
 30
0.0
 10
21.0365996572
 20
5.5697824107
 30
0.0
 10
21.0381877944
 20
5.5835984804
 30
0.0
 10
21.0385413388
 20
5.5928393411
 30
0.0
 10
21.0385413388
 20
5.5974498249
 30
0.0
  0
SPLINE
  5
465
100
AcDbEntity
  8
0
100
AcDbSpline
 62
7
  6
CONTINUOUS
 70
0
 71
3
 72
30
 73
26
 74
0
 42
0.0000001
 43
0.0000001
 44
0.0000000001
 40
0.0
 40
0.0
 40
0.0
 40
0.0
 40
0.075131431
 40
0.1498384445
 40
0.2237086477
 40
0.2963458995
 40
0.3673829327
 40
0.4364910088
 40
0.5033904703
 40
0.567862611
 40
0.6297618818
 40
0.6597337704
 40
0.6890484745
 40
0.7177144199
 40
0.7457470714
 40
0.7731692219
 40
0.8000113694
 40
0.8263118059
 40
0.8521165201
 40
0.8774790948
 40
0.9024605349
 40
0.9271280796
 40
0.9515545163
 40
0.9758193974
 40
1.0
 40
1.0
 40
1.0
 40
1.0
 10
20.6003124876
 20
5.4454668903
 30
0.0
 10
20.587400375
 20
5.4454668903
 30
0.0
 10
20.5616416198
 20
5.4462777247
 30
0.0
 10
20.5233428961
 20
5.4499192745
 30
0.0
 10
20.4857785888
 20
5.4559497013
 30
0.0
 10
20.4493095234
 20
5.4643120331
 30
0.0
 10
20.414283429
 20
5.4749268228
 30
0.0
 10
20.3810348125
 20
5.487693769
 30
0.0
 10
20.3498800374
 20
5.5024931395
 30
0.0
 10
20.3211180375
 20
5.5191849231
 30
0.0
 10
20.2991354865
 20
5.5347103186
 30
0.0
 10
20.2830463847
 20
5.5479472944
 30
0.0
 10
20.2718707391
 20
5.5581353405
 30
0.0
 10
20.261485116
 20
5.5686646983
 30
0.0
 10
20.2519143999
 20
5.5795105108
 30
0.0
 10
20.2431819949
 20
5.5906469639
 30
0.0
 10
20.2353092087
 20
5.6020475239
 30
0.0
 10
20.2283153398
 20
5.6136849365
 30
0.0
 10
20.2222177842
 20
5.6255313762
 30
0.0
 10
20.217031786
 20
5.6375583703
 30
0.0
 10
20.2127703998
 20
5.6497368639
 30
0.0
 10
20.2094445094
 20
5.6620371645
 30
0.0
 10
20.207062581
 20
5.674429749
 30
0.0
 10
20.2056311411
 20
5.6868829757
 30
0.0
 10
20.2053124876
 20
5.6952123098
 30
0.0
 10
20.2053124876
 20
5.6993679961
 30
0.0
  0
SPLINE
  5
466
100
AcDbEntity
  8
0
100
AcDbSpline
 62
9
  6
CONTINUOUS
 70
0
 71
3
 72
53
 73
49
 74
0
 42
0.0000001
 43
0.0000001
 44
0.0000000001
 40
0.0
 40
0.0
 40
0.0
 40
0.0
 40
0.0120903409
 40
0.0242226385
 40
0.0364358753
 40
0.0487696726
 40
0.0612603838
 40
0.0739416819
 40
0.086844032
 40
0.0999942462
 40
0.1134153331
 40
0.1271264133
 40
0.1411427314
 40
0.1554757099
 40
0.1701330649
 40
0.1851190058
 40
0.2160686592
 40
0.2483047178
 40
0.2817544676
 40
0.3163085011
 40
0.3518270321
 40
0.3881456515
 40
0.4250807358
 40
0.4624345379
 40
0.5
 40
0.5375654621
 40
0.5749192642
 40
0.6118543485
 40
0.6481729679
 40
0.6836914989
 40
0.7182455324
 40
0.7516952822
 40
0.7839313408
 40
0.8148809942
 40
0.8298669351
 40
0.8445242901
 40
0.8588572686
 40
0.8728735867
 40
0.8865846669
 40
0.9000057538
 40
0.913155968
 40
0.9260583181
 40
0.9387396162
 40
0.9512303274
 40
0.9635641247
 40
0.9757773615
 40
0.9879096591
 40
1.0
 40
1.0
 40
1.0
 40
1.0
 10
20.1467548362
 20
5.578631099
 30
0.0
 10
20.1467548362
 20
5.5738593292
 30
0.0
 10
20.1471207366
 20
5.5642952366
 30
0.0
 10
20.1487644401
 20
5.5499958977
 30
0.0
 10
20.1514994673
 20
5.5357661895
 30
0.0
 10
20.1553183714
 20
5.5216423812
 30
0.0
 10
20.1602115248
 20
5.5076584606
 30
0.0
 10
20.1661663547
 20
5.493848515
 30
0.0
 10
20.1731678176
 20
5.4802458585
 30
0.0
 10
20.1811985023
 20
5.4668832298
 30
0.0
 10
20.1902384458
 20
5.4537925929
 30
0.0
 10
20.2002653936
 20
5.4410051836
 30
0.0
 10
20.211254905
 20
5.4285514794
 30
0.0
 10
20.2231802007
 20
5.4164612092
 30
0.0
 10
20.2360126153
 20
5.4047628308
 30
0.0
 10
20.2544868283
 20
5.3895634413
 30
0.0
 10
20.2797282963
 20
5.3717365493
 30
0.0
 10
20.3127541259
 20
5.3525701611
 30
0.0
 10
20.3485275324
 20
5.3355768853
 30
0.0
 10
20.3867051651
 20
5.3209172649
 30
0.0
 10
20.4269237404
 20
5.3087288341
 30
0.0
 10
20.4687993404
 20
5.2991268706
 30
0.0
 10
20.5119321545
 20
5.2922023374
 30
0.0
 10
20.5559100188
 20
5.2880211358
 30
0.0
 10
20.6003124876
 20
5.2866229073
 30
0.0
 10
20.6447149563
 20
5.2880211358
 30
0.0
 10
20.6886928207
 20
5.2922023374
 30
0.0
 10
20.7318256347
 20
5.2991268706
 30
0.0
 10
20.7737012348
 20
5.3087288341
 30
0.0
 10
20.8139198101
 20
5.3209172649
 30
0.0
 10
20.8520974428
 20
5.3355768853
 30
0.0
 10
20.8878708492
 20
5.3525701611
 30
0.0
 10
20.9208966788
 20
5.3717365493
 30
0.0
 10
20.9461381468
 20
5.3895634413
 30
0.0
 10
20.9646123599
 20
5.4047628308
 30
0.0
 10
20.9774447744
 20
5.4164612092
 30
0.0
 10
20.9893700701
 20
5.4285514794
 30
0.0
 10
21.0003595816
 20
5.4410051836
 30
0.0
 10
21.0103865293
 20
5.4537925929
 30
0.0
 10
21.0194264728
 20
5.4668832298
 30
0.0
 10
21.0274571576
 20
5.4802458585
 30
0.0
 10
21.0344586204
 20
5.493848515
 30
0.0
 10
21.0404134504
 20
5.5076584606
 30
0.0
 10
21.0453066037
 20
5.5216423812
 30
0.0
 10
21.0491255079
 20
5.5357661895
 30
0.0
 10
21.0518605351
 20
5.5499958977
 30
0.0
 10
21.0535042385
 20
5.5642952366
 30
0.0
 10
21.0538701389
 20
5.5738593292
 30
0.0
 10
21.0538701389
 20
5.578631099
 30
0.0
  0
SPLINE
  5
467
100
AcDbEntity
  8
0
100
AcDbSpline
 62
9
  6
CONTINUOUS
 70
0
 71
3
 72
53
 73
49
 74
0
 42
0.0000001
 43
0.0000001
 44
0.0000000001
 40
0.0
 40
0.0
 40
0.0
 40
0.0
 40
0.0120903409
 40
0.0242226385
 40
0.0364358753
 40
0.0487696726
 40
0.0612603838
 40
0.0739416819
 40
0.086844032
 40
0.0999942462
 40
0.1134153331
 40
0.1271264133
 40
0.1411427314
 40
0.1554757099
 40
0.1701330649
 40
0.1851190058
 40
0.2160686592
 40
0.2483047178
 40
0.2817544676
 40
0.3163085011
 40
0.3518270321
 40
0.3881456515
 40
0.4250807358
 40
0.4624345379
 40
0.5
 40
0.5375654621
 40
0.5749192642
 40
0.6118543485
 40
0.6481729679
 40
0.6836914989
 40
0.7182455324
 40
0.7516952822
 40
0.7839313408
 40
0.8148809942
 40
0.8298669351
 40
0.8445242901
 40
0.8588572686
 40
0.8728735867
 40
0.8865846669
 40
0.9000057538
 40
0.913155968
 40
0.9260583181
 40
0.9387396162
 40
0.9512303274
 40
0.9635641247
 40
0.9757773615
 40
0.9879096591
 40
1.0
 40
1.0
 40
1.0
 40
1.0
 10
21.0843124876
 20
5.508273592
 30
0.0
 10
21.0843124876
 20
5.5031815456
 30
0.0
 10
21.0839220283
 20
5.4929755203
 30
0.0
 10
21.0821680011
 20
5.4777164238
 30
0.0
 10
21.0792494015
 20
5.4625316314
 30
0.0
 10
21.0751741762
 20
5.4474598468
 30
0.0
 10
21.0699525991
 20
5.432537339
 30
0.0
 10
21.0635980868
 20
5.4178004833
 30
0.0
 10
21.0561266926
 20
5.4032848298
 30
0.0
 10
21.0475569961
 20
5.3890253144
 30
0.0
 10
21.0379103003
 20
5.3750560467
 30
0.0
 10
21.0272103536
 20
5.3614103589
 30
0.0
 10
21.0154832369
 20
5.3481207741
 30
0.0
 10
21.0027575269
 20
5.3352190167
 30
0.0
 10
20.9890638132
 20
5.3227354545
 30
0.0
 10
20.9693496289
 20
5.3065158968
 30
0.0
 10
20.9424139781
 20
5.2874924811
 30
0.0
 10
20.9071714869
 20
5.2670396636
 30
0.0
 10
20.8689970042
 20
5.2489058157
 30
0.0
 10
20.8282569259
 20
5.2332622558
 30
0.0
 10
20.7853389189
 20
5.2202557494
 30
0.0
 10
20.7406526693
 20
5.2100093114
 30
0.0
 10
20.6946248227
 20
5.2026200103
 30
0.0
 10
20.6476952069
 20
5.1981581705
 30
0.0
 10
20.6003124876
 20
5.1966660942
 30
0.0
 10
20.5529297683
 20
5.1981581705
 30
0.0
 10
20.5060001524
 20
5.2026200103
 30
0.0
 10
20.4599723058
 20
5.2100093114
 30
0.0
 10
20.4152860562
 20
5.2202557494
 30
0.0
 10
20.3723680493
 20
5.2332622558
 30
0.0
 10
20.3316279709
 20
5.2489058157
 30
0.0
 10
20.2934534882
 20
5.2670396636
 30
0.0
 10
20.2582109971
 20
5.2874924811
 30
0.0
 10
20.2312753463
 20
5.3065158968
 30
0.0
 10
20.211561162
 20
5.3227354545
 30
0.0
 10
20.1978674482
 20
5.3352190167
 30
0.0
 10
20.1851417383
 20
5.3481207741
 30
0.0
 10
20.1734146215
 20
5.3614103589
 30
0.0
 10
20.1627146748
 20
5.3750560467
 30
0.0
 10
20.1530679791
 20
5.3890253144
 30
0.0
 10
20.1444982826
 20
5.4032848298
 30
0.0
 10
20.1370268883
 20
5.4178004833
 30
0.0
 10
20.130672376
 20
5.432537339
 30
0.0
 10
20.1254507989
 20
5.4474598468
 30
0.0
 10
20.1213755737
 20
5.4625316314
 30
0.0
 10
20.1184569741
 20
5.4777164238
 30
0.0
 10
20.1167029469
 20
5.4929755203
 30
0.0
 10
20.1163124876
 20
5.5031815456
 30
0.0
 10
20.1163124876
 20
5.508273592
 30
0.0
  0
SPLINE
  5
468
100
AcDbEntity
  8
0
100
AcDbSpline
 62
9
  6
CONTINUOUS
 70
0
 71
3
 72
47
 73
43
 74
0
 42
0.0000001
 43
0.0000001
 44
0.0000000001
 40
0.0
 40
0.0
 40
0.0
 40
0.0
 40
0.0120440022
 40
0.0241646679
 40
0.0363990527
 40
0.0487812229
 40
0.0613428321
 40
0.0741127286
 40
0.0871164769
 40
0.1003762316
 40
0.1277238588
 40
0.156275488
 40
0.1860848149
 40
0.2171564078
 40
0.2494514575
 40
0.282893601
 40
0.3173746704
 40
0.3527600944
 40
0.3888938429
 40
0.4256031638
 40
0.4627029576
 40
0.5
 40
0.5372970424
 40
0.5743968362
 40
0.6111061571
 40
0.6472399056
 40
0.6826253296
 40
0.717106399
 40
0.7505485425
 40
0.7828435922
 40
0.8139151851
 40
0.843724512
 40
0.8722761412
 40
0.8996237684
 40
0.9128835231
 40
0.9258872714
 40
0.9386571679
 40
0.9512187771
 40
0.9636009473
 40
0.9758353321
 40
0.9879559978
 40
1.0
 40
1.0
 40
1.0
 40
1.0
 10
20.1168970278
 20
5.5083095531
 30
0.0
 10
20.1172746544
 20
5.5033744716
 30
0.0
 10
20.1183989737
 20
5.4934971495
 30
0.0
 10
20.1211742332
 20
5.4787858939
 30
0.0
 10
20.1250353187
 20
5.4641773481
 30
0.0
 10
20.1299729562
 20
5.4497058159
 30
0.0
 10
20.135975343
 20
5.4354040091
 30
0.0
 10
20.1430282077
 20
5.4213045517
 30
0.0
 10
20.1511154156
 20
5.407438869
 30
0.0
 10
20.1633756817
 20
5.3891195864
 30
0.0
 10
20.181283175
 20
5.366962006
 30
0.0
 10
20.206314889
 20
5.3420954633
 30
0.0
 10
20.2348838217
 20
5.3188850318
 30
0.0
 10
20.2667289716
 20
5.2975345177
 30
0.0
 10
20.3015648411
 20
5.2782287558
 30
0.0
 10
20.3390791811
 20
5.261136943
 30
0.0
 10
20.3789362643
 20
5.2464094615
 30
0.0
 10
20.4207792606
 20
5.2341767788
 30
0.0
 10
20.4642332323
 20
5.2245474051
 30
0.0
 10
20.5089085758
 20
5.2176072261
 30
0.0
 10
20.5544044515
 20
5.2134181685
 30
0.0
 10
20.6003124876
 20
5.2120175957
 30
0.0
 10
20.6462205236
 20
5.2134181685
 30
0.0
 10
20.6917163993
 20
5.2176072261
 30
0.0
 10
20.7363917428
 20
5.2245474051
 30
0.0
 10
20.7798457145
 20
5.2341767788
 30
0.0
 10
20.8216887108
 20
5.2464094615
 30
0.0
 10
20.861545794
 20
5.261136943
 30
0.0
 10
20.8990601341
 20
5.2782287558
 30
0.0
 10
20.9338960036
 20
5.2975345177
 30
0.0
 10
20.9657411535
 20
5.3188850318
 30
0.0
 10
20.9943100862
 20
5.3420954633
 30
0.0
 10
21.0193418001
 20
5.366962006
 30
0.0
 10
21.0372492934
 20
5.3891195864
 30
0.0
 10
21.0495095595
 20
5.407438869
 30
0.0
 10
21.0575967674
 20
5.4213045517
 30
0.0
 10
21.0646496322
 20
5.4354040091
 30
0.0
 10
21.0706520189
 20
5.4497058159
 30
0.0
 10
21.0755896564
 20
5.4641773481
 30
0.0
 10
21.0794507419
 20
5.4787858939
 30
0.0
 10
21.0822260015
 20
5.4934971495
 30
0.0
 10
21.0833503208
 20
5.5033744716
 30
0.0
 10
21.0837279473
 20
5.5083095531
 30
0.0
  0
SPLINE
  5
469
100
AcDbEntity
  8
0
100
AcDbSpline
 62
7
  6
CONTINUOUS
 70
0
 71
3
 72
38
 73
34
 74
0
 42
0.0000001
 43
0.0000001
 44
0.0000000001
 40
0.0
 40
0.0
 40
0.0
 40
0.0
 40
0.0240574536
 40
0.0483187051
 40
0.0728495531
 40
0.0977113812
 40
0.1229603759
 40
0.148646936
 40
0.1748152711
 40
0.2015031725
 40
0.228741935
 40
0.2565564027
 40
0.2849651134
 40
0.3139805156
 40
0.3436092381
 40
0.3738523939
 40
0.404705903
 40
0.4361608265
 40
0.4682037009
 40
0.5008168691
 40
0.5339788048
 40
0.5676644266
 40
0.6018454028
 40
0.636490445
 40
0.6715655914
 40
0.7070344809
 40
0.742858618
 40
0.7789976289
 40
0.8154095117
 40
0.8520508806
 40
0.8888772014
 40
0.9258430341
 40
1.0
 40
1.0
 40
1.0
 40
1.0
 10
22.742199
 20
4.1885305255
 30
0.0
 10
22.7393163016
 20
4.1671789029
 30
0.0
 10
22.7319863461
 20
4.1244873187
 30
0.0
 10
22.7164328248
 20
4.0610740505
 30
0.0
 10
22.696318251
 20
3.998198223
 30
0.0
 10
22.671688898
 20
3.9360006358
 30
0.0
 10
22.6426000559
 20
3.8746144572
 30
0.0
 10
22.6091167099
 20
3.8141720409
 30
0.0
 10
22.5713130086
 20
3.7548028154
 30
0.0
 10
22.5292720971
 20
3.6966336499
 30
0.0
 10
22.4830858824
 20
3.6397885543
 30
0.0
 10
22.4328548395
 20
3.5843885588
 30
0.0
 10
22.3786878169
 20
3.5305515297
 30
0.0
 10
22.3207018416
 20
3.4783919866
 30
0.0
 10
22.2590219114
 20
3.4280209016
 30
0.0
 10
22.1937807719
 20
3.3795454911
 30
0.0
 10
22.1251186737
 20
3.3330690014
 30
0.0
 10
22.0531831087
 20
3.2886904927
 30
0.0
 10
21.9781285245
 20
3.246504625
 30
0.0
 10
21.9001160182
 20
3.2066014487
 30
0.0
 10
21.8193130108
 20
3.1690662023
 30
0.0
 10
21.7358929026
 20
3.1339791199
 30
0.0
 10
21.6500347119
 20
3.1014152475
 30
0.0
 10
21.5619226991
 20
3.071444273
 30
0.0
 10
21.4717459747
 20
3.0441303658
 30
0.0
 10
21.379698101
 20
3.0195320319
 30
0.0
 10
21.285976661
 20
2.9977019785
 30
0.0
 10
21.1907828973
 20
2.9786870001
 30
0.0
 10
21.0943210434
 20
2.962527853
 30
0.0
 10
20.9967987733
 20
2.9492592337
 30
0.0
 10
20.8984234041
 20
2.9389094387
 30
0.0
 10
20.7662793422
 20
2.9290220443
 30
0.0
 10
20.6667258817
 20
2.9260597672
 30
0.0
 10
20.6003124876
 20
2.9260597672
 30
0.0
  0
SPLINE
  5
46A
100
AcDbEntity
  8
0
100
AcDbSpline
 62
9
  6
CONTINUOUS
 70
0
 71
3
 72
24
 73
20
 74
0
 42
0.0000001
 43
0.0000001
 44
0.0000000001
 40
0.0
 40
0.0
 40
0.0
 40
0.0
 40
0.0560445963
 40
0.1122765388
 40
0.1688795578
 40
0.2260303437
 40
0.2838954825
 40
0.3426288736
 40
0.402369702
 40
0.4632409797
 40
0.5253486322
 40
0.5887810685
 40
0.6210201935
 40
0.6536156235
 40
0.7198930027
 40
0.7876566182
 40
0.8569274534
 40
0.9277113668
 40
1.0
 40
1.0
 40
1.0
 40
1.0
 10
22.5053124876
 20
4.7738625179
 30
0.0
 10
22.5053124876
 20
4.7540096872
 30
0.0
 10
22.5038050408
 20
4.7142213367
 30
0.0
 10
22.4970311073
 20
4.6547294833
 30
0.0
 10
22.4857604943
 20
4.5955221692
 30
0.0
 10
22.4700218805
 20
4.5367463914
 30
0.0
 10
22.449854994
 20
4.4785417292
 30
0.0
 10
22.4253102446
 20
4.4210471799
 30
0.0
 10
22.3964484565
 20
4.3643989919
 30
0.0
 10
22.3633402015
 20
4.3087305727
 30
0.0
 10
22.3260667779
 20
4.2541737039
 30
0.0
 10
22.291794008
 20
4.2099804964
 30
0.0
 10
22.2624262017
 20
4.175304045
 30
0.0
 10
22.2314179889
 20
4.1407200109
 30
0.0
 10
22.190194603
 20
4.0984273746
 30
0.0
 10
22.1372487314
 20
4.0495597473
 30
0.0
 10
22.0806756984
 20
4.0024076843
 30
0.0
 10
22.0206119786
 20
3.9570835249
 30
0.0
 10
21.9787685279
 20
3.9284519622
 30
0.0
 10
21.9573221533
 20
3.914460126
 30
0.0
  0
SPLINE
  5
46B
100
AcDbEntity
  8
0
100
AcDbSpline
 62
9
  6
CONTINUOUS
 70
0
 71
3
 72
22
 73
18
 74
0
 42
0.0000001
 43
0.0000001
 44
0.0000000001
 40
0.0
 40
0.0
 40
0.0
 40
0.0
 40
0.0561126715
 40
0.1133478222
 40
0.1716693941
 40
0.2310329329
 40
0.2913863175
 40
0.3526704652
 40
0.4148200096
 40
0.4777639537
 40
0.5414262991
 40
0.6057266549
 40
0.6705808231
 40
0.7359013848
 40
0.8015982145
 40
0.8675791645
 40
1.0
 40
1.0
 40
1.0
 40
1.0
 10
21.9573221533
 20
3.914460126
 30
0.0
 10
21.935013573
 20
3.8999057779
 30
0.0
 10
21.8892710135
 20
3.8715341864
 30
0.0
 10
21.8181955357
 20
3.8316238223
 30
0.0
 10
21.7441353391
 20
3.7940249203
 30
0.0
 10
21.6672736404
 20
3.7588303065
 30
0.0
 10
21.587798112
 20
3.7261254331
 30
0.0
 10
21.5059034897
 20
3.6959901779
 30
0.0
 10
21.421790265
 20
3.6684980777
 30
0.0
 10
21.3356644352
 20
3.6437162883
 30
0.0
 10
21.2477369213
 20
3.6217053649
 30
0.0
 10
21.1582231378
 20
3.6025191226
 30
0.0
 10
21.067342203
 20
3.5862044656
 30
0.0
 10
20.9753173709
 20
3.5728013616
 30
0.0
 10
20.8823718358
 20
3.5623424024
 30
0.0
 10
20.757389818
 20
3.5523463867
 30
0.0
 10
20.6631721625
 20
3.5493521214
 30
0.0
 10
20.6003124876
 20
3.5493521214
 30
0.0
  0
SPLINE
  5
46C
100
AcDbEntity
  8
0
100
AcDbSpline
 62
9
  6
CONTINUOUS
 70
0
 71
3
 72
38
 73
34
 74
0
 42
0.0000001
 43
0.0000001
 44
0.0000000001
 40
0.0
 40
0.0
 40
0.0
 40
0.0
 40
0.0241789397
 40
0.048440249
 40
0.0728646777
 40
0.0975298232
 40
0.122508762
 40
0.1478689009
 40
0.1736710785
 40
0.1999689256
 40
0.2268084696
 40
0.2542279561
 40
0.2822578521
 40
0.3109209929
 40
0.3402328373
 40
0.3702017981
 40
0.4008296233
 40
0.4321118049
 40
0.464038003
 40
0.4965924704
 40
0.5297544728
 40
0.5634986989
 40
0.5977956577
 40
0.6326120613
 40
0.6679111943
 40
0.703653269
 40
0.7397957687
 40
0.7762937776
 40
0.8131003049
 40
0.8501665905
 40
0.8874424277
 40
0.9248764144
 40
1.0
 40
1.0
 40
1.0
 40
1.0
 10
22.2203124615
 20
4.9443628139
 30
0.0
 10
22.2203124615
 20
4.9273187477
 30
0.0
 10
22.2190058324
 20
4.8931582686
 30
0.0
 10
22.2131344693
 20
4.8420844435
 30
0.0
 10
22.2033659163
 20
4.7912596909
 30
0.0
 10
22.1897255375
 20
4.740812649
 30
0.0
 10
22.1722484539
 20
4.6908654216
 30
0.0
 10
22.1509792301
 20
4.6415395807
 30
0.0
 10
22.1259715545
 20
4.592954176
 30
0.0
 10
22.0972879401
 20
4.5452260075
 30
0.0
 10
22.0649994585
 20
4.4984693386
 30
0.0
 10
22.029185508
 20
4.4527957897
 30
0.0
 10
21.9899336072
 20
4.4083141843
 30
0.0
 10
21.9473392033
 20
4.3651303949
 30
0.0
 10
21.9015054809
 20
4.3233471679
 30
0.0
 10
21.8525431631
 20
4.2830639331
 30
0.0
 10
21.8005702954
 20
4.2443766006
 30
0.0
 10
21.7457120102
 20
4.2073773486
 30
0.0
 10
21.6881002672
 20
4.1721544085
 30
0.0
 10
21.6278735713
 20
4.1387918511
 30
0.0
 10
21.5651766676
 20
4.1073693773
 30
0.0
 10
21.5001602145
 20
4.0779621161
 30
0.0
 10
21.4329804377
 20
4.0506404327
 30
0.0
 10
21.3637987661
 20
4.0254697479
 30
0.0
 10
21.2927814504
 20
4.002510369
 30
0.0
 10
21.220099172
 20
3.9818173356
 30
0.0
 10
21.1459266209
 20
3.9634402769
 30
0.0
 10
21.070442131
 20
3.9474232876
 30
0.0
 10
20.9938270442
 20
3.9338048023
 30
0.0
 10
20.9162660557
 20
3.9226175519
 30
0.0
 10
20.837943812
 20
3.9138882592
 30
0.0
 10
20.7326421493
 20
3.9055458712
 30
0.0
 10
20.6532681333
 20
3.9030468862
 30
0.0
 10
20.6003124876
 20
3.9030468862
 30
0.0
  0
SPLINE
  5
46D
100
AcDbEntity
  8
0
100
AcDbSpline
 62
9
  6
CONTINUOUS
 70
0
 71
3
 72
40
 73
36
 74
0
 42
0.0000001
 43
0.0000001
 44
0.0000000001
 40
0.0
 40
0.0
 40
0.0
 40
0.0
 40
0.0274681122
 40
0.0544833688
 40
0.0811215434
 40
0.1074656611
 40
0.1336046519
 40
0.159631701
 40
0.1856423653
 40
0.2117325516
 40
0.2379964748
 40
0.2645247144
 40
0.2914024767
 40
0.318708139
 40
0.3465121219
 40
0.3748760967
 40
0.4038525121
 40
0.4334843976
 40
0.4485586625
 40
0.4638086324
 40
0.4948432316
 40
0.5266070844
 40
0.5591074622
 40
0.5923437424
 40
0.6263079319
 40
0.6609852003
 40
0.6963544132
 40
0.7323886541
 40
0.769055732
 40
0.80631867
 40
0.8441361775
 40
0.8824631028
 40
0.9212508691
 40
0.9604478952
 40
1.0
 40
1.0
 40
1.0
 40
1.0
 10
18.6965306112
 20
4.818227945
 30
0.0
 10
18.6860787713
 20
4.7976029704
 30
0.0
 10
18.6667568317
 20
4.7559585514
 30
0.0
 10
18.6425555451
 20
4.6920414654
 30
0.0
 10
18.6234601941
 20
4.627397443
 30
0.0
 10
18.6095259242
 20
4.5622008094
 30
0.0
 10
18.6007914733
 20
4.4966234621
 30
0.0
 10
18.597281758
 20
4.4308404008
 30
0.0
 10
18.599006746
 20
4.3650273159
 30
0.0
 10
18.6059615254
 20
4.2993601414
 30
0.0
 10
18.6181263189
 20
4.2340140491
 30
0.0
 10
18.6354667707
 20
4.1691626523
 30
0.0
 10
18.6579343533
 20
4.1049773104
 30
0.0
 10
18.6854668918
 20
4.041626559
 30
0.0
 10
18.7179889653
 20
3.9792758364
 30
0.0
 10
18.7554127758
 20
3.9180867333
 30
0.0
 10
18.7976370167
 20
3.8582185706
 30
0.0
 10
18.8365094788
 20
3.8098333637
 30
0.0
 10
18.869844261
 20
3.7719308599
 30
0.0
 10
18.9050769541
 20
3.7341537495
 30
0.0
 10
18.9519392162
 20
3.6880532246
 30
0.0
 10
19.0121304652
 20
3.6349661097
 30
0.0
 10
19.0764490638
 20
3.5839260998
 30
0.0
 10
19.144726263
 20
3.5350657392
 30
0.0
 10
19.2167848222
 20
3.4885104261
 30
0.0
 10
19.2924373857
 20
3.4443802027
 30
0.0
 10
19.3714874773
 20
3.4027888515
 30
0.0
 10
19.453729815
 20
3.3638437474
 30
0.0
 10
19.5389508598
 20
3.3276455158
 30
0.0
 10
19.6269293238
 20
3.2942877624
 30
0.0
 10
19.7174367788
 20
3.2638568044
 30
0.0
 10
19.8102380767
 20
3.236431457
 30
0.0
 10
19.9050925771
 20
3.2120827133
 30
0.0
 10
20.0017524096
 20
3.1908739238
 30
0.0
 10
20.066969243
 20
3.1789123283
 30
0.0
 10
20.0998142009
 20
3.1734618409
 30
0.0
  0
SPLINE
  5
46E
100
AcDbEntity
  8
0
100
AcDbSpline
 62
9
  6
CONTINUOUS
 70
0
 71
3
 72
38
 73
34
 74
0
 42
0.0000001
 43
0.0000001
 44
0.0000000001
 40
0.0
 40
0.0
 40
0.0
 40
0.0
 40
0.0241789397
 40
0.048440249
 40
0.0728646777
 40
0.0975298232
 40
0.122508762
 40
0.1478689009
 40
0.1736710785
 40
0.1999689256
 40
0.2268084696
 40
0.2542279561
 40
0.2822578521
 40
0.3109209929
 40
0.3402328373
 40
0.3702017981
 40
0.4008296233
 40
0.4321118049
 40
0.464038003
 40
0.4965924704
 40
0.5297544728
 40
0.5634986989
 40
0.5977956577
 40
0.6326120613
 40
0.6679111943
 40
0.703653269
 40
0.7397957687
 40
0.7762937776
 40
0.8131003049
 40
0.8501665905
 40
0.8874424277
 40
0.9248764144
 40
1.0
 40
1.0
 40
1.0
 40
1.0
 10
18.9803125137
 20
4.918326164
 30
0.0
 10
18.9803125137
 20
4.9012820978
 30
0.0
 10
18.9816191427
 20
4.8671216187
 30
0.0
 10
18.9874905058
 20
4.8160477936
 30
0.0
 10
18.9972590589
 20
4.765223041
 30
0.0
 10
19.0108994376
 20
4.7147759991
 30
0.0
 10
19.0283765212
 20
4.6648287717
 30
0.0
 10
19.0496457451
 20
4.6155029307
 30
0.0
 10
19.0746534207
 20
4.5669175261
 30
0.0
 10
19.1033370351
 20
4.5191893576
 30
0.0
 10
19.1356255166
 20
4.4724326887
 30
0.0
 10
19.1714394672
 20
4.4267591398
 30
0.0
 10
19.210691368
 20
4.3822775344
 30
0.0
 10
19.2532857719
 20
4.339093745
 30
0.0
 10
19.2991194942
 20
4.297310518
 30
0.0
 10
19.3480818121
 20
4.2570272832
 30
0.0
 10
19.4000546797
 20
4.2183399507
 30
0.0
 10
19.454912965
 20
4.1813406987
 30
0.0
 10
19.512524708
 20
4.1461177586
 30
0.0
 10
19.5727514038
 20
4.1127552012
 30
0.0
 10
19.6354483075
 20
4.0813327274
 30
0.0
 10
19.7004647606
 20
4.0519254662
 30
0.0
 10
19.7676445375
 20
4.0246037828
 30
0.0
 10
19.8368262091
 20
3.999433098
 30
0.0
 10
19.9078435248
 20
3.9764737191
 30
0.0
 10
19.9805258031
 20
3.9557806857
 30
0.0
 10
20.0546983542
 20
3.937403627
 30
0.0
 10
20.1301828442
 20
3.9213866377
 30
0.0
 10
20.206797931
 20
3.9077681524
 30
0.0
 10
20.2843589195
 20
3.896580902
 30
0.0
 10
20.3626811632
 20
3.8878516093
 30
0.0
 10
20.4679828258
 20
3.8795092213
 30
0.0
 10
20.5473568418
 20
3.8770102363
 30
0.0
 10
20.6003124876
 20
3.8770102363
 30
0.0
  0
SPLINE
  5
46F
100
AcDbEntity
  8
0
100
AcDbSpline
 62
9
  6
CONTINUOUS
 70
0
 71
3
 72
11
 73
7
 74
0
 42
0.0000001
 43
0.0000001
 44
0.0000000001
 40
0.0
 40
0.0
 40
0.0
 40
0.0
 40
0.238630863
 40
0.4894104734
 40
0.7455361463
 40
1.0
 40
1.0
 40
1.0
 40
1.0
 10
2.1084762048
 20
11.5868067748
 30
0.0
 10
2.1051986534
 20
11.5867706743
 30
0.0
 10
2.0984779884
 20
11.5864424002
 30
0.0
 10
2.0882966767
 20
11.5852887311
 30
0.0
 10
2.0779884649
 20
11.5834911097
 30
0.0
 10
2.0711576143
 20
11.5818799113
 30
0.0
 10
2.0677824518
 20
11.5809716783
 30
0.0
  0
SPLINE
  5
470
100
AcDbEntity
  8
0
100
AcDbSpline
 62
7
  6
CONTINUOUS
 70
0
 71
3
 72
32
 73
28
 74
0
 42
0.0000001
 43
0.0000001
 44
0.0000000001
 40
0.0
 40
0.0
 40
0.0
 40
0.0
 40
0.0281098568
 40
0.0559853519
 40
0.0836841505
 40
0.1112673698
 40
0.1387984518
 40
0.1663419229
 40
0.1939620518
 40
0.2217215226
 40
0.2496802569
 40
0.2778943129
 40
0.3064148881
 40
0.3352874964
 40
0.3645514132
 40
0.3942392922
 40
0.4243768626
 40
0.4549828322
 40
0.517613789
 40
0.5821753367
 40
0.6485820151
 40
0.7166611085
 40
0.7861663072
 40
0.8213696096
 40
0.8568109809
 40
0.9282085874
 40
1.0
 40
1.0
 40
1.0
 40
1.0
 10
20.2252196232
 20
8.2726145106
 30
0.0
 10
20.2231704692
 20
8.2781197676
 30
0.0
 10
20.219478725
 20
8.2892342669
 30
0.0
 10
20.2151881377
 20
8.3062031941
 30
0.0
 10
20.2121844526
 20
8.3233360153
 30
0.0
 10
20.2104784744
 20
8.3405739244
 30
0.0
 10
20.2100760143
 20
8.357859058
 30
0.0
 10
20.2109785172
 20
8.3751329912
 30
0.0
 10
20.2131828648
 20
8.3923374355
 30
0.0
 10
20.2166813855
 20
8.4094143692
 30
0.0
 10
20.2214619744
 20
8.4263063113
 30
0.0
 10
20.2275081682
 20
8.4429565331
 30
0.0
 10
20.2347992411
 20
8.4593092556
 30
0.0
 10
20.2433103057
 20
8.4753098075
 30
0.0
 10
20.2530124232
 20
8.4909048932
 30
0.0
 10
20.2638725831
 20
8.5060425301
 30
0.0
 10
20.2758546624
 20
8.5206729173
 30
0.0
 10
20.2934031913
 20
8.5395800312
 30
0.0
 10
20.3179950512
 20
8.5616728692
 30
0.0
 10
20.3510067022
 20
8.5851962521
 30
0.0
 10
20.3873164687
 20
8.6056432526
 30
0.0
 10
20.4264376682
 20
8.6227458111
 30
0.0
 10
20.4608141696
 20
8.6339822747
 30
0.0
 10
20.4892241472
 20
8.6411342287
 30
0.0
 10
20.5183198505
 20
8.6470581692
 30
0.0
 10
20.5553711039
 20
8.6520134456
 30
0.0
 10
20.5853098799
 20
8.6533358465
 30
0.0
 10
20.6003124876
 20
8.6533358465
 30
0.0
  0
SPLINE
  5
471
100
AcDbEntity
  8
0
100
AcDbSpline
 62
9
  6
CONTINUOUS
 70
0
 71
3
 72
39
 73
35
 74
0
 42
0.0000001
 43
0.0000001
 44
0.0000000001
 40
0.0
 40
0.0
 40
0.0
 40
0.0
 40
0.0320292806
 40
0.0478119592
 40
0.0634385723
 40
0.0942238596
 40
0.1244121504
 40
0.1540395527
 40
0.1831568054
 40
0.2118287357
 40
0.2401331293
 40
0.2681589677
 40
0.2960040386
 40
0.3237719991
 40
0.3515690478
 40
0.3795004215
 40
0.4076669587
 40
0.436161964
 40
0.4650685552
 40
0.4944576117
 40
0.5243863577
 40
0.5548975631
 40
0.586019288
 40
0.6177650763
 40
0.6501344994
 40
0.6831139602
 40
0.7166776773
 40
0.7507887903
 40
0.7854005376
 40
0.820457478
 40
0.8558967446
 40
0.8916492411
 40
0.9276410982
 40
1.0
 40
1.0
 40
1.0
 40
1.0
 10
20.225239267
 20
8.1776442983
 30
0.0
 10
20.2159763806
 20
8.1846464792
 30
0.0
 10
20.2025096015
 20
8.1955913084
 30
0.0
 10
20.1854936446
 20
8.2110697207
 30
0.0
 10
20.16939397
 20
8.2268623492
 30
0.0
 10
20.1506960392
 20
8.2474358826
 30
0.0
 10
20.1305952986
 20
8.2734582491
 30
0.0
 10
20.113051296
 20
8.3005543957
 30
0.0
 10
20.0981626237
 20
8.3285767316
 30
0.0
 10
20.0860128004
 20
8.3573729444
 30
0.0
 10
20.0766708038
 20
8.3867854501
 30
0.0
 10
20.0701900872
 20
8.4166524945
 30
0.0
 10
20.0666080228
 20
8.446809004
 30
0.0
 10
20.0659453649
 20
8.4770877154
 30
0.0
 10
20.0682059597
 20
8.5073204158
 30
0.0
 10
20.0733766798
 20
8.5373392532
 30
0.0
 10
20.0814276298
 20
8.5669780198
 30
0.0
 10
20.0923125753
 20
8.5960733254
 30
0.0
 10
20.1059695254
 20
8.6244656103
 30
0.0
 10
20.122321394
 20
8.6519999927
 30
0.0
 10
20.1412766594
 20
8.6785269913
 30
0.0
 10
20.162730033
 20
8.7039031543
 30
0.0
 10
20.1865631153
 20
8.7279916355
 30
0.0
 10
20.2126450384
 20
8.7506627643
 30
0.0
 10
20.2408331326
 20
8.7717946119
 30
0.0
 10
20.2709736338
 20
8.7912735572
 30
0.0
 10
20.3029024369
 20
8.808994845
 30
0.0
 10
20.3364459386
 20
8.8248631261
 30
0.0
 10
20.3714218282
 20
8.8387929737
 30
0.0
 10
20.4076403643
 20
8.8507093733
 30
0.0
 10
20.4449041281
 20
8.8605480246
 30
0.0
 10
20.4830137949
 20
8.8682561136
 30
0.0
 10
20.5347500323
 20
8.8756485057
 30
0.0
 10
20.5740799302
 20
8.8778667513
 30
0.0
 10
20.6003124876
 20
8.8778667513
 30
0.0
  0
SPLINE
  5
472
100
AcDbEntity
  8
0
100
AcDbSpline
 62
9
  6
CONTINUOUS
 70
0
 71
3
 72
29
 73
25
 74
0
 42
0.0000001
 43
0.0000001
 44
0.0000000001
 40
0.0
 40
0.0
 40
0.0
 40
0.0
 40
0.0268885441
 40
0.0539048008
 40
0.0810846196
 40
0.1084618373
 40
0.1360679389
 40
0.163931755
 40
0.1920791805
 40
0.2205329949
 40
0.2493127475
 40
0.2784346427
 40
0.3079114848
 40
0.3377527256
 40
0.3985333628
 40
0.4608041314
 40
0.5245263865
 40
0.589617108
 40
0.6559539934
 40
0.7233809634
 40
0.7917137201
 40
0.8607454831
 40
0.9302520886
 40
1.0
 40
1.0
 40
1.0
 40
1.0
 10
20.0624583603
 20
10.9598167096
 30
0.0
 10
20.0633334411
 20
10.966114376
 30
0.0
 10
20.0654634877
 20
10.9786905958
 30
0.0
 10
20.0697738201
 20
10.997384094
 30
0.0
 10
20.0751968746
 20
11.0159065795
 30
0.0
 10
20.0817208429
 20
11.0342182348
 30
0.0
 10
20.089331826
 20
11.0522808463
 30
0.0
 10
20.0980137008
 20
11.0700564211
 30
0.0
 10
20.1077480116
 20
11.0875077382
 30
0.0
 10
20.118514068
 20
11.1045982982
 30
0.0
 10
20.130289182
 20
11.1212923687
 30
0.0
 10
20.143048431
 20
11.137554961
 30
0.0
 10
20.156765236
 20
11.1533525205
 30
0.0
 10
20.1764093387
 20
11.1738742221
 30
0.0
 10
20.203252159
 20
11.1981776006
 30
0.0
 10
20.2385714347
 20
11.2247858459
 30
0.0
 10
20.2769060021
 20
11.248805463
 30
0.0
 10
20.317933413
 20
11.270037232
 30
0.0
 10
20.3613119288
 20
11.2883074268
 30
0.0
 10
20.4066800909
 20
11.3034654735
 30
0.0
 10
20.4536598959
 20
11.3153867672
 30
0.0
 10
20.5018610031
 20
11.3239728789
 30
0.0
 10
20.5508791857
 20
11.3291531252
 30
0.0
 10
20.5838196157
 20
11.3303067925
 30
0.0
 10
20.6003124876
 20
11.3303067925
 30
0.0
  0
SPLINE
  5
473
100
AcDbEntity
  8
0
100
AcDbSpline
 62
9
  6
CONTINUOUS
 70
0
 71
3
 72
30
 73
26
 74
0
 42
0.0000001
 43
0.0000001
 44
0.0000000001
 40
0.0
 40
0.0
 40
0.0
 40
0.0
 40
0.0704238756
 40
0.1405681606
 40
0.1754568506
 40
0.2101750353
 40
0.2789618262
 40
0.3467073667
 40
0.4132076662
 40
0.4782964096
 40
0.5418523328
 40
0.6038063987
 40
0.6641480707
 40
0.6937387954
 40
0.7229519311
 40
0.7518045486
 40
0.7803179014
 40
0.8085173442
 40
0.8364321566
 40
0.8640952981
 40
0.8915430854
 40
0.9188147952
 40
0.9459521814
 40
0.9729989197
 40
1.0
 40
1.0
 40
1.0
 40
1.0
 10
20.6003124876
 20
11.5149801033
 30
0.0
 10
20.5795507555
 20
11.5149801033
 30
0.0
 10
20.5380938659
 20
11.5134234504
 30
0.0
 10
20.4866455704
 20
11.5075885645
 30
0.0
 10
20.4460321204
 20
11.5006057595
 30
0.0
 10
20.4061099585
 20
11.4921468867
 30
0.0
 10
20.3573575746
 20
11.4788121875
 30
0.0
 10
20.3010065321
 20
11.4584393664
 30
0.0
 10
20.2475164724
 20
11.4339343832
 30
0.0
 10
20.1974019941
 20
11.4055290958
 30
0.0
 10
20.15114277
 20
11.3734895952
 30
0.0
 10
20.1091870073
 20
11.3381209153
 30
0.0
 10
20.0779372031
 20
11.3059298513
 30
0.0
 10
20.0555393473
 20
11.2788534901
 30
0.0
 10
20.0401587795
 20
11.258070249
 30
0.0
 10
20.0261275805
 20
11.2367324526
 30
0.0
 10
20.0134793656
 20
11.2148908253
 30
0.0
 10
20.0022450945
 20
11.1925980707
 30
0.0
 10
19.9924521874
 20
11.1699078538
 30
0.0
 10
19.9841246684
 20
11.146874931
 30
0.0
 10
19.9772830472
 20
11.1235549213
 30
0.0
 10
19.9719441825
 20
11.1000043661
 30
0.0
 10
19.9681212267
 20
11.0762800049
 30
0.0
 10
19.9658236382
 20
11.0524406944
 30
0.0
 10
19.9653124876
 20
11.036502097
 30
0.0
 10
19.9653124876
 20
11.028541882
 30
0.0
  0
SPLINE
  5
474
100
AcDbEntity
  8
0
100
AcDbSpline
 62
9
  6
CONTINUOUS
 70
0
 71
3
 72
15
 73
11
 74
0
 42
0.0000001
 43
0.0000001
 44
0.0000000001
 40
0.0
 40
0.0
 40
0.0
 40
0.0
 40
0.1333087397
 40
0.2635025504
 40
0.3908848616
 40
0.5158167176
 40
0.6387137878
 40
0.7600366479
 40
0.8802916915
 40
1.0
 40
1.0
 40
1.0
 40
1.0
 10
20.1925789491
 20
5.7063306653
 30
0.0
 10
20.1888723803
 20
5.7014408105
 30
0.0
 10
20.181873728
 20
5.6915207027
 30
0.0
 10
20.1725900605
 20
5.6760907504
 30
0.0
 10
20.1646796459
 20
5.6603418301
 30
0.0
 10
20.1581698254
 20
5.6443252529
 30
0.0
 10
20.1530828571
 20
5.6280926689
 30
0.0
 10
20.149436237
 20
5.6116964179
 30
0.0
 10
20.1472431989
 20
5.5951921275
 30
0.0
 10
20.1467548362
 20
5.5841410065
 30
0.0
 10
20.1467548362
 20
5.578631099
 30
0.0
  0
SPLINE
  5
475
100
AcDbEntity
  8
0
100
AcDbSpline
 62
9
  6
CONTINUOUS
 70
0
 71
3
 72
11
 73
7
 74
0
 42
0.0000001
 43
0.0000001
 44
0.0000000001
 40
0.0
 40
0.0
 40
0.0
 40
0.0
 40
0.2555576634
 40
0.5064125902
 40
0.7540314527
 40
1.0
 40
1.0
 40
1.0
 40
1.0
 10
20.1786854451
 20
5.674249261
 30
0.0
 10
20.1759669583
 20
5.668082829
 30
0.0
 10
20.1711639513
 20
5.6555947374
 30
0.0
 10
20.1659350162
 20
5.6363751358
 30
0.0
 10
20.1627855409
 20
5.6169625744
 30
0.0
 10
20.1620836364
 20
5.6039360287
 30
0.0
 10
20.1620836364
 20
5.5974498249
 30
0.0
  0
SPLINE
  5
476
100
AcDbEntity
  8
0
100
AcDbSpline
 62
9
  6
CONTINUOUS
 70
0
 71
3
 72
35
 73
31
 74
0
 42
0.0000001
 43
0.0000001
 44
0.0000000001
 40
0.0
 40
0.0
 40
0.0
 40
0.0
 40
0.0286635267
 40
0.0570014431
 40
0.0850697855
 40
0.1129302039
 40
0.1406488014
 40
0.1682947811
 40
0.1959389541
 40
0.2236521715
 40
0.2515037553
 40
0.2795599999
 40
0.3078828117
 40
0.3365285368
 40
0.3655470097
 40
0.394980838
 40
0.4248649183
 40
0.4552261693
 40
0.4860834561
 40
0.5174476765
 40
0.5493219802
 40
0.5817020913
 40
0.6479029451
 40
0.6817069188
 40
0.7159341353
 40
0.7854944241
 40
0.8207673768
 40
0.8563012787
 40
0.9279344632
 40
1.0
 40
1.0
 40
1.0
 40
1.0
 10
20.0422635202
 20
10.7948251697
 30
0.0
 10
20.0380005697
 20
10.8033869418
 30
0.0
 10
20.0301332937
 20
10.8207257564
 30
0.0
 10
20.0203472549
 20
10.8473984945
 30
0.0
 10
20.0126840485
 20
10.874480802
 30
0.0
 10
20.0071735212
 20
10.9018711862
 30
0.0
 10
20.0038363998
 20
10.9294689707
 30
0.0
 10
20.0026854653
 20
10.9571719338
 30
0.0
 10
20.0037250971
 20
10.9848775134
 30
0.0
 10
20.0069513294
 20
11.0124830935
 30
0.0
 10
20.0123518598
 20
11.0398865406
 30
0.0
 10
20.0199061563
 20
11.0669866561
 30
0.0
 10
20.0295856113
 20
11.0936836143
 30
0.0
 10
20.0413537396
 20
11.1198793583
 30
0.0
 10
20.0551664029
 20
11.1454779563
 30
0.0
 10
20.070972046
 20
11.1703859229
 30
0.0
 10
20.0887119521
 20
11.1945125194
 30
0.0
 10
20.1083204568
 20
11.2177700102
 30
0.0
 10
20.1297253408
 20
11.2400740128
 30
0.0
 10
20.1528475741
 20
11.2613434346
 30
0.0
 10
20.1776035855
 20
11.2815019581
 30
0.0
 10
20.2129198697
 20
11.3069830033
 30
0.0
 10
20.2509097035
 20
11.3297320094
 30
0.0
 10
20.2910576025
 20
11.3496233629
 30
0.0
 10
20.3332170143
 20
11.367844884
 30
0.0
 10
20.3771804978
 20
11.3829696055
 30
0.0
 10
20.4224747878
 20
11.3949458483
 30
0.0
 10
20.4689716441
 20
11.4048778228
 30
0.0
 10
20.5282891163
 20
11.4131887262
 30
0.0
 10
20.5762659129
 20
11.4154064061
 30
0.0
 10
20.6003124876
 20
11.4154064061
 30
0.0
  0
SPLINE
  5
477
100
AcDbEntity
  8
0
100
AcDbSpline
 62
7
  6
CONTINUOUS
 70
0
 71
3
 72
11
 73
7
 74
0
 42
0.0000001
 43
0.0000001
 44
0.0000000001
 40
0.0
 40
0.0
 40
0.0
 40
0.0
 40
0.2555579584
 40
0.5064129315
 40
0.7540326672
 40
1.0
 40
1.0
 40
1.0
 40
1.0
 10
20.9803483844
 20
5.768591518
 30
0.0
 10
20.982798697
 20
5.7630333651
 30
0.0
 10
20.9871279241
 20
5.7517771646
 30
0.0
 10
20.9918410611
 20
5.7344534619
 30
0.0
 10
20.9946798588
 20
5.7169558667
 30
0.0
 10
20.9953124876
 20
5.7052143367
 30
0.0
 10
20.9953124876
 20
5.6993679961
 30
0.0
  0
SPLINE
  5
478
100
AcDbEntity
  8
0
100
AcDbSpline
 62
9
  6
CONTINUOUS
 70
0
 71
3
 72
30
 73
26
 74
0
 42
0.0000001
 43
0.0000001
 44
0.0000000001
 40
0.0
 40
0.0
 40
0.0
 40
0.0
 40
0.0698409267
 40
0.1394357388
 40
0.1740716654
 40
0.2085571824
 40
0.2769543486
 40
0.3444281181
 40
0.4107915361
 40
0.4758869456
 40
0.5395918946
 40
0.6018247465
 40
0.6625499755
 40
0.6923586864
 40
0.7218006544
 40
0.7508862259
 40
0.7796292318
 40
0.8080469962
 40
0.836160259
 40
0.8639930703
 40
0.8915726499
 40
0.9189291716
 40
0.9460954709
 40
0.97310671
 40
1.0
 40
1.0
 40
1.0
 40
1.0
 10
20.6003124876
 20
11.4699849707
 30
0.0
 10
20.5807636125
 20
11.4699849707
 30
0.0
 10
20.5417215217
 20
11.4686045402
 30
0.0
 10
20.4932302694
 20
11.4634299781
 30
0.0
 10
20.45489239
 20
11.457235442
 30
0.0
 10
20.41713294
 20
11.4497239749
 30
0.0
 10
20.3708974752
 20
11.4378707706
 30
0.0
 10
20.3172166136
 20
11.4197411821
 30
0.0
 10
20.2659363484
 20
11.397895053
 30
0.0
 10
20.2174941995
 20
11.3725159311
 30
0.0
 10
20.1723009382
 20
11.3438154814
 30
0.0
 10
20.1307442632
 20
11.3120362699
 30
0.0
 10
20.0992391855
 20
11.2830227426
 30
0.0
 10
20.0762413368
 20
11.2585359371
 30
0.0
 10
20.0602150009
 20
11.2396931996
 30
0.0
 10
20.0453416867
 20
11.2203023964
 30
0.0
 10
20.031652921
 20
11.2004043683
 30
0.0
 10
20.0191782418
 20
11.1800416345
 30
0.0
 10
20.0079445165
 20
11.159257569
 30
0.0
 10
19.997976089
 20
11.1380965115
 30
0.0
 10
19.9892945473
 20
11.1166036586
 30
0.0
 10
19.9819186962
 20
11.0948250906
 30
0.0
 10
19.9758645555
 20
11.0728071671
 30
0.0
 10
19.9711455178
 20
11.0505981686
 30
0.0
 10
19.9688922529
 20
11.0356684158
 30
0.0
 10
19.9679929758
 20
11.0281947388
 30
0.0
  0
SPLINE
  5
479
100
AcDbEntity
  8
0
100
AcDbSpline
 62
9
  6
CONTINUOUS
 70
0
 71
3
 72
30
 73
26
 74
0
 42
0.0000001
 43
0.0000001
 44
0.0000000001
 40
0.0
 40
0.0
 40
0.0
 40
0.0
 40
0.0241813072
 40
0.0484449891
 40
0.0728718031
 40
0.0975393673
 40
0.1225207527
 40
0.1478833634
 40
0.1736880697
 40
0.199988498
 40
0.2268306571
 40
0.2542528253
 40
0.282285477
 40
0.3109514133
 40
0.340266118
 40
0.3702380267
 40
0.4321373021
 40
0.4966094479
 40
0.5635089324
 40
0.6326169979
 40
0.7036540671
 40
0.7762913037
 40
0.8501615417
 40
0.9248685477
 40
1.0
 40
1.0
 40
1.0
 40
1.0
 10
20.9753124876
 20
6.0823902177
 30
0.0
 10
20.9753124876
 20
6.0784448318
 30
0.0
 10
20.9750100034
 20
6.070537314
 30
0.0
 10
20.9736508859
 20
6.0587146725
 30
0.0
 10
20.9713896847
 20
6.046949676
 30
0.0
 10
20.9682321653
 20
6.0352721248
 30
0.0
 10
20.9641865284
 20
6.0237102741
 30
0.0
 10
20.9592631292
 20
6.0122922423
 30
0.0
 10
20.9534743064
 20
6.0010456237
 30
0.0
 10
20.9468345589
 20
5.9899974509
 30
0.0
 10
20.9393603954
 20
5.9791741334
 30
0.0
 10
20.931070136
 20
5.9686015503
 30
0.0
 10
20.9219840146
 20
5.9583048939
 30
0.0
 10
20.9121242489
 20
5.9483086716
 30
0.0
 10
20.9015144601
 20
5.9386364765
 30
0.0
 10
20.8862399962
 20
5.9260697283
 30
0.0
 10
20.8653704872
 20
5.9113304285
 30
0.0
 10
20.8380647923
 20
5.8954838003
 30
0.0
 10
20.8084874787
 20
5.8814337663
 30
0.0
 10
20.7769223362
 20
5.8693132485
 30
0.0
 10
20.7436697212
 20
5.8592359164
 30
0.0
 10
20.7090471895
 20
5.8512970002
 30
0.0
 10
20.6733848803
 20
5.8455718863
 30
0.0
 10
20.6370253284
 20
5.8421148096
 30
0.0
 10
20.6125708229
 20
5.8413448641
 30
0.0
 10
20.6003124876
 20
5.8413448641
 30
0.0
  0
SPLINE
  5
47A
100
AcDbEntity
  8
0
100
AcDbSpline
 62
9
  6
CONTINUOUS
 70
0
 71
3
 72
28
 73
24
 74
0
 42
0.0000001
 43
0.0000001
 44
0.0000000001
 40
0.0
 40
0.0
 40
0.0
 40
0.0
 40
0.0270020092
 40
0.0540496757
 40
0.0811879938
 40
0.1084606465
 40
0.1359093774
 40
0.1635734617
 40
0.1914892369
 40
0.2196896562
 40
0.2482039847
 40
0.2770575913
 40
0.3358420219
 40
0.3961857776
 40
0.458141957
 40
0.5217000812
 40
0.586791054
 40
0.6532936394
 40
0.721041511
 40
0.7898306668
 40
0.8594270847
 40
0.9295734958
 40
1.0
 40
1.0
 40
1.0
 40
1.0
 10
20.2253124876
 20
8.3290041311
 30
0.0
 10
20.2253124876
 20
8.3337050455
 30
0.0
 10
20.2256143645
 20
8.3431176024
 30
0.0
 10
20.2269712046
 20
8.3571959339
 30
0.0
 10
20.2292288201
 20
8.3712063901
 30
0.0
 10
20.2323817298
 20
8.3851141913
 30
0.0
 10
20.2364220763
 20
8.398885844
 30
0.0
 10
20.2413398524
 20
8.4124879752
 30
0.0
 10
20.2471230837
 20
8.4258877241
 30
0.0
 10
20.2537574765
 20
8.4390526638
 30
0.0
 10
20.2612270728
 20
8.4519514873
 30
0.0
 10
20.2723421725
 20
8.4688550775
 30
0.0
 10
20.2882797817
 20
8.4891669716
 30
0.0
 10
20.3102768043
 20
8.5118250439
 30
0.0
 10
20.3350550331
 20
8.5327138117
 30
0.0
 10
20.3623731546
 20
8.5516342382
 30
0.0
 10
20.3919684463
 20
8.5684091968
 30
0.0
 10
20.4235568254
 20
8.5828805573
 30
0.0
 10
20.4568358377
 20
8.5949119165
 30
0.0
 10
20.4914868215
 20
8.6043898117
 30
0.0
 10
20.5271790091
 20
8.6112244733
 30
0.0
 10
20.5635684988
 20
8.6153514148
 30
0.0
 10
20.5880515863
 20
8.6162708023
 30
0.0
 10
20.6003124876
 20
8.6162708023
 30
0.0
  0
SPLINE
  5
47B
100
AcDbEntity
  8
0
100
AcDbSpline
 62
9
  6
CONTINUOUS
 70
0
 71
3
 72
28
 73
24
 74
0
 42
0.0000001
 43
0.0000001
 44
0.0000000001
 40
0.0
 40
0.0
 40
0.0
 40
0.0
 40
0.0270020092
 40
0.0540496757
 40
0.0811879938
 40
0.1084606466
 40
0.1359093774
 40
0.1635734618
 40
0.1914892369
 40
0.2196896562
 40
0.2482039848
 40
0.2770575914
 40
0.335842022
 40
0.3961857777
 40
0.4581419571
 40
0.5217000813
 40
0.5867910542
 40
0.6532936395
 40
0.7210415112
 40
0.789830667
 40
0.8594270849
 40
0.9295734962
 40
1.0
 40
1.0
 40
1.0
 40
1.0
 10
20.9753124876
 20
6.9629102507
 30
0.0
 10
20.9753124876
 20
6.9676111651
 30
0.0
 10
20.9750106107
 20
6.977023722
 30
0.0
 10
20.9736537705
 20
6.9911020535
 30
0.0
 10
20.971396155
 20
7.0051125098
 30
0.0
 10
20.9682432454
 20
7.019020311
 30
0.0
 10
20.9642028989
 20
7.0327919636
 30
0.0
 10
20.9592851228
 20
7.0463940948
 30
0.0
 10
20.9535018914
 20
7.0597938438
 30
0.0
 10
20.9468674987
 20
7.0729587835
 30
0.0
 10
20.9393979023
 20
7.0858576069
 30
0.0
 10
20.9282828027
 20
7.1027611972
 30
0.0
 10
20.9123451935
 20
7.1230730912
 30
0.0
 10
20.8903481708
 20
7.1457311636
 30
0.0
 10
20.865569942
 20
7.1666199313
 30
0.0
 10
20.8382518205
 20
7.1855403579
 30
0.0
 10
20.8086565288
 20
7.2023153165
 30
0.0
 10
20.7770681497
 20
7.216786677
 30
0.0
 10
20.7437891375
 20
7.2288180361
 30
0.0
 10
20.7091381537
 20
7.2382959317
 30
0.0
 10
20.6734459659
 20
7.2451305918
 30
0.0
 10
20.6370564766
 20
7.2492575381
 30
0.0
 10
20.6125733888
 20
7.2501769169
 30
0.0
 10
20.6003124876
 20
7.2501769169
 30
0.0
  0
SPLINE
  5
47C
100
AcDbEntity
  8
0
100
AcDbSpline
 62
9
  6
CONTINUOUS
 70
0
 71
3
 72
30
 73
26
 74
0
 42
0.0000001
 43
0.0000001
 44
0.0000000001
 40
0.0
 40
0.0
 40
0.0
 40
0.0
 40
0.0704238756
 40
0.1405681606
 40
0.1754568506
 40
0.2101750353
 40
0.2789618262
 40
0.3467073667
 40
0.4132076662
 40
0.4782964096
 40
0.5418523328
 40
0.6038063987
 40
0.6641480707
 40
0.6937387954
 40
0.7229519311
 40
0.7518045486
 40
0.7803179014
 40
0.8085173442
 40
0.8364321566
 40
0.8640952981
 40
0.8915430854
 40
0.9188147952
 40
0.9459521814
 40
0.9729989197
 40
1.0
 40
1.0
 40
1.0
 40
1.0
 10
20.6003124876
 20
11.5149801033
 30
0.0
 10
20.6210742196
 20
11.5149801033
 30
0.0
 10
20.6625311093
 20
11.5134234504
 30
0.0
 10
20.7139794047
 20
11.5075885645
 30
0.0
 10
20.7545928548
 20
11.5006057595
 30
0.0
 10
20.7945150167
 20
11.4921468867
 30
0.0
 10
20.8432674005
 20
11.4788121875
 30
0.0
 10
20.8996184431
 20
11.4584393664
 30
0.0
 10
20.9531085028
 20
11.4339343832
 30
0.0
 10
21.003222981
 20
11.4055290958
 30
0.0
 10
21.0494822051
 20
11.3734895952
 30
0.0
 10
21.0914379678
 20
11.3381209153
 30
0.0
 10
21.122687772
 20
11.3059298513
 30
0.0
 10
21.1450856279
 20
11.2788534901
 30
0.0
 10
21.1604661956
 20
11.258070249
 30
0.0
 10
21.1744973946
 20
11.2367324526
 30
0.0
 10
21.1871456095
 20
11.2148908253
 30
0.0
 10
21.1983798806
 20
11.1925980707
 30
0.0
 10
21.2081727877
 20
11.1699078538
 30
0.0
 10
21.2165003067
 20
11.146874931
 30
0.0
 10
21.2233419279
 20
11.1235549213
 30
0.0
 10
21.2286807927
 20
11.1000043661
 30
0.0
 10
21.2325037485
 20
11.0762800049
 30
0.0
 10
21.2348013369
 20
11.0524406944
 30
0.0
 10
21.2353124876
 20
11.036502097
 30
0.0
 10
21.2353124876
 20
11.028541882
 30
0.0
  0
SPLINE
  5
47D
100
AcDbEntity
  8
0
100
AcDbSpline
 62
9
  6
CONTINUOUS
 70
0
 71
3
 72
11
 73
7
 74
0
 42
0.0000001
 43
0.0000001
 44
0.0000000001
 40
0.0
 40
0.0
 40
0.0
 40
0.0
 40
0.2386368107
 40
0.4894169516
 40
0.7455398562
 40
1.0
 40
1.0
 40
1.0
 40
1.0
 10
2.1084699727
 20
11.7131395043
 30
0.0
 10
2.1051928396
 20
11.7131757357
 30
0.0
 10
2.0984731208
 20
11.7135041673
 30
0.0
 10
2.0882933277
 20
11.7146578308
 30
0.0
 10
2.0779867753
 20
11.7164552175
 30
0.0
 10
2.0711570444
 20
11.718066119
 30
0.0
 10
2.0677824356
 20
11.7189741678
 30
0.0
  0
SPLINE
  5
47E
100
AcDbEntity
  8
0
100
AcDbSpline
 62
9
  6
CONTINUOUS
 70
0
 71
3
 72
35
 73
31
 74
0
 42
0.0000001
 43
0.0000001
 44
0.0000000001
 40
0.0
 40
0.0
 40
0.0
 40
0.0
 40
0.0720656116
 40
0.1436988586
 40
0.1792327838
 40
0.2145057526
 40
0.2840660472
 40
0.3182932525
 40
0.3520972046
 40
0.4182979831
 40
0.450678042
 40
0.4825522846
 40
0.5139164361
 40
0.5447736479
 40
0.5751348199
 40
0.6050188193
 40
0.6344525678
 40
0.6634709649
 40
0.6921166215
 40
0.7204393755
 40
0.7484955764
 40
0.7763471339
 40
0.8040603457
 40
0.8317045364
 40
0.8593505595
 40
0.8870692277
 40
0.9149297455
 40
0.9429982159
 40
0.9713362891
 40
1.0
 40
1.0
 40
1.0
 40
1.0
 10
20.6003124876
 20
11.4154064061
 30
0.0
 10
20.6243593948
 20
11.4154064061
 30
0.0
 10
20.6723368517
 20
11.4131886651
 30
0.0
 10
20.7316551223
 20
11.4048775327
 30
0.0
 10
20.7781525775
 20
11.3949452857
 30
0.0
 10
20.8234474178
 20
11.3829687187
 30
0.0
 10
20.8674113971
 20
11.367843591
 30
0.0
 10
20.9095712302
 20
11.3496215849
 30
0.0
 10
20.9497194729
 20
11.3297297143
 30
0.0
 10
20.9877095638
 20
11.3069801247
 30
0.0
 10
21.0230259958
 20
11.2814984384
 30
0.0
 10
21.0477820536
 20
11.2613394204
 30
0.0
 10
21.0709042711
 20
11.2400694878
 30
0.0
 10
21.0923090748
 20
11.2177649621
 30
0.0
 10
21.1119174326
 20
11.1945069399
 30
0.0
 10
21.1296571238
 20
11.1703798081
 30
0.0
 10
21.1454624828
 20
11.1454713067
 30
0.0
 10
21.1592747923
 20
11.1198721787
 30
0.0
 10
21.1710424967
 20
11.0936759145
 30
0.0
 10
21.180721458
 20
11.0669784501
 30
0.0
 10
21.1882751918
 20
11.0398778475
 30
0.0
 10
21.1936750919
 20
11.0124739366
 30
0.0
 10
21.1969006279
 20
10.9848679211
 30
0.0
 10
21.1979394998
 20
10.9571619388
 30
0.0
 10
21.1967877445
 20
10.92945861
 30
0.0
 10
21.1934497447
 20
10.9018605011
 30
0.0
 10
21.1879382851
 20
10.8744698378
 30
0.0
 10
21.1802740967
 20
10.8473873004
 30
0.0
 10
21.1704870306
 20
10.8207143849
 30
0.0
 10
21.1626190505
 20
10.8033754973
 30
0.0
 10
21.1583557427
 20
10.7948136976
 30
0.0
  0
SPLINE
  5
47F
100
AcDbEntity
  8
0
100
AcDbSpline
 62
9
  6
CONTINUOUS
 70
0
 71
3
 72
17
 73
13
 74
0
 42
0.0000001
 43
0.0000001
 44
0.0000000001
 40
0.0
 40
0.0
 40
0.0
 40
0.0
 40
0.0452794966
 40
0.0929069387
 40
0.1428595144
 40
0.1951219622
 40
0.3065288214
 40
0.42717376
 40
0.557078758
 40
0.6961541247
 40
0.844046993
 40
1.0
 40
1.0
 40
1.0
 40
1.0
 10
2.1426842442
 20
11.4587823655
 30
0.0
 10
2.1408504759
 20
11.4600153571
 30
0.0
 10
2.1371641508
 20
11.4626603427
 30
0.0
 10
2.1317325385
 20
11.467036331
 30
0.0
 10
2.1262869613
 20
11.4719221501
 30
0.0
 10
2.1188894279
 20
11.4792734274
 30
0.0
 10
2.1097959329
 20
11.4897845183
 30
0.0
 10
2.0995185621
 20
11.5041804431
 30
0.0
 10
2.089888927
 20
11.520605286
 30
0.0
 10
2.0811548263
 20
11.5390075029
 30
0.0
 10
2.0735711393
 20
11.5592752383
 30
0.0
 10
2.0695477036
 20
11.573568351
 30
0.0
 10
2.067782452
 20
11.5809716781
 30
0.0
  0
SPLINE
  5
480
100
AcDbEntity
  8
0
100
AcDbSpline
 62
9
  6
CONTINUOUS
 70
0
 71
3
 72
30
 73
26
 74
0
 42
0.0000001
 43
0.0000001
 44
0.0000000001
 40
0.0
 40
0.0
 40
0.0
 40
0.0
 40
0.0698409267
 40
0.1394357388
 40
0.1740716654
 40
0.2085571824
 40
0.2769543486
 40
0.3444281181
 40
0.4107915361
 40
0.4758869456
 40
0.5395918946
 40
0.6018247465
 40
0.6625499755
 40
0.6923586864
 40
0.7218006544
 40
0.7508862259
 40
0.7796292318
 40
0.8080469962
 40
0.836160259
 40
0.8639930703
 40
0.8915726499
 40
0.9189291716
 40
0.9460954709
 40
0.97310671
 40
1.0
 40
1.0
 40
1.0
 40
1.0
 10
20.6003124876
 20
11.4699849707
 30
0.0
 10
20.6198613626
 20
11.4699849707
 30
0.0
 10
20.6589034534
 20
11.4686045402
 30
0.0
 10
20.7073947058
 20
11.4634299781
 30
0.0
 10
20.7457325852
 20
11.457235442
 30
0.0
 10
20.7834920352
 20
11.4497239749
 30
0.0
 10
20.8297274999
 20
11.4378707706
 30
0.0
 10
20.8834083615
 20
11.4197411821
 30
0.0
 10
20.9346886267
 20
11.397895053
 30
0.0
 10
20.9831307756
 20
11.3725159311
 30
0.0
 10
21.0283240369
 20
11.3438154814
 30
0.0
 10
21.069880712
 20
11.3120362699
 30
0.0
 10
21.1013857897
 20
11.2830227426
 30
0.0
 10
21.1243836384
 20
11.2585359371
 30
0.0
 10
21.1404099742
 20
11.2396931996
 30
0.0
 10
21.1552832885
 20
11.2203023964
 30
0.0
 10
21.1689720541
 20
11.2004043683
 30
0.0
 10
21.1814467333
 20
11.1800416345
 30
0.0
 10
21.1926804586
 20
11.159257569
 30
0.0
 10
21.2026488862
 20
11.1380965115
 30
0.0
 10
21.2113304279
 20
11.1166036586
 30
0.0
 10
21.2187062789
 20
11.0948250906
 30
0.0
 10
21.2247604197
 20
11.0728071671
 30
0.0
 10
21.2294794573
 20
11.0505981686
 30
0.0
 10
21.2317327223
 20
11.0356684158
 30
0.0
 10
21.2326319993
 20
11.0281947388
 30
0.0
  0
SPLINE
  5
481
100
AcDbEntity
  8
0
100
AcDbSpline
 62
9
  6
CONTINUOUS
 70
0
 71
3
 72
29
 73
25
 74
0
 42
0.0000001
 43
0.0000001
 44
0.0000000001
 40
0.0
 40
0.0
 40
0.0
 40
0.0
 40
0.0697479114
 40
0.1392545169
 40
0.2082862799
 40
0.2766190366
 40
0.3440460066
 40
0.410382892
 40
0.4754736135
 40
0.5391958686
 40
0.6014666372
 40
0.6622472744
 40
0.6920885152
 40
0.7215653573
 40
0.7506872525
 40
0.7794670051
 40
0.8079208195
 40
0.836068245
 40
0.8639320611
 40
0.8915381627
 40
0.9189153804
 40
0.9460951992
 40
0.9731114559
 40
1.0
 40
1.0
 40
1.0
 40
1.0
 10
20.6003124876
 20
11.3303067925
 30
0.0
 10
20.6168053595
 20
11.3303067925
 30
0.0
 10
20.6497457895
 20
11.3291531252
 30
0.0
 10
20.698763972
 20
11.3239728789
 30
0.0
 10
20.7469650792
 20
11.3153867672
 30
0.0
 10
20.7939448842
 20
11.3034654735
 30
0.0
 10
20.8393130463
 20
11.2883074268
 30
0.0
 10
20.8826915621
 20
11.270037232
 30
0.0
 10
20.923718973
 20
11.248805463
 30
0.0
 10
20.9620535405
 20
11.2247858459
 30
0.0
 10
20.9973728161
 20
11.1981776006
 30
0.0
 10
21.0242156365
 20
11.1738742221
 30
0.0
 10
21.0438597391
 20
11.1533525205
 30
0.0
 10
21.0575765441
 20
11.137554961
 30
0.0
 10
21.0703357931
 20
11.1212923687
 30
0.0
 10
21.0821109072
 20
11.1045982982
 30
0.0
 10
21.0928769635
 20
11.0875077382
 30
0.0
 10
21.1026112743
 20
11.0700564211
 30
0.0
 10
21.1112931492
 20
11.0522808463
 30
0.0
 10
21.1189041322
 20
11.0342182348
 30
0.0
 10
21.1254281005
 20
11.0159065795
 30
0.0
 10
21.1308511551
 20
10.997384094
 30
0.0
 10
21.1351614875
 20
10.9786905958
 30
0.0
 10
21.137291534
 20
10.966114376
 30
0.0
 10
21.1381666149
 20
10.9598167096
 30
0.0
  0
SPLINE
  5
482
100
AcDbEntity
  8
0
100
AcDbSpline
 62
9
  6
CONTINUOUS
 70
0
 71
3
 72
17
 73
13
 74
0
 42
0.0000001
 43
0.0000001
 44
0.0000000001
 40
0.0
 40
0.0
 40
0.0
 40
0.0
 40
0.1559449768
 40
0.303832686
 40
0.4429044405
 40
0.5728082895
 40
0.6934544647
 40
0.8048647339
 40
0.8571297427
 40
0.9070852945
 40
0.9547163835
 40
1.0
 40
1.0
 40
1.0
 40
1.0
 10
11.1328425289
 20
11.580971675
 30
0.0
 10
11.1310775899
 20
11.5735696505
 30
0.0
 10
11.127054912
 20
11.5592789231
 30
0.0
 10
11.1194729435
 20
11.5390143074
 30
0.0
 10
11.1107408142
 20
11.5206145087
 30
0.0
 10
11.1011133656
 20
11.5041913436
 30
0.0
 10
11.0908382128
 20
11.489796343
 30
0.0
 10
11.0817465895
 20
11.4792854696
 30
0.0
 10
11.0743504748
 20
11.4719339904
 30
0.0
 10
11.0689058439
 20
11.4670478117
 30
0.0
 10
11.0634751012
 20
11.4626712969
 30
0.0
 10
11.0597893578
 20
11.4600258222
 30
0.0
 10
11.0579558532
 20
11.4587925712
 30
0.0
  0
SPLINE
  5
483
100
AcDbEntity
  8
0
100
AcDbSpline
 62
9
  6
CONTINUOUS
 70
0
 71
3
 72
16
 73
12
 74
0
 42
0.0000001
 43
0.0000001
 44
0.0000000001
 40
0.0
 40
0.0
 40
0.0
 40
0.0
 40
0.1279804231
 40
0.1918668444
 40
0.2556092234
 40
0.3825211156
 40
0.5084910348
 40
0.6333286196
 40
0.7569232979
 40
0.8791777703
 40
1.0
 40
1.0
 40
1.0
 40
1.0
 10
11.1446109194
 20
11.6499729269
 30
0.0
 10
11.1446105247
 20
11.646978745
 30
0.0
 10
11.144472875
 20
11.6424884949
 30
0.0
 10
11.1440285537
 20
11.6365243577
 30
0.0
 10
11.1434212188
 20
11.6305995547
 30
0.0
 10
11.1423835779
 20
11.6232619343
 30
0.0
 10
11.1407799217
 20
11.6145698032
 30
0.0
 10
11.1389250349
 20
11.606008112
 30
0.0
 10
11.1369175036
 20
11.5975709227
 30
0.0
 10
11.1348548416
 20
11.5892441145
 30
0.0
 10
11.1334981531
 20
11.5837213032
 30
0.0
 10
11.1328425289
 20
11.580971675
 30
0.0
  0
SPLINE
  5
484
100
AcDbEntity
  8
0
100
AcDbSpline
 62
9
  6
CONTINUOUS
 70
0
 71
3
 72
16
 73
12
 74
0
 42
0.0000001
 43
0.0000001
 44
0.0000000001
 40
0.0
 40
0.0
 40
0.0
 40
0.0
 40
0.1208222263
 40
0.243076688
 40
0.366671358
 40
0.4915089406
 40
0.6174788736
 40
0.7443907743
 40
0.8081331553
 40
0.8720195774
 40
1.0
 40
1.0
 40
1.0
 40
1.0
 10
11.1328425232
 20
11.7189741757
 30
0.0
 10
11.1334981464
 20
11.7162245473
 30
0.0
 10
11.1348548394
 20
11.7107017374
 30
0.0
 10
11.1369175174
 20
11.7023749336
 30
0.0
 10
11.1389250664
 20
11.6939377491
 30
0.0
 10
11.1407799588
 20
11.6853760587
 30
0.0
 10
11.1423835997
 20
11.676683924
 30
0.0
 10
11.1434212252
 20
11.6693463009
 30
0.0
 10
11.1440285509
 20
11.6634214967
 30
0.0
 10
11.1444728678
 20
11.6574573592
 30
0.0
 10
11.1446105162
 20
11.6529671089
 30
0.0
 10
11.1446109056
 20
11.6499729269
 30
0.0
  0
SPLINE
  5
485
100
AcDbEntity
  8
0
100
AcDbSpline
 62
9
  6
CONTINUOUS
 70
0
 71
3
 72
30
 73
26
 74
0
 42
0.0000001
 43
0.0000001
 44
0.0000000001
 40
0.0
 40
0.0
 40
0.0
 40
0.0
 40
0.0704238756
 40
0.1405681606
 40
0.1754568506
 40
0.2101750353
 40
0.2789618262
 40
0.3467073667
 40
0.4132076662
 40
0.4782964096
 40
0.5418523328
 40
0.6038063987
 40
0.6641480707
 40
0.6937387954
 40
0.7229519311
 40
0.7518045486
 40
0.7803179014
 40
0.8085173442
 40
0.8364321566
 40
0.8640952981
 40
0.8915430854
 40
0.9188147952
 40
0.9459521814
 40
0.9729989197
 40
1.0
 40
1.0
 40
1.0
 40
1.0
 10
20.6003124876
 20
9.0402478061
 30
0.0
 10
20.5795507555
 20
9.0402478061
 30
0.0
 10
20.5380938659
 20
9.0386911531
 30
0.0
 10
20.4866455704
 20
9.0328562672
 30
0.0
 10
20.4460321204
 20
9.0258734622
 30
0.0
 10
20.4061099585
 20
9.0174145894
 30
0.0
 10
20.3573575746
 20
9.0040798902
 30
0.0
 10
20.3010065321
 20
8.9837070691
 30
0.0
 10
20.2475164724
 20
8.9592020859
 30
0.0
 10
20.1974019941
 20
8.9307967986
 30
0.0
 10
20.15114277
 20
8.8987572979
 30
0.0
 10
20.1091870073
 20
8.863388618
 30
0.0
 10
20.0779372031
 20
8.831197554
 30
0.0
 10
20.0555393473
 20
8.8041211928
 30
0.0
 10
20.0401587795
 20
8.7833379517
 30
0.0
 10
20.0261275805
 20
8.7620001553
 30
0.0
 10
20.0134793656
 20
8.740158528
 30
0.0
 10
20.0022450945
 20
8.7178657734
 30
0.0
 10
19.9924521874
 20
8.6951755565
 30
0.0
 10
19.9841246684
 20
8.6721426337
 30
0.0
 10
19.9772830472
 20
8.648822624
 30
0.0
 10
19.9719441825
 20
8.6252720688
 30
0.0
 10
19.9681212267
 20
8.6015477077
 30
0.0
 10
19.9658236382
 20
8.5777083971
 30
0.0
 10
19.9653124876
 20
8.5617697997
 30
0.0
 10
19.9653124876
 20
8.5538095847
 30
0.0
  0
SPLINE
  5
486
100
AcDbEntity
  8
0
100
AcDbSpline
 62
9
  6
CONTINUOUS
 70
0
 71
3
 72
38
 73
34
 74
0
 42
0.0000001
 43
0.0000001
 44
0.0000000001
 40
0.0
 40
0.0
 40
0.0
 40
0.0
 40
0.0722133279
 40
0.1081173914
 40
0.1437632008
 40
0.1790715013
 40
0.2139687107
 40
0.2483885383
 40
0.2822734203
 40
0.315575951
 40
0.3482602936
 40
0.3803035435
 40
0.4116969897
 40
0.4424471816
 40
0.4725767319
 40
0.5021247557
 40
0.5311468206
 40
0.5597142869
 40
0.5879129157
 40
0.6158407051
 40
0.6436049774
 40
0.6713188299
 40
0.6990971639
 40
0.7270525753
 40
0.7552914221
 40
0.7839103439
 40
0.8129934356
 40
0.8426101753
 40
0.8728141331
 40
0.9036423917
 40
0.9351155619
 40
0.9672382713
 40
1.0
 40
1.0
 40
1.0
 40
1.0
 10
20.6003124876
 20
8.9388993913
 30
0.0
 10
20.5698941868
 20
8.9388993913
 30
0.0
 10
20.524290332
 20
8.9362228818
 30
0.0
 10
20.4643689595
 20
8.9273034964
 30
0.0
 10
20.4202969427
 20
8.9180085594
 30
0.0
 10
20.3772860322
 20
8.9061515551
 30
0.0
 10
20.3355854148
 20
8.8918013739
 30
0.0
 10
20.2954412597
 20
8.8750418308
 30
0.0
 10
20.2570894288
 20
8.8559706049
 30
0.0
 10
20.220755714
 20
8.8346987811
 30
0.0
 10
20.1866541882
 20
8.8113501689
 30
0.0
 10
20.154986146
 20
8.7860606046
 30
0.0
 10
20.1259389494
 20
8.7589772565
 30
0.0
 10
20.0996850748
 20
8.7302578118
 30
0.0
 10
20.076381195
 20
8.7000697222
 30
0.0
 10
20.0561672957
 20
8.6685894567
 30
0.0
 10
20.0391658008
 20
8.6360017433
 30
0.0
 10
20.0254805952
 20
8.6024988025
 30
0.0
 10
20.0151961376
 20
8.5682794006
 30
0.0
 10
20.0083765259
 20
8.5335477697
 30
0.0
 10
20.0050646227
 20
8.4985122883
 30
0.0
 10
20.0052813847
 20
8.4633839121
 30
0.0
 10
20.0090254145
 20
8.4283744059
 30
0.0
 10
20.0162730514
 20
8.3936944978
 30
0.0
 10
20.0269787946
 20
8.3595521383
 30
0.0
 10
20.0410760049
 20
8.3261509569
 30
0.0
 10
20.0584778018
 20
8.2936889785
 30
0.0
 10
20.0790779273
 20
8.2623575388
 30
0.0
 10
20.1027518016
 20
8.2323403714
 30
0.0
 10
20.1293572035
 20
8.2038129777
 30
0.0
 10
20.1587360507
 20
8.176941292
 30
0.0
 10
20.1907117939
 20
8.1518831602
 30
0.0
 10
20.2134218322
 20
8.136626794
 30
0.0
 10
20.2251383869
 20
8.129335223
 30
0.0
  0
SPLINE
  5
487
100
AcDbEntity
  8
0
100
AcDbSpline
 62
9
  6
CONTINUOUS
 70
0
 71
3
 72
38
 73
34
 74
0
 42
0.0000001
 43
0.0000001
 44
0.0000000001
 40
0.0
 40
0.0
 40
0.0
 40
0.0
 40
0.0722133279
 40
0.1081173914
 40
0.1437632008
 40
0.1790715013
 40
0.2139687107
 40
0.2483885383
 40
0.2822734203
 40
0.315575951
 40
0.3482602936
 40
0.3803035435
 40
0.4116969897
 40
0.4424471816
 40
0.4725767319
 40
0.5021247557
 40
0.5311468206
 40
0.5597142869
 40
0.5879129157
 40
0.6158407051
 40
0.6436049774
 40
0.6713188299
 40
0.6990971639
 40
0.7270525753
 40
0.7552914221
 40
0.7839103439
 40
0.8129934356
 40
0.8426101753
 40
0.8728141331
 40
0.9036423917
 40
0.9351155619
 40
0.9672382713
 40
1.0
 40
1.0
 40
1.0
 40
1.0
 10
20.6003124876
 20
8.9388993913
 30
0.0
 10
20.6307307884
 20
8.9388993913
 30
0.0
 10
20.6763346432
 20
8.9362228818
 30
0.0
 10
20.7362560156
 20
8.9273034964
 30
0.0
 10
20.7803280324
 20
8.9180085594
 30
0.0
 10
20.8233389429
 20
8.9061515551
 30
0.0
 10
20.8650395603
 20
8.8918013739
 30
0.0
 10
20.9051837155
 20
8.8750418308
 30
0.0
 10
20.9435355463
 20
8.8559706049
 30
0.0
 10
20.9798692611
 20
8.8346987811
 30
0.0
 10
21.013970787
 20
8.8113501689
 30
0.0
 10
21.0456388291
 20
8.7860606046
 30
0.0
 10
21.0746860258
 20
8.7589772565
 30
0.0
 10
21.1009399004
 20
8.7302578118
 30
0.0
 10
21.1242437801
 20
8.7000697222
 30
0.0
 10
21.1444576795
 20
8.6685894567
 30
0.0
 10
21.1614591743
 20
8.6360017433
 30
0.0
 10
21.1751443799
 20
8.6024988025
 30
0.0
 10
21.1854288375
 20
8.5682794006
 30
0.0
 10
21.1922484492
 20
8.5335477697
 30
0.0
 10
21.1955603524
 20
8.4985122883
 30
0.0
 10
21.1953435905
 20
8.4633839121
 30
0.0
 10
21.1915995607
 20
8.4283744059
 30
0.0
 10
21.1843519237
 20
8.3936944978
 30
0.0
 10
21.1736461806
 20
8.3595521383
 30
0.0
 10
21.1595489703
 20
8.3261509569
 30
0.0
 10
21.1421471733
 20
8.2936889785
 30
0.0
 10
21.1215470478
 20
8.2623575388
 30
0.0
 10
21.0978731735
 20
8.2323403714
 30
0.0
 10
21.0712677716
 20
8.2038129777
 30
0.0
 10
21.0418889245
 20
8.176941292
 30
0.0
 10
21.0099131812
 20
8.1518831602
 30
0.0
 10
20.9872031429
 20
8.136626794
 30
0.0
 10
20.9754865883
 20
8.129335223
 30
0.0
  0
SPLINE
  5
488
100
AcDbEntity
  8
0
100
AcDbSpline
 62
9
  6
CONTINUOUS
 70
0
 71
3
 72
38
 73
34
 74
0
 42
0.0000001
 43
0.0000001
 44
0.0000000001
 40
0.0
 40
0.0
 40
0.0
 40
0.0
 40
0.0326150301
 40
0.0645919423
 40
0.095923985
 40
0.1266194117
 40
0.1567022267
 40
0.1862125659
 40
0.2152065995
 40
0.2437558256
 40
0.2719456599
 40
0.2998732867
 40
0.3276447898
 40
0.355371685
 40
0.3831670585
 40
0.4111415881
 40
0.4393997462
 40
0.4680364438
 40
0.4971343061
 40
0.5267616755
 40
0.5569713627
 40
0.5878000815
 40
0.6192684589
 40
0.6513815018
 40
0.6841294005
 40
0.717488582
 40
0.7514229389
 40
0.7858851566
 40
0.8208180859
 40
0.8561561333
 40
0.8918266374
 40
0.9277514541
 40
1.0
 40
1.0
 40
1.0
 40
1.0
 10
20.2252864024
 20
8.1435513701
 30
0.0
 10
20.2141326989
 20
8.1507804353
 30
0.0
 10
20.1925348976
 20
8.1658748119
 30
0.0
 10
20.1621918642
 20
8.1905767058
 30
0.0
 10
20.1343842082
 20
8.2169839502
 30
0.0
 10
20.1092765542
 20
8.2449438541
 30
0.0
 10
20.0870158387
 20
8.274296321
 30
0.0
 10
20.067733835
 20
8.3048723693
 30
0.0
 10
20.0515454214
 20
8.3364953943
 30
0.0
 10
20.038547949
 20
8.3689817893
 30
0.0
 10
20.0288203466
 20
8.4021418678
 30
0.0
 10
20.0224222522
 20
8.4357808763
 30
0.0
 10
20.0193932143
 20
8.4697002505
 30
0.0
 10
20.019752063
 20
8.5036990907
 30
0.0
 10
20.0234965367
 20
8.5375758233
 30
0.0
 10
20.0306033907
 20
8.5711299142
 30
0.0
 10
20.0410287805
 20
8.6041634878
 30
0.0
 10
20.0547089258
 20
8.6364827636
 30
0.0
 10
20.0715609382
 20
8.6678992517
 30
0.0
 10
20.0914836459
 20
8.698230775
 30
0.0
 10
20.114358518
 20
8.7273022898
 30
0.0
 10
20.140050516
 20
8.7549466251
 30
0.0
 10
20.1684089127
 20
8.7810051976
 30
0.0
 10
20.1992681265
 20
8.8053287092
 30
0.0
 10
20.2324485647
 20
8.8277778906
 30
0.0
 10
20.2677575663
 20
8.8482242132
 30
0.0
 10
20.304990471
 20
8.8665505561
 30
0.0
 10
20.3439316156
 20
8.882651867
 30
0.0
 10
20.3843558964
 20
8.8964357932
 30
0.0
 10
20.426028521
 20
8.9078231196
 30
0.0
 10
20.4687119457
 20
8.9167487456
 30
0.0
 10
20.5267268321
 20
8.9253127045
 30
0.0
 10
20.5708692235
 20
8.9278825476
 30
0.0
 10
20.6003124876
 20
8.9278825476
 30
0.0
  0
SPLINE
  5
489
100
AcDbEntity
  8
0
100
AcDbSpline
 62
9
  6
CONTINUOUS
 70
0
 71
3
 72
38
 73
34
 74
0
 42
0.0000001
 43
0.0000001
 44
0.0000000001
 40
0.0
 40
0.0
 40
0.0
 40
0.0
 40
0.0722485459
 40
0.1081733626
 40
0.1438438667
 40
0.1791819141
 40
0.2141148434
 40
0.2485770611
 40
0.282511418
 40
0.3158705995
 40
0.3486184982
 40
0.3807315411
 40
0.4121999186
 40
0.4430286373
 40
0.4732383245
 40
0.5028656939
 40
0.5319635562
 40
0.5606002538
 40
0.5888584119
 40
0.6168329415
 40
0.644628315
 40
0.6723552102
 40
0.7001267133
 40
0.7280543401
 40
0.7562441744
 40
0.7847934005
 40
0.8137874341
 40
0.8432977733
 40
0.8733805883
 40
0.904076015
 40
0.9354080577
 40
0.9673849699
 40
1.0
 40
1.0
 40
1.0
 40
1.0
 10
20.6003124876
 20
8.9278825476
 30
0.0
 10
20.6297557516
 20
8.9278825476
 30
0.0
 10
20.673898143
 20
8.9253127045
 30
0.0
 10
20.7319130294
 20
8.9167487456
 30
0.0
 10
20.7745964541
 20
8.9078231197
 30
0.0
 10
20.8162690787
 20
8.8964357932
 30
0.0
 10
20.8566933595
 20
8.882651867
 30
0.0
 10
20.8956345041
 20
8.8665505562
 30
0.0
 10
20.9328674088
 20
8.8482242132
 30
0.0
 10
20.9681764104
 20
8.8277778907
 30
0.0
 10
21.0013568486
 20
8.8053287092
 30
0.0
 10
21.0322160623
 20
8.7810051977
 30
0.0
 10
21.060574459
 20
8.7549466251
 30
0.0
 10
21.0862664571
 20
8.7273022899
 30
0.0
 10
21.1091413292
 20
8.698230775
 30
0.0
 10
21.1290640368
 20
8.6678992518
 30
0.0
 10
21.1459160493
 20
8.6364827637
 30
0.0
 10
21.1595961946
 20
8.6041634879
 30
0.0
 10
21.1700215844
 20
8.5711299143
 30
0.0
 10
21.1771284384
 20
8.5375758234
 30
0.0
 10
21.1808729121
 20
8.5036990908
 30
0.0
 10
21.1812317608
 20
8.4697002506
 30
0.0
 10
21.178202723
 20
8.4357808765
 30
0.0
 10
21.1718046286
 20
8.402141868
 30
0.0
 10
21.1620770262
 20
8.3689817894
 30
0.0
 10
21.1490795538
 20
8.3364953945
 30
0.0
 10
21.1328911403
 20
8.3048723694
 30
0.0
 10
21.1136091365
 20
8.2742963211
 30
0.0
 10
21.0913484211
 20
8.2449438542
 30
0.0
 10
21.066240767
 20
8.2169839504
 30
0.0
 10
21.0384331111
 20
8.190576706
 30
0.0
 10
21.0080900777
 20
8.1658748121
 30
0.0
 10
20.9864922764
 20
8.1507804354
 30
0.0
 10
20.975338573
 20
8.1435513702
 30
0.0
  0
SPLINE
  5
48A
100
AcDbEntity
  8
0
100
AcDbSpline
 62
9
  6
CONTINUOUS
 70
0
 71
3
 72
30
 73
26
 74
0
 42
0.0000001
 43
0.0000001
 44
0.0000000001
 40
0.0
 40
0.0
 40
0.0
 40
0.0
 40
0.0704238756
 40
0.1405681606
 40
0.1754568506
 40
0.2101750353
 40
0.2789618262
 40
0.3467073667
 40
0.4132076662
 40
0.4782964096
 40
0.5418523328
 40
0.6038063987
 40
0.6641480707
 40
0.6937387954
 40
0.7229519311
 40
0.7518045486
 40
0.7803179014
 40
0.8085173442
 40
0.8364321566
 40
0.8640952981
 40
0.8915430854
 40
0.9188147952
 40
0.9459521814
 40
0.9729989197
 40
1.0
 40
1.0
 40
1.0
 40
1.0
 10
20.6003124876
 20
9.0402478061
 30
0.0
 10
20.6210742196
 20
9.0402478061
 30
0.0
 10
20.6625311093
 20
9.0386911531
 30
0.0
 10
20.7139794047
 20
9.0328562672
 30
0.0
 10
20.7545928548
 20
9.0258734622
 30
0.0
 10
20.7945150167
 20
9.0174145894
 30
0.0
 10
20.8432674005
 20
9.0040798902
 30
0.0
 10
20.8996184431
 20
8.9837070691
 30
0.0
 10
20.9531085028
 20
8.9592020859
 30
0.0
 10
21.003222981
 20
8.9307967986
 30
0.0
 10
21.0494822051
 20
8.8987572979
 30
0.0
 10
21.0914379678
 20
8.863388618
 30
0.0
 10
21.122687772
 20
8.831197554
 30
0.0
 10
21.1450856279
 20
8.8041211928
 30
0.0
 10
21.1604661956
 20
8.7833379517
 30
0.0
 10
21.1744973946
 20
8.7620001553
 30
0.0
 10
21.1871456095
 20
8.740158528
 30
0.0
 10
21.1983798806
 20
8.7178657734
 30
0.0
 10
21.2081727877
 20
8.6951755565
 30
0.0
 10
21.2165003067
 20
8.6721426337
 30
0.0
 10
21.2233419279
 20
8.648822624
 30
0.0
 10
21.2286807927
 20
8.6252720688
 30
0.0
 10
21.2325037485
 20
8.6015477077
 30
0.0
 10
21.2348013369
 20
8.5777083971
 30
0.0
 10
21.2353124876
 20
8.5617697997
 30
0.0
 10
21.2353124876
 20
8.5538095847
 30
0.0
  0
SPLINE
  5
48B
100
AcDbEntity
  8
0
100
AcDbSpline
 62
7
  6
CONTINUOUS
 70
0
 71
3
 72
32
 73
28
 74
0
 42
0.0000001
 43
0.0000001
 44
0.0000000001
 40
0.0
 40
0.0
 40
0.0
 40
0.0
 40
0.0717914127
 40
0.143189019
 40
0.1786303903
 40
0.2138336926
 40
0.2833388914
 40
0.3514179848
 40
0.4178246632
 40
0.4823862109
 40
0.5450171678
 40
0.5756231375
 40
0.6057607079
 40
0.635448587
 40
0.6647125038
 40
0.6935851122
 40
0.7221056874
 40
0.7503197435
 40
0.7782784777
 40
0.8060379486
 40
0.8336580774
 40
0.8612015486
 40
0.8887326305
 40
0.9163158497
 40
0.9440146483
 40
0.9718901433
 40
1.0
 40
1.0
 40
1.0
 40
1.0
 10
20.6003124876
 20
8.6533358465
 30
0.0
 10
20.615315095
 20
8.6533358465
 30
0.0
 10
20.6452538705
 20
8.6520134409
 30
0.0
 10
20.6823051235
 20
8.6470581667
 30
0.0
 10
20.7114008263
 20
8.6411342262
 30
0.0
 10
20.7398108036
 20
8.6339822724
 30
0.0
 10
20.7741873046
 20
8.6227458091
 30
0.0
 10
20.8133085035
 20
8.6056432509
 30
0.0
 10
20.8496182697
 20
8.5851962509
 30
0.0
 10
20.8826299205
 20
8.5616728685
 30
0.0
 10
20.9072217803
 20
8.539580031
 30
0.0
 10
20.9247703091
 20
8.5206729175
 30
0.0
 10
20.9367523884
 20
8.5060425305
 30
0.0
 10
20.9476125484
 20
8.490904894
 30
0.0
 10
20.957314666
 20
8.4753098086
 30
0.0
 10
20.9658257307
 20
8.459309257
 30
0.0
 10
20.9731168037
 20
8.4429565348
 30
0.0
 10
20.9791629978
 20
8.4263063133
 30
0.0
 10
20.9839435868
 20
8.4094143715
 30
0.0
 10
20.9874421078
 20
8.392337438
 30
0.0
 10
20.9896464558
 20
8.3751329941
 30
0.0
 10
20.990548959
 20
8.3578590611
 30
0.0
 10
20.9901464992
 20
8.3405739278
 30
0.0
 10
20.9884405214
 20
8.3233360189
 30
0.0
 10
20.9854368367
 20
8.3062031979
 30
0.0
 10
20.9811462499
 20
8.2892342709
 30
0.0
 10
20.9774545059
 20
8.2781197716
 30
0.0
 10
20.9754053521
 20
8.2726145147
 30
0.0
  0
SPLINE
  5
48C
100
AcDbEntity
  8
0
100
AcDbSpline
 62
9
  6
CONTINUOUS
 70
0
 71
3
 72
39
 73
35
 74
0
 42
0.0000001
 43
0.0000001
 44
0.0000000001
 40
0.0
 40
0.0
 40
0.0
 40
0.0
 40
0.0723589018
 40
0.1083507589
 40
0.1441032554
 40
0.179542522
 40
0.2145994624
 40
0.2492112097
 40
0.2833223227
 40
0.3168860398
 40
0.3498655006
 40
0.3822349237
 40
0.413980712
 40
0.4451024369
 40
0.4756136423
 40
0.5055423883
 40
0.5349314448
 40
0.563838036
 40
0.5923330413
 40
0.6204995785
 40
0.6484309522
 40
0.6762280009
 40
0.7039959614
 40
0.7318410323
 40
0.7598668707
 40
0.7881712643
 40
0.8168431946
 40
0.8459604473
 40
0.8755878496
 40
0.9057761404
 40
0.9365614277
 40
0.9521880408
 40
0.9679707194
 40
1.0
 40
1.0
 40
1.0
 40
1.0
 10
20.6003124876
 20
8.8778667513
 30
0.0
 10
20.6265450449
 20
8.8778667513
 30
0.0
 10
20.6658749428
 20
8.8756485057
 30
0.0
 10
20.7176111802
 20
8.8682561136
 30
0.0
 10
20.755720847
 20
8.8605480246
 30
0.0
 10
20.7929846108
 20
8.8507093733
 30
0.0
 10
20.829203147
 20
8.8387929737
 30
0.0
 10
20.8641790366
 20
8.8248631261
 30
0.0
 10
20.8977225383
 20
8.808994845
 30
0.0
 10
20.9296513413
 20
8.7912735572
 30
0.0
 10
20.9597918425
 20
8.7717946119
 30
0.0
 10
20.9879799368
 20
8.7506627643
 30
0.0
 10
21.0140618599
 20
8.7279916355
 30
0.0
 10
21.0378949421
 20
8.7039031543
 30
0.0
 10
21.0593483158
 20
8.6785269913
 30
0.0
 10
21.0783035811
 20
8.6519999927
 30
0.0
 10
21.0946554497
 20
8.6244656103
 30
0.0
 10
21.1083123998
 20
8.5960733254
 30
0.0
 10
21.1191973453
 20
8.5669780198
 30
0.0
 10
21.1272482953
 20
8.5373392532
 30
0.0
 10
21.1324190155
 20
8.5073204158
 30
0.0
 10
21.1346796102
 20
8.4770877154
 30
0.0
 10
21.1340169523
 20
8.446809004
 30
0.0
 10
21.1304348879
 20
8.4166524945
 30
0.0
 10
21.1239541713
 20
8.3867854501
 30
0.0
 10
21.1146121748
 20
8.3573729444
 30
0.0
 10
21.1024623515
 20
8.3285767316
 30
0.0
 10
21.0875736791
 20
8.3005543957
 30
0.0
 10
21.0700296766
 20
8.2734582491
 30
0.0
 10
21.0499289359
 20
8.2474358826
 30
0.0
 10
21.0312310052
 20
8.2268623492
 30
0.0
 10
21.0151313306
 20
8.2110697207
 30
0.0
 10
20.9981153736
 20
8.1955913084
 30
0.0
 10
20.9846485945
 20
8.1846464792
 30
0.0
 10
20.9753857082
 20
8.1776442983
 30
0.0
  0
SPLINE
  5
48D
100
AcDbEntity
  8
0
100
AcDbSpline
 62
9
  6
CONTINUOUS
 70
0
 71
3
 72
11
 73
7
 74
0
 42
0.0000001
 43
0.0000001
 44
0.0000000001
 40
0.0
 40
0.0
 40
0.0
 40
0.0
 40
0.2386660677
 40
0.489448154
 40
0.7455590237
 40
1.0
 40
1.0
 40
1.0
 40
1.0
 10
16.0921860133
 20
11.5868060121
 30
0.0
 10
16.0954610741
 20
11.5867690412
 30
0.0
 10
16.102176087
 20
11.5864395064
 30
0.0
 10
16.1123483331
 20
11.5852854661
 30
0.0
 10
16.1226465953
 20
11.583488741
 30
0.0
 10
16.1294707233
 20
11.5818789834
 30
0.0
 10
16.1328425396
 20
11.580971686
 30
0.0
  0
SPLINE
  5
48E
100
AcDbEntity
  8
0
100
AcDbSpline
 62
9
  6
CONTINUOUS
 70
0
 71
3
 72
30
 73
26
 74
0
 42
0.0000001
 43
0.0000001
 44
0.0000000001
 40
0.0
 40
0.0
 40
0.0
 40
0.0
 40
0.0698409267
 40
0.1394357388
 40
0.1740716654
 40
0.2085571824
 40
0.2769543486
 40
0.3444281181
 40
0.4107915361
 40
0.4758869456
 40
0.5395918946
 40
0.6018247465
 40
0.6625499755
 40
0.6923586864
 40
0.7218006544
 40
0.7508862259
 40
0.7796292318
 40
0.8080469962
 40
0.836160259
 40
0.8639930703
 40
0.8915726499
 40
0.9189291716
 40
0.9460954709
 40
0.97310671
 40
1.0
 40
1.0
 40
1.0
 40
1.0
 10
20.6003124876
 20
8.9952526734
 30
0.0
 10
20.5807636125
 20
8.9952526734
 30
0.0
 10
20.5417215217
 20
8.9938722429
 30
0.0
 10
20.4932302694
 20
8.9886976809
 30
0.0
 10
20.45489239
 20
8.9825031447
 30
0.0
 10
20.41713294
 20
8.9749916776
 30
0.0
 10
20.3708974752
 20
8.9631384733
 30
0.0
 10
20.3172166136
 20
8.9450088848
 30
0.0
 10
20.2659363484
 20
8.9231627557
 30
0.0
 10
20.2174941995
 20
8.8977836338
 30
0.0
 10
20.1723009382
 20
8.8690831841
 30
0.0
 10
20.1307442632
 20
8.8373039726
 30
0.0
 10
20.0992391855
 20
8.8082904453
 30
0.0
 10
20.0762413368
 20
8.7838036398
 30
0.0
 10
20.0602150009
 20
8.7649609023
 30
0.0
 10
20.0453416867
 20
8.7455700991
 30
0.0
 10
20.031652921
 20
8.725672071
 30
0.0
 10
20.0191782418
 20
8.7053093372
 30
0.0
 10
20.0079445165
 20
8.6845252717
 30
0.0
 10
19.997976089
 20
8.6633642142
 30
0.0
 10
19.9892945473
 20
8.6418713613
 30
0.0
 10
19.9819186962
 20
8.6200927933
 30
0.0
 10
19.9758645555
 20
8.5980748698
 30
0.0
 10
19.9711455178
 20
8.5758658713
 30
0.0
 10
19.9688922529
 20
8.5609361185
 30
0.0
 10
19.9679929758
 20
8.5534624415
 30
0.0
  0
SPLINE
  5
48F
100
AcDbEntity
  8
0
100
AcDbSpline
 62
9
  6
CONTINUOUS
 70
0
 71
3
 72
30
 73
26
 74
0
 42
0.0000001
 43
0.0000001
 44
0.0000000001
 40
0.0
 40
0.0
 40
0.0
 40
0.0
 40
0.0698409267
 40
0.1394357388
 40
0.1740716654
 40
0.2085571824
 40
0.2769543486
 40
0.3444281181
 40
0.4107915361
 40
0.4758869456
 40
0.5395918946
 40
0.6018247465
 40
0.6625499755
 40
0.6923586864
 40
0.7218006544
 40
0.7508862259
 40
0.7796292318
 40
0.8080469962
 40
0.836160259
 40
0.8639930703
 40
0.8915726499
 40
0.9189291716
 40
0.9460954709
 40
0.97310671
 40
1.0
 40
1.0
 40
1.0
 40
1.0
 10
20.6003124876
 20
8.9952526734
 30
0.0
 10
20.6198613626
 20
8.9952526734
 30
0.0
 10
20.6589034534
 20
8.9938722429
 30
0.0
 10
20.7073947058
 20
8.9886976809
 30
0.0
 10
20.7457325852
 20
8.9825031447
 30
0.0
 10
20.7834920352
 20
8.9749916776
 30
0.0
 10
20.8297274999
 20
8.9631384733
 30
0.0
 10
20.8834083615
 20
8.9450088848
 30
0.0
 10
20.9346886267
 20
8.9231627557
 30
0.0
 10
20.9831307756
 20
8.8977836338
 30
0.0
 10
21.0283240369
 20
8.8690831841
 30
0.0
 10
21.069880712
 20
8.8373039726
 30
0.0
 10
21.1013857897
 20
8.8082904453
 30
0.0
 10
21.1243836384
 20
8.7838036398
 30
0.0
 10
21.1404099742
 20
8.7649609023
 30
0.0
 10
21.1552832885
 20
8.7455700991
 30
0.0
 10
21.1689720541
 20
8.725672071
 30
0.0
 10
21.1814467333
 20
8.7053093372
 30
0.0
 10
21.1926804586
 20
8.6845252717
 30
0.0
 10
21.2026488862
 20
8.6633642142
 30
0.0
 10
21.2113304279
 20
8.6418713613
 30
0.0
 10
21.2187062789
 20
8.6200927933
 30
0.0
 10
21.2247604197
 20
8.5980748698
 30
0.0
 10
21.2294794573
 20
8.5758658713
 30
0.0
 10
21.2317327223
 20
8.5609361185
 30
0.0
 10
21.2326319993
 20
8.5534624415
 30
0.0
  0
SPLINE
  5
490
100
AcDbEntity
  8
0
100
AcDbSpline
 62
9
  6
CONTINUOUS
 70
0
 71
3
 72
40
 73
36
 74
0
 42
0.0000001
 43
0.0000001
 44
0.0000000001
 40
0.0
 40
0.0
 40
0.0
 40
0.0
 40
0.0155619871
 40
0.0311240941
 40
0.0466866479
 40
0.0622499421
 40
0.0933736588
 40
0.1245046901
 40
0.1556451027
 40
0.1867964209
 40
0.2179598456
 40
0.233549019
 40
0.2491412685
 40
0.264736853
 40
0.2803355256
 40
0.3115382651
 40
0.3427536819
 40
0.3739811621
 40
0.4052200684
 40
0.4364698511
 40
0.4677296465
 40
0.4989987203
 40
0.5302763152
 40
0.5615618655
 40
0.6241393042
 40
0.6554438338
 40
0.6867533543
 40
0.7180674633
 40
0.7493855909
 40
0.7807072359
 40
0.8120318766
 40
0.8433591511
 40
0.8746883474
 40
0.9373423827
 40
1.0
 40
1.0
 40
1.0
 40
1.0
 10
7.52549169
 20
2.6088360572
 30
0.0
 10
7.5264742745
 20
2.6019475641
 30
0.0
 10
7.5281549593
 20
2.5881281417
 30
0.0
 10
7.5298070178
 20
2.5673128688
 30
0.0
 10
7.5305799086
 20
2.5464449953
 30
0.0
 10
7.5304252092
 20
2.5186048978
 30
0.0
 10
7.52801292
 20
2.483848615
 30
0.0
 10
7.5216465537
 20
2.4425301592
 30
0.0
 10
7.5119256472
 20
2.4018577338
 30
0.0
 10
7.4989994822
 20
2.3620767608
 30
0.0
 10
7.4856997538
 20
2.3298433623
 30
0.0
 10
7.473640698
 20
2.3047048104
 30
0.0
 10
7.4639057522
 20
2.2861876563
 30
0.0
 10
7.4535099532
 20
2.268028746
 30
0.0
 10
7.4388046787
 20
2.2443137014
 30
0.0
 10
7.4189118645
 20
2.2156239034
 30
0.0
 10
7.3928755434
 20
2.1827976828
 30
0.0
 10
7.3648811142
 20
2.1516050691
 30
0.0
 10
7.3351237234
 20
2.1220715338
 30
0.0
 10
7.3037793734
 20
2.0942091328
 30
0.0
 10
7.2710042611
 20
2.0680255588
 30
0.0
 10
7.2369399543
 20
2.0435245711
 30
0.0
 10
7.2017302031
 20
2.02068048
 30
0.0
 10
7.1534368602
 20
1.9923917124
 30
0.0
 10
7.1033366762
 20
1.9672730341
 30
0.0
 10
7.0518645183
 20
1.945247177
 30
0.0
 10
7.0126270578
 20
1.9302402353
 30
0.0
 10
6.9728408854
 20
1.9167411461
 30
0.0
 10
6.9325732348
 20
1.9047361193
 30
0.0
 10
6.8918919819
 20
1.8942009823
 30
0.0
 10
6.8508596535
 20
1.8851125419
 30
0.0
 10
6.809534866
 20
1.8774445963
 30
0.0
 10
6.7541213623
 20
1.8690946893
 30
0.0
 10
6.6843751992
 20
1.862138169
 30
0.0
 10
6.6283285381
 20
1.8602706833
 30
0.0
 10
6.6003124876
 20
1.860270645
 30
0.0
  0
SPLINE
  5
491
100
AcDbEntity
  8
0
100
AcDbSpline
 62
7
  6
CONTINUOUS
 70
0
 71
3
 72
11
 73
7
 74
0
 42
0.0000001
 43
0.0000001
 44
0.0000000001
 40
0.0
 40
0.0
 40
0.0
 40
0.0
 40
0.2459673328
 40
0.4935870685
 40
0.7444420416
 40
1.0
 40
1.0
 40
1.0
 40
1.0
 10
20.2053124876
 20
5.6993679961
 30
0.0
 10
20.2053124876
 20
5.7052143367
 30
0.0
 10
20.2059451164
 20
5.7169558667
 30
0.0
 10
20.208783914
 20
5.7344534619
 30
0.0
 10
20.213497051
 20
5.7517771646
 30
0.0
 10
20.2178262781
 20
5.7630333651
 30
0.0
 10
20.2202765908
 20
5.768591518
 30
0.0
  0
SPLINE
  5
492
100
AcDbEntity
  8
0
100
AcDbSpline
 62
9
  6
CONTINUOUS
 70
0
 71
3
 72
30
 73
26
 74
0
 42
0.0000001
 43
0.0000001
 44
0.0000000001
 40
0.0
 40
0.0
 40
0.0
 40
0.0
 40
0.0751314483
 40
0.1498384563
 40
0.2237086942
 40
0.2963459309
 40
0.3673830004
 40
0.436491066
 40
0.5033905507
 40
0.5678626967
 40
0.6297619722
 40
0.6597338811
 40
0.6890485858
 40
0.7177145222
 40
0.745747174
 40
0.7731693423
 40
0.8000115014
 40
0.8263119298
 40
0.8521166362
 40
0.877479247
 40
0.9024606324
 40
0.9271281967
 40
0.9515550108
 40
0.9758186928
 40
1.0
 40
1.0
 40
1.0
 40
1.0
 10
20.6003124876
 20
5.4925811915
 30
0.0
 10
20.6125708223
 20
5.4925811915
 30
0.0
 10
20.6370253306
 20
5.4933510393
 30
0.0
 10
20.6733848794
 20
5.4968081693
 30
0.0
 10
20.7090471898
 20
5.5025332678
 30
0.0
 10
20.7436697212
 20
5.5104721879
 30
0.0
 10
20.7769223362
 20
5.520549519
 30
0.0
 10
20.8084874787
 20
5.532670037
 30
0.0
 10
20.8380647923
 20
5.546720071
 30
0.0
 10
20.8653704872
 20
5.5625666992
 30
0.0
 10
20.8862399962
 20
5.5773059989
 30
0.0
 10
20.9015144601
 20
5.5898727472
 30
0.0
 10
20.9121242489
 20
5.5995449423
 30
0.0
 10
20.9219840146
 20
5.6095411646
 30
0.0
 10
20.931070136
 20
5.619837821
 30
0.0
 10
20.9393603954
 20
5.6304104041
 30
0.0
 10
20.9468345589
 20
5.6412337216
 30
0.0
 10
20.9534743064
 20
5.6522818944
 30
0.0
 10
20.9592631292
 20
5.663528513
 30
0.0
 10
20.9641865283
 20
5.6749465447
 30
0.0
 10
20.9682321653
 20
5.6865083955
 30
0.0
 10
20.9713896847
 20
5.6981859466
 30
0.0
 10
20.9736508859
 20
5.7099509431
 30
0.0
 10
20.9750100034
 20
5.7217735847
 30
0.0
 10
20.9753124876
 20
5.7296811025
 30
0.0
 10
20.9753124876
 20
5.7336264884
 30
0.0
  0
SPLINE
  5
493
100
AcDbEntity
  8
0
100
AcDbSpline
 62
9
  6
CONTINUOUS
 70
0
 71
3
 72
11
 73
7
 74
0
 42
0.0000001
 43
0.0000001
 44
0.0000000001
 40
0.0
 40
0.0
 40
0.0
 40
0.0
 40
0.238630863
 40
0.4894104734
 40
0.7455361463
 40
1.0
 40
1.0
 40
1.0
 40
1.0
 10
11.0921487703
 20
11.7131390791
 30
0.0
 10
11.0954263217
 20
11.7131751796
 30
0.0
 10
11.1021469867
 20
11.7135034536
 30
0.0
 10
11.1123282984
 20
11.7146571227
 30
0.0
 10
11.1226365102
 20
11.7164547441
 30
0.0
 10
11.1294673608
 20
11.7180659425
 30
0.0
 10
11.1328425234
 20
11.7189741755
 30
0.0
  0
SPLINE
  5
494
100
AcDbEntity
  8
0
100
AcDbSpline
 62
9
  6
CONTINUOUS
 70
0
 71
3
 72
15
 73
11
 74
0
 42
0.0000001
 43
0.0000001
 44
0.0000000001
 40
0.0
 40
0.0
 40
0.0
 40
0.0
 40
0.1208239749
 40
0.2430804987
 40
0.3666775073
 40
0.4915164566
 40
0.6174882183
 40
0.7444011072
 40
0.8720184554
 40
1.0
 40
1.0
 40
1.0
 40
1.0
 10
16.1328425232
 20
11.7189741757
 30
0.0
 10
16.1334981479
 20
11.7162245411
 30
0.0
 10
16.1348548413
 20
11.7107017105
 30
0.0
 10
16.1369175216
 20
11.702374868
 30
0.0
 10
16.1389250905
 20
11.6939376535
 30
0.0
 10
16.1407800142
 20
11.6853759645
 30
0.0
 10
16.1423835017
 20
11.6766837389
 30
0.0
 10
16.1436309371
 20
11.667866249
 30
0.0
 10
16.1444276385
 20
11.6589484247
 30
0.0
 10
16.1446105162
 20
11.6529670987
 30
0.0
 10
16.1446109056
 20
11.6499729269
 30
0.0
  0
SPLINE
  5
495
100
AcDbEntity
  8
0
100
AcDbSpline
 62
9
  6
CONTINUOUS
 70
0
 71
3
 72
15
 73
11
 74
0
 42
0.0000001
 43
0.0000001
 44
0.0000000001
 40
0.0
 40
0.0
 40
0.0
 40
0.0
 40
0.1279815452
 40
0.25559889
 40
0.3825117704
 40
0.5084835185
 40
0.6333224701
 40
0.7569194867
 40
0.8791760214
 40
1.0
 40
1.0
 40
1.0
 40
1.0
 10
16.1446109194
 20
11.6499729269
 30
0.0
 10
16.1446105247
 20
11.6469787552
 30
0.0
 10
16.144427646
 20
11.6409974294
 30
0.0
 10
16.1436309342
 20
11.6320796061
 30
0.0
 10
16.1423834797
 20
11.6232621195
 30
0.0
 10
16.1407799773
 20
11.6145698974
 30
0.0
 10
16.138925059
 20
11.6060082075
 30
0.0
 10
16.1369175075
 20
11.5975709884
 30
0.0
 10
16.1348548435
 20
11.5892441415
 30
0.0
 10
16.1334981546
 20
11.5837213095
 30
0.0
 10
16.1328425289
 20
11.580971675
 30
0.0
  0
SPLINE
  5
496
100
AcDbEntity
  8
0
100
AcDbSpline
 62
9
  6
CONTINUOUS
 70
0
 71
3
 72
17
 73
13
 74
0
 42
0.0000001
 43
0.0000001
 44
0.0000000001
 40
0.0
 40
0.0
 40
0.0
 40
0.0
 40
0.1559581351
 40
0.3038566503
 40
0.4429337827
 40
0.5728398502
 40
0.6934843723
 40
0.8048888353
 40
0.8571496329
 40
0.9070994523
 40
0.9547243406
 40
1.0
 40
1.0
 40
1.0
 40
1.0
 10
16.1328425289
 20
11.580971675
 30
0.0
 10
16.1310770226
 20
11.5735672713
 30
0.0
 10
16.127052878
 20
11.5592720709
 30
0.0
 10
16.1194677809
 20
11.5390016007
 30
0.0
 10
16.1107318673
 20
11.5205972399
 30
0.0
 10
16.1011003234
 20
11.5041708875
 30
0.0
 10
16.0908209073
 20
11.4897740709
 30
0.0
 10
16.0817256662
 20
11.4792627017
 30
0.0
 10
16.0743268296
 20
11.4719115398
 30
0.0
 10
16.0688803474
 20
11.4670260041
 30
0.0
 10
16.0634479396
 20
11.4626504613
 30
0.0
 10
16.0597610652
 20
11.4600058976
 30
0.0
 10
16.0579270557
 20
11.4587731549
 30
0.0
  0
ENDSEC
  0
SECTION
  2
OBJECTS
  0
DICTIONARY
  5
C
100
AcDbDictionary
280
0
281
1
  3
ACAD_GROUP
350
D
  3
ACAD_MLINESTYLE
350
17
  3
ACAD_LAYOUT
350
1A
  3
ACAD_PLOTSETTINGS
350
19
  3
ACAD_PLOTSTYLENAME
350
E
  0
DICTIONARY
  5
D
102
{ACAD_REACTORS
330
C
102
}
100
AcDbDictionary
280
0
281
1
  0
ACDBDICTIONARYWDFLT
  5
E
102
{ACAD_REACTORS
330
C
102
}
100
AcDbDictionary
281
1
  3
Normal
350
F
100
AcDbDictionaryWithDefault
340
F
  0
DICTIONARY
  5
17
102
{ACAD_REACTORS
330
C
102
}
100
AcDbDictionary
280
0
281
1
  3
Standard
350
18
  0
DICTIONARY
  5
19
102
{ACAD_REACTORS
330
C
102
}
100
AcDbDictionary
281
1
  0
DICTIONARY
  5
1A
102
{ACAD_REACTORS
330
C
102
}
100
AcDbDictionary
281
1
  3
Model
350
497
  3
Layout1
350
498
  0
ACDBPLACEHOLDER
  5
F
102
{ACAD_REACTORS
330
E
102
}
  0
MLINESTYLE
  5
18
102
{ACAD_REACTORS
330
17
102
}
100
AcDbMlineStyle
  2
STANDARD
 70
0
  3

 62
256
 51
90.0
 52
90.0
 71
2
 49
0.5
 62
256
  6
BYLAYER
 49
-0.5
 62
256
  6
BYLAYER
  0
LAYOUT
  5
497
102
{ACAD_REACTORS
330
1A
102
}
100
AcDbPlotSettings
  1

  2
none_device
  4
ANSI_C_(22.00_x_17.00_Inches)
  6

 40
0.0
 41
0.0
 42
0.0
 43
0.0
 44
558.8
 45
431.8
 46
0.0
 47
0.0
 48
0.0
 49
0.0
140
0.0
141
0.0
142
1.0
143
1.0
 70
1024
 72
0
 73
0
 74
0
  7

 75
0
147
1.0
148
0.0
149
0.0
100
AcDbLayout
  1
Model
 70
0
 71
0
 10
0.0
 20
0.0
 11
22.0
 21
17.0
 12
0.0
 22
0.0
 32
0.0
 14
0.0
 24
0.0
 34
0.0
 15
0.0
 25
0.0
 35
0.0
146
0.0
 13
0.0
 23
0.0
 33
0.0
 16
1.0
 26
0.0
 36
0.0
 17
0.0
 27
1.0
 37
0.0
 76
0
330
205
345
0
346
0
  0
LAYOUT
  5
498
102
{ACAD_REACTORS
330
1A
102
}
100
AcDbPlotSettings
  1

  2
none_device
  4
ANSI_C_(22.00_x_17.00_Inches)
  6

 40
0.0
 41
0.0
 42
0.0
 43
0.0
 44
558.8
 45
431.8
 46
0.0
 47
0.0
 48
0.0
 49
0.0
140
0.0
141
0.0
142
1.0
143
1.0
 70
0
 72
0
 73
0
 74
0
  7

 75
0
147
1.0
148
0.0
149
0.0
100
AcDbLayout
  1
Layout1
 70
0
 71
1
 10
0.0
 20
0.0
 11
22.0
 21
17.0
 12
0.0
 22
0.0
 32
0.0
 14
0.0
 24
0.0
 34
0.0
 15
0.0
 25
0.0
 35
0.0
146
0.0
 13
0.0
 23
0.0
 33
0.0
 16
1.0
 26
0.0
 36
0.0
 17
0.0
 27
1.0
 37
0.0
 76
0
330
206
345
0
346
0
  0
ENDSEC
  0
EOF
