999
DXF file: 3-2921_RIGHT.dxf
999
Pro/ENGINEER 2018400 by Parametric Technology Corporation
  0
SECTION
  2
HEADER
  9
$ACADVER
  1
AC1027
  9
$DWGCODEPAGE
  3
ANSI_1252
  9
$EXTMAX
 10
11.0
 20
8.5
 30
0.0
  9
$EXTMIN
 10
0.0
 20
0.0
 30
0.0
  9
$LIMMIN
 10
0.0
 20
0.0
  9
$LIMMAX
 10
11.0
 20
8.5
  9
$VIEWCTR
 10
5.5
 20
4.25
  9
$VIEWSIZE
 40
8.5
  9
$CLAYER
  8
0
  9
$LTSCALE
 40
0.605
  9
$CELTYPE
  6
BYLAYER
  9
$DIMSCALE
 40
1.0
  9
$DIMASZ
 40
0.1
  9
$DIMEXO
 40
0.0625
  9
$DIMDLI
 40
0.418
  9
$DIMEXE
 40
0.125
  9
$DIMCEN
 40
0.099
  9
$DIMLFAC
 40
1.0
  9
$DIMBLK
  1
_FILLED
  9
$DIMALT
 70
1
  9
$DIMALTD
 70
2
  9
$DIMALTTD
 70
2
  9
$DIMALTF
 40
25.4
  9
$DIMTXT
 40
0.08
  9
$DIMTOL
 70
1
  9
$DIMLIM
 70
0
  9
$DIMTFAC
 40
1.0
  9
$DIMTP
 40
0.001
  9
$DIMTM
 40
0.001
  9
$DIMGAP
 40
0.09
  9
$DIMDSEP
 70
46
  9
$AUNITS
 70
0
  9
$PDMODE
 70
3
  9
$PDSIZE
 40
0.3125
  9
$HANDSEED
  5
273
  9
$TILEMODE
 70
1
  9
$MEASUREMENT
 70
0
  9
$INSUNITS
 70
1
  0
ENDSEC
  0
SECTION
  2
CLASSES
  0
CLASS
  1
ACDBDICTIONARYWDFLT
  2
AcDbDictionaryWithDefault
  3
AutoCAD 2000
 90
0
 91
1
280
0
281
0
  0
CLASS
  1
ACDBPLACEHOLDER
  2
AcDbPlaceHolder
  3
AutoCAD 2000
 90
0
 91
1
280
0
281
0
  0
CLASS
  1
LAYOUT
  2
AcDbLayout
  3
AutoCAD 2000
 90
0
 91
0
280
0
281
0
  0
ENDSEC
  0
SECTION
  2
TABLES
  0
TABLE
  2
VPORT
  5
8
100
AcDbSymbolTable
 70
2
  0
VPORT
  5
1F4
100
AcDbSymbolTableRecord
100
AcDbViewportTableRecord
  2
*ACTIVE
 70
0
 10
0.0
 20
0.0
 11
1.0
 21
1.0
 12
5.5
 22
4.25
 13
0.0
 23
0.0
 14
1.0
 24
1.0
 15
0.0
 25
0.0
 16
0.0
 26
0.0
 36
1.0
 17
0.0
 27
0.0
 37
0.0
 40
8.5
 41
1.2941176471
 42
50.0
 43
0.0
 44
0.0
 50
0.0
 51
0.0
 71
0
 72
100
 73
1
 74
1
 75
0
 76
0
 77
0
 78
0
  0
ENDTAB
  0
TABLE
  2
LTYPE
  5
5
100
AcDbSymbolTable
 70
6
  0
LTYPE
  5
14
100
AcDbSymbolTableRecord
100
AcDbLinetypeTableRecord
  2
BYBLOCK
 70
0
  3

 72
65
 73
0
 40
0.0
  0
LTYPE
  5
15
100
AcDbSymbolTableRecord
100
AcDbLinetypeTableRecord
  2
BYLAYER
 70
0
  3

 72
65
 73
0
 40
0.0
  0
LTYPE
  5
16
100
AcDbSymbolTableRecord
100
AcDbLinetypeTableRecord
  2
CONTINUOUS
 70
64
  3
Solid line
 72
65
 73
0
 40
0.0
  0
LTYPE
  5
1F5
100
AcDbSymbolTableRecord
100
AcDbLinetypeTableRecord
  2
CENTER
 70
64
  3
____ _ ____ _ ____ _ ____ _ ____ _ ____ _ ____
 72
65
 73
4
 40
0.6
 49
0.375
 74
0
 49
-0.075
 74
0
 49
0.075
 74
0
 49
-0.075
 74
0
  0
LTYPE
  5
1F6
100
AcDbSymbolTableRecord
100
AcDbLinetypeTableRecord
  2
HIDDEN
 70
64
  3
- - - - - - - - - - - - - - - - - - - -
 72
65
 73
2
 40
0.2
 49
0.1
 74
0
 49
-0.1
 74
0
  0
LTYPE
  5
1F7
100
AcDbSymbolTableRecord
100
AcDbLinetypeTableRecord
  2
PHANTOM
 70
64
  3
_____ _ _ _____ _ _ _____ _ _ _____
 72
65
 73
6
 40
0.8
 49
0.45
 74
0
 49
-0.05
 74
0
 49
0.1
 74
0
 49
-0.05
 74
0
 49
0.1
 74
0
 49
-0.05
 74
0
  0
LTYPE
  5
1F8
100
AcDbSymbolTableRecord
100
AcDbLinetypeTableRecord
  2
DOT
 70
64
  3
. . . . . . . . . . . . . . . . . . . .
 72
65
 73
2
 40
0.2
 49
0.1
 74
0
 49
-0.1
 74
0
  0
LTYPE
  5
1F9
100
AcDbSymbolTableRecord
100
AcDbLinetypeTableRecord
  2
DASHED
 70
64
  3
- - - - - - - - - - - - - - - - - - - -
 72
65
 73
2
 40
0.2
 49
0.1
 74
0
 49
-0.1
 74
0
  0
ENDTAB
  0
TABLE
  2
LAYER
  5
2
100
AcDbSymbolTable
 70
36
  0
LAYER
  5
10
100
AcDbSymbolTableRecord
100
AcDbLayerTableRecord
  2
0
 70
0
 62
7
  6
CONTINUOUS
370
-3
390
F
  0
LAYER
  5
1FA
100
AcDbSymbolTableRecord
100
AcDbLayerTableRecord
  2
DEFAULT_1
 70
0
 62
7
  6
CENTER
370
-3
390
F
  0
LAYER
  5
1FB
100
AcDbSymbolTableRecord
100
AcDbLayerTableRecord
  2
DEFAULT_2
 70
0
 62
8
  6
HIDDEN
370
-3
390
F
  0
LAYER
  5
1FC
100
AcDbSymbolTableRecord
100
AcDbLayerTableRecord
  2
DEFAULT_3
 70
0
 62
7
  6
PHANTOM
370
-3
390
F
  0
LAYER
  5
1FD
100
AcDbSymbolTableRecord
100
AcDbLayerTableRecord
  2
2-100_ASSY_DATUMS
 70
0
 62
7
  6
CONTINUOUS
370
-3
390
F
  0
LAYER
  5
1FE
100
AcDbSymbolTableRecord
100
AcDbLayerTableRecord
  2
2-110_ASSY_DATUMS
 70
0
 62
7
  6
CONTINUOUS
370
-3
390
F
  0
LAYER
  5
1FF
100
AcDbSymbolTableRecord
100
AcDbLayerTableRecord
  2
2-120_ASSY_PLANES
 70
0
 62
7
  6
CONTINUOUS
370
-3
390
F
  0
LAYER
  5
200
100
AcDbSymbolTableRecord
100
AcDbLayerTableRecord
  2
2-127_ASSY_PLANES
 70
0
 62
7
  6
CONTINUOUS
370
-3
390
F
  0
LAYER
  5
201
100
AcDbSymbolTableRecord
100
AcDbLayerTableRecord
  2
2-247_ASSY_DATUMS
 70
0
 62
7
  6
CONTINUOUS
370
-3
390
F
  0
LAYER
  5
202
100
AcDbSymbolTableRecord
100
AcDbLayerTableRecord
  2
3-227_ASSY_DATUMS
 70
0
 62
7
  6
CONTINUOUS
370
-3
390
F
  0
LAYER
  5
203
100
AcDbSymbolTableRecord
100
AcDbLayerTableRecord
  2
3-229_ASSY_PLANES
 70
0
 62
7
  6
CONTINUOUS
370
-3
390
F
  0
LAYER
  5
204
100
AcDbSymbolTableRecord
100
AcDbLayerTableRecord
  2
3-991_ASSY_PLANES
 70
0
 62
7
  6
CONTINUOUS
370
-3
390
F
  0
LAYER
  5
205
100
AcDbSymbolTableRecord
100
AcDbLayerTableRecord
  2
ALL_ASSEMBLY_MEMBERS
 70
0
 62
7
  6
CONTINUOUS
370
-3
390
F
  0
LAYER
  5
206
100
AcDbSymbolTableRecord
100
AcDbLayerTableRecord
  2
ALL_FEATURES
 70
0
 62
7
  6
CONTINUOUS
370
-3
390
F
  0
LAYER
  5
207
100
AcDbSymbolTableRecord
100
AcDbLayerTableRecord
  2
AXES_FEATURES
 70
0
 62
7
  6
CONTINUOUS
370
-3
390
F
  0
LAYER
  5
208
100
AcDbSymbolTableRecord
100
AcDbLayerTableRecord
  2
CHAMFER_FEATURES
 70
0
 62
7
  6
CONTINUOUS
370
-3
390
F
  0
LAYER
  5
209
100
AcDbSymbolTableRecord
100
AcDbLayerTableRecord
  2
CUT_FEATURES
 70
0
 62
7
  6
CONTINUOUS
370
-3
390
F
  0
LAYER
  5
20A
100
AcDbSymbolTableRecord
100
AcDbLayerTableRecord
  2
DATUM_CURVES
 70
0
 62
7
  6
CONTINUOUS
370
-3
390
F
  0
LAYER
  5
20B
100
AcDbSymbolTableRecord
100
AcDbLayerTableRecord
  2
DATUM_PLANES
 70
0
 62
7
  6
CONTINUOUS
370
-3
390
F
  0
LAYER
  5
20C
100
AcDbSymbolTableRecord
100
AcDbLayerTableRecord
  2
DEFAULT_COORDINATE_SYSTEM
 70
0
 62
7
  6
CONTINUOUS
370
-3
390
F
  0
LAYER
  5
20D
100
AcDbSymbolTableRecord
100
AcDbLayerTableRecord
  2
DEFAULT_DATUM_AXES
 70
0
 62
7
  6
CONTINUOUS
370
-3
390
F
  0
LAYER
  5
20E
100
AcDbSymbolTableRecord
100
AcDbLayerTableRecord
  2
DEFAULT_DATUM_CURVES
 70
0
 62
7
  6
CONTINUOUS
370
-3
390
F
  0
LAYER
  5
20F
100
AcDbSymbolTableRecord
100
AcDbLayerTableRecord
  2
DEFAULT_DATUM_PLANES
 70
0
 62
7
  6
CONTINUOUS
370
-3
390
F
  0
LAYER
  5
210
100
AcDbSymbolTableRecord
100
AcDbLayerTableRecord
  2
DEFAULT_SURFACES
 70
0
 62
7
  6
CONTINUOUS
370
-3
390
F
  0
LAYER
  5
211
100
AcDbSymbolTableRecord
100
AcDbLayerTableRecord
  2
DIMENSIONS
 70
0
 62
7
  6
CONTINUOUS
370
-3
390
F
  0
LAYER
  5
212
100
AcDbSymbolTableRecord
100
AcDbLayerTableRecord
  2
HIDE_91208
 70
0
 62
7
  6
CONTINUOUS
370
-3
390
F
  0
LAYER
  5
213
100
AcDbSymbolTableRecord
100
AcDbLayerTableRecord
  2
PART_REFERENCE_DIMENSIONS
 70
0
 62
7
  6
CONTINUOUS
370
-3
390
F
  0
LAYER
  5
214
100
AcDbSymbolTableRecord
100
AcDbLayerTableRecord
  2
PLATED_SURFACE_AREA
 70
0
 62
7
  6
CONTINUOUS
370
-3
390
F
  0
LAYER
  5
215
100
AcDbSymbolTableRecord
100
AcDbLayerTableRecord
  2
PROTRUSION_FEATURES
 70
0
 62
7
  6
CONTINUOUS
370
-3
390
F
  0
LAYER
  5
216
100
AcDbSymbolTableRecord
100
AcDbLayerTableRecord
  2
QUILT
 70
0
 62
7
  6
CONTINUOUS
370
-3
390
F
  0
LAYER
  5
217
100
AcDbSymbolTableRecord
100
AcDbLayerTableRecord
  2
QUILTS
 70
0
 62
7
  6
CONTINUOUS
370
-3
390
F
  0
LAYER
  5
218
100
AcDbSymbolTableRecord
100
AcDbLayerTableRecord
  2
REFERENCE_DIMENSIONS
 70
0
 62
7
  6
CONTINUOUS
370
-3
390
F
  0
LAYER
  5
219
100
AcDbSymbolTableRecord
100
AcDbLayerTableRecord
  2
ROUND_FEATURES
 70
0
 62
7
  6
CONTINUOUS
370
-3
390
F
  0
LAYER
  5
21A
100
AcDbSymbolTableRecord
100
AcDbLayerTableRecord
  2
SHELL_FEATURES
 70
0
 62
7
  6
CONTINUOUS
370
-3
390
F
  0
LAYER
  5
21B
100
AcDbSymbolTableRecord
100
AcDbLayerTableRecord
  2
WETTED_SURFACES
 70
0
 62
7
  6
CONTINUOUS
370
-3
390
F
  0
LAYER
  5
21C
100
AcDbSymbolTableRecord
100
AcDbLayerTableRecord
  2
WETTED_SURFACE_AREA
 70
0
 62
7
  6
CONTINUOUS
370
-3
390
F
  0
ENDTAB
  0
TABLE
  2
STYLE
  5
3
100
AcDbSymbolTable
 70
1
  0
STYLE
  5
11
100
AcDbSymbolTableRecord
100
AcDbTextStyleTableRecord
  2
STANDARD
 70
0
 40
0.0
 41
0.8
 50
0.0
 71
0
 42
0.2
  3
txt
  4

  0
STYLE
  5
21D
100
AcDbSymbolTableRecord
100
AcDbTextStyleTableRecord
  2
TEXTSTYLE_1
 70
0
 40
0.0
 41
0.8
 50
0.0
 71
0
 42
0.2
  3
gdt
  4

  0
ENDTAB
  0
TABLE
  2
VIEW
  5
6
100
AcDbSymbolTable
 70
0
  0
ENDTAB
  0
TABLE
  2
UCS
  5
7
100
AcDbSymbolTable
 70
0
  0
ENDTAB
  0
TABLE
  2
APPID
  5
9
100
AcDbSymbolTable
 70
1
  0
APPID
  5
21E
100
AcDbSymbolTableRecord
100
AcDbRegAppTableRecord
  2
ACAD
 70
0
  0
ENDTAB
  0
TABLE
  2
BLOCK_RECORD
  5
1
100
AcDbSymbolTable
 70
0
  0
BLOCK_RECORD
  5
21F
100
AcDbSymbolTableRecord
100
AcDbBlockTableRecord
  2
*Model_Space
  0
BLOCK_RECORD
  5
220
100
AcDbSymbolTableRecord
100
AcDbBlockTableRecord
  2
*Paper_Space
  0
BLOCK_RECORD
  5
221
100
AcDbSymbolTableRecord
100
AcDbBlockTableRecord
  2
_FILLED
  0
ENDTAB
  0
TABLE
  2
DIMSTYLE
  5
A
100
AcDbSymbolTable
 70
1
100
AcDbDimStyleTable
 71
0
  0
DIMSTYLE
105
222
100
AcDbSymbolTableRecord
100
AcDbDimStyleTableRecord
  2
STANDARD
 70
0
  3

  4

 40
1.0
 41
0.1
 42
0.0625
 43
0.38
 44
0.125
 45
0.0
 46
0.0
 47
0.001
 48
0.001
140
0.08
141
0.09
142
0.0
143
25.4
144
1.0
145
0.0
146
1.0
147
0.09
 71
1.0
 72
0.0
 73
1
 74
1
 75
0
 76
0
 77
0
 78
4
 79
1
170
1
171
2
172
0
173
0
174
0
175
0
176
0
177
0
178
0
270
2
179
3
271
3
272
3
273
2
274
2
275
0
280
0
281
0
282
0
283
1
284
4
285
0
286
0
287
3
288
0
340
11
278
46
341
221
342
221
343
221
344
221
  0
ENDTAB
  0
ENDSEC
  0
SECTION
  2
BLOCKS
  0
BLOCK
  5
20
100
AcDbEntity
  8
0
100
AcDbBlockBegin
  2
*Model_Space
 70
0
 10
0.0
 20
0.0
 30
0.0
  3
*Model_Space
  1

  0
ENDBLK
  5
21
100
AcDbEntity
  8
0
100
AcDbBlockEnd
  0
BLOCK
  5
1C
100
AcDbEntity
  8
0
100
AcDbBlockBegin
  2
*Paper_Space
 70
0
 10
0.0
 20
0.0
 30
0.0
  3
*Paper_Space
  1

  0
ENDBLK
  5
1D
100
AcDbEntity
  8
0
100
AcDbBlockEnd
  0
BLOCK
  5
223
100
AcDbEntity
  8
0
100
AcDbBlockBegin
  2
_FILLED
 70
64
 10
0.0
 20
0.0
  3
_FILLED
  1

  0
SOLID
  5
224
100
AcDbEntity
  8
0
  6
BYBLOCK
 62
0
100
AcDbTrace
 10
0.0
 20
0.0
 11
-1.0
 21
0.2
 12
-1.0
 22
-0.2
 13
-1.0
 23
-0.2
  0
ENDBLK
  5
225
100
AcDbEntity
  8
0
  6
BYBLOCK
 62
0
100
AcDbBlockEnd
  0
ENDSEC
  0
SECTION
  2
ENTITIES
  0
MTEXT
  5
226
100
AcDbEntity
  8
0
100
AcDbMText
 62
2
  6
CONTINUOUS
  7
STANDARD
 71
3
 72
1
 10
3.7273124094
 20
1.8345574534
 30
0.0
 11
1.0
 21
0.0
 31
0.0
 73
2
 44
0.9
  1
SCALE  .500
 40
0.08
 41
0.704
  0
LINE
  5
227
100
AcDbEntity
  8
0
100
AcDbLine
 62
7
  6
CONTINUOUS
 10
0.0
 20
0.0
 11
0.0
 21
8.5
  0
LINE
  5
228
100
AcDbEntity
  8
0
100
AcDbLine
 62
7
  6
CONTINUOUS
 10
0.0
 20
0.0
 11
11.0
 21
0.0
  0
LINE
  5
229
100
AcDbEntity
  8
0
100
AcDbLine
 62
7
  6
CONTINUOUS
 10
0.0
 20
8.5
 11
11.0
 21
8.5
  0
LINE
  5
22A
100
AcDbEntity
  8
0
100
AcDbLine
 62
7
  6
CONTINUOUS
 10
11.0
 20
0.0
 11
11.0
 21
8.5
  0
LINE
  5
22B
100
AcDbEntity
  8
ALL_ASSEMBLY_MEMBERS
100
AcDbLine
 62
7
  6
CONTINUOUS
 10
3.3165954969
 20
3.2208618012
 11
3.3165954969
 21
3.9408618012
  0
LINE
  5
22C
100
AcDbEntity
  8
ALL_ASSEMBLY_MEMBERS
100
AcDbLine
 62
7
  6
CONTINUOUS
 10
3.7540954969
 20
3.2208618012
 11
3.7540954969
 21
3.9408618012
  0
LINE
  5
22D
100
AcDbEntity
  8
ALL_ASSEMBLY_MEMBERS
100
AcDbLine
 62
7
  6
CONTINUOUS
 10
3.3165954969
 20
3.2208618012
 11
3.7540954969
 21
3.2208618012
  0
LINE
  5
22E
100
AcDbEntity
  8
ALL_ASSEMBLY_MEMBERS
100
AcDbLine
 62
7
  6
CONTINUOUS
 10
4.5353454969
 20
5.1596118012
 11
4.5353454969
 21
4.7221118012
  0
LINE
  5
22F
100
AcDbEntity
  8
ALL_ASSEMBLY_MEMBERS
100
AcDbLine
 62
7
  6
CONTINUOUS
 10
3.3165954969
 20
3.6258618012
 11
3.7540954969
 21
3.6258618012
  0
LINE
  5
230
100
AcDbEntity
  8
ALL_ASSEMBLY_MEMBERS
100
AcDbLine
 62
7
  6
CONTINUOUS
 10
3.3165954969
 20
3.9408618012
 11
3.7540954969
 21
3.9408618012
  0
LINE
  5
231
100
AcDbEntity
  8
ALL_ASSEMBLY_MEMBERS
100
AcDbLine
 62
7
  6
CONTINUOUS
 10
7.4728454969
 20
4.3471118012
 11
7.6603454969
 21
4.3471118012
  0
LINE
  5
232
100
AcDbEntity
  8
ALL_ASSEMBLY_MEMBERS
100
AcDbLine
 62
7
  6
CONTINUOUS
 10
7.4728454969
 20
4.5971118012
 11
6.4103454969
 21
4.5971118012
  0
LINE
  5
233
100
AcDbEntity
  8
ALL_ASSEMBLY_MEMBERS
100
AcDbLine
 62
7
  6
CONTINUOUS
 10
6.9188454969
 20
4.6127368012
 11
7.4728454969
 21
4.6127368012
  0
LINE
  5
234
100
AcDbEntity
  8
ALL_ASSEMBLY_MEMBERS
100
AcDbLine
 62
7
  6
CONTINUOUS
 10
6.3088454969
 20
4.8338409615
 11
6.3553434375
 21
4.8741093592
  0
LINE
  5
235
100
AcDbEntity
  8
ALL_ASSEMBLY_MEMBERS
100
AcDbLine
 62
7
  6
CONTINUOUS
 10
4.5353454969
 20
4.7221118012
 11
6.1088454969
 21
4.7221118012
  0
LINE
  5
236
100
AcDbEntity
  8
ALL_ASSEMBLY_MEMBERS
100
AcDbLine
 62
7
  6
CONTINUOUS
 10
6.4832330828
 20
4.7533618012
 11
6.6088454969
 21
4.7533618012
  0
LINE
  5
237
100
AcDbEntity
  8
ALL_ASSEMBLY_MEMBERS
100
AcDbLine
 62
7
  6
CONTINUOUS
 10
6.6088454969
 20
4.7833618012
 11
6.9088454969
 21
4.7833618012
  0
LWPOLYLINE
  5
238
100
AcDbEntity
  8
ALL_ASSEMBLY_MEMBERS
100
AcDbPolyline
 62
7
  6
CONTINUOUS
 90
3
 70
0
 10
6.3153686621
 20
4.6072189108
 10
6.317362149
 20
4.6095032786
 10
6.3197600946
 20
4.6117900828
  0
LINE
  5
239
100
AcDbEntity
  8
ALL_ASSEMBLY_MEMBERS
100
AcDbLine
 62
7
  6
CONTINUOUS
 10
6.3173454184
 20
4.6094857068
 11
6.3173537435
 21
4.6094936516
  0
LINE
  5
23A
100
AcDbEntity
  8
ALL_ASSEMBLY_MEMBERS
100
AcDbLine
 62
7
  6
CONTINUOUS
 10
6.3197626384
 20
4.6117922437
 11
6.527820091
 21
4.7919754172
  0
LINE
  5
23B
100
AcDbEntity
  8
ALL_ASSEMBLY_MEMBERS
100
AcDbLine
 62
7
  6
CONTINUOUS
 10
6.3197616847
 20
4.6117914177
 11
6.3197591423
 21
4.6117892709
  0
LINE
  5
23C
100
AcDbEntity
  8
ALL_ASSEMBLY_MEMBERS
100
AcDbLine
 62
7
  6
CONTINUOUS
 10
6.1088454969
 20
4.3228126351
 11
6.1088454969
 21
5.5596118012
  0
LINE
  5
23D
100
AcDbEntity
  8
ALL_ASSEMBLY_MEMBERS
100
AcDbLine
 62
7
  6
CONTINUOUS
 10
6.3110777638
 20
4.600257262
 11
6.3122283598
 21
4.6025365089
  0
LINE
  5
23E
100
AcDbEntity
  8
ALL_ASSEMBLY_MEMBERS
100
AcDbLine
 62
7
  6
CONTINUOUS
 10
6.3122072678
 20
4.6024984654
 11
6.3136545259
 21
4.6048739184
  0
LINE
  5
23F
100
AcDbEntity
  8
ALL_ASSEMBLY_MEMBERS
100
AcDbLine
 62
7
  6
CONTINUOUS
 10
6.3136583967
 20
4.6048797487
 11
6.3153801284
 21
4.6072332236
  0
LINE
  5
240
100
AcDbEntity
  8
ALL_ASSEMBLY_MEMBERS
100
AcDbLine
 62
7
  6
CONTINUOUS
 10
6.6088454969
 20
5.0983618012
 11
6.9088454969
 21
5.0983618012
  0
LINE
  5
241
100
AcDbEntity
  8
ALL_ASSEMBLY_MEMBERS
100
AcDbLine
 62
7
  6
CONTINUOUS
 10
6.3088454969
 20
4.3228126351
 11
6.3088454969
 21
4.593641617
  0
LINE
  5
242
100
AcDbEntity
  8
ALL_ASSEMBLY_MEMBERS
100
AcDbLine
 62
7
  6
CONTINUOUS
 10
6.3088454969
 20
5.5570482226
 11
6.3088453366
 21
5.5582115006
  0
LINE
  5
243
100
AcDbEntity
  8
ALL_ASSEMBLY_MEMBERS
100
AcDbLine
 62
7
  6
CONTINUOUS
 10
6.3088454964
 20
4.6709354011
 11
6.3088454969
 21
5.5570482226
  0
LINE
  5
244
100
AcDbEntity
  8
ALL_ASSEMBLY_MEMBERS
100
AcDbLine
 62
7
  6
CONTINUOUS
 10
6.3088454969
 20
4.5927263805
 11
6.3088790287
 21
4.5930216779
  0
LINE
  5
245
100
AcDbEntity
  8
ALL_ASSEMBLY_MEMBERS
100
AcDbLine
 62
7
  6
CONTINUOUS
 10
6.3088788425
 20
4.5930220123
 11
6.3090032685
 21
4.5938118119
  0
LINE
  5
246
100
AcDbEntity
  8
ALL_ASSEMBLY_MEMBERS
100
AcDbLine
 62
7
  6
CONTINUOUS
 10
6.3089982962
 20
4.5937850217
 11
6.3092426448
 21
4.5949611534
  0
LINE
  5
247
100
AcDbEntity
  8
ALL_ASSEMBLY_MEMBERS
100
AcDbLine
 62
7
  6
CONTINUOUS
 10
6.3092309985
 20
4.594911462
 11
6.3096477583
 21
4.5964723218
  0
LINE
  5
248
100
AcDbEntity
  8
ALL_ASSEMBLY_MEMBERS
100
AcDbLine
 62
7
  6
CONTINUOUS
 10
6.3096290696
 20
4.5964096889
 11
6.3102606246
 21
4.5982883623
  0
LINE
  5
249
100
AcDbEntity
  8
ALL_ASSEMBLY_MEMBERS
100
AcDbLine
 62
7
  6
CONTINUOUS
 10
6.3102351967
 20
4.5982202368
 11
6.3111061706
 21
4.6003193948
  0
LINE
  5
24A
100
AcDbEntity
  8
ALL_ASSEMBLY_MEMBERS
100
AcDbLine
 62
7
  6
CONTINUOUS
 10
6.5848448597
 20
5.1283618012
 11
6.6088454969
 21
5.1283618012
  0
LINE
  5
24B
100
AcDbEntity
  8
ALL_ASSEMBLY_MEMBERS
100
AcDbLine
 62
7
  6
CONTINUOUS
 10
4.5353454969
 20
5.1596118012
 11
6.1088454969
 21
5.1596118012
  0
LINE
  5
24C
100
AcDbEntity
  8
ALL_ASSEMBLY_MEMBERS
100
AcDbLine
 62
7
  6
CONTINUOUS
 10
6.3088454969
 20
5.1596118012
 11
6.3216424221
 21
5.1596118012
  0
LINE
  5
24D
100
AcDbEntity
  8
ALL_ASSEMBLY_MEMBERS
100
AcDbLine
 62
7
  6
CONTINUOUS
 10
6.9188454969
 20
5.2689868012
 11
7.4728454969
 21
5.2689868012
  0
LINE
  5
24E
100
AcDbEntity
  8
ALL_ASSEMBLY_MEMBERS
100
AcDbLine
 62
7
  6
CONTINUOUS
 10
7.4728454969
 20
5.2846118012
 11
6.468653118
 21
5.2846118012
  0
LINE
  5
24F
100
AcDbEntity
  8
ALL_ASSEMBLY_MEMBERS
100
AcDbLine
 62
7
  6
CONTINUOUS
 10
6.3082912993
 20
5.5701252396
 11
6.3083760737
 21
5.5691742394
  0
LINE
  5
250
100
AcDbEntity
  8
ALL_ASSEMBLY_MEMBERS
100
AcDbLine
 62
7
  6
CONTINUOUS
 10
6.3082912993
 20
5.5701252396
 11
6.3082938862
 21
5.5700951209
  0
LINE
  5
251
100
AcDbEntity
  8
ALL_ASSEMBLY_MEMBERS
100
AcDbLine
 62
7
  6
CONTINUOUS
 10
6.3082956546
 20
5.5700785464
 11
6.3084407509
 21
5.5683880807
  0
LINE
  5
252
100
AcDbEntity
  8
ALL_ASSEMBLY_MEMBERS
100
AcDbLine
 62
7
  6
CONTINUOUS
 10
6.4103454969
 20
4.6902393002
 11
6.4103454969
 21
4.5971118012
  0
LINE
  5
253
100
AcDbEntity
  8
ALL_ASSEMBLY_MEMBERS
100
AcDbLine
 62
7
  6
CONTINUOUS
 10
6.3083387076
 20
5.569696475
 11
6.3083083201
 21
5.5699647027
  0
LINE
  5
254
100
AcDbEntity
  8
ALL_ASSEMBLY_MEMBERS
100
AcDbLine
 62
7
  6
CONTINUOUS
 10
6.3082912993
 20
5.5701252395
 11
6.3083372652
 21
5.5697089863
  0
LINE
  5
255
100
AcDbEntity
  8
ALL_ASSEMBLY_MEMBERS
100
AcDbLine
 62
7
  6
CONTINUOUS
 10
6.6088454969
 20
4.7533643926
 11
6.6088454969
 21
5.1283592099
  0
LINE
  5
256
100
AcDbEntity
  8
ALL_ASSEMBLY_MEMBERS
100
AcDbLine
 62
7
  6
CONTINUOUS
 10
7.4728454969
 20
5.5346118012
 11
7.6603454969
 21
5.5346118012
  0
LINE
  5
257
100
AcDbEntity
  8
ALL_ASSEMBLY_MEMBERS
100
AcDbLine
 62
7
  6
CONTINUOUS
 10
6.3088454969
 20
5.2114067205
 11
6.3178203602
 21
5.1958618012
  0
LINE
  5
258
100
AcDbEntity
  8
ALL_ASSEMBLY_MEMBERS
100
AcDbLine
 62
7
  6
CONTINUOUS
 10
6.3140707672
 20
5.5523562868
 11
6.5458737165
 21
5.1508618012
  0
LINE
  5
259
100
AcDbEntity
  8
ALL_ASSEMBLY_MEMBERS
100
AcDbLine
 62
7
  6
CONTINUOUS
 10
6.9088454969
 20
5.0983574753
 11
6.9088454969
 21
4.7833661271
  0
LINE
  5
25A
100
AcDbEntity
  8
ALL_ASSEMBLY_MEMBERS
100
AcDbLine
 62
7
  6
CONTINUOUS
 10
6.9188454969
 20
4.6127368012
 11
6.9188454969
 21
5.2689868012
  0
LINE
  5
25B
100
AcDbEntity
  8
ALL_ASSEMBLY_MEMBERS
100
AcDbLine
 62
7
  6
CONTINUOUS
 10
7.4728454969
 20
4.3471125147
 11
7.4728454969
 21
5.5346110878
  0
LINE
  5
25C
100
AcDbEntity
  8
ALL_ASSEMBLY_MEMBERS
100
AcDbLine
 62
7
  6
CONTINUOUS
 10
7.6603454969
 20
4.3471125147
 11
7.6603454969
 21
5.5346110878
  0
ARC
  5
25D
100
AcDbEntity
  8
ALL_ASSEMBLY_MEMBERS
100
AcDbCircle
 62
7
  6
CONTINUOUS
 10
4.5353454969
 20
3.9408618012
 40
1.21875
100
AcDbArc
 50
90.0
 51
180.0
  0
ARC
  5
25E
100
AcDbEntity
  8
ALL_ASSEMBLY_MEMBERS
100
AcDbCircle
 62
7
  6
CONTINUOUS
 10
4.5353454969
 20
3.9408618012
 40
0.78125
100
AcDbArc
 50
90.0
 51
180.0
  0
ARC
  5
25F
100
AcDbEntity
  8
ALL_ASSEMBLY_MEMBERS
100
AcDbCircle
 62
7
  6
CONTINUOUS
 10
6.1757295855
 20
5.5580396701
 40
0.1331156885
100
AcDbArc
 50
0.0741877445
 51
2.7778303851
  0
ARC
  5
260
100
AcDbEntity
  8
ALL_ASSEMBLY_MEMBERS
100
AcDbCircle
 62
7
  6
CONTINUOUS
 10
6.1818076113
 20
5.5583697159
 40
0.1270288143
100
AcDbArc
 50
2.7620001249
 51
4.5234362571
  0
ARC
  5
261
100
AcDbEntity
  8
ALL_ASSEMBLY_MEMBERS
100
AcDbCircle
 62
7
  6
CONTINUOUS
 10
6.2088454969
 20
4.3221118012
 40
0.1
100
AcDbArc
 50
180.0
 51
360.0
  0
ARC
  5
262
100
AcDbEntity
  8
ALL_ASSEMBLY_MEMBERS
100
AcDbCircle
 62
7
  6
CONTINUOUS
 10
6.2088454969
 20
5.5596118012
 40
0.1
100
AcDbArc
 50
6.034909015
 51
180.0
  0
ARC
  5
263
100
AcDbEntity
  8
ALL_ASSEMBLY_MEMBERS
100
AcDbCircle
 62
7
  6
CONTINUOUS
 10
6.3530419104
 20
5.5748562868
 40
0.045
100
AcDbArc
 50
186.5841580473
 51
210.0000000005
  0
ARC
  5
264
100
AcDbEntity
  8
ALL_ASSEMBLY_MEMBERS
100
AcDbCircle
 62
7
  6
CONTINUOUS
 10
6.5848448597
 20
5.1733618012
 40
0.045
100
AcDbArc
 50
210.0
 51
270.0000000005
  0
ARC
  5
265
100
AcDbEntity
  8
ALL_ASSEMBLY_MEMBERS
100
AcDbCircle
 62
7
  6
CONTINUOUS
 10
6.278849217
 20
5.1733618012
 40
0.045
100
AcDbArc
 50
311.8606916209
 51
29.9999999917
  0
LINE
  5
266
100
AcDbEntity
  8
ALL_ASSEMBLY_MEMBERS
100
AcDbLine
 62
7
  6
CONTINUOUS
 10
6.3082912993
 20
4.6262300821
 11
6.3088452887
 21
4.5936511183
  0
SPLINE
  5
267
100
AcDbEntity
  8
ALL_ASSEMBLY_MEMBERS
100
AcDbSpline
 62
7
  6
CONTINUOUS
 70
0
 71
3
 72
22
 73
18
 74
0
 42
0.0000001
 43
0.0000001
 44
0.0000000001
 40
0.0
 40
0.0
 40
0.0
 40
0.0
 40
0.0704427022
 40
0.1394477757
 40
0.2725239463
 40
0.3365373501
 40
0.3989081851
 40
0.4597981938
 40
0.5194585608
 40
0.5782363852
 40
0.6365433142
 40
0.6948099295
 40
0.7535074083
 40
0.8130599474
 40
0.8738570743
 40
0.9361535329
 40
1.0
 40
1.0
 40
1.0
 40
1.0
 10
6.5086325187
 20
4.7753260136
 30
0.0
 10
6.5112970459
 20
4.7757925567
 30
0.0
 10
6.5165550085
 20
4.7768185902
 30
0.0
 10
6.5267280415
 20
4.779280378
 30
0.0
 10
6.5364770308
 20
4.7824356545
 30
0.0
 10
6.5456057552
 20
4.7864465117
 30
0.0
 10
6.5519609664
 20
4.7898289645
 30
0.0
 10
6.55786895
 20
4.7936454274
 30
0.0
 10
6.5632921082
 20
4.7979067235
 30
0.0
 10
6.5681900821
 20
4.8026228768
 30
0.0
 10
6.5725233474
 20
4.8077943168
 30
0.0
 10
6.5762597888
 20
4.8134093969
 30
0.0
 10
6.5793611626
 20
4.8194528463
 30
0.0
 10
6.5818036645
 20
4.8258949778
 30
0.0
 10
6.5835602449
 20
4.832699461
 30
0.0
 10
6.58461473
 20
4.8398124409
 30
0.0
 10
6.5848447296
 20
4.8446600393
 30
0.0
 10
6.5848448597
 20
4.8471118012
 30
0.0
  0
SPLINE
  5
268
100
AcDbEntity
  8
ALL_ASSEMBLY_MEMBERS
100
AcDbSpline
 62
7
  6
CONTINUOUS
 70
0
 71
3
 72
15
 73
11
 74
0
 42
0.0000001
 43
0.0000001
 44
0.0000000001
 40
0.0
 40
0.0
 40
0.0
 40
0.0
 40
0.1218295975
 40
0.2417525318
 40
0.3614584705
 40
0.4824822472
 40
0.6061042815
 40
0.7332667722
 40
0.8645559183
 40
1.0
 40
1.0
 40
1.0
 40
1.0
 10
6.52781372
 20
4.7919700492
 30
0.0
 10
6.5293148438
 20
4.7932754871
 30
0.0
 10
6.5321497924
 20
4.7960380158
 30
0.0
 10
6.5358597767
 20
4.8006463752
 30
0.0
 10
6.5389793009
 20
4.8056581307
 30
0.0
 10
6.5415154583
 20
4.811054322
 30
0.0
 10
6.543476063
 20
4.816812631
 30
0.0
 10
6.5448676926
 20
4.8229049827
 30
0.0
 10
6.5456961199
 20
4.8292920678
 30
0.0
 10
6.5458736692
 20
4.8336501333
 30
0.0
 10
6.5458737165
 20
4.8358618012
 30
0.0
  0
SPLINE
  5
269
100
AcDbEntity
  8
ALL_ASSEMBLY_MEMBERS
100
AcDbSpline
 62
7
  6
CONTINUOUS
 70
0
 71
3
 72
44
 73
40
 74
0
 42
0.0000001
 43
0.0000001
 44
0.0000000001
 40
0.0
 40
0.0
 40
0.0
 40
0.0
 40
0.000058285
 40
0.0002321688
 40
0.0005197709
 40
0.000919211
 40
0.0014286087
 40
0.0020460839
 40
0.0035977467
 40
0.0055591604
 40
0.0079152886
 40
0.0106510969
 40
0.0137513536
 40
0.0171981415
 40
0.0209716232
 40
0.0294191768
 40
0.03893511
 40
0.0493606434
 40
0.0605485294
 40
0.072408385
 40
0.0848675692
 40
0.0978535534
 40
0.1251185369
 40
0.1537605734
 40
0.1835426155
 40
0.2142475352
 40
0.2457090056
 40
0.2778308086
 40
0.3105234849
 40
0.3437163135
 40
0.4114210404
 40
0.4806567411
 40
0.5512456377
 40
0.6230805331
 40
0.6961035577
 40
0.7702935353
 40
0.8456558937
 40
0.9222143043
 40
1.0
 40
1.0
 40
1.0
 40
1.0
 10
6.3140707672
 20
5.5523562868
 30
0.0
 10
6.3140696035
 20
5.5523580229
 30
0.0
 10
6.3140755252
 20
5.5523407745
 30
0.0
 10
6.3140760002
 20
5.5523314297
 30
0.0
 10
6.3140852958
 20
5.5522964252
 30
0.0
 10
6.3140942312
 20
5.552256849
 30
0.0
 10
6.3141071741
 20
5.5522027503
 30
0.0
 10
6.3141290263
 20
5.552109651
 30
0.0
 10
6.3141629622
 20
5.5519651968
 30
0.0
 10
6.3142107306
 20
5.551760346
 30
0.0
 10
6.3142678973
 20
5.551513925
 30
0.0
 10
6.3143338908
 20
5.551227686
 30
0.0
 10
6.3144082371
 20
5.5509032189
 30
0.0
 10
6.3144903465
 20
5.5505423629
 30
0.0
 10
6.3146140729
 20
5.5499943268
 30
0.0
 10
6.314783547
 20
5.5492335118
 30
0.0
 10
6.3150006513
 20
5.548238934
 30
0.0
 10
6.3152334188
 20
5.5471472085
 30
0.0
 10
6.3154772073
 20
5.5459719109
 30
0.0
 10
6.3157287414
 20
5.544723764
 30
0.0
 10
6.3159853529
 20
5.5434108882
 30
0.0
 10
6.3163366547
 20
5.5415536932
 30
0.0
 10
6.3167719488
 20
5.5391218465
 30
0.0
 10
6.3172708723
 20
5.5360898196
 30
0.0
 10
6.3177447196
 20
5.5329289733
 30
0.0
 10
6.3181844241
 20
5.5296611378
 30
0.0
 10
6.3185824938
 20
5.5263034537
 30
0.0
 10
6.3189337297
 20
5.5228688824
 30
0.0
 10
6.3192330247
 20
5.5193670538
 30
0.0
 10
6.3195587531
 20
5.5145875717
 30
0.0
 10
6.3198110533
 20
5.5084905637
 30
0.0
 10
6.3198385475
 20
5.5010470359
 30
0.0
 10
6.3195605863
 20
5.4934600638
 30
0.0
 10
6.3189416564
 20
5.4857565923
 30
0.0
 10
6.3179407472
 20
5.4779625572
 30
0.0
 10
6.316508747
 20
5.4701066827
 30
0.0
 10
6.3145854853
 20
5.4622244142
 30
0.0
 10
6.312097196
 20
5.4543653905
 30
0.0
 10
6.3100170044
 20
5.4492279233
 30
0.0
 10
6.3088530467
 20
5.446693091
 30
0.0
  0
LINE
  5
26A
100
AcDbEntity
  8
ALL_ASSEMBLY_MEMBERS
100
AcDbLine
 62
7
  6
CONTINUOUS
 10
6.3088452973
 20
4.6709352626
 11
6.3082912993
 21
4.6262300821
  0
SPLINE
  5
26B
100
AcDbEntity
  8
ALL_ASSEMBLY_MEMBERS
100
AcDbSpline
 62
7
  6
CONTINUOUS
 70
0
 71
3
 72
74
 73
70
 74
0
 42
0.0000001
 43
0.0000001
 44
0.0000000001
 40
0.0
 40
0.0
 40
0.0
 40
0.0
 40
0.0000215465
 40
0.0000856646
 40
0.0001920288
 40
0.0003403136
 40
0.0005301933
 40
0.0007613424
 40
0.0013461466
 40
0.0020921217
 40
0.0029966631
 40
0.0040571664
 40
0.0052710273
 40
0.0081478303
 40
0.0115960043
 40
0.0155764532
 40
0.0200498396
 40
0.0249768279
 40
0.0303188588
 40
0.0421189905
 40
0.0552048006
 40
0.0693509809
 40
0.0843922187
 40
0.1001803396
 40
0.1166032117
 40
0.1335672436
 40
0.1688235835
 40
0.2054920267
 40
0.2432599795
 40
0.2819076557
 40
0.3212770426
 40
0.3612516786
 40
0.4017433229
 40
0.4426831961
 40
0.4840113981
 40
0.5256742997
 40
0.5676026643
 40
0.6097137848
 40
0.6518514056
 40
0.6728755644
 40
0.693804656
 40
0.7145898061
 40
0.7351831198
 40
0.755508634
 40
0.7754803833
 40
0.7950151036
 40
0.8140336144
 40
0.8501741638
 40
0.8832923851
 40
0.912926613
 40
0.9263147156
 40
0.9386992109
 40
0.9500379187
 40
0.9602970012
 40
0.969444992
 40
0.9774475186
 40
0.9842748107
 40
0.9899024452
 40
0.9922585379
 40
0.9943052008
 40
0.9960402227
 40
0.9974624222
 40
0.9985706554
 40
0.9990066751
 40
0.9993637707
 40
0.999641797
 40
0.9998406082
 40
0.9999600581
 40
1.0
 40
1.0
 40
1.0
 40
1.0
 10
6.3178203602
 20
5.1958618012
 30
0.0
 10
6.3178215891
 20
5.1958605124
 30
0.0
 10
6.317828272
 20
5.195857592
 30
0.0
 10
6.3178410905
 20
5.1958484004
 30
0.0
 10
6.3178638204
 20
5.1958349205
 30
0.0
 10
6.3178948459
 20
5.1958153014
 30
0.0
 10
6.3179348548
 20
5.195790512
 30
0.0
 10
6.3180054071
 20
5.1957465551
 30
0.0
 10
6.3181150463
 20
5.1956784001
 30
0.0
 10
6.3182719438
 20
5.1955808588
 30
0.0
 10
6.3184622745
 20
5.1954626251
 30
0.0
 10
6.3186854849
 20
5.1953240378
 30
0.0
 10
6.3190472409
 20
5.1950995655
 30
0.0
 10
6.3195768082
 20
5.1947712559
 30
0.0
 10
6.3203009999
 20
5.1943229232
 30
0.0
 10
6.3211377965
 20
5.1938057921
 30
0.0
 10
6.3220790853
 20
5.1932252518
 30
0.0
 10
6.3231167943
 20
5.1925866737
 30
0.0
 10
6.3246712761
 20
5.1916324368
 30
0.0
 10
6.3268028391
 20
5.190329337
 30
0.0
 10
6.329559822
 20
5.1886542185
 30
0.0
 10
6.3325514114
 20
5.1868493746
 30
0.0
 10
6.3357408305
 20
5.1849401237
 30
0.0
 10
6.3390993273
 20
5.1829470188
 30
0.0
 10
6.3426030526
 20
5.1808873038
 30
0.0
 10
6.3475067304
 20
5.1780341157
 30
0.0
 10
6.3538837958
 20
5.1743861434
 30
0.0
 10
6.3618030947
 20
5.1699723543
 30
0.0
 10
6.3700249691
 20
5.1655271217
 30
0.0
 10
6.3785094089
 20
5.1611001268
 30
0.0
 10
6.3872308308
 20
5.1567357778
 30
0.0
 10
6.3961736789
 20
5.1524771576
 30
0.0
 10
6.4053293129
 20
5.1483688529
 30
0.0
 10
6.4146935886
 20
5.1444599138
 30
0.0
 10
6.4242653315
 20
5.1408080954
 30
0.0
 10
6.4340409651
 20
5.1374782972
 30
0.0
 10
6.4440144415
 20
5.1345551009
 30
0.0
 10
6.4541623987
 20
5.1321309277
 30
0.0
 10
6.4627384507
 20
5.1306223793
 30
0.0
 10
6.4696389155
 20
5.1297822386
 30
0.0
 10
6.4748074508
 20
5.1293494264
 30
0.0
 10
6.4799538609
 20
5.1291272326
 30
0.0
 10
6.4850553381
 20
5.1291301767
 30
0.0
 10
6.4900844584
 20
5.1293576978
 30
0.0
 10
6.4950108968
 20
5.1298069702
 30
0.0
 10
6.4998030881
 20
5.1304790016
 30
0.0
 10
6.5058699411
 20
5.131630788
 30
0.0
 10
6.5129388942
 20
5.133482759
 30
0.0
 10
6.5206361165
 20
5.136259677
 30
0.0
 10
6.5263775718
 20
5.1388501709
 30
0.0
 10
6.5304495929
 20
5.1409464864
 30
0.0
 10
6.5331336416
 20
5.1424318785
 30
0.0
 10
6.5355549465
 20
5.1438556584
 30
0.0
 10
6.5377147028
 20
5.145195001
 30
0.0
 10
6.5396144213
 20
5.1464293742
 30
0.0
 10
6.5412573294
 20
5.1475377527
 30
0.0
 10
6.5426452832
 20
5.1485034397
 30
0.0
 10
6.5436409589
 20
5.1492156029
 30
0.0
 10
6.5443113414
 20
5.1497032917
 30
0.0
 10
6.5447204598
 20
5.1500032239
 30
0.0
 10
6.5450666258
 20
5.1502584767
 30
0.0
 10
6.545349743
 20
5.1504685401
 30
0.0
 10
6.54554625
 20
5.15061516
 30
0.0
 10
6.5456719377
 20
5.150709479
 30
0.0
 10
6.5457427536
 20
5.1507626193
 30
0.0
 10
6.5457976019
 20
5.1508043277
 30
0.0
 10
6.545837295
 20
5.1508336166
 30
0.0
 10
6.5458601876
 20
5.1508523012
 30
0.0
 10
6.5458713874
 20
5.1508594618
 30
0.0
 10
6.5458737165
 20
5.1508618012
 30
0.0
  0
SPLINE
  5
26C
100
AcDbEntity
  8
ALL_ASSEMBLY_MEMBERS
100
AcDbSpline
 62
7
  6
CONTINUOUS
 70
0
 71
3
 72
26
 73
22
 74
0
 42
0.0000001
 43
0.0000001
 44
0.0000000001
 40
0.0
 40
0.0
 40
0.0
 40
0.0
 40
0.168853637
 40
0.3140704679
 40
0.5370919656
 40
0.6225693677
 40
0.6950145139
 40
0.7568860832
 40
0.8096898676
 40
0.8547088095
 40
0.8927519939
 40
0.9243629565
 40
0.9500023014
 40
0.9606690033
 40
0.969942501
 40
0.9778610228
 40
0.9844687916
 40
0.9898192432
 40
0.9940118075
 40
0.9972573264
 40
1.0
 40
1.0
 40
1.0
 40
1.0
 10
6.3140707672
 20
4.6351145584
 30
0.0
 10
6.3140707463
 20
4.6337439963
 30
0.0
 10
6.3141371385
 20
4.631193707
 30
0.0
 10
6.3145127024
 20
4.6268485833
 30
0.0
 10
6.3151813531
 20
4.6232137977
 30
0.0
 10
6.3160507124
 20
4.6202447182
 30
0.0
 10
6.3166526443
 20
4.6185643833
 30
0.0
 10
6.3172311928
 20
4.6171595024
 30
0.0
 10
6.317777866
 20
4.6159838302
 30
0.0
 10
6.31827517
 20
4.6149993732
 30
0.0
 10
6.3187143404
 20
4.6141786364
 30
0.0
 10
6.3190892985
 20
4.6135021184
 30
0.0
 10
6.3193553773
 20
4.6130192837
 30
0.0
 10
6.3195276049
 20
4.6126918333
 30
0.0
 10
6.3196284111
 20
4.6124893915
 30
0.0
 10
6.3197083673
 20
4.612313462
 30
0.0
 10
6.3197668122
 20
4.6121629649
 30
0.0
 10
6.3198033755
 20
4.6120367596
 30
0.0
 10
6.3198174606
 20
4.6119334317
 30
0.0
 10
6.3198076818
 20
4.6118496721
 30
0.0
 10
6.3197796757
 20
4.6118070007
 30
0.0
 10
6.3197628551
 20
4.6117924178
 30
0.0
  0
SPLINE
  5
26D
100
AcDbEntity
  8
ALL_ASSEMBLY_MEMBERS
100
AcDbSpline
 62
7
  6
CONTINUOUS
 70
0
 71
3
 72
34
 73
30
 74
0
 42
0.0000001
 43
0.0000001
 44
0.0000000001
 40
0.0
 40
0.0
 40
0.0
 40
0.0
 40
0.0278768713
 40
0.056647634
 40
0.0862072045
 40
0.1164289127
 40
0.1782065301
 40
0.2410142031
 40
0.272610218
 40
0.3042441261
 40
0.3358922403
 40
0.367544512
 40
0.3991976095
 40
0.4308512674
 40
0.4625080132
 40
0.4941653676
 40
0.5574531731
 40
0.5891120842
 40
0.6207664076
 40
0.652419314
 40
0.6840691009
 40
0.7473507617
 40
0.8106312028
 40
0.8422743865
 40
0.8739078681
 40
0.905520931
 40
0.9370952536
 40
0.9686028583
 40
1.0
 40
1.0
 40
1.0
 40
1.0
 10
6.5848448597
 20
4.8471118012
 30
0.0
 10
6.584844811
 20
4.8503417452
 30
0.0
 10
6.5844378562
 20
4.8569107103
 30
0.0
 10
6.5826909558
 20
4.8667642137
 30
0.0
 10
6.5798279033
 20
4.8766368992
 30
0.0
 10
6.5745496845
 20
4.8897162688
 30
0.0
 10
6.5654195559
 20
4.9052906654
 30
0.0
 10
6.5534599416
 20
4.9190167748
 30
0.0
 10
6.5424283748
 20
4.9286118911
 30
0.0
 10
6.5334942228
 20
4.9350446057
 30
0.0
 10
6.5240088142
 20
4.9406428208
 30
0.0
 10
6.5140623854
 20
4.9453776119
 30
0.0
 10
6.5037460896
 20
4.9492395168
 30
0.0
 10
6.4931481755
 20
4.9522403501
 30
0.0
 10
6.4823496072
 20
4.9544091252
 30
0.0
 10
6.4677859067
 20
4.9562440215
 30
0.0
 10
6.453074575
 20
4.9565947736
 30
0.0
 10
6.4384309778
 20
4.9556612144
 30
0.0
 10
6.4274985303
 20
4.9543666667
 30
0.0
 10
6.4166483996
 20
4.952517263
 30
0.0
 10
6.402320522
 20
4.9493612926
 30
0.0
 10
6.3847067184
 20
4.9441912688
 30
0.0
 10
6.3676077574
 20
4.9375192434
 30
0.0
 10
6.3543221004
 20
4.9313040148
 30
0.0
 10
6.3445805198
 20
4.9261984454
 30
0.0
 10
6.3350987504
 20
4.9206404216
 30
0.0
 10
6.3259236937
 20
4.9146142248
 30
0.0
 10
6.3171189124
 20
4.9080999859
 30
0.0
 10
6.3115375941
 20
4.9034024249
 30
0.0
 10
6.30884114
 20
4.9009605279
 30
0.0
  0
SPLINE
  5
26E
100
AcDbEntity
  8
ALL_ASSEMBLY_MEMBERS
100
AcDbSpline
 62
7
  6
CONTINUOUS
 70
0
 71
3
 72
35
 73
31
 74
0
 42
0.0000001
 43
0.0000001
 44
0.0000000001
 40
0.0
 40
0.0
 40
0.0
 40
0.0
 40
0.0281285137
 40
0.0570965199
 40
0.0867989012
 40
0.1171286033
 40
0.1479621006
 40
0.1791813341
 40
0.2106774948
 40
0.2423579781
 40
0.274150883
 40
0.3060053751
 40
0.3378889185
 40
0.3697802529
 40
0.3857292574
 40
0.4016728432
 40
0.4335210654
 40
0.4653160934
 40
0.4970394318
 40
0.5286853038
 40
0.5602437401
 40
0.5917250089
 40
0.6231349424
 40
0.6544871726
 40
0.6857989427
 40
0.7483487479
 40
0.8109319246
 40
0.8736687717
 40
0.9366650785
 40
1.0
 40
1.0
 40
1.0
 40
1.0
 10
6.5458737165
 20
4.8358618012
 30
0.0
 10
6.5458736999
 20
4.8382375838
 30
0.0
 10
6.5456630899
 20
4.8430621177
 30
0.0
 10
6.5447503876
 20
4.8503435745
 30
0.0
 10
6.543234027
 20
4.8577139283
 30
0.0
 10
6.5411117097
 20
4.865097187
 30
0.0
 10
6.5383773839
 20
4.872413802
 30
0.0
 10
6.5350235564
 20
4.8795777807
 30
0.0
 10
6.5310413584
 20
4.8864965256
 30
0.0
 10
6.5264235933
 20
4.893069579
 30
0.0
 10
6.5211695432
 20
4.8991885545
 30
0.0
 10
6.515292095
 20
4.9047396473
 30
0.0
 10
6.5088278539
 20
4.9096108399
 30
0.0
 10
6.503003459
 20
4.913022856
 30
0.0
 10
6.4981328196
 20
4.9153311142
 30
0.0
 10
6.4931398526
 20
4.9173515805
 30
0.0
 10
6.4867028847
 20
4.9193401442
 30
0.0
 10
6.4787824352
 20
4.9208797021
 30
0.0
 10
6.4707685972
 20
4.9216360824
 30
0.0
 10
6.4627417716
 20
4.9216814874
 30
0.0
 10
6.4547581989
 20
4.9211026975
 30
0.0
 10
6.4468555884
 20
4.919972191
 30
0.0
 10
6.4390554817
 20
4.9183628903
 30
0.0
 10
6.4313706395
 20
4.9163292566
 30
0.0
 10
6.4212906231
 20
4.9131177135
 30
0.0
 10
6.4089856939
 20
4.9082548162
 30
0.0
 10
6.3947190331
 20
4.9012767907
 30
0.0
 10
6.3809615452
 20
4.8932671754
 30
0.0
 10
6.3677537007
 20
4.8842690613
 30
0.0
 10
6.3593942543
 20
4.8776169045
 30
0.0
 10
6.3553502036
 20
4.874115265
 30
0.0
  0
SPLINE
  5
26F
100
AcDbEntity
  8
ALL_ASSEMBLY_MEMBERS
100
AcDbSpline
 62
7
  6
CONTINUOUS
 70
0
 71
3
 72
25
 73
21
 74
0
 42
0.0000001
 43
0.0000001
 44
0.0000000001
 40
0.0
 40
0.0
 40
0.0
 40
0.0
 40
0.0555596497
 40
0.1117333337
 40
0.1687018252
 40
0.2265630927
 40
0.285372157
 40
0.345164335
 40
0.4059700321
 40
0.4678249242
 40
0.5948913317
 40
0.6602838478
 40
0.7270617719
 40
0.7953184355
 40
0.8299773209
 40
0.8648926153
 40
0.8999113925
 40
0.9345811958
 40
0.9683031457
 40
1.0
 40
1.0
 40
1.0
 40
1.0
 10
6.3088551595
 20
4.7590794008
 30
0.0
 10
6.3100323458
 20
4.7570655934
 30
0.0
 10
6.3121373004
 20
4.7528586119
 30
0.0
 10
6.3146195254
 20
4.7462144352
 30
0.0
 10
6.3165357387
 20
4.739287257
 30
0.0
 10
6.3179607433
 20
4.7321322798
 30
0.0
 10
6.3189553052
 20
4.7247865894
 30
0.0
 10
6.319568416
 20
4.7172762664
 30
0.0
 10
6.3198408173
 20
4.7096185975
 30
0.0
 10
6.3197962119
 20
4.6991318403
 30
0.0
 10
6.3191936414
 20
4.6884642006
 30
0.0
 10
6.3181911262
 20
4.6776263933
 30
0.0
 10
6.3172635186
 20
4.669262461
 30
0.0
 10
6.3164076478
 20
4.66218961
 30
0.0
 10
6.3157176379
 20
4.6564441485
 30
0.0
 10
6.3152187458
 20
4.652081273
 30
0.0
 10
6.3147631027
 20
4.647713136
 30
0.0
 10
6.3143889932
 20
4.6433872706
 30
0.0
 10
6.3141394826
 20
4.6391919886
 30
0.0
 10
6.3140707366
 20
4.6364453301
 30
0.0
 10
6.3140707672
 20
4.6351145584
 30
0.0
  0
SPLINE
  5
270
100
AcDbEntity
  8
ALL_ASSEMBLY_MEMBERS
100
AcDbSpline
 62
7
  6
CONTINUOUS
 70
0
 71
3
 72
48
 73
44
 74
0
 42
0.0000001
 43
0.0000001
 44
0.0000000001
 40
0.0
 40
0.0
 40
0.0
 40
0.0
 40
0.062434219
 40
0.1300173196
 40
0.2010012712
 40
0.2743669149
 40
0.3494633766
 40
0.4258075393
 40
0.5029412275
 40
0.5416344644
 40
0.5802909783
 40
0.6187853826
 40
0.656964269
 40
0.6946474156
 40
0.7316025211
 40
0.7675761155
 40
0.8022660345
 40
0.835347722
 40
0.8664680587
 40
0.8952529312
 40
0.921318542
 40
0.9332083483
 40
0.944271033
 40
0.9544596931
 40
0.9637268251
 40
0.9720248695
 40
0.9793128833
 40
0.9855546536
 40
0.9882718448
 40
0.9907138186
 40
0.9928760752
 40
0.9947555917
 40
0.9963506441
 40
0.9976595503
 40
0.9982061724
 40
0.9986806262
 40
0.999082701
 40
0.9994121857
 40
0.9996688692
 40
0.9998525404
 40
0.9999169302
 40
0.9999629878
 40
1.0
 40
1.0
 40
1.0
 40
1.0
 10
6.3088409234
 20
5.1194729489
 30
0.0
 10
6.3145352185
 20
5.1178672927
 30
0.0
 10
6.3264209694
 20
5.11462018
 30
0.0
 10
6.3448911737
 20
5.1099617014
 30
0.0
 10
6.3644814439
 20
5.1055290062
 30
0.0
 10
6.3848974732
 20
5.1015568225
 30
0.0
 10
6.4059519135
 20
5.0982723768
 30
0.0
 10
6.4274923068
 20
5.0959173475
 30
0.0
 10
6.4456897359
 20
5.0949506228
 30
0.0
 10
6.4603313056
 20
5.0949011208
 30
0.0
 10
6.4713055709
 20
5.0952600523
 30
0.0
 10
6.4822097299
 20
5.0960337837
 30
0.0
 10
6.4929825195
 20
5.0972360276
 30
0.0
 10
6.503551212
 20
5.0988672382
 30
0.0
 10
6.5138370886
 20
5.1009004901
 30
0.0
 10
6.5237505032
 20
5.1033058597
 30
0.0
 10
6.533204954
 20
5.1060104412
 30
0.0
 10
6.5421071941
 20
5.1089448857
 30
0.0
 10
6.5503722046
 20
5.1120050265
 30
0.0
 10
6.5579145722
 20
5.1150877745
 30
0.0
 10
6.5636964331
 20
5.1176526939
 30
0.0
 10
6.5679046975
 20
5.1196192964
 30
0.0
 10
6.5707341222
 20
5.1209822048
 30
0.0
 10
6.5733259703
 20
5.1222652073
 30
0.0
 10
6.575671584
 20
5.1234547963
 30
0.0
 10
6.577763102
 20
5.1245375013
 30
0.0
 10
6.5795929654
 20
5.1255019088
 30
0.0
 10
6.5809501434
 20
5.1262288323
 30
0.0
 10
6.581900265
 20
5.1267430923
 30
0.0
 10
6.5825096135
 20
5.1270748086
 30
0.0
 10
6.5830487067
 20
5.1273695557
 30
0.0
 10
6.5835169993
 20
5.1276265016
 30
0.0
 10
6.5839140607
 20
5.1278451625
 30
0.0
 10
6.5842002457
 20
5.1280033233
 30
0.0
 10
6.5843933615
 20
5.1281103542
 30
0.0
 10
6.584511271
 20
5.1281758077
 30
0.0
 10
6.5846111396
 20
5.1282313738
 30
0.0
 10
6.5846929704
 20
5.1282768935
 30
0.0
 10
6.5847566185
 20
5.1283125831
 30
0.0
 10
6.5847984875
 20
5.1283356215
 30
0.0
 10
6.5848226535
 20
5.1283496276
 30
0.0
 10
6.5848351231
 20
5.1283557528
 30
0.0
 10
6.5848414558
 20
5.1283609557
 30
0.0
 10
6.5848448597
 20
5.1283618012
 30
0.0
  0
ENDSEC
  0
SECTION
  2
OBJECTS
  0
DICTIONARY
  5
C
100
AcDbDictionary
280
0
281
1
  3
ACAD_GROUP
350
D
  3
ACAD_MLINESTYLE
350
17
  3
ACAD_LAYOUT
350
1A
  3
ACAD_PLOTSETTINGS
350
19
  3
ACAD_PLOTSTYLENAME
350
E
  0
DICTIONARY
  5
D
102
{ACAD_REACTORS
330
C
102
}
100
AcDbDictionary
280
0
281
1
  0
ACDBDICTIONARYWDFLT
  5
E
102
{ACAD_REACTORS
330
C
102
}
100
AcDbDictionary
281
1
  3
Normal
350
F
100
AcDbDictionaryWithDefault
340
F
  0
DICTIONARY
  5
17
102
{ACAD_REACTORS
330
C
102
}
100
AcDbDictionary
280
0
281
1
  3
Standard
350
18
  0
DICTIONARY
  5
19
102
{ACAD_REACTORS
330
C
102
}
100
AcDbDictionary
281
1
  0
DICTIONARY
  5
1A
102
{ACAD_REACTORS
330
C
102
}
100
AcDbDictionary
281
1
  3
Model
350
271
  3
Layout1
350
272
  0
ACDBPLACEHOLDER
  5
F
102
{ACAD_REACTORS
330
E
102
}
  0
MLINESTYLE
  5
18
102
{ACAD_REACTORS
330
17
102
}
100
AcDbMlineStyle
  2
STANDARD
 70
0
  3

 62
256
 51
90.0
 52
90.0
 71
2
 49
0.5
 62
256
  6
BYLAYER
 49
-0.5
 62
256
  6
BYLAYER
  0
LAYOUT
  5
271
102
{ACAD_REACTORS
330
1A
102
}
100
AcDbPlotSettings
  1

  2
none_device
  4
ANSI_A_(11.00_x_8.50_Inches)
  6

 40
0.0
 41
0.0
 42
0.0
 43
0.0
 44
279.4
 45
215.9
 46
0.0
 47
0.0
 48
0.0
 49
0.0
140
0.0
141
0.0
142
1.0
143
1.0
 70
1024
 72
0
 73
0
 74
0
  7

 75
0
147
1.0
148
0.0
149
0.0
100
AcDbLayout
  1
Model
 70
0
 71
0
 10
0.0
 20
0.0
 11
11.0
 21
8.5
 12
0.0
 22
0.0
 32
0.0
 14
0.0
 24
0.0
 34
0.0
 15
0.0
 25
0.0
 35
0.0
146
0.0
 13
0.0
 23
0.0
 33
0.0
 16
1.0
 26
0.0
 36
0.0
 17
0.0
 27
1.0
 37
0.0
 76
0
330
21F
345
0
346
0
  0
LAYOUT
  5
272
102
{ACAD_REACTORS
330
1A
102
}
100
AcDbPlotSettings
  1

  2
none_device
  4
ANSI_A_(11.00_x_8.50_Inches)
  6

 40
0.0
 41
0.0
 42
0.0
 43
0.0
 44
279.4
 45
215.9
 46
0.0
 47
0.0
 48
0.0
 49
0.0
140
0.0
141
0.0
142
1.0
143
1.0
 70
0
 72
0
 73
0
 74
0
  7

 75
0
147
1.0
148
0.0
149
0.0
100
AcDbLayout
  1
Layout1
 70
0
 71
1
 10
0.0
 20
0.0
 11
11.0
 21
8.5
 12
0.0
 22
0.0
 32
0.0
 14
0.0
 24
0.0
 34
0.0
 15
0.0
 25
0.0
 35
0.0
146
0.0
 13
0.0
 23
0.0
 33
0.0
 16
1.0
 26
0.0
 36
0.0
 17
0.0
 27
1.0
 37
0.0
 76
0
330
220
345
0
346
0
  0
ENDSEC
  0
EOF
