999
DXF file: 3-2923TR_FRONT.dxf
999
Pro/ENGINEER 2014000 by Parametric Technology Corporation
  0
SECTION
  2
HEADER
  9
$ACADVER
  1
AC1015
  9
$DWGCODEPAGE
  3
ANSI_1252
  9
$EXTMAX
 10
11.6929133858
 20
8.2677165354
 30
0.0
  9
$EXTMIN
 10
0.0
 20
-0.0
 30
0.0
  9
$LIMMIN
 10
0.0
 20
-0.0
  9
$LIMMAX
 10
11.6929133858
 20
8.2677165354
  9
$VIEWCTR
 10
5.8464566929
 20
4.1338582677
  9
$VIEWSIZE
 40
8.2677165354
  9
$CLAYER
  8
0
  9
$LTSCALE
 40
0.6431102362
  9
$CELTYPE
  6
BYLAYER
  9
$DIMSCALE
 40
1.0
  9
$DIMASZ
 40
0.1875
  9
$DIMEXO
 40
0.0625
  9
$DIMDLI
 40
0.4443307087
  9
$DIMEXE
 40
0.125
  9
$DIMCEN
 40
0.1052362205
  9
$DIMLFAC
 40
1.0
  9
$DIMBLK
  1
_CLOSED
  9
$DIMTXT
 40
0.15625
  9
$DIMTOL
 70
0
  9
$DIMLIM
 70
0
  9
$DIMTFAC
 40
1.0
  9
$DIMGAP
 40
0.09
  9
$DIMDSEP
 70
46
  9
$PDMODE
 70
3
  9
$PDSIZE
 40
0.3125
  9
$HANDSEED
  5
2CA
  9
$TILEMODE
 70
1
  9
$MEASUREMENT
 70
0
  9
$INSUNITS
 70
1
  0
ENDSEC
  0
SECTION
  2
CLASSES
  0
CLASS
  1
ACDBDICTIONARYWDFLT
  2
AcDbDictionaryWithDefault
  3
AutoCAD 2000
 90
0
280
0
281
0
  0
CLASS
  1
ACDBPLACEHOLDER
  2
AcDbPlaceHolder
  3
AutoCAD 2000
 90
0
280
0
281
0
  0
CLASS
  1
LAYOUT
  2
AcDbLayout
  3
AutoCAD 2000
 90
0
280
0
281
0
  0
ENDSEC
  0
SECTION
  2
TABLES
  0
TABLE
  2
VPORT
  5
8
100
AcDbSymbolTable
 70
2
  0
VPORT
  5
1F4
100
AcDbSymbolTableRecord
100
AcDbViewportTableRecord
  2
*ACTIVE
 70
0
 10
0.0
 20
0.0
 11
1.0
 21
1.0
 12
5.8464566929
 22
4.1338582677
 13
0.0
 23
0.0
 14
1.0
 24
1.0
 15
0.0
 25
0.0
 16
0.0
 26
0.0
 36
1.0
 17
0.0
 27
0.0
 37
0.0
 40
8.2677165354
 41
1.4142857143
 42
50.0
 43
0.0
 44
0.0
 50
0.0
 51
0.0
 71
0
 72
100
 73
1
 74
1
 75
0
 76
0
 77
0
 78
0
  0
ENDTAB
  0
TABLE
  2
LTYPE
  5
5
100
AcDbSymbolTable
 70
6
  0
LTYPE
  5
14
100
AcDbSymbolTableRecord
100
AcDbLinetypeTableRecord
  2
BYBLOCK
 70
0
  3

 72
65
 73
0
 40
0.0
  0
LTYPE
  5
15
100
AcDbSymbolTableRecord
100
AcDbLinetypeTableRecord
  2
BYLAYER
 70
0
  3

 72
65
 73
0
 40
0.0
  0
LTYPE
  5
16
100
AcDbSymbolTableRecord
100
AcDbLinetypeTableRecord
  2
CONTINUOUS
 70
64
  3
Solid line
 72
65
 73
0
 40
0.0
  0
LTYPE
  5
1F5
100
AcDbSymbolTableRecord
100
AcDbLinetypeTableRecord
  2
CENTER
 70
64
  3
____ _ ____ _ ____ _ ____ _ ____ _ ____ _ ____
 72
65
 73
4
 40
0.6
 49
0.375
 74
0
 49
-0.075
 74
0
 49
0.075
 74
0
 49
-0.075
 74
0
  0
LTYPE
  5
1F6
100
AcDbSymbolTableRecord
100
AcDbLinetypeTableRecord
  2
HIDDEN
 70
64
  3
- - - - - - - - - - - - - - - - - - - -
 72
65
 73
2
 40
0.2
 49
0.1
 74
0
 49
-0.1
 74
0
  0
LTYPE
  5
1F7
100
AcDbSymbolTableRecord
100
AcDbLinetypeTableRecord
  2
PHANTOM
 70
64
  3
_____ _ _ _____ _ _ _____ _ _ _____
 72
65
 73
6
 40
0.8
 49
0.45
 74
0
 49
-0.05
 74
0
 49
0.1
 74
0
 49
-0.05
 74
0
 49
0.1
 74
0
 49
-0.05
 74
0
  0
LTYPE
  5
1F8
100
AcDbSymbolTableRecord
100
AcDbLinetypeTableRecord
  2
DOT
 70
64
  3
. . . . . . . . . . . . . . . . . . . .
 72
65
 73
2
 40
0.2
 49
0.1
 74
0
 49
-0.1
 74
0
  0
LTYPE
  5
1F9
100
AcDbSymbolTableRecord
100
AcDbLinetypeTableRecord
  2
DASHED
 70
64
  3
- - - - - - - - - - - - - - - - - - - -
 72
65
 73
2
 40
0.2
 49
0.1
 74
0
 49
-0.1
 74
0
  0
ENDTAB
  0
TABLE
  2
LAYER
  5
2
100
AcDbSymbolTable
 70
36
  0
LAYER
  5
10
100
AcDbSymbolTableRecord
100
AcDbLayerTableRecord
  2
0
 70
0
 62
7
  6
CONTINUOUS
370
-3
390
F
  0
LAYER
  5
1FA
100
AcDbSymbolTableRecord
100
AcDbLayerTableRecord
  2
DEFAULT_1
 70
0
 62
7
  6
CENTER
370
-3
390
F
  0
LAYER
  5
1FB
100
AcDbSymbolTableRecord
100
AcDbLayerTableRecord
  2
DEFAULT_2
 70
0
 62
8
  6
HIDDEN
370
-3
390
F
  0
LAYER
  5
1FC
100
AcDbSymbolTableRecord
100
AcDbLayerTableRecord
  2
DEFAULT_3
 70
0
 62
7
  6
PHANTOM
370
-3
390
F
  0
LAYER
  5
1FD
100
AcDbSymbolTableRecord
100
AcDbLayerTableRecord
  2
DEFAULT_COORDINATE_SYSTEM
 70
0
 62
7
  6
CONTINUOUS
370
-3
390
F
  0
LAYER
  5
1FE
100
AcDbSymbolTableRecord
100
AcDbLayerTableRecord
  2
DEFAULT_DATUM_AXES
 70
0
 62
7
  6
CONTINUOUS
370
-3
390
F
  0
LAYER
  5
1FF
100
AcDbSymbolTableRecord
100
AcDbLayerTableRecord
  2
DEFAULT_DATUM_PLANES
 70
0
 62
7
  6
CONTINUOUS
370
-3
390
F
  0
ENDTAB
  0
TABLE
  2
STYLE
  5
3
100
AcDbSymbolTable
 70
1
  0
STYLE
  5
11
100
AcDbSymbolTableRecord
100
AcDbTextStyleTableRecord
  2
STANDARD
 70
0
 40
0.0
 41
0.8
 50
0.0
 71
0
 42
0.2
  3
txt
  4

  0
STYLE
  5
200
100
AcDbSymbolTableRecord
100
AcDbTextStyleTableRecord
  2
TEXTSTYLE_1
 70
0
 40
0.0
 41
0.8
 50
0.0
 71
0
 42
0.2
  3
gdt
  4

  0
ENDTAB
  0
TABLE
  2
VIEW
  5
6
100
AcDbSymbolTable
 70
0
  0
ENDTAB
  0
TABLE
  2
UCS
  5
7
100
AcDbSymbolTable
 70
0
  0
ENDTAB
  0
TABLE
  2
APPID
  5
9
100
AcDbSymbolTable
 70
1
  0
APPID
  5
201
100
AcDbSymbolTableRecord
100
AcDbRegAppTableRecord
  2
ACAD
 70
0
  0
ENDTAB
  0
TABLE
  2
BLOCK_RECORD
  5
1
100
AcDbSymbolTable
 70
0
  0
BLOCK_RECORD
  5
202
100
AcDbSymbolTableRecord
100
AcDbBlockTableRecord
  2
*Model_Space
  0
BLOCK_RECORD
  5
203
100
AcDbSymbolTableRecord
100
AcDbBlockTableRecord
  2
*Paper_Space
  0
ENDTAB
  0
TABLE
  2
DIMSTYLE
  5
A
100
AcDbSymbolTable
 70
1
100
AcDbDimStyleTable
 71
0
  0
DIMSTYLE
105
204
100
AcDbSymbolTableRecord
100
AcDbDimStyleTableRecord
  2
STANDARD
 70
0
  3

  4

 40
1.0
 41
0.1875
 42
0.0625
 43
0.38
 44
0.125
 45
0.0
 46
0.0
 47
0.001
 48
0.001
140
0.15625
141
0.09
142
0.0
143
25.4
144
1.0
145
0.0
146
1.0
147
0.09
 71
0.0
 72
0.0
 73
1
 74
1
 75
0
 76
0
 77
0
 78
4
170
0
171
2
172
0
173
0
174
0
175
0
176
0
177
0
178
0
270
2
271
3
272
3
273
2
274
2
275
0
280
0
281
0
282
0
283
1
284
4
285
0
286
0
287
3
288
0
340
11
278
46
  0
ENDTAB
  0
ENDSEC
  0
SECTION
  2
BLOCKS
  0
BLOCK
  5
20
100
AcDbEntity
  8
0
100
AcDbBlockBegin
  2
*Model_Space
 70
0
 10
0.0
 20
0.0
 30
0.0
  3
*Model_Space
  1

  0
ENDBLK
  5
21
100
AcDbEntity
  8
0
100
AcDbBlockEnd
  0
BLOCK
  5
1C
100
AcDbEntity
  8
0
100
AcDbBlockBegin
  2
*Paper_Space
 70
0
 10
0.0
 20
0.0
 30
0.0
  3
*Paper_Space
  1

  0
ENDBLK
  5
1D
100
AcDbEntity
  8
0
100
AcDbBlockEnd
  0
ENDSEC
  0
SECTION
  2
ENTITIES
  0
LINE
  5
205
100
AcDbEntity
  8
0
100
AcDbLine
 62
6
  6
CONTINUOUS
 10
5.7873162012
 20
2.2168131398
 11
5.7869093556
 21
2.2170269316
  0
LINE
  5
206
100
AcDbEntity
  8
0
100
AcDbLine
 62
6
  6
CONTINUOUS
 10
5.2043651788
 20
1.8402365712
 11
5.2039444309
 21
1.8408476605
  0
LWPOLYLINE
  5
207
100
AcDbEntity
  8
0
100
AcDbPolyline
 62
6
  6
CONTINUOUS
 90
29
 70
0
 10
5.2039444309
 20
1.8408476605
 10
5.2033783585
 20
1.8417400073
 10
5.2026619546
 20
1.842975971
 10
5.2018199091
 20
1.8445872038
 10
5.200892998
 20
1.8465878645
 10
5.1999231205
 20
1.8489995352
 10
5.1989613107
 20
1.8518338941
 10
5.1980623844
 20
1.8551056363
 10
5.1972890721
 20
1.8588218553
 10
5.1967118703
 20
1.8629756249
 10
5.1964071567
 20
1.8675232586
 10
5.1964468032
 20
1.8723981339
 10
5.1968923267
 20
1.8775238021
 10
5.1977806281
 20
1.882758939
 10
5.1990879812
 20
1.8878696469
 10
5.2007245164
 20
1.8926294036
 10
5.2025650437
 20
1.8968876287
 10
5.2045174111
 20
1.9006369177
 10
5.206518823
 20
1.9039166317
 10
5.2085160664
 20
1.9067620183
 10
5.2104460055
 20
1.9091851339
 10
5.2122516966
 20
1.9112050334
 10
5.2138910527
 20
1.9128537882
 10
5.2153088554
 20
1.9141458349
 10
5.2164875854
 20
1.9151255702
 10
5.2174303904
 20
1.9158440304
 10
5.2181440754
 20
1.9163443749
 10
5.2186250667
 20
1.916655185
 10
5.2188286301
 20
1.9167773765
  0
LINE
  5
208
100
AcDbEntity
  8
0
100
AcDbLine
 62
6
  6
CONTINUOUS
 10
4.9706538568
 20
2.2449121114
 11
4.9703303032
 21
2.245586906
  0
LINE
  5
209
100
AcDbEntity
  8
0
100
AcDbLine
 62
6
  6
CONTINUOUS
 10
4.9703303032
 20
2.245586906
 11
4.9703105646
 21
2.2456321326
  0
LINE
  5
20A
100
AcDbEntity
  8
0
100
AcDbLine
 62
9
  6
CONTINUOUS
 10
5.0438414082
 20
5.369893229
 11
5.0438434499
 21
5.3698944078
  0
LINE
  5
20B
100
AcDbEntity
  8
0
100
AcDbLine
 62
6
  6
CONTINUOUS
 10
5.0438491044
 20
5.3698976724
 11
5.5442401903
 21
5.6587986006
  0
LINE
  5
20C
100
AcDbEntity
  8
0
100
AcDbLine
 62
9
  6
CONTINUOUS
 10
5.5442317796
 20
5.6587937445
 11
5.5442331665
 21
5.6587945449
  0
LWPOLYLINE
  5
20D
100
AcDbEntity
  8
0
100
AcDbPolyline
 62
6
  6
CONTINUOUS
 90
29
 70
0
 10
5.0438330609
 20
5.3698875038
 10
5.043643127
 20
5.369781983
 10
5.0431496492
 20
5.3695284253
 10
5.0423602619
 20
5.3691596972
 10
5.0412486651
 20
5.3686937228
 10
5.0397771039
 20
5.3681497233
 10
5.0379148217
 20
5.3675573333
 10
5.0356546218
 20
5.3669606964
 10
5.0329796364
 20
5.3664062253
 10
5.0299043341
 20
5.3659505511
 10
5.0264571682
 20
5.3656511253
 10
5.0226503868
 20
5.3655630381
 10
5.0184994564
 20
5.3657441676
 10
5.0140565415
 20
5.3662514364
 10
5.0093811111
 20
5.3671366829
 10
5.0045757822
 20
5.3684331827
 10
4.9997793453
 20
5.3701403753
 10
4.9951299024
 20
5.372223269
 10
4.9907620306
 20
5.3746091607
 10
4.9867959228
 20
5.3771898173
 10
4.9833300668
 20
5.3798267309
 10
4.9803858496
 20
5.3824063651
 10
4.9779209051
 20
5.3848640166
 10
4.975884692
 20
5.3871540658
 10
4.9742279185
 20
5.3892424886
 10
4.972912833
 20
5.3910913834
 10
4.9719007317
 20
5.3926715854
 10
4.9711617408
 20
5.3939470763
 10
4.9706538568
 20
5.3949121114
  0
LINE
  5
20E
100
AcDbEntity
  8
0
100
AcDbLine
 62
9
  6
CONTINUOUS
 10
6.7064593443
 20
1.9167842785
 11
6.7064570604
 21
1.9167855971
  0
LINE
  5
20F
100
AcDbEntity
  8
0
100
AcDbLine
 62
6
  6
CONTINUOUS
 10
6.7064513289
 20
1.9167889062
 11
6.2060591149
 21
2.2056904857
  0
LWPOLYLINE
  5
210
100
AcDbEntity
  8
0
100
AcDbPolyline
 62
6
  6
CONTINUOUS
 90
29
 70
0
 10
6.7064691343
 20
1.9167793949
 10
6.7066608319
 20
1.9166643956
 10
6.7071343811
 20
1.9163587729
 10
6.707853355
 20
1.9158552439
 10
6.7088134871
 20
1.9151237786
 10
6.7100165092
 20
1.9141231821
 10
6.7114587676
 20
1.9128068211
 10
6.7131040633
 20
1.9111478735
 10
6.7149182319
 20
1.9091112733
 10
6.7168451944
 20
1.906681864
 10
6.7188214578
 20
1.9038560102
 10
6.7207937231
 20
1.9006173513
 10
6.7227049834
 20
1.8969506791
 10
6.7244837563
 20
1.8928659793
 10
6.7260528782
 20
1.8883956018
 10
6.7273342061
 20
1.8836077454
 10
6.7282596421
 20
1.8786172559
 10
6.728789426
 20
1.8735556402
 10
6.728916574
 20
1.8685753396
 10
6.7286724347
 20
1.8638383553
 10
6.7281267213
 20
1.8595025118
 10
6.7273680107
 20
1.8556501156
 10
6.7264737956
 20
1.8522750991
 10
6.7255085594
 20
1.8493546751
 10
6.7245260188
 20
1.8468623121
 10
6.7235786778
 20
1.8447863831
 10
6.7227128641
 20
1.8431107975
 10
6.7219735233
 20
1.8418245176
 10
6.7213890428
 20
1.8408973834
  0
LINE
  5
211
100
AcDbEntity
  8
0
100
AcDbLine
 62
6
  6
CONTINUOUS
 10
5.2188499354
 20
5.0667892609
 11
5.7192447611
 21
5.3556923482
  0
LINE
  5
212
100
AcDbEntity
  8
0
100
AcDbLine
 62
9
  6
CONTINUOUS
 10
5.2188410014
 20
5.0667841029
 11
5.2188379685
 21
5.0667823518
  0
LINE
  5
213
100
AcDbEntity
  8
0
100
AcDbLine
 62
9
  6
CONTINUOUS
 10
5.7192580039
 20
5.3556999943
 11
5.7192559001
 21
5.3556987807
  0
LWPOLYLINE
  5
214
100
AcDbEntity
  8
0
100
AcDbPolyline
 62
6
  6
CONTINUOUS
 90
19
 70
0
 10
5.7192407715
 20
5.3556899771
 10
5.7237165014
 20
5.3581081653
 10
5.7289666065
 20
5.360547336
 10
5.7344111594
 20
5.3626609887
 10
5.7399656434
 20
5.3644126662
 10
5.7455396082
 20
5.3657839998
 10
5.7510395501
 20
5.366775088
 10
5.7563725561
 20
5.3674040576
 10
5.7614874857
 20
5.3677066486
 10
5.7663950775
 20
5.3677230987
 10
5.771114927
 20
5.3674860894
 10
5.7756690658
 20
5.3670205663
 10
5.7800633425
 20
5.3663474389
 10
5.7842850456
 20
5.3654888554
 10
5.7883231815
 20
5.3644675672
 10
5.7921701366
 20
5.3633062276
 10
5.7958369729
 20
5.3620210811
 10
5.7993032438
 20
5.3606389171
 10
5.8018060138
 20
5.3595222998
  0
LINE
  5
215
100
AcDbEntity
  8
0
100
AcDbLine
 62
6
  6
CONTINUOUS
 10
6.1232933385
 20
5.3594227702
 11
6.1280755849
 21
5.3614877242
  0
LWPOLYLINE
  5
216
100
AcDbEntity
  8
0
100
AcDbPolyline
 62
6
  6
CONTINUOUS
 90
15
 70
0
 10
6.1280755849
 20
5.3614877242
 10
6.1335108187
 20
5.3634294183
 10
6.1390849509
 20
5.3650251961
 10
6.144763869
 20
5.3662612588
 10
6.1505203274
 20
5.3671293524
 10
6.1563244061
 20
5.3676236725
 10
6.1621500593
 20
5.367741487
 10
6.1679713225
 20
5.3674820833
 10
6.1737627844
 20
5.3668466563
 10
6.1795003158
 20
5.3658380036
 10
6.1851601904
 20
5.364460406
 10
6.1907190077
 20
5.3627196101
 10
6.1961537608
 20
5.3606228116
 10
6.2014419343
 20
5.3581786264
 10
6.2060581553
 20
5.3556898904
  0
LINE
  5
217
100
AcDbEntity
  8
0
100
AcDbLine
 62
9
  6
CONTINUOUS
 10
6.3810736142
 20
2.5087910052
 11
6.3810751217
 21
2.5087901353
  0
LINE
  5
218
100
AcDbEntity
  8
0
100
AcDbLine
 62
9
  6
CONTINUOUS
 10
6.8814714188
 20
2.2198861986
 11
6.8814739288
 21
2.2198847495
  0
LINE
  5
219
100
AcDbEntity
  8
0
100
AcDbLine
 62
6
  6
CONTINUOUS
 10
6.8814510183
 20
2.2198979769
 11
6.3810568383
 21
2.5088006914
  0
LWPOLYLINE
  5
21A
100
AcDbEntity
  8
0
100
AcDbPolyline
 62
6
  6
CONTINUOUS
 90
15
 70
0
 10
6.3810597651
 20
2.5087994707
 10
6.3766016613
 20
2.5115492569
 10
6.371845449
 20
2.5149027469
 10
6.3673158363
 20
2.518556663
 10
6.3630318261
 20
2.5224956896
 10
6.3590113818
 20
2.5267033046
 10
6.3552713507
 20
2.5311618502
 10
6.3518273882
 20
2.5358526147
 10
6.3486937908
 20
2.540756084
 10
6.3458834867
 20
2.545852072
 10
6.3434081363
 20
2.5511196262
 10
6.3412782905
 20
2.556536536
 10
6.3395032699
 20
2.5620789826
 10
6.338090653
 20
2.567722307
 10
6.3370465348
 20
2.5734386383
  0
LINE
  5
21B
100
AcDbEntity
  8
0
100
AcDbLine
 62
6
  6
CONTINUOUS
 10
6.1751372942
 20
2.8573427759
 11
6.1716216434
 21
2.8599605858
  0
LWPOLYLINE
  5
21C
100
AcDbEntity
  8
0
100
AcDbPolyline
 62
6
  6
CONTINUOUS
 90
15
 70
0
 10
6.1716216434
 20
2.8599605858
 10
6.1672199872
 20
2.8636990203
 10
6.1630440247
 20
2.8677358832
 10
6.1591269192
 20
2.8720456904
 10
6.1554932599
 20
2.8766044958
 10
6.1521639332
 20
2.881386551
 10
6.1491531584
 20
2.8863701942
 10
6.1464717814
 20
2.8915362732
 10
6.14412979
 20
2.8968651958
 10
6.1421367523
 20
2.9023355849
 10
6.1405013505
 20
2.9079242143
 10
6.1392306786
 20
2.9136072608
 10
6.1383301847
 20
2.919360467
 10
6.1378036439
 20
2.9251592592
 10
6.1376512441
 20
2.9303964188
  0
LWPOLYLINE
  5
21D
100
AcDbEntity
  8
0
100
AcDbPolyline
 62
6
  6
CONTINUOUS
 90
17
 70
0
 10
5.5889346946
 20
5.729303653
 10
5.5884637545
 20
5.7249283951
 10
5.5877353589
 20
5.7203412242
 10
5.5866853978
 20
5.7154420704
 10
5.5852872887
 20
5.7103560759
 10
5.5835253235
 20
5.7051777172
 10
5.5813952983
 20
5.6999888672
 10
5.5789047403
 20
5.6948638304
 10
5.5760736945
 20
5.6898719439
 10
5.5729342649
 20
5.6850763217
 10
5.5695144247
 20
5.680513339
 10
5.5658272153
 20
5.6761922516
 10
5.5618836239
 20
5.6721209494
 10
5.5576937073
 20
5.668307762
 10
5.5532667993
 20
5.6647616866
 10
5.5486117168
 20
5.6614925701
 10
5.5442422744
 20
5.6588008346
  0
LINE
  5
21E
100
AcDbEntity
  8
0
100
AcDbLine
 62
6
  6
CONTINUOUS
 10
5.7285943477
 20
3.5590181874
 11
5.7286563313
 21
3.5590250636
  0
LINE
  5
21F
100
AcDbEntity
  8
0
100
AcDbLine
 62
6
  6
CONTINUOUS
 10
5.7286563313
 20
3.5590250636
 11
5.729415664
 21
3.559082566
  0
LWPOLYLINE
  5
220
100
AcDbEntity
  8
0
100
AcDbPolyline
 62
6
  6
CONTINUOUS
 90
29
 70
0
 10
5.729415664
 20
3.559082566
 10
5.730523208
 20
3.5591245387
 10
5.732019349
 20
3.5591198186
 10
5.7339177546
 20
3.5590285041
 10
5.7362032299
 20
3.5588060673
 10
5.7388702362
 20
3.5584035494
 10
5.7419068731
 20
3.5577677935
 10
5.7453102509
 20
3.5568367566
 10
5.7490671179
 20
3.5555408006
 10
5.7531402439
 20
3.5538082743
 10
5.7573975142
 20
3.5516100848
 10
5.7616584713
 20
3.5489729386
 10
5.7657589107
 20
3.545963465
 10
5.7695764221
 20
3.5426694521
 10
5.7730318507
 20
3.5391862089
 10
5.7760723472
 20
3.5356207972
 10
5.7786824468
 20
3.5320689435
 10
5.7808693236
 20
3.5286162847
 10
5.7826648328
 20
3.5253195702
 10
5.7841085681
 20
3.5222200871
 10
5.785239362
 20
3.519356309
 10
5.7860909797
 20
3.5167807357
 10
5.7867034953
 20
3.5145337706
 10
5.787120745
 20
3.5126394693
 10
5.7873852827
 20
3.5111087699
 10
5.7875399653
 20
3.509912621
 10
5.7876182342
 20
3.5090309151
 10
5.787647231
 20
3.5084567507
 10
5.7876512061
 20
3.5082259125
  0
LINE
  5
221
100
AcDbEntity
  8
0
100
AcDbLine
 62
9
  6
CONTINUOUS
 10
5.770150325
 20
3.5050668638
 11
5.787650325
 21
3.5050668638
  0
LINE
  5
222
100
AcDbEntity
  8
0
100
AcDbLine
 62
9
  6
CONTINUOUS
 10
6.137650325
 20
3.5050668638
 11
6.155150325
 21
3.5050668638
  0
LINE
  5
223
100
AcDbEntity
  8
0
100
AcDbLine
 62
6
  6
CONTINUOUS
 10
5.780150325
 20
3.5150668638
 11
5.7865581758
 21
3.5150668638
  0
LINE
  5
224
100
AcDbEntity
  8
0
100
AcDbLine
 62
6
  6
CONTINUOUS
 10
6.1387424365
 20
3.5150668638
 11
6.145150325
 21
3.5150668638
  0
LINE
  5
225
100
AcDbEntity
  8
0
100
AcDbLine
 62
6
  6
CONTINUOUS
 10
6.1959118794
 20
3.5590805077
 11
6.1966595223
 21
3.5590231186
  0
LINE
  5
226
100
AcDbEntity
  8
0
100
AcDbLine
 62
6
  6
CONTINUOUS
 10
6.1966595223
 20
3.5590231186
 11
6.1967332681
 21
3.5590148127
  0
LINE
  5
227
100
AcDbEntity
  8
0
100
AcDbLine
 62
6
  6
CONTINUOUS
 10
4.9706538568
 20
5.3949121114
 11
4.9703303032
 21
5.395586906
  0
LINE
  5
228
100
AcDbEntity
  8
0
100
AcDbLine
 62
6
  6
CONTINUOUS
 10
4.9703303032
 20
5.395586906
 11
4.9703105646
 21
5.3956321326
  0
LINE
  5
229
100
AcDbEntity
  8
0
100
AcDbLine
 62
6
  6
CONTINUOUS
 10
5.770150325
 20
3.3515931304
 11
5.770150325
 21
3.5050668638
  0
LINE
  5
22A
100
AcDbEntity
  8
0
100
AcDbLine
 62
6
  6
CONTINUOUS
 10
5.775150325
 20
0.5865594359
 11
5.775150325
 21
0.5832572514
  0
LINE
  5
22B
100
AcDbEntity
  8
0
100
AcDbLine
 62
9
  6
CONTINUOUS
 10
5.7876503258
 20
6.0804102416
 11
5.7876503262
 21
6.0804200409
  0
LINE
  5
22C
100
AcDbEntity
  8
0
100
AcDbLine
 62
9
  6
CONTINUOUS
 10
5.787650325
 20
6.6582163682
 11
5.787650325
 21
6.6582200346
  0
LINE
  5
22D
100
AcDbEntity
  8
0
100
AcDbLine
 62
6
  6
CONTINUOUS
 10
5.787650325
 20
6.6581989368
 11
5.787650325
 21
6.080384648
  0
LINE
  5
22E
100
AcDbEntity
  8
0
100
AcDbLine
 62
6
  6
CONTINUOUS
 10
5.787650325
 20
3.5081989368
 11
5.7876503262
 21
2.9304200409
  0
LINE
  5
22F
100
AcDbEntity
  8
0
100
AcDbLine
 62
6
  6
CONTINUOUS
 10
5.7876503258
 20
2.9304102416
 11
5.787650325
 21
2.930384648
  0
LINE
  5
230
100
AcDbEntity
  8
0
100
AcDbLine
 62
9
  6
CONTINUOUS
 10
5.787650325
 20
3.5082163682
 11
5.787650325
 21
3.5082200346
  0
LINE
  5
231
100
AcDbEntity
  8
0
100
AcDbLine
 62
9
  6
CONTINUOUS
 10
5.7876503258
 20
2.9304102416
 11
5.7876503262
 21
2.9304200409
  0
LWPOLYLINE
  5
232
100
AcDbEntity
  8
0
100
AcDbPolyline
 62
6
  6
CONTINUOUS
 90
21
 70
0
 10
5.7876491685
 20
6.0804022656
 10
5.7874929164
 20
6.0750927441
 10
5.7869801751
 20
6.0694404196
 10
5.7861499047
 20
6.0640342605
 10
5.7850391077
 20
6.0588757424
 10
5.7836808505
 20
6.0539628583
 10
5.7821043225
 20
6.0492908838
 10
5.7803349428
 20
6.0448529943
 10
5.778394511
 20
6.0406408211
 10
5.7763022589
 20
6.0366465031
 10
5.7740799605
 20
6.0328701787
 10
5.7717503664
 20
6.0293134754
 10
5.7693355654
 20
6.0259762076
 10
5.7668568291
 20
6.022856506
 10
5.764334148
 20
6.0199506021
 10
5.7617864563
 20
6.0172534772
 10
5.7592313527
 20
6.0147588178
 10
5.7566779752
 20
6.0124530985
 10
5.7541321512
 20
6.0103221832
 10
5.7517106511
 20
6.0084373807
 10
5.7502795871
 20
6.007399657
  0
LWPOLYLINE
  5
233
100
AcDbEntity
  8
0
100
AcDbPolyline
 62
6
  6
CONTINUOUS
 90
21
 70
0
 10
5.7876491685
 20
2.9304022656
 10
5.7874929164
 20
2.9250927442
 10
5.7869801751
 20
2.9194404197
 10
5.7861499047
 20
2.9140342606
 10
5.7850391077
 20
2.9088757425
 10
5.7836808505
 20
2.9039628584
 10
5.7821043226
 20
2.8992908839
 10
5.7803349429
 20
2.8948529944
 10
5.7783945111
 20
2.8906408213
 10
5.776302259
 20
2.8866465033
 10
5.7740799606
 20
2.8828701788
 10
5.7717503666
 20
2.8793134756
 10
5.7693355656
 20
2.8759762078
 10
5.7668568293
 20
2.8728565062
 10
5.7643341482
 20
2.8699506023
 10
5.7617864565
 20
2.8672534774
 10
5.7592313529
 20
2.864758818
 10
5.7566779754
 20
2.8624530987
 10
5.7541321515
 20
2.8603221834
 10
5.7517106514
 20
2.8584373809
 10
5.7502795872
 20
2.8573996571
  0
LWPOLYLINE
  5
234
100
AcDbEntity
  8
0
100
AcDbPolyline
 62
6
  6
CONTINUOUS
 90
17
 70
0
 10
5.5889346946
 20
2.579303653
 10
5.5884637545
 20
2.5749283948
 10
5.5877353587
 20
2.5703412233
 10
5.5866853974
 20
2.5654420688
 10
5.5852872881
 20
2.5603560737
 10
5.5835253226
 20
2.5551777148
 10
5.5813952973
 20
2.5499888648
 10
5.5789047391
 20
2.5448638282
 10
5.5760736935
 20
2.5398719422
 10
5.572934264
 20
2.5350763203
 10
5.5695144238
 20
2.5305133379
 10
5.5658272145
 20
2.5261922507
 10
5.5618836232
 20
2.5221209488
 10
5.5576937067
 20
2.5183077615
 10
5.5532667989
 20
2.5147616863
 10
5.5486117165
 20
2.5114925699
 10
5.5442422744
 20
2.5088008346
  0
LINE
  5
235
100
AcDbEntity
  8
0
100
AcDbLine
 62
6
  6
CONTINUOUS
 10
5.2043651788
 20
4.9902365712
 11
5.2039444309
 21
4.9908476605
  0
LWPOLYLINE
  5
236
100
AcDbEntity
  8
0
100
AcDbPolyline
 62
6
  6
CONTINUOUS
 90
29
 70
0
 10
5.2039444309
 20
4.9908476605
 10
5.2033783585
 20
4.9917400073
 10
5.2026619546
 20
4.992975971
 10
5.2018199091
 20
4.9945872038
 10
5.200892998
 20
4.9965878645
 10
5.1999231205
 20
4.9989995352
 10
5.1989613107
 20
5.0018338941
 10
5.1980623844
 20
5.0051056363
 10
5.1972890721
 20
5.0088218553
 10
5.1967118703
 20
5.0129756249
 10
5.1964071567
 20
5.0175232586
 10
5.1964468032
 20
5.0223981339
 10
5.1968923267
 20
5.0275238021
 10
5.1977806281
 20
5.032758939
 10
5.1990879812
 20
5.0378696469
 10
5.2007245164
 20
5.0426294036
 10
5.2025650437
 20
5.0468876287
 10
5.2045174111
 20
5.0506369177
 10
5.206518823
 20
5.0539166317
 10
5.2085160664
 20
5.0567620183
 10
5.2104460055
 20
5.0591851339
 10
5.2122516966
 20
5.0612050334
 10
5.2138910527
 20
5.0628537882
 10
5.2153088554
 20
5.0641458349
 10
5.2164875854
 20
5.0651255702
 10
5.2174303904
 20
5.0658440304
 10
5.2181440754
 20
5.0663443749
 10
5.2186250667
 20
5.066655185
 10
5.2188286301
 20
5.0667773765
  0
LINE
  5
237
100
AcDbEntity
  8
0
100
AcDbLine
 62
6
  6
CONTINUOUS
 10
6.3363658418
 20
2.5793018967
 11
6.3364995723
 21
2.5776652857
  0
LINE
  5
238
100
AcDbEntity
  8
0
100
AcDbLine
 62
9
  6
CONTINUOUS
 10
6.137650325
 20
6.6582231054
 11
6.137650325
 21
6.6582204353
  0
LINE
  5
239
100
AcDbEntity
  8
0
100
AcDbLine
 62
6
  6
CONTINUOUS
 10
6.137650325
 20
6.6581992285
 11
6.137650325
 21
6.0803928461
  0
LINE
  5
23A
100
AcDbEntity
  8
0
100
AcDbLine
 62
6
  6
CONTINUOUS
 10
6.137650325
 20
3.5081992285
 11
6.137650325
 21
2.9303928461
  0
LINE
  5
23B
100
AcDbEntity
  8
0
100
AcDbLine
 62
9
  6
CONTINUOUS
 10
6.137650325
 20
3.5082231054
 11
6.137650325
 21
3.5082204353
  0
LINE
  5
23C
100
AcDbEntity
  8
0
100
AcDbLine
 62
6
  6
CONTINUOUS
 10
6.150150325
 20
0.5865594354
 11
6.150150325
 21
0.5832572514
  0
LINE
  5
23D
100
AcDbEntity
  8
0
100
AcDbLine
 62
6
  6
CONTINUOUS
 10
6.155150325
 20
3.3515931304
 11
6.155150325
 21
3.5050668638
  0
LINE
  5
23E
100
AcDbEntity
  8
0
100
AcDbLine
 62
9
  6
CONTINUOUS
 10
6.137650325
 20
6.080405237
 11
6.1376503249
 21
6.08040325
  0
LINE
  5
23F
100
AcDbEntity
  8
0
100
AcDbLine
 62
9
  6
CONTINUOUS
 10
6.137650325
 20
2.930405237
 11
6.1376503249
 21
2.93040325
  0
LWPOLYLINE
  5
240
100
AcDbEntity
  8
0
100
AcDbPolyline
 62
6
  6
CONTINUOUS
 90
29
 70
0
 10
6.1376494354
 20
6.6582203924
 10
6.137653087
 20
6.6584396175
 10
6.1376805882
 20
6.658997291
 10
6.1377565444
 20
6.659868003
 10
6.1379093619
 20
6.6610641624
 10
6.1381742012
 20
6.6626083071
 10
6.1385929456
 20
6.6645175524
 10
6.1392067256
 20
6.6667729168
 10
6.1400633214
 20
6.6693636393
 10
6.141203998
 20
6.6722487717
 10
6.1426637878
 20
6.6753752175
 10
6.1444837995
 20
6.6787052647
 10
6.1467061608
 20
6.682197453
 10
6.149359807
 20
6.6857867209
 10
6.1524542023
 20
6.6893875473
 10
6.1559676659
 20
6.6928959853
 10
6.1598319622
 20
6.6961936416
 10
6.1639499859
 20
6.6991794795
 10
6.1681923018
 20
6.7017726984
 10
6.1724050812
 20
6.7039222793
 10
6.1764226797
 20
6.7056128999
 10
6.1801287721
 20
6.7068792603
 10
6.1834931504
 20
6.7077918541
 10
6.1865055117
 20
6.7084173673
 10
6.1891623118
 20
6.7088144747
 10
6.1914421905
 20
6.709033059
 10
6.1933296227
 20
6.7091210034
 10
6.1948169336
 20
6.7091234626
 10
6.1959118794
 20
6.7090805077
  0
LWPOLYLINE
  5
241
100
AcDbEntity
  8
0
100
AcDbPolyline
 62
6
  6
CONTINUOUS
 90
29
 70
0
 10
6.1376494354
 20
3.5082203924
 10
6.137653087
 20
3.5084396175
 10
6.1376805882
 20
3.508997291
 10
6.1377565444
 20
3.509868003
 10
6.1379093619
 20
3.5110641624
 10
6.1381742012
 20
3.5126083071
 10
6.1385929456
 20
3.5145175524
 10
6.1392067256
 20
3.5167729168
 10
6.1400633214
 20
3.5193636393
 10
6.141203998
 20
3.5222487717
 10
6.1426637878
 20
3.5253752175
 10
6.1444837995
 20
3.5287052647
 10
6.1467061608
 20
3.532197453
 10
6.149359807
 20
3.5357867209
 10
6.1524542023
 20
3.5393875473
 10
6.1559676659
 20
3.5428959853
 10
6.1598319622
 20
3.5461936416
 10
6.1639499859
 20
3.5491794795
 10
6.1681923018
 20
3.5517726984
 10
6.1724050812
 20
3.5539222793
 10
6.1764226797
 20
3.5556128999
 10
6.1801287721
 20
3.5568792603
 10
6.1834931504
 20
3.5577918541
 10
6.1865055117
 20
3.5584173673
 10
6.1891623118
 20
3.5588144747
 10
6.1914421905
 20
3.559033059
 10
6.1933296227
 20
3.5591210034
 10
6.1948169336
 20
3.5591234626
 10
6.1959118794
 20
3.5590805077
  0
LWPOLYLINE
  5
242
100
AcDbEntity
  8
0
100
AcDbPolyline
 62
6
  6
CONTINUOUS
 90
29
 70
0
 10
6.954638568
 20
5.3948954254
 10
6.9541238426
 20
5.3939195475
 10
6.9533756968
 20
5.392631752
 10
6.9523526612
 20
5.3910394746
 10
6.9510239994
 20
5.3891780131
 10
6.9493500371
 20
5.3870761239
 10
6.9472910013
 20
5.3847706261
 10
6.9447953969
 20
5.3822952753
 10
6.9418105158
 20
5.3796963943
 10
6.9382933181
 20
5.377041279
 10
6.9342805208
 20
5.374455483
 10
6.9298805823
 20
5.3720800689
 10
6.9252278781
 20
5.3700236777
 10
6.9204591818
 20
5.3683513271
 10
6.9157003414
 20
5.3670874545
 10
6.9110751973
 20
5.3662264882
 10
6.9066778487
 20
5.3657344869
 10
6.9025799538
 20
5.3655619555
 10
6.8988153462
 20
5.3656523172
 10
6.8953995833
 20
5.3659500829
 10
6.8923459185
 20
5.3664020457
 10
6.8896829297
 20
5.3669524235
 10
6.8874257548
 20
5.3675459722
 10
6.8855710346
 20
5.3681331401
 10
6.8841084854
 20
5.3686709672
 10
6.8829920499
 20
5.3691364269
 10
6.8821871179
 20
5.3695105908
 10
6.881673436
 20
5.3697736098
 10
6.881469365
 20
5.3698868168
  0
LWPOLYLINE
  5
243
100
AcDbEntity
  8
0
100
AcDbPolyline
 62
6
  6
CONTINUOUS
 90
3
 70
0
 10
6.7213890428
 20
4.9908973834
 10
6.720964683
 20
4.9902769892
 10
6.7209335302
 20
4.9902347568
  0
LINE
  5
244
100
AcDbEntity
  8
0
100
AcDbLine
 62
6
  6
CONTINUOUS
 10
6.3370465348
 20
2.5734386383
 11
6.3363734983
 21
2.5792101842
  0
LINE
  5
245
100
AcDbEntity
  8
0
100
AcDbLine
 62
6
  6
CONTINUOUS
 10
6.3363658418
 20
5.7293018967
 11
6.3364995723
 21
5.7276652857
  0
LWPOLYLINE
  5
246
100
AcDbEntity
  8
0
100
AcDbPolyline
 62
6
  6
CONTINUOUS
 90
3
 70
0
 10
6.9551382656
 20
5.3959702589
 10
6.9549666635
 20
5.395578565
 10
6.954638568
 20
5.3948954254
  0
LINE
  5
247
100
AcDbEntity
  8
0
100
AcDbLine
 62
6
  6
CONTINUOUS
 10
6.3370465347
 20
5.7234386385
 11
6.3363734983
 21
5.7292101842
  0
LINE
  5
248
100
AcDbEntity
  8
0
100
AcDbLine
 62
6
  6
CONTINUOUS
 10
5.7873162012
 20
5.3668131398
 11
5.7869093556
 21
5.3670269316
  0
LINE
  5
249
100
AcDbEntity
  8
0
100
AcDbLine
 62
9
  6
CONTINUOUS
 10
5.0438414082
 20
2.219893229
 11
5.0438434499
 21
2.2198944078
  0
LINE
  5
24A
100
AcDbEntity
  8
0
100
AcDbLine
 62
6
  6
CONTINUOUS
 10
5.0438491044
 20
2.2198976724
 11
5.5442401903
 21
2.5087986006
  0
LINE
  5
24B
100
AcDbEntity
  8
0
100
AcDbLine
 62
9
  6
CONTINUOUS
 10
5.5442317796
 20
2.5087937445
 11
5.5442331665
 21
2.5087945449
  0
LWPOLYLINE
  5
24C
100
AcDbEntity
  8
0
100
AcDbPolyline
 62
6
  6
CONTINUOUS
 90
29
 70
0
 10
5.0438330609
 20
2.2198875038
 10
5.043643127
 20
2.219781983
 10
5.0431496492
 20
2.2195284253
 10
5.0423602619
 20
2.2191596972
 10
5.0412486651
 20
2.2186937228
 10
5.0397771039
 20
2.2181497233
 10
5.0379148217
 20
2.2175573333
 10
5.0356546218
 20
2.2169606964
 10
5.0329796364
 20
2.2164062253
 10
5.0299043341
 20
2.2159505511
 10
5.0264571682
 20
2.2156511253
 10
5.0226503868
 20
2.2155630381
 10
5.0184994564
 20
2.2157441676
 10
5.0140565415
 20
2.2162514364
 10
5.0093811111
 20
2.2171366829
 10
5.0045757822
 20
2.2184331827
 10
4.9997793453
 20
2.2201403753
 10
4.9951299024
 20
2.222223269
 10
4.9907620306
 20
2.2246091607
 10
4.9867959228
 20
2.2271898173
 10
4.9833300668
 20
2.2298267309
 10
4.9803858496
 20
2.2324063651
 10
4.9779209051
 20
2.2348640166
 10
4.975884692
 20
2.2371540658
 10
4.9742279185
 20
2.2392424886
 10
4.972912833
 20
2.2410913834
 10
4.9719007317
 20
2.2426715854
 10
4.9711617408
 20
2.2439470763
 10
4.9706538568
 20
2.2449121114
  0
LINE
  5
24D
100
AcDbEntity
  8
0
100
AcDbLine
 62
9
  6
CONTINUOUS
 10
6.7064593443
 20
5.0667842785
 11
6.7064570604
 21
5.0667855971
  0
LINE
  5
24E
100
AcDbEntity
  8
0
100
AcDbLine
 62
6
  6
CONTINUOUS
 10
6.7064513289
 20
5.0667889062
 11
6.2060591149
 21
5.3556904857
  0
LWPOLYLINE
  5
24F
100
AcDbEntity
  8
0
100
AcDbPolyline
 62
6
  6
CONTINUOUS
 90
29
 70
0
 10
6.7064691343
 20
5.0667793949
 10
6.7066608319
 20
5.0666643956
 10
6.7071343811
 20
5.0663587729
 10
6.707853355
 20
5.0658552439
 10
6.7088134871
 20
5.0651237786
 10
6.7100165092
 20
5.0641231821
 10
6.7114587676
 20
5.0628068211
 10
6.7131040633
 20
5.0611478735
 10
6.7149182319
 20
5.0591112733
 10
6.7168451944
 20
5.056681864
 10
6.7188214578
 20
5.0538560102
 10
6.7207937231
 20
5.0506173513
 10
6.7227049834
 20
5.0469506791
 10
6.7244837563
 20
5.0428659793
 10
6.7260528782
 20
5.0383956018
 10
6.7273342061
 20
5.0336077454
 10
6.7282596421
 20
5.0286172559
 10
6.728789426
 20
5.0235556402
 10
6.728916574
 20
5.0185753396
 10
6.7286724347
 20
5.0138383553
 10
6.7281267213
 20
5.0095025118
 10
6.7273680107
 20
5.0056501156
 10
6.7264737956
 20
5.0022750991
 10
6.7255085594
 20
4.9993546751
 10
6.7245260188
 20
4.9968623121
 10
6.7235786778
 20
4.9947863831
 10
6.7227128641
 20
4.9931107975
 10
6.7219735233
 20
4.9918245176
 10
6.7213890428
 20
4.9908973834
  0
LWPOLYLINE
  5
250
100
AcDbEntity
  8
0
100
AcDbPolyline
 62
6
  6
CONTINUOUS
 90
3
 70
0
 10
6.9551382656
 20
2.2459702589
 10
6.9549666635
 20
2.245578565
 10
6.954638568
 20
2.2448954254
  0
LINE
  5
251
100
AcDbEntity
  8
0
100
AcDbLine
 62
6
  6
CONTINUOUS
 10
5.2188499354
 20
1.9167892609
 11
5.7192447611
 21
2.2056923482
  0
LINE
  5
252
100
AcDbEntity
  8
0
100
AcDbLine
 62
9
  6
CONTINUOUS
 10
5.2188410014
 20
1.9167841029
 11
5.2188379685
 21
1.9167823518
  0
LINE
  5
253
100
AcDbEntity
  8
0
100
AcDbLine
 62
9
  6
CONTINUOUS
 10
5.7192580039
 20
2.2056999943
 11
5.7192559001
 21
2.2056987807
  0
LWPOLYLINE
  5
254
100
AcDbEntity
  8
0
100
AcDbPolyline
 62
6
  6
CONTINUOUS
 90
19
 70
0
 10
5.7192407715
 20
2.2056899771
 10
5.7237165061
 20
2.2081081677
 10
5.7289666142
 20
2.2105473392
 10
5.7344111686
 20
2.212660992
 10
5.7399656529
 20
2.2144126689
 10
5.7455396172
 20
2.2157840017
 10
5.7510395581
 20
2.2167750892
 10
5.756372563
 20
2.2174040582
 10
5.7614874918
 20
2.2177066488
 10
5.7663950829
 20
2.2177230986
 10
5.7711149319
 20
2.2174860891
 10
5.7756690702
 20
2.2170205657
 10
5.7800633463
 20
2.2163474383
 10
5.7842850489
 20
2.2154888546
 10
5.7883231842
 20
2.2144675664
 10
5.7921701388
 20
2.2133062269
 10
5.7958369747
 20
2.2120210804
 10
5.7993032452
 20
2.2106389165
 10
5.8018060136
 20
2.2095222999
  0
LINE
  5
255
100
AcDbEntity
  8
0
100
AcDbLine
 62
9
  6
CONTINUOUS
 10
6.3810736142
 20
5.6587910052
 11
6.3810751217
 21
5.6587901353
  0
LINE
  5
256
100
AcDbEntity
  8
0
100
AcDbLine
 62
9
  6
CONTINUOUS
 10
6.8814714188
 20
5.3698861986
 11
6.8814739288
 21
5.3698847495
  0
LINE
  5
257
100
AcDbEntity
  8
0
100
AcDbLine
 62
6
  6
CONTINUOUS
 10
6.8814510183
 20
5.3698979769
 11
6.3810568383
 21
5.6588006914
  0
LWPOLYLINE
  5
258
100
AcDbEntity
  8
0
100
AcDbPolyline
 62
6
  6
CONTINUOUS
 90
15
 70
0
 10
6.3810597651
 20
5.6587994707
 10
6.3766016613
 20
5.6615492569
 10
6.371845449
 20
5.6649027469
 10
6.3673158363
 20
5.668556663
 10
6.363031826
 20
5.6724956897
 10
6.3590113817
 20
5.6767033046
 10
6.3552713507
 20
5.6811618503
 10
6.3518273881
 20
5.6858526148
 10
6.3486937907
 20
5.6907560841
 10
6.3458834866
 20
5.6958520721
 10
6.3434081362
 20
5.7011196264
 10
6.3412782904
 20
5.7065365362
 10
6.3395032698
 20
5.7120789828
 10
6.3380906529
 20
5.7177223072
 10
6.3370465347
 20
5.7234386385
  0
LINE
  5
259
100
AcDbEntity
  8
0
100
AcDbLine
 62
6
  6
CONTINUOUS
 10
6.1751372944
 20
6.0073427757
 11
6.171621644
 21
6.0099605853
  0
LWPOLYLINE
  5
25A
100
AcDbEntity
  8
0
100
AcDbPolyline
 62
6
  6
CONTINUOUS
 90
15
 70
0
 10
6.171621644
 20
6.0099605853
 10
6.1672199881
 20
6.0136990195
 10
6.1630440256
 20
6.0177358823
 10
6.1591269199
 20
6.0220456895
 10
6.1554932605
 20
6.0266044951
 10
6.1521639336
 20
6.0313865503
 10
6.1491531587
 20
6.0363701936
 10
6.1464717816
 20
6.0415362726
 10
6.1441297902
 20
6.0468651953
 10
6.1421367525
 20
6.0523355845
 10
6.1405013506
 20
6.0579242139
 10
6.1392306786
 20
6.0636072606
 10
6.1383301848
 20
6.0693604668
 10
6.1378036439
 20
6.0751592592
 10
6.1376512441
 20
6.0803964188
  0
LWPOLYLINE
  5
25B
100
AcDbEntity
  8
0
100
AcDbPolyline
 62
6
  6
CONTINUOUS
 90
29
 70
0
 10
6.954638568
 20
2.2448954254
 10
6.9541238426
 20
2.2439195475
 10
6.9533756968
 20
2.242631752
 10
6.9523526612
 20
2.2410394746
 10
6.9510239994
 20
2.2391780131
 10
6.9493500371
 20
2.2370761239
 10
6.9472910013
 20
2.2347706261
 10
6.9447953969
 20
2.2322952753
 10
6.9418105158
 20
2.2296963943
 10
6.9382933181
 20
2.227041279
 10
6.9342805208
 20
2.224455483
 10
6.9298805823
 20
2.2220800689
 10
6.9252278781
 20
2.2200236777
 10
6.9204591818
 20
2.2183513271
 10
6.9157003414
 20
2.2170874545
 10
6.9110751973
 20
2.2162264882
 10
6.9066778487
 20
2.2157344869
 10
6.9025799538
 20
2.2155619555
 10
6.8988153462
 20
2.2156523172
 10
6.8953995833
 20
2.2159500829
 10
6.8923459185
 20
2.2164020457
 10
6.8896829297
 20
2.2169524235
 10
6.8874257548
 20
2.2175459722
 10
6.8855710346
 20
2.2181331401
 10
6.8841084854
 20
2.2186709672
 10
6.8829920499
 20
2.2191364269
 10
6.8821871179
 20
2.2195105908
 10
6.881673436
 20
2.2197736098
 10
6.881469365
 20
2.2198868168
  0
LWPOLYLINE
  5
25C
100
AcDbEntity
  8
0
100
AcDbPolyline
 62
6
  6
CONTINUOUS
 90
3
 70
0
 10
6.7213890428
 20
1.8408973834
 10
6.720964683
 20
1.8402769892
 10
6.7209335302
 20
1.8402347568
  0
LINE
  5
25D
100
AcDbEntity
  8
0
100
AcDbLine
 62
6
  6
CONTINUOUS
 10
6.1232933411
 20
2.2094227714
 11
6.1280755845
 21
2.2114877241
  0
LWPOLYLINE
  5
25E
100
AcDbEntity
  8
0
100
AcDbPolyline
 62
6
  6
CONTINUOUS
 90
15
 70
0
 10
6.1280755845
 20
2.2114877241
 10
6.1335108182
 20
2.2134294182
 10
6.1390849504
 20
2.215025196
 10
6.1447638685
 20
2.2162612587
 10
6.1505203269
 20
2.2171293524
 10
6.1563244057
 20
2.2176236725
 10
6.1621500589
 20
2.217741487
 10
6.1679713222
 20
2.2174820833
 10
6.1737627841
 20
2.2168466564
 10
6.1795003155
 20
2.2158380036
 10
6.1851601902
 20
2.214460406
 10
6.1907190076
 20
2.2127196101
 10
6.1961537607
 20
2.2106228116
 10
6.2014419343
 20
2.2081786265
 10
6.2060581553
 20
2.2056898904
  0
LINE
  5
25F
100
AcDbEntity
  8
0
100
AcDbLine
 62
6
  6
CONTINUOUS
 10
5.7285943477
 20
6.7090181874
 11
5.7286563313
 21
6.7090250636
  0
LINE
  5
260
100
AcDbEntity
  8
0
100
AcDbLine
 62
6
  6
CONTINUOUS
 10
5.7286563313
 20
6.7090250636
 11
5.729415664
 21
6.709082566
  0
LWPOLYLINE
  5
261
100
AcDbEntity
  8
0
100
AcDbPolyline
 62
6
  6
CONTINUOUS
 90
29
 70
0
 10
5.729415664
 20
6.709082566
 10
5.730523208
 20
6.7091245387
 10
5.732019349
 20
6.7091198186
 10
5.7339177546
 20
6.7090285041
 10
5.7362032299
 20
6.7088060673
 10
5.7388702362
 20
6.7084035494
 10
5.7419068731
 20
6.7077677935
 10
5.7453102509
 20
6.7068367566
 10
5.7490671179
 20
6.7055408006
 10
5.7531402439
 20
6.7038082743
 10
5.7573975142
 20
6.7016100848
 10
5.7616584713
 20
6.6989729386
 10
5.7657589107
 20
6.695963465
 10
5.7695764221
 20
6.6926694521
 10
5.7730318507
 20
6.6891862089
 10
5.7760723472
 20
6.6856207972
 10
5.7786824468
 20
6.6820689435
 10
5.7808693236
 20
6.6786162847
 10
5.7826648328
 20
6.6753195702
 10
5.7841085681
 20
6.6722200871
 10
5.785239362
 20
6.669356309
 10
5.7860909797
 20
6.6667807357
 10
5.7867034953
 20
6.6645337706
 10
5.787120745
 20
6.6626394693
 10
5.7873852827
 20
6.6611087699
 10
5.7875399653
 20
6.659912621
 10
5.7876182342
 20
6.6590309151
 10
5.787647231
 20
6.6584567507
 10
5.7876512061
 20
6.6582259125
  0
LINE
  5
262
100
AcDbEntity
  8
0
100
AcDbLine
 62
6
  6
CONTINUOUS
 10
6.1959118794
 20
6.7090805077
 11
6.1966595223
 21
6.7090231186
  0
LINE
  5
263
100
AcDbEntity
  8
0
100
AcDbLine
 62
6
  6
CONTINUOUS
 10
6.1966595223
 20
6.7090231186
 11
6.1967332681
 21
6.7090148127
  0
ARC
  5
264
100
AcDbEntity
  8
0
100
AcDbCircle
 62
6
  6
CONTINUOUS
 10
5.780150325
 20
3.5050668638
 40
0.01
100
AcDbArc
 50
90.0
 51
180.0
  0
CIRCLE
  5
265
100
AcDbEntity
  8
0
100
AcDbCircle
 62
6
  6
CONTINUOUS
 10
5.962650325
 20
2.5482952103
 40
1.4375
  0
ARC
  5
266
100
AcDbEntity
  8
0
100
AcDbCircle
 62
6
  6
CONTINUOUS
 10
5.962650325
 20
2.5482952103
 40
1.0375
100
AcDbArc
 50
223.013704627
 51
316.986295373
  0
ARC
  5
267
100
AcDbEntity
  8
0
100
AcDbCircle
 62
6
  6
CONTINUOUS
 10
5.962650325
 20
2.5482952103
 40
1.0375
100
AcDbArc
 50
103.013704627
 51
196.986295373
  0
ARC
  5
268
100
AcDbEntity
  8
0
100
AcDbCircle
 62
6
  6
CONTINUOUS
 10
5.962650325
 20
2.5482952103
 40
1.0375
100
AcDbArc
 50
343.013704627
 51
76.986295373
  0
ARC
  5
269
100
AcDbEntity
  8
0
100
AcDbCircle
 62
6
  6
CONTINUOUS
 10
5.962650325
 20
2.5467991473
 40
0.8366141732
100
AcDbArc
 50
222.0503631458
 51
317.9496368542
  0
ARC
  5
26A
100
AcDbEntity
  8
0
100
AcDbCircle
 62
6
  6
CONTINUOUS
 10
5.962650325
 20
2.5467991473
 40
0.8366141732
100
AcDbArc
 50
103.373330666
 51
197.7672110958
  0
ARC
  5
26B
100
AcDbEntity
  8
0
100
AcDbCircle
 62
6
  6
CONTINUOUS
 10
5.962650325
 20
2.5467991473
 40
0.8366141732
100
AcDbArc
 50
342.2327889042
 51
76.626669334
  0
ARC
  5
26C
100
AcDbEntity
  8
0
100
AcDbCircle
 62
6
  6
CONTINUOUS
 10
5.962650325
 20
2.5482952103
 40
0.8267716535
100
AcDbArc
 50
342.2229854319
 51
77.7593539424
  0
ARC
  5
26D
100
AcDbEntity
  8
0
100
AcDbCircle
 62
6
  6
CONTINUOUS
 10
5.962650325
 20
2.5482952103
 40
0.8267716535
100
AcDbArc
 50
102.2406460576
 51
197.7770145681
  0
ARC
  5
26E
100
AcDbEntity
  8
0
100
AcDbCircle
 62
6
  6
CONTINUOUS
 10
5.962650325
 20
2.5482952103
 40
0.8267716535
100
AcDbArc
 50
222.2428414537
 51
317.7571585463
  0
ARC
  5
26F
100
AcDbEntity
  8
0
100
AcDbCircle
 62
6
  6
CONTINUOUS
 10
5.962650325
 20
2.5467991473
 40
0.82675
100
AcDbArc
 50
180.0
 51
197.6763216234
  0
ARC
  5
270
100
AcDbEntity
  8
0
100
AcDbCircle
 62
6
  6
CONTINUOUS
 10
5.962650325
 20
2.5467991473
 40
0.82675
100
AcDbArc
 50
222.1303483094
 51
317.8696516906
  0
ARC
  5
271
100
AcDbEntity
  8
0
100
AcDbCircle
 62
6
  6
CONTINUOUS
 10
5.962650325
 20
2.5467991473
 40
0.82675
100
AcDbArc
 50
342.3236783766
 51
360.0
  0
ARC
  5
272
100
AcDbEntity
  8
0
100
AcDbCircle
 62
6
  6
CONTINUOUS
 10
5.962650325
 20
2.5482952103
 40
0.655
100
AcDbArc
 50
105.4991119532
 51
194.4700012005
  0
ARC
  5
273
100
AcDbEntity
  8
0
100
AcDbCircle
 62
6
  6
CONTINUOUS
 10
5.962650325
 20
2.5482952103
 40
0.655
100
AcDbArc
 50
345.5299987995
 51
74.5008880468
  0
ARC
  5
274
100
AcDbEntity
  8
0
100
AcDbCircle
 62
6
  6
CONTINUOUS
 10
5.962650325
 20
2.5482952103
 40
0.655
100
AcDbArc
 50
225.5284420303
 51
314.4715579697
  0
ARC
  5
275
100
AcDbEntity
  8
0
100
AcDbCircle
 62
6
  6
CONTINUOUS
 10
5.962650325
 20
2.5482952103
 40
0.375
100
AcDbArc
 50
355.0027787757
 51
7.6284336254
  0
ARC
  5
276
100
AcDbEntity
  8
0
100
AcDbCircle
 62
7
  6
CONTINUOUS
 10
5.962650325
 20
2.5482952103
 40
0.375
100
AcDbArc
 50
187.6284336254
 51
197.7455289284
  0
ARC
  5
277
100
AcDbEntity
  8
0
100
AcDbCircle
 62
7
  6
CONTINUOUS
 10
5.962650325
 20
2.5482952103
 40
0.375
100
AcDbArc
 50
165.9711907422
 51
175.0027787757
  0
ARC
  5
278
100
AcDbEntity
  8
0
100
AcDbCircle
 62
7
  6
CONTINUOUS
 10
5.962650325
 20
2.5482952103
 40
0.375
100
AcDbArc
 50
7.6284336254
 51
17.7455289284
  0
ARC
  5
279
100
AcDbEntity
  8
0
100
AcDbCircle
 62
7
  6
CONTINUOUS
 10
5.962650325
 20
2.5482952103
 40
0.375
100
AcDbArc
 50
345.9711907422
 51
355.0027787757
  0
ARC
  5
27A
100
AcDbEntity
  8
0
100
AcDbCircle
 62
6
  6
CONTINUOUS
 10
5.962650325
 20
2.5482952103
 40
0.375
100
AcDbArc
 50
197.7455289284
 51
345.9711907422
  0
ARC
  5
27B
100
AcDbEntity
  8
0
100
AcDbCircle
 62
6
  6
CONTINUOUS
 10
5.962650325
 20
2.5482952103
 40
0.375
100
AcDbArc
 50
175.0027787757
 51
187.6284336254
  0
ARC
  5
27C
100
AcDbEntity
  8
0
100
AcDbCircle
 62
6
  6
CONTINUOUS
 10
5.962650325
 20
2.5482952103
 40
0.375
100
AcDbArc
 50
17.7455289284
 51
165.9711907422
  0
ARC
  5
27D
100
AcDbEntity
  8
0
100
AcDbCircle
 62
6
  6
CONTINUOUS
 10
6.145150325
 20
3.5050668638
 40
0.01
100
AcDbArc
 50
0.0
 51
90.0
  0
CIRCLE
  5
27E
100
AcDbEntity
  8
0
100
AcDbCircle
 62
6
  6
CONTINUOUS
 10
5.962650325
 20
4.1232952103
 40
3.545
  0
CIRCLE
  5
27F
100
AcDbEntity
  8
0
100
AcDbCircle
 62
9
  6
CONTINUOUS
 10
5.962650325
 20
4.1232952103
 40
3.495
  0
CIRCLE
  5
280
100
AcDbEntity
  8
0
100
AcDbCircle
 62
6
  6
CONTINUOUS
 10
5.962650325
 20
5.6982952103
 40
1.4375
  0
ARC
  5
281
100
AcDbEntity
  8
0
100
AcDbCircle
 62
6
  6
CONTINUOUS
 10
5.962650325
 20
5.6982952103
 40
1.0375
100
AcDbArc
 50
223.013704627
 51
316.986295373
  0
ARC
  5
282
100
AcDbEntity
  8
0
100
AcDbCircle
 62
6
  6
CONTINUOUS
 10
5.962650325
 20
5.6982952103
 40
1.0375
100
AcDbArc
 50
103.013704627
 51
196.986295373
  0
ARC
  5
283
100
AcDbEntity
  8
0
100
AcDbCircle
 62
6
  6
CONTINUOUS
 10
5.962650325
 20
5.6982952103
 40
1.0375
100
AcDbArc
 50
343.013704627
 51
76.986295373
  0
ARC
  5
284
100
AcDbEntity
  8
0
100
AcDbCircle
 62
6
  6
CONTINUOUS
 10
5.962650325
 20
5.6982952103
 40
0.82677
100
AcDbArc
 50
222.2314893691
 51
317.7685106309
  0
ARC
  5
285
100
AcDbEntity
  8
0
100
AcDbCircle
 62
6
  6
CONTINUOUS
 10
5.962650325
 20
5.6982952103
 40
0.82677
100
AcDbArc
 50
102.235731517
 51
197.75551185
  0
ARC
  5
286
100
AcDbEntity
  8
0
100
AcDbCircle
 62
6
  6
CONTINUOUS
 10
5.962650325
 20
5.6982952103
 40
0.82677
100
AcDbArc
 50
342.24448815
 51
77.764268483
  0
ARC
  5
287
100
AcDbEntity
  8
0
100
AcDbCircle
 62
6
  6
CONTINUOUS
 10
5.962650325
 20
5.6982952103
 40
0.671
100
AcDbArc
 50
225.1435691689
 51
314.8564308311
  0
ARC
  5
288
100
AcDbEntity
  8
0
100
AcDbCircle
 62
6
  6
CONTINUOUS
 10
5.962650325
 20
5.6982952103
 40
0.671
100
AcDbArc
 50
105.1534035241
 51
194.8691564041
  0
ARC
  5
289
100
AcDbEntity
  8
0
100
AcDbCircle
 62
6
  6
CONTINUOUS
 10
5.962650325
 20
5.6982952103
 40
0.671
100
AcDbArc
 50
345.1308435959
 51
74.8465964759
  0
ARC
  5
28A
100
AcDbEntity
  8
0
100
AcDbCircle
 62
7
  6
CONTINUOUS
 10
5.962650325
 20
5.6982952103
 40
0.6515985251
100
AcDbArc
 50
225.596983546
 51
314.4003969439
  0
ARC
  5
28B
100
AcDbEntity
  8
0
100
AcDbCircle
 62
7
  6
CONTINUOUS
 10
5.962650325
 20
5.6982952103
 40
0.6515985251
100
AcDbArc
 50
345.6029654047
 51
74.3832857987
  0
ARC
  5
28C
100
AcDbEntity
  8
0
100
AcDbCircle
 62
7
  6
CONTINUOUS
 10
5.962650325
 20
5.6982952103
 40
0.6515985251
100
AcDbArc
 50
105.6164100493
 51
194.4000679018
  0
ARC
  5
28D
100
AcDbEntity
  8
0
100
AcDbCircle
 62
6
  6
CONTINUOUS
 10
5.962650325
 20
5.6982952103
 40
0.6475
100
AcDbArc
 50
225.7092325797
 51
314.2907674203
  0
ARC
  5
28E
100
AcDbEntity
  8
0
100
AcDbCircle
 62
6
  6
CONTINUOUS
 10
5.962650325
 20
5.6982952103
 40
0.6475
100
AcDbArc
 50
105.7079537438
 51
194.3182219419
  0
ARC
  5
28F
100
AcDbEntity
  8
0
100
AcDbCircle
 62
6
  6
CONTINUOUS
 10
5.962650325
 20
5.6982952103
 40
0.6475
100
AcDbArc
 50
345.6817780581
 51
74.2920462562
  0
ARC
  5
290
100
AcDbEntity
  8
0
100
AcDbCircle
 62
6
  6
CONTINUOUS
 10
5.962650325
 20
5.6982952103
 40
0.375
100
AcDbArc
 50
355.0027787757
 51
7.6284336254
  0
ARC
  5
291
100
AcDbEntity
  8
0
100
AcDbCircle
 62
7
  6
CONTINUOUS
 10
5.962650325
 20
5.6982952103
 40
0.375
100
AcDbArc
 50
187.6284336254
 51
197.7455289284
  0
ARC
  5
292
100
AcDbEntity
  8
0
100
AcDbCircle
 62
7
  6
CONTINUOUS
 10
5.962650325
 20
5.6982952103
 40
0.375
100
AcDbArc
 50
165.9711907422
 51
175.0027787757
  0
ARC
  5
293
100
AcDbEntity
  8
0
100
AcDbCircle
 62
7
  6
CONTINUOUS
 10
5.962650325
 20
5.6982952103
 40
0.375
100
AcDbArc
 50
7.6284336254
 51
17.7455289284
  0
ARC
  5
294
100
AcDbEntity
  8
0
100
AcDbCircle
 62
7
  6
CONTINUOUS
 10
5.962650325
 20
5.6982952103
 40
0.375
100
AcDbArc
 50
345.9711907422
 51
355.0027787757
  0
ARC
  5
295
100
AcDbEntity
  8
0
100
AcDbCircle
 62
6
  6
CONTINUOUS
 10
5.962650325
 20
5.6982952103
 40
0.375
100
AcDbArc
 50
197.7455289284
 51
345.9711907422
  0
ARC
  5
296
100
AcDbEntity
  8
0
100
AcDbCircle
 62
6
  6
CONTINUOUS
 10
5.962650325
 20
5.6982952103
 40
0.375
100
AcDbArc
 50
175.0027787757
 51
187.6284336254
  0
ARC
  5
297
100
AcDbEntity
  8
0
100
AcDbCircle
 62
6
  6
CONTINUOUS
 10
5.962650325
 20
5.6982952103
 40
0.375
100
AcDbArc
 50
17.7455289284
 51
165.9711907422
  0
SPLINE
  5
298
100
AcDbEntity
  8
0
100
AcDbSpline
 62
9
  6
CONTINUOUS
 70
0
 71
3
 72
59
 73
55
 74
0
 42
0.0000001
 43
0.0000001
 44
0.0000000001
 40
0.0
 40
0.0
 40
0.0
 40
0.0
 40
0.005212053
 40
0.0108845774
 40
0.0170214176
 40
0.0236169723
 40
0.0306603343
 40
0.0381412315
 40
0.0460478445
 40
0.0543663169
 40
0.0630812517
 40
0.0721760743
 40
0.0816350701
 40
0.0914465251
 40
0.1015990687
 40
0.1120810168
 40
0.122880434
 40
0.1339853477
 40
0.1570747679
 40
0.1812872702
 40
0.2065644548
 40
0.2328642256
 40
0.2601536624
 40
0.2884107099
 40
0.3028988301
 40
0.3176251367
 40
0.3477938925
 40
0.3789283682
 40
0.4110482357
 40
0.4441873943
 40
0.4783900451
 40
0.4959090293
 40
0.5137175796
 40
0.5318253495
 40
0.5502427984
 40
0.5689814857
 40
0.588054242
 40
0.607475176
 40
0.6272588235
 40
0.6474196021
 40
0.6679737593
 40
0.6889396376
 40
0.7103352451
 40
0.7321695044
 40
0.7544511008
 40
0.7771920979
 40
0.8004074832
 40
0.8240935172
 40
0.8482203533
 40
0.897682108
 40
0.9229713565
 40
0.9485285328
 40
0.974241449
 40
1.0
 40
1.0
 40
1.0
 40
1.0
 10
6.3810599301
 20
2.5087999222
 30
0.0
 10
6.3814061843
 20
2.5086001362
 30
0.0
 10
6.3821079887
 20
2.5081455453
 30
0.0
 10
6.3831448888
 20
2.5073506997
 30
0.0
 10
6.3842083103
 20
2.5064210869
 30
0.0
 10
6.3852962699
 20
2.5053634078
 30
0.0
 10
6.3864071511
 20
2.5041838513
 30
0.0
 10
6.3875384803
 20
2.5028872524
 30
0.0
 10
6.3886881202
 20
2.5014782453
 30
0.0
 10
6.3898539605
 20
2.4999614091
 30
0.0
 10
6.3910338767
 20
2.4983413415
 30
0.0
 10
6.3922258426
 20
2.4966225619
 30
0.0
 10
6.3934279795
 20
2.4948090959
 30
0.0
 10
6.3946380536
 20
2.4929040902
 30
0.0
 10
6.3958541404
 20
2.4909104261
 30
0.0
 10
6.397074326
 20
2.4888309273
 30
0.0
 10
6.398296702
 20
2.4866684026
 30
0.0
 10
6.399948624
 20
2.483638373
 30
0.0
 10
6.4020045614
 20
2.4796575164
 30
0.0
 10
6.4044200934
 20
2.4746414357
 30
0.0
 10
6.4068013432
 20
2.469337843
 30
0.0
 10
6.4091325658
 20
2.4637553957
 30
0.0
 10
6.4113989025
 20
2.4579005109
 30
0.0
 10
6.4132046092
 20
2.4528408002
 30
0.0
 10
6.4146021849
 20
2.4486601073
 30
0.0
 10
6.4159870773
 20
2.4443210155
 30
0.0
 10
6.417642923
 20
2.4387287906
 30
0.0
 10
6.419477893
 20
2.4318012532
 30
0.0
 10
6.421155653
 20
2.4245996493
 30
0.0
 10
6.4226494649
 20
2.4171174253
 30
0.0
 10
6.4237110985
 20
2.4106944458
 30
0.0
 10
6.4244409567
 20
2.4054115002
 30
0.0
 10
6.4249272198
 20
2.4013417811
 30
0.0
 10
6.4253436933
 20
2.3971950603
 30
0.0
 10
6.4256851016
 20
2.3929698788
 30
0.0
 10
6.42594502
 20
2.388664724
 30
0.0
 10
6.4261172271
 20
2.3842781164
 30
0.0
 10
6.4261955879
 20
2.3798086442
 30
0.0
 10
6.4261733673
 20
2.3752550502
 30
0.0
 10
6.4260414792
 20
2.370616312
 30
0.0
 10
6.4257911559
 20
2.3658916056
 30
0.0
 10
6.4254135228
 20
2.3610803199
 30
0.0
 10
6.4248999939
 20
2.35618285
 30
0.0
 10
6.4242389688
 20
2.3512012065
 30
0.0
 10
6.4234187516
 20
2.3461386523
 30
0.0
 10
6.42242771
 20
2.3409987444
 30
0.0
 10
6.4212546405
 20
2.3357867848
 30
0.0
 10
6.4198893676
 20
2.330511787
 30
0.0
 10
6.4177825126
 20
2.3233535797
 30
0.0
 10
6.4152658067
 20
2.3161913974
 30
0.0
 10
6.4123206146
 20
2.3090824712
 30
0.0
 10
6.4098751143
 20
2.3037423776
 30
0.0
 10
6.4072181592
 20
2.2984641154
 30
0.0
 10
6.4053109964
 20
2.2950062349
 30
0.0
 10
6.4043232809
 20
2.2932952103
 30
0.0
  0
SPLINE
  5
299
100
AcDbEntity
  8
0
100
AcDbSpline
 62
9
  6
CONTINUOUS
 70
0
 71
3
 72
46
 73
42
 74
0
 42
0.0000001
 43
0.0000001
 44
0.0000000001
 40
0.0
 40
0.0
 40
0.0
 40
0.0
 40
0.0052139488
 40
0.0108878463
 40
0.0170270252
 40
0.0236277855
 40
0.030680113
 40
0.0381695668
 40
0.0460814557
 40
0.0544034251
 40
0.0631220623
 40
0.0722228648
 40
0.0816904805
 40
0.0915096821
 40
0.1121561363
 40
0.1340748304
 40
0.1571809591
 40
0.1814103246
 40
0.2067058584
 40
0.2330246483
 40
0.260333719
 40
0.2886113003
 40
0.3480302002
 40
0.4113208613
 40
0.4444820851
 40
0.4787076762
 40
0.4962382971
 40
0.5140583354
 40
0.5506046925
 40
0.5693550838
 40
0.5884393126
 40
0.6276618084
 40
0.6683899715
 40
0.7107453974
 40
0.7548414056
 40
0.8007548779
 40
0.8484789981
 40
0.8978635804
 40
0.9485589529
 40
0.9742399364
 40
1.0
 40
1.0
 40
1.0
 40
1.0
 10
5.7192405426
 20
5.3556898853
 30
0.0
 10
5.7188942369
 20
5.3554899398
 30
0.0
 10
5.7181495604
 20
5.3551092102
 30
0.0
 10
5.716942665
 20
5.3546079179
 30
0.0
 10
5.7156054682
 20
5.3541510885
 30
0.0
 10
5.7141443358
 20
5.3537374676
 30
0.0
 10
5.7125655149
 20
5.3533658078
 30
0.0
 10
5.7108751964
 20
5.3530347846
 30
0.0
 10
5.709078917
 20
5.3527435399
 30
0.0
 10
5.7071815497
 20
5.3524920474
 30
0.0
 10
5.7051876843
 20
5.3522800126
 30
0.0
 10
5.7031018884
 20
5.3521071945
 30
0.0
 10
5.7009286761
 20
5.351973322
 30
0.0
 10
5.6978685677
 20
5.3518442494
 30
0.0
 10
5.6938505199
 20
5.3517855493
 30
0.0
 10
5.6888139086
 20
5.3518740816
 30
0.0
 10
5.6835076088
 20
5.3521235776
 30
0.0
 10
5.6779521339
 20
5.3525406009
 30
0.0
 10
5.6721647166
 20
5.3531314095
 30
0.0
 10
5.6661606657
 20
5.3539051158
 30
0.0
 10
5.6599529537
 20
5.3548714495
 30
0.0
 10
5.6512758678
 20
5.3564594671
 30
0.0
 10
5.6399746055
 20
5.3590131365
 30
0.0
 10
5.6284779358
 20
5.3623182677
 30
0.0
 10
5.6189845144
 20
5.3655354356
 30
0.0
 10
5.6128883111
 20
5.3678312576
 30
0.0
 10
5.607945859
 20
5.369843517
 30
0.0
 10
5.6028773942
 20
5.3720158125
 30
0.0
 10
5.597787129
 20
5.3743725695
 30
0.0
 10
5.5926845167
 20
5.3769240347
 30
0.0
 10
5.5874550846
 20
5.3796779672
 30
0.0
 10
5.5808522983
 20
5.3834377942
 30
0.0
 10
5.5729248451
 20
5.3884590241
 30
0.0
 10
5.5649563572
 20
5.3940921722
 30
0.0
 10
5.5569967487
 20
5.4004019587
 30
0.0
 10
5.5491179176
 20
5.407448343
 30
0.0
 10
5.5414205893
 20
5.4152745187
 30
0.0
 10
5.534037065
 20
5.4238879214
 30
0.0
 10
5.528299081
 20
5.4316527419
 30
0.0
 10
5.5240034677
 20
5.438204926
 30
0.0
 10
5.5219652111
 20
5.4415842446
 30
0.0
 10
5.5209773691
 20
5.4432952103
 30
0.0
  0
SPLINE
  5
29A
100
AcDbEntity
  8
0
100
AcDbSpline
 62
9
  6
CONTINUOUS
 70
0
 71
3
 72
61
 73
57
 74
0
 42
0.0000001
 43
0.0000001
 44
0.0000000001
 40
0.0
 40
0.0
 40
0.0
 40
0.0
 40
0.0052110023
 40
0.010883577
 40
0.0170231817
 40
0.0236260937
 40
0.0306821821
 40
0.0381767756
 40
0.0460919363
 40
0.0544102744
 40
0.0631204064
 40
0.0722112122
 40
0.0816708599
 40
0.0914869543
 40
0.1016466512
 40
0.1121367467
 40
0.1229437484
 40
0.1340539851
 40
0.1571445228
 40
0.1813546994
 40
0.2066366423
 40
0.2329432771
 40
0.2602327289
 40
0.288487659
 40
0.3177017597
 40
0.3478723768
 40
0.3790042398
 40
0.4111218042
 40
0.4275615361
 40
0.4442616194
 40
0.461227691
 40
0.4784661178
 40
0.495984826
 40
0.5137928669
 40
0.5319002503
 40
0.5503179533
 40
0.5690579222
 40
0.5881328809
 40
0.607555468
 40
0.6273395279
 40
0.6475007753
 40
0.6680568163
 40
0.6890270051
 40
0.7104255686
 40
0.7322592586
 40
0.7545372754
 40
0.7772721671
 40
0.8004792624
 40
0.8241546353
 40
0.8482697452
 40
0.87279846
 40
0.8977192204
 40
0.9230009681
 40
0.9485493985
 40
0.9742523886
 40
1.0
 40
1.0
 40
1.0
 40
1.0
 10
5.7876482783
 20
6.0804027676
 30
0.0
 10
5.7876478992
 20
6.0808024394
 30
0.0
 10
5.7876900388
 20
6.0816374601
 30
0.0
 10
5.7878592559
 20
6.0829330864
 30
0.0
 10
5.7881326667
 20
6.0843196245
 30
0.0
 10
5.7885059538
 20
6.0857921456
 30
0.0
 10
5.7889748337
 20
6.0873458276
 30
0.0
 10
5.7895350353
 20
6.0889756692
 30
0.0
 10
5.7901822845
 20
6.0906768661
 30
0.0
 10
5.7909129187
 20
6.092445219
 30
0.0
 10
5.7917250589
 20
6.094276718
 30
0.0
 10
5.7926168385
 20
6.0961680125
 30
0.0
 10
5.7935864771
 20
6.0981158089
 30
0.0
 10
5.7946321732
 20
6.1001168152
 30
0.0
 10
5.7957521275
 20
6.1021677344
 30
0.0
 10
5.7969445319
 20
6.1042652688
 30
0.0
 10
5.7982075965
 20
6.1064061193
 30
0.0
 10
5.8000068125
 20
6.1093522756
 30
0.0
 10
5.8024263261
 20
6.1131235175
 30
0.0
 10
5.8055625895
 20
6.1177237389
 30
0.0
 10
5.8089664964
 20
6.1224374835
 30
0.0
 10
5.8126369876
 20
6.1272474141
 30
0.0
 10
5.8165741467
 20
6.132138057
 30
0.0
 10
5.8207844528
 20
6.1370922213
 30
0.0
 10
5.8252759917
 20
6.1420941834
 30
0.0
 10
5.8300572821
 20
6.1471289783
 30
0.0
 10
5.8351380772
 20
6.1521825437
 30
0.0
 10
5.8396010498
 20
6.1563600359
 30
0.0
 10
5.8433354453
 20
6.1596927583
 30
0.0
 10
5.8462441585
 20
6.1622046284
 30
0.0
 10
5.8492412638
 20
6.1647070384
 30
0.0
 10
5.8523292242
 20
6.1671977364
 30
0.0
 10
5.8555118342
 20
6.1696729741
 30
0.0
 10
5.8587928904
 20
6.1721290911
 30
0.0
 10
5.8621762143
 20
6.1745624172
 30
0.0
 10
5.8656656129
 20
6.1769693033
 30
0.0
 10
5.8692649212
 20
6.1793460217
 30
0.0
 10
5.8729777389
 20
6.1816890597
 30
0.0
 10
5.8768091284
 20
6.18399237
 30
0.0
 10
5.8807642803
 20
6.1862493116
 30
0.0
 10
5.8848482556
 20
6.1884533643
 30
0.0
 10
5.889066164
 20
6.1905978826
 30
0.0
 10
5.8934224563
 20
6.1926763158
 30
0.0
 10
5.897921075
 20
6.1946802576
 30
0.0
 10
5.9025658731
 20
6.1965980679
 30
0.0
 10
5.9073596893
 20
6.1984181739
 30
0.0
 10
5.9123053232
 20
6.2001288165
 30
0.0
 10
5.9174038188
 20
6.2017178034
 30
0.0
 10
5.9226524391
 20
6.2031718419
 30
0.0
 10
5.9280447752
 20
6.2044758247
 30
0.0
 10
5.9335721919
 20
6.2056139492
 30
0.0
 10
5.9392248556
 20
6.2065702053
 30
0.0
 10
5.9449864958
 20
6.2073278091
 30
0.0
 10
5.9508317484
 20
6.2078797248
 30
0.0
 10
5.9567290055
 20
6.2082178095
 30
0.0
 10
5.9606755418
 20
6.208295103
 30
0.0
 10
5.962650325
 20
6.2082952103
 30
0.0
  0
SPLINE
  5
29B
100
AcDbEntity
  8
0
100
AcDbSpline
 62
9
  6
CONTINUOUS
 70
0
 71
3
 72
39
 73
35
 74
0
 42
0.0000001
 43
0.0000001
 44
0.0000000001
 40
0.0
 40
0.0
 40
0.0
 40
0.0
 40
0.0451396719
 40
0.0878812577
 40
0.1281824278
 40
0.166019104
 40
0.2013943281
 40
0.2343935131
 40
0.2651774539
 40
0.2939366356
 40
0.3208943354
 40
0.3463109707
 40
0.3585394431
 40
0.3705017852
 40
0.3938103196
 40
0.4166321655
 40
0.4393287522
 40
0.4622224731
 40
0.4855854281
 40
0.509634808
 40
0.5345425745
 40
0.5604474437
 40
0.5874462077
 40
0.6155986406
 40
0.6449339945
 40
0.6754567457
 40
0.7071514226
 40
0.7399914109
 40
0.7739604748
 40
0.8090400573
 40
0.8452043893
 40
0.8824216923
 40
0.9206551649
 40
1.0
 40
1.0
 40
1.0
 40
1.0
 10
6.7064532661
 20
5.0667889185
 30
0.0
 10
6.7057927675
 20
5.0671706379
 30
0.0
 10
6.7045199691
 20
5.0679368709
 30
0.0
 10
6.7027107141
 20
5.0691294771
 30
0.0
 10
6.7010580579
 20
5.0703317515
 30
0.0
 10
6.6995673355
 20
5.0715408274
 30
0.0
 10
6.6982436192
 20
5.0727550404
 30
0.0
 10
6.6970893021
 20
5.0739719639
 30
0.0
 10
6.6961034078
 20
5.0751883405
 30
0.0
 10
6.6952846853
 20
5.0764020086
 30
0.0
 10
6.6946320009
 20
5.0776105687
 30
0.0
 10
6.6942203631
 20
5.078624677
 30
0.0
 10
6.6939772609
 20
5.079427547
 30
0.0
 10
6.6937928166
 20
5.0802092662
 30
0.0
 10
6.6936584348
 20
5.0811847791
 30
0.0
 10
6.6936505978
 20
5.0823511374
 30
0.0
 10
6.6937909863
 20
5.0835018395
 30
0.0
 10
6.6940728528
 20
5.0846353509
 30
0.0
 10
6.6944892958
 20
5.0857506576
 30
0.0
 10
6.6950336044
 20
5.0868471691
 30
0.0
 10
6.6956995264
 20
5.0879248047
 30
0.0
 10
6.6964810771
 20
5.0889839975
 30
0.0
 10
6.6973725509
 20
5.0900254618
 30
0.0
 10
6.6983683713
 20
5.0910498802
 30
0.0
 10
6.6994630224
 20
5.0920578714
 30
0.0
 10
6.7006510161
 20
5.0930499956
 30
0.0
 10
6.7019269375
 20
5.0940268131
 30
0.0
 10
6.7032857667
 20
5.0949891249
 30
0.0
 10
6.7047235499
 20
5.0959371856
 30
0.0
 10
6.7062366807
 20
5.0968715164
 30
0.0
 10
6.707821636
 20
5.0977926916
 30
0.0
 10
6.7094748939
 20
5.0987012933
 30
0.0
 10
6.7117942909
 20
5.0999116688
 30
0.0
 10
6.7135826212
 20
5.1007791873
 30
0.0
 10
6.7147978712
 20
5.1013460134
 30
0.0
  0
SPLINE
  5
29C
100
AcDbEntity
  8
0
100
AcDbSpline
 62
9
  6
CONTINUOUS
 70
0
 71
3
 72
59
 73
55
 74
0
 42
0.0000001
 43
0.0000001
 44
0.0000000001
 40
0.0
 40
0.0
 40
0.0
 40
0.0
 40
0.005212053
 40
0.0108845774
 40
0.0170214176
 40
0.0236169723
 40
0.0306603343
 40
0.0381412315
 40
0.0460478445
 40
0.0543663169
 40
0.0630812517
 40
0.0721760743
 40
0.0816350701
 40
0.0914465251
 40
0.1015990687
 40
0.1120810168
 40
0.122880434
 40
0.1339853477
 40
0.1570747679
 40
0.1812872702
 40
0.2065644548
 40
0.2328642256
 40
0.2601536624
 40
0.2884107099
 40
0.3028988301
 40
0.3176251367
 40
0.3477938925
 40
0.3789283682
 40
0.4110482357
 40
0.4441873943
 40
0.4783900451
 40
0.4959090293
 40
0.5137175796
 40
0.5318253495
 40
0.5502427984
 40
0.5689814857
 40
0.588054242
 40
0.607475176
 40
0.6272588235
 40
0.6474196021
 40
0.6679737593
 40
0.6889396376
 40
0.7103352451
 40
0.7321695044
 40
0.7544511008
 40
0.7771920979
 40
0.8004074832
 40
0.8240935172
 40
0.8482203533
 40
0.897682108
 40
0.9229713565
 40
0.9485285328
 40
0.974241449
 40
1.0
 40
1.0
 40
1.0
 40
1.0
 10
6.3810599301
 20
5.6587999222
 30
0.0
 10
6.3814061843
 20
5.6586001362
 30
0.0
 10
6.3821079887
 20
5.6581455453
 30
0.0
 10
6.3831448888
 20
5.6573506997
 30
0.0
 10
6.3842083103
 20
5.6564210869
 30
0.0
 10
6.3852962699
 20
5.6553634078
 30
0.0
 10
6.3864071511
 20
5.6541838513
 30
0.0
 10
6.3875384803
 20
5.6528872524
 30
0.0
 10
6.3886881202
 20
5.6514782453
 30
0.0
 10
6.3898539605
 20
5.6499614091
 30
0.0
 10
6.3910338767
 20
5.6483413415
 30
0.0
 10
6.3922258426
 20
5.6466225619
 30
0.0
 10
6.3934279795
 20
5.6448090959
 30
0.0
 10
6.3946380536
 20
5.6429040902
 30
0.0
 10
6.3958541404
 20
5.6409104261
 30
0.0
 10
6.397074326
 20
5.6388309273
 30
0.0
 10
6.398296702
 20
5.6366684026
 30
0.0
 10
6.399948624
 20
5.633638373
 30
0.0
 10
6.4020045614
 20
5.6296575164
 30
0.0
 10
6.4044200934
 20
5.6246414357
 30
0.0
 10
6.4068013432
 20
5.619337843
 30
0.0
 10
6.4091325658
 20
5.6137553957
 30
0.0
 10
6.4113989025
 20
5.6079005109
 30
0.0
 10
6.4132046092
 20
5.6028408002
 30
0.0
 10
6.4146021849
 20
5.5986601073
 30
0.0
 10
6.4159870773
 20
5.5943210155
 30
0.0
 10
6.417642923
 20
5.5887287906
 30
0.0
 10
6.419477893
 20
5.5818012532
 30
0.0
 10
6.421155653
 20
5.5745996493
 30
0.0
 10
6.4226494649
 20
5.5671174253
 30
0.0
 10
6.4237110985
 20
5.5606944458
 30
0.0
 10
6.4244409567
 20
5.5554115002
 30
0.0
 10
6.4249272198
 20
5.5513417811
 30
0.0
 10
6.4253436933
 20
5.5471950603
 30
0.0
 10
6.4256851016
 20
5.5429698788
 30
0.0
 10
6.42594502
 20
5.538664724
 30
0.0
 10
6.4261172271
 20
5.5342781164
 30
0.0
 10
6.4261955879
 20
5.5298086442
 30
0.0
 10
6.4261733673
 20
5.5252550502
 30
0.0
 10
6.4260414792
 20
5.520616312
 30
0.0
 10
6.4257911559
 20
5.5158916056
 30
0.0
 10
6.4254135228
 20
5.5110803199
 30
0.0
 10
6.4248999939
 20
5.50618285
 30
0.0
 10
6.4242389688
 20
5.5012012065
 30
0.0
 10
6.4234187516
 20
5.4961386523
 30
0.0
 10
6.42242771
 20
5.4909987444
 30
0.0
 10
6.4212546405
 20
5.4857867848
 30
0.0
 10
6.4198893676
 20
5.480511787
 30
0.0
 10
6.4177825126
 20
5.4733535797
 30
0.0
 10
6.4152658067
 20
5.4661913974
 30
0.0
 10
6.4123206146
 20
5.4590824712
 30
0.0
 10
6.4098751143
 20
5.4537423776
 30
0.0
 10
6.4072181592
 20
5.4484641154
 30
0.0
 10
6.4053109964
 20
5.4450062349
 30
0.0
 10
6.4043232809
 20
5.4432952103
 30
0.0
  0
SPLINE
  5
29D
100
AcDbEntity
  8
0
100
AcDbSpline
 62
9
  6
CONTINUOUS
 70
0
 71
3
 72
39
 73
35
 74
0
 42
0.0000001
 43
0.0000001
 44
0.0000000001
 40
0.0
 40
0.0
 40
0.0
 40
0.0
 40
0.079351622
 40
0.1175897584
 40
0.1548116067
 40
0.1909796515
 40
0.2260614131
 40
0.2600304409
 40
0.2928675252
 40
0.3245578387
 40
0.3550767362
 40
0.3844088644
 40
0.4125587917
 40
0.4395558279
 40
0.4654597571
 40
0.4903673175
 40
0.514416126
 40
0.5377763441
 40
0.560666016
 40
0.5833587749
 40
0.6061791193
 40
0.629491005
 40
0.6414577028
 40
0.6536910995
 40
0.6791112625
 40
0.7060649809
 40
0.7348165693
 40
0.7655950044
 40
0.7985976517
 40
0.8339869957
 40
0.871830668
 40
0.912131324
 40
0.9548675002
 40
1.0
 40
1.0
 40
1.0
 40
1.0
 10
6.8556972673
 20
2.1953909262
 30
0.0
 10
6.8555804949
 20
2.1967268879
 30
0.0
 10
6.85543758
 20
2.1987095763
 30
0.0
 10
6.8553260605
 20
2.2013236879
 30
0.0
 10
6.8552862917
 20
2.2032099689
 30
0.0
 10
6.8552915853
 20
2.2050433433
 30
0.0
 10
6.855344214
 20
2.2068210152
 30
0.0
 10
6.8554464369
 20
2.2085401846
 30
0.0
 10
6.8556005386
 20
2.2101979845
 30
0.0
 10
6.8558086639
 20
2.2117911645
 30
0.0
 10
6.8560739371
 20
2.2133158496
 30
0.0
 10
6.8563995765
 20
2.2147676685
 30
0.0
 10
6.8567888067
 20
2.2161421593
 30
0.0
 10
6.8572449239
 20
2.2174348633
 30
0.0
 10
6.8577713066
 20
2.2186413031
 30
0.0
 10
6.8583714218
 20
2.2197568876
 30
0.0
 10
6.8590485977
 20
2.2207766366
 30
0.0
 10
6.8598059462
 20
2.2216950379
 30
0.0
 10
6.8606463921
 20
2.222505925
 30
0.0
 10
6.8615725984
 20
2.2232027875
 30
0.0
 10
6.8625866988
 20
2.2237789788
 30
0.0
 10
6.8634989579
 20
2.2241500483
 30
0.0
 10
6.8642685004
 20
2.224380813
 30
0.0
 10
6.865085651
 20
2.2245713854
 30
0.0
 10
6.8661697433
 20
2.2247220926
 30
0.0
 10
6.8675425759
 20
2.2247616308
 30
0.0
 10
6.8690027561
 20
2.2246599813
 30
0.0
 10
6.870549008
 20
2.2244146593
 30
0.0
 10
6.8721802225
 20
2.2240232221
 30
0.0
 10
6.8738938033
 20
2.2234831708
 30
0.0
 10
6.8756865755
 20
2.2227966091
 30
0.0
 10
6.877554208
 20
2.221966697
 30
0.0
 10
6.8794915969
 20
2.2209965065
 30
0.0
 10
6.8807914442
 20
2.2202775507
 30
0.0
 10
6.8814521753
 20
2.2198964775
 30
0.0
  0
SPLINE
  5
29E
100
AcDbEntity
  8
0
100
AcDbSpline
 62
9
  6
CONTINUOUS
 70
0
 71
3
 72
39
 73
35
 74
0
 42
0.0000001
 43
0.0000001
 44
0.0000000001
 40
0.0
 40
0.0
 40
0.0
 40
0.0
 40
0.0451443629
 40
0.0878926203
 40
0.1281996966
 40
0.1660390379
 40
0.2014127357
 40
0.2344106249
 40
0.2651942893
 40
0.2939542765
 40
0.3209138146
 40
0.3463331251
 40
0.358563053
 40
0.3705262436
 40
0.3938348866
 40
0.4166559372
 40
0.4393520256
 40
0.4622464016
 40
0.4856116346
 40
0.5096649413
 40
0.5345751409
 40
0.5604797375
 40
0.5874763109
 40
0.6156255945
 40
0.644957904
 40
0.675478838
 40
0.7071740769
 40
0.7400156926
 40
0.773983989
 40
0.8090608726
 40
0.8452211652
 40
0.8824337111
 40
0.9206623563
 40
1.0
 40
1.0
 40
1.0
 40
1.0
 10
6.1376490278
 20
6.6582011719
 30
0.0
 10
6.137648683
 20
6.6574382187
 30
0.0
 10
6.1376215243
 20
6.6559526247
 30
0.0
 10
6.1374934489
 20
6.6537891458
 30
0.0
 10
6.1372787042
 20
6.6517564791
 30
0.0
 10
6.1369770315
 20
6.6498607894
 30
0.0
 10
6.1365871697
 20
6.6481073374
 30
0.0
 10
6.1361102955
 20
6.6464992937
 30
0.0
 10
6.1355496924
 20
6.6450373504
 30
0.0
 10
6.1349078692
 20
6.6437214843
 30
0.0
 10
6.134187482
 20
6.6425519004
 30
0.0
 10
6.1335150214
 20
6.6416882531
 30
0.0
 10
6.1329412791
 20
6.64107615
 30
0.0
 10
6.1323565165
 20
6.6405254834
 30
0.0
 10
6.1315788689
 20
6.6399213496
 30
0.0
 10
6.1305726253
 20
6.6393315095
 30
0.0
 10
6.1295058025
 20
6.6388779525
 30
0.0
 10
6.1283830973
 20
6.6385555451
 30
0.0
 10
6.127208831
 20
6.638358762
 30
0.0
 10
6.1259869105
 20
6.6382820252
 30
0.0
 10
6.1247205806
 20
6.6383199195
 30
0.0
 10
6.1234125031
 20
6.6384671166
 30
0.0
 10
6.1220649043
 20
6.6387183508
 30
0.0
 10
6.1206799414
 20
6.6390684894
 30
0.0
 10
6.1192597975
 20
6.6395124836
 30
0.0
 10
6.1178066886
 20
6.640045333
 30
0.0
 10
6.1163228424
 20
6.6406621066
 30
0.0
 10
6.1148101111
 20
6.6413579676
 30
0.0
 10
6.1132702445
 20
6.642129189
 30
0.0
 10
6.1117046534
 20
6.6429724311
 30
0.0
 10
6.1101145747
 20
6.6438843696
 30
0.0
 10
6.1085012435
 20
6.6448616944
 30
0.0
 10
6.1062935129
 20
6.6462649593
 30
0.0
 10
6.104648169
 20
6.6473797718
 30
0.0
 10
6.1035497211
 20
6.6481486911
 30
0.0
  0
SPLINE
  5
29F
100
AcDbEntity
  8
0
100
AcDbSpline
 62
9
  6
CONTINUOUS
 70
0
 71
3
 72
48
 73
44
 74
0
 42
0.0000001
 43
0.0000001
 44
0.0000000001
 40
0.0
 40
0.0
 40
0.0
 40
0.0
 40
0.0205015032
 40
0.0409868939
 40
0.0613720345
 40
0.0815599212
 40
0.1014778379
 40
0.1211409355
 40
0.1405670656
 40
0.1597596479
 40
0.1692662165
 40
0.1787104524
 40
0.197419511
 40
0.2159089385
 40
0.2341971554
 40
0.2522981846
 40
0.2702220316
 40
0.2879756793
 40
0.3055674377
 40
0.3402976934
 40
0.3744694617
 40
0.4081219985
 40
0.4412818557
 40
0.473969225
 40
0.5061984728
 40
0.5379761802
 40
0.5693060848
 40
0.6001889808
 40
0.6306196199
 40
0.6605912132
 40
0.6900953631
 40
0.7191180914
 40
0.7476440856
 40
0.7756568298
 40
0.8031331846
 40
0.8300484464
 40
0.856377205
 40
0.8820868578
 40
0.9071432833
 40
0.9315128432
 40
0.9551483397
 40
0.977994587
 40
1.0
 40
1.0
 40
1.0
 40
1.0
 10
6.8702353969
 20
2.0243007247
 30
0.0
 10
6.8708323198
 20
2.0253345468
 30
0.0
 10
6.8719556639
 20
2.0274425822
 30
0.0
 10
6.8734341913
 20
2.0306983094
 30
0.0
 10
6.8747095756
 20
2.034019216
 30
0.0
 10
6.8757838353
 20
2.0373756555
 30
0.0
 10
6.8766610254
 20
2.0407452573
 30
0.0
 10
6.8773578666
 20
2.0441111201
 30
0.0
 10
6.8778932457
 20
2.047463363
 30
0.0
 10
6.8782218782
 20
2.0502470394
 30
0.0
 10
6.878422662
 20
2.052459074
 30
0.0
 10
6.8785845821
 20
2.0546460644
 30
0.0
 10
6.8787204492
 20
2.057359083
 30
0.0
 10
6.8787867379
 20
2.0605897421
 30
0.0
 10
6.8787663202
 20
2.0637855452
 30
0.0
 10
6.8786697442
 20
2.0669469287
 30
0.0
 10
6.878507398
 20
2.0700743757
 30
0.0
 10
6.87829024
 20
2.0731687262
 30
0.0
 10
6.8779366063
 20
2.0772339519
 30
0.0
 10
6.8773838895
 20
2.0822407281
 30
0.0
 10
6.8765763516
 20
2.0881579804
 30
0.0
 10
6.875665779
 20
2.0939675607
 30
0.0
 10
6.8746722845
 20
2.0996757271
 30
0.0
 10
6.8736151685
 20
2.1052880508
 30
0.0
 10
6.872513812
 20
2.1108097637
 30
0.0
 10
6.8713797048
 20
2.1162440923
 30
0.0
 10
6.8702246931
 20
2.1215938115
 30
0.0
 10
6.8690604559
 20
2.1268612118
 30
0.0
 10
6.8678950768
 20
2.1320473159
 30
0.0
 10
6.8667368835
 20
2.1371527331
 30
0.0
 10
6.8655942884
 20
2.1421776228
 30
0.0
 10
6.8644741656
 20
2.1471212984
 30
0.0
 10
6.8633834613
 20
2.1519825892
 30
0.0
 10
6.862329275
 20
2.1567597685
 30
0.0
 10
6.8613183805
 20
2.1614504053
 30
0.0
 10
6.8603576727
 20
2.1660514664
 30
0.0
 10
6.8594541356
 20
2.1705592427
 30
0.0
 10
6.8586154474
 20
2.1749694311
 30
0.0
 10
6.8578495433
 20
2.1792770521
 30
0.0
 10
6.8571643944
 20
2.1834759687
 30
0.0
 10
6.8565688155
 20
2.1875585798
 30
0.0
 10
6.8560722938
 20
2.1915157619
 30
0.0
 10
6.8558085068
 20
2.1941144155
 30
0.0
 10
6.8556972673
 20
2.1953909262
 30
0.0
  0
SPLINE
  5
2A0
100
AcDbEntity
  8
0
100
AcDbSpline
 62
9
  6
CONTINUOUS
 70
0
 71
3
 72
50
 73
46
 74
0
 42
0.0000001
 43
0.0000001
 44
0.0000000001
 40
0.0
 40
0.0
 40
0.0
 40
0.0
 40
0.0220061693
 40
0.0448534301
 40
0.0684920915
 40
0.0928686784
 40
0.1179307341
 40
0.1436433826
 40
0.16997624
 40
0.196897605
 40
0.2243766459
 40
0.2523915718
 40
0.2809231845
 40
0.3099518957
 40
0.3694343763
 40
0.4307561806
 40
0.4620895748
 40
0.4938709573
 40
0.5261047977
 40
0.5423933363
 40
0.5587976115
 40
0.5919614566
 40
0.6256179602
 40
0.6426397406
 40
0.6597958819
 40
0.6770910682
 40
0.6945308495
 40
0.7121221247
 40
0.7298733092
 40
0.7477944715
 40
0.7568225371
 40
0.7658971877
 40
0.7841887039
 40
0.8026776129
 40
0.8213774072
 40
0.8403073396
 40
0.8594883606
 40
0.8789148685
 40
0.8985775909
 40
0.9184817689
 40
0.9285314046
 40
0.9386455745
 40
0.9590167165
 40
0.9794979595
 40
1.0
 40
1.0
 40
1.0
 40
1.0
 10
6.7147978712
 20
1.9513460134
 30
0.0
 10
6.7159590806
 20
1.9518878351
 30
0.0
 10
6.7183416386
 20
1.9529586188
 30
0.0
 10
6.7220172194
 20
1.9545072711
 30
0.0
 10
6.7258512594
 20
1.9560330712
 30
0.0
 10
6.7298310811
 20
1.9575394943
 30
0.0
 10
6.7339453447
 20
1.9590305151
 30
0.0
 10
6.7381846478
 20
1.9605097927
 30
0.0
 10
6.7425409878
 20
1.9619815092
 30
0.0
 10
6.7470067962
 20
1.9634500078
 30
0.0
 10
6.7515751489
 20
1.9649198448
 30
0.0
 10
6.7562400217
 20
1.966395598
 30
0.0
 10
6.760996106
 20
1.9678820745
 30
0.0
 10
6.7675054003
 20
1.9699012875
 30
0.0
 10
6.7758416533
 20
1.9724753543
 30
0.0
 10
6.7842951172
 20
1.9751247217
 30
0.0
 10
6.7911936065
 20
1.9773413167
 30
0.0
 10
6.7964676356
 20
1.9790764028
 30
0.0
 10
6.8008962504
 20
1.9805774735
 30
0.0
 10
6.8044667818
 20
1.981820248
 30
0.0
 10
6.8080809811
 20
1.9831020972
 30
0.0
 10
6.8126317542
 20
1.9847684798
 30
0.0
 10
6.8171869084
 20
1.9865257716
 30
0.0
 10
6.8208498483
 20
1.9880040627
 30
0.0
 10
6.823616755
 20
1.989156451
 30
0.0
 10
6.8263918226
 20
1.9903520176
 30
0.0
 10
6.8291729717
 20
1.9915968151
 30
0.0
 10
6.8319582595
 20
1.992896499
 30
0.0
 10
6.8347456948
 20
1.9942568144
 30
0.0
 10
6.8370628781
 20
1.9954427777
 30
0.0
 10
6.838915299
 20
1.9964270299
 30
0.0
 10
6.8407759454
 20
1.9974414977
 30
0.0
 10
6.8430976746
 20
1.9987608022
 30
0.0
 10
6.8458631901
 20
2.0004314786
 30
0.0
 10
6.8486088745
 20
2.0022042821
 30
0.0
 10
6.8513277852
 20
2.0040897141
 30
0.0
 10
6.8540118175
 20
2.0060962227
 30
0.0
 10
6.8566463319
 20
2.0082360803
 30
0.0
 10
6.8592128222
 20
2.0105212266
 30
0.0
 10
6.8612724848
 20
2.0125493521
 30
0.0
 10
6.862866395
 20
2.0142535216
 30
0.0
 10
6.864429093
 20
2.0160227853
 30
0.0
 10
6.8662968934
 20
2.0183314292
 30
0.0
 10
6.8683751862
 20
2.0212398497
 30
0.0
 10
6.869638501
 20
2.0232668461
 30
0.0
 10
6.8702353969
 20
2.0243007247
 30
0.0
  0
SPLINE
  5
2A1
100
AcDbEntity
  8
0
100
AcDbSpline
 62
9
  6
CONTINUOUS
 70
0
 71
3
 72
60
 73
56
 74
0
 42
0.0000001
 43
0.0000001
 44
0.0000000001
 40
0.0
 40
0.0
 40
0.0
 40
0.0
 40
0.025748554
 40
0.0514512529
 40
0.0769977777
 40
0.1022757489
 40
0.151716708
 40
0.1758343143
 40
0.1995116111
 40
0.2227193819
 40
0.245456693
 40
0.2677389656
 40
0.2895784796
 40
0.3109841512
 40
0.3319620064
 40
0.3525242182
 40
0.3726902559
 40
0.3924782161
 40
0.4119043905
 40
0.4309832755
 40
0.4497276171
 40
0.4681492568
 40
0.4862598731
 40
0.5215892007
 40
0.5388286265
 40
0.5557954437
 40
0.5724971237
 40
0.5889395781
 40
0.6210629727
 40
0.652196664
 40
0.6823642854
 40
0.6970918115
 40
0.7115823431
 40
0.7398441758
 40
0.7671330364
 40
0.7934288048
 40
0.8061975898
 40
0.8187090807
 40
0.8429299919
 40
0.8546222894
 40
0.8660238589
 40
0.8879191413
 40
0.9085472339
 40
0.9183638645
 40
0.9278296274
 40
0.9369277695
 40
0.9456422326
 40
0.9539578434
 40
0.9618605658
 40
0.969337843
 40
0.9763790678
 40
0.9829745332
 40
0.9891125423
 40
0.9947866445
 40
1.0
 40
1.0
 40
1.0
 40
1.0
 10
6.4043232809
 20
2.2932952103
 30
0.0
 10
6.4033357443
 20
2.2915849454
 30
0.0
 10
6.4012955603
 20
2.2882056095
 30
0.0
 10
6.3980543359
 20
2.2832673282
 30
0.0
 10
6.3946540019
 20
2.2784812532
 30
0.0
 10
6.3899722306
 20
2.2723785713
 30
0.0
 10
6.3850303995
 20
2.2666199448
 30
0.0
 10
6.379887226
 20
2.2612177923
 30
0.0
 10
6.3760033862
 20
2.257398819
 30
0.0
 10
6.3720777196
 20
2.2537775068
 30
0.0
 10
6.368122837
 20
2.2503494259
 30
0.0
 10
6.3641486929
 20
2.2471074078
 30
0.0
 10
6.3601641113
 20
2.2440431491
 30
0.0
 10
6.3561777954
 20
2.2411484419
 30
0.0
 10
6.3521981126
 20
2.238414241
 30
0.0
 10
6.3482308158
 20
2.235832615
 30
0.0
 10
6.3442792075
 20
2.2333968241
 30
0.0
 10
6.3403462745
 20
2.2310993028
 30
0.0
 10
6.336434912
 20
2.2289325492
 30
0.0
 10
6.3325479824
 20
2.2268891232
 30
0.0
 10
6.3286884593
 20
2.2249612295
 30
0.0
 10
6.3248584038
 20
2.2231424157
 30
0.0
 10
6.3198340278
 20
2.220875715
 30
0.0
 10
6.3148299594
 20
2.2187868388
 30
0.0
 10
6.3098541444
 20
2.2168664422
 30
0.0
 10
6.3061874923
 20
2.2155236047
 30
0.0
 10
6.3025568956
 20
2.2142616755
 30
0.0
 10
6.2978025606
 20
2.2126938952
 30
0.0
 10
6.291952725
 20
2.2109161601
 30
0.0
 10
6.2850355082
 20
2.2090419054
 30
0.0
 10
6.2793642223
 20
2.2076812539
 30
0.0
 10
6.2749137298
 20
2.2067112674
 30
0.0
 10
6.2705937573
 20
2.20583076
 30
0.0
 10
6.2653087019
 20
2.2048635444
 30
0.0
 10
6.2591050107
 20
2.2038986043
 30
0.0
 10
6.2540566089
 20
2.2032498084
 30
0.0
 10
6.2501236342
 20
2.2028239835
 30
0.0
 10
6.2463438526
 20
2.2024649368
 30
0.0
 10
6.2426395835
 20
2.2021867504
 30
0.0
 10
6.2390156963
 20
2.2019918445
 30
0.0
 10
6.2355676117
 20
2.2018562954
 30
0.0
 10
6.2314315367
 20
2.2017849294
 30
0.0
 10
6.2274166903
 20
2.2018448672
 30
0.0
 10
6.2243581245
 20
2.2019735202
 30
0.0
 10
6.2221853019
 20
2.2021070951
 30
0.0
 10
6.220100023
 20
2.2022796711
 30
0.0
 10
6.2181070345
 20
2.2024915832
 30
0.0
 10
6.2162110789
 20
2.2027431553
 30
0.0
 10
6.2144168819
 20
2.2030347126
 30
0.0
 10
6.2127291474
 20
2.2033665785
 30
0.0
 10
6.2111526798
 20
2.2037390596
 30
0.0
 10
6.2096927573
 20
2.2041522751
 30
0.0
 10
6.208355652
 20
2.204608126
 30
0.0
 10
6.2071483709
 20
2.2051083815
 30
0.0
 10
6.2064034668
 20
2.2054887689
 30
0.0
 10
6.2060572089
 20
2.2056887561
 30
0.0
  0
SPLINE
  5
2A2
100
AcDbEntity
  8
0
100
AcDbSpline
 62
9
  6
CONTINUOUS
 70
0
 71
3
 72
39
 73
35
 74
0
 42
0.0000001
 43
0.0000001
 44
0.0000000001
 40
0.0
 40
0.0
 40
0.0
 40
0.0
 40
0.0793470878
 40
0.1175830981
 40
0.1548029265
 40
0.1909690672
 40
0.2260490505
 40
0.2600164365
 40
0.2928520269
 40
0.3245410335
 40
0.3550588113
 40
0.3843899402
 40
0.4125389162
 40
0.4395349718
 40
0.4654378096
 40
0.4903440836
 40
0.5143913807
 40
0.5377499606
 40
0.5606378761
 40
0.5833286597
 40
0.6061465948
 40
0.6294553159
 40
0.6414200169
 40
0.6536509658
 40
0.6790649872
 40
0.7060119076
 40
0.7347577203
 40
0.7655334277
 40
0.7985386222
 40
0.833936481
 40
0.8717914889
 40
0.9121051221
 40
0.9548547625
 40
1.0
 40
1.0
 40
1.0
 40
1.0
 10
5.8217509289
 20
3.4981486911
 30
0.0
 10
5.8206523794
 20
3.4973796148
 30
0.0
 10
5.8190068422
 20
3.4962645447
 30
0.0
 10
5.8167988038
 20
3.4948609551
 30
0.0
 10
5.8151851842
 20
3.4938834003
 30
0.0
 10
5.8135948496
 20
3.4929713179
 30
0.0
 10
5.8120290836
 20
3.4921280746
 30
0.0
 10
5.8104891807
 20
3.4913570273
 30
0.0
 10
5.8089764799
 20
3.4906615883
 30
0.0
 10
5.8074927233
 20
3.4900452397
 30
0.0
 10
5.8060397055
 20
3.4895126219
 30
0.0
 10
5.8046196049
 20
3.4890687081
 30
0.0
 10
5.8032346763
 20
3.4887185222
 30
0.0
 10
5.8018871358
 20
3.4884671481
 30
0.0
 10
5.8005791744
 20
3.4883197511
 30
0.0
 10
5.7993130365
 20
3.488281629
 30
0.0
 10
5.79809137
 20
3.4883581566
 30
0.0
 10
5.7969173886
 20
3.4885547733
 30
0.0
 10
5.7957949629
 20
3.4888770806
 30
0.0
 10
5.7947283909
 20
3.4893306253
 30
0.0
 10
5.7937223528
 20
3.4899205651
 30
0.0
 10
5.7929448382
 20
3.4905248487
 30
0.0
 10
5.7923601769
 20
3.4910756983
 30
0.0
 10
5.7917865105
 20
3.4916878127
 30
0.0
 10
5.7911138431
 20
3.4925509237
 30
0.0
 10
5.7903930491
 20
3.4937196398
 30
0.0
 10
5.7897508878
 20
3.4950347146
 30
0.0
 10
5.7891901798
 20
3.4964963828
 30
0.0
 10
5.7887136442
 20
3.4981049815
 30
0.0
 10
5.7883247494
 20
3.4998594774
 30
0.0
 10
5.7880230538
 20
3.501755957
 30
0.0
 10
5.7878080114
 20
3.5037890135
 30
0.0
 10
5.787679468
 20
3.5059526341
 30
0.0
 10
5.7876520517
 20
3.5074382789
 30
0.0
 10
5.7876516168
 20
3.5082012546
 30
0.0
  0
SPLINE
  5
2A3
100
AcDbEntity
  8
0
100
AcDbSpline
 62
9
  6
CONTINUOUS
 70
0
 71
3
 72
52
 73
48
 74
0
 42
0.0000001
 43
0.0000001
 44
0.0000000001
 40
0.0
 40
0.0
 40
0.0
 40
0.0
 40
0.0204993421
 40
0.0409806885
 40
0.0613576472
 40
0.0714775486
 40
0.0815338319
 40
0.1014426198
 40
0.1211032799
 40
0.140528609
 40
0.1597168687
 40
0.1692184375
 40
0.1786575252
 40
0.1973599245
 40
0.2158467068
 40
0.2341348998
 40
0.2522368109
 40
0.2612206901
 40
0.270160724
 40
0.287913338
 40
0.305504439
 40
0.3402347335
 40
0.3573885758
 40
0.374408631
 40
0.4080632731
 40
0.4412246697
 40
0.4739123008
 40
0.4900834232
 40
0.5061415058
 40
0.5379209806
 40
0.5692519066
 40
0.6001335795
 40
0.6305644317
 40
0.6605391717
 40
0.6900448979
 40
0.7190675991
 40
0.7475933483
 40
0.7756069722
 40
0.8030852022
 40
0.8300023403
 40
0.8563334616
 40
0.8820545711
 40
0.9071327749
 40
0.9315165764
 40
0.9551543138
 40
0.9779971804
 40
1.0
 40
1.0
 40
1.0
 40
1.0
 10
5.962650325
 20
3.5962841814
 30
0.0
 10
5.9614566695
 20
3.5962842049
 30
0.0
 10
5.9590697315
 20
3.5962033071
 30
0.0
 10
5.9555117203
 20
3.5958567568
 30
0.0
 10
5.9525778841
 20
3.5953930178
 30
0.0
 10
5.9502632087
 20
3.5949244348
 30
0.0
 10
5.9479892287
 20
3.5943968355
 30
0.0
 10
5.9452022098
 20
3.5936279603
 30
0.0
 10
5.9419397333
 20
3.5925483035
 30
0.0
 10
5.9387692287
 20
3.5913362199
 30
0.0
 10
5.9361943883
 20
3.5902300045
 30
0.0
 10
5.9341785457
 20
3.5892993712
 30
0.0
 10
5.932204071
 20
3.5883473492
 30
0.0
 10
5.929787289
 20
3.5871089494
 30
0.0
 10
5.9269571021
 20
3.5855506886
 30
0.0
 10
5.9242001467
 20
3.5839344795
 30
0.0
 10
5.9219533346
 20
3.5825439172
 30
0.0
 10
5.920187128
 20
3.58141203
 30
0.0
 10
5.9184488914
 20
3.5802743716
 30
0.0
 10
5.9163106716
 20
3.5788328594
 30
0.0
 10
5.9129665557
 20
3.5764946393
 30
0.0
 10
5.9097058247
 20
3.5740990557
 30
0.0
 10
5.906518967
 20
3.5716613714
 30
0.0
 10
5.9034093054
 20
3.5692262501
 30
0.0
 10
5.8996099076
 20
3.5661605813
 30
0.0
 10
5.8951622834
 20
3.5624468825
 30
0.0
 10
5.891539508
 20
3.5593345745
 30
0.0
 10
5.8886929664
 20
3.5568474097
 30
0.0
 10
5.8858979498
 20
3.5543817069
 30
0.0
 10
5.8824601553
 20
3.5513103558
 30
0.0
 10
5.878403874
 20
3.5476359403
 30
0.0
 10
5.8744248013
 20
3.5439933938
 30
0.0
 10
5.8705165613
 20
3.5403904881
 30
0.0
 10
5.866673604
 20
3.5368349919
 30
0.0
 10
5.8628929477
 20
3.5333328979
 30
0.0
 10
5.8591717519
 20
3.5298907716
 30
0.0
 10
5.8555073479
 20
3.5265152074
 30
0.0
 10
5.8518974586
 20
3.5232132338
 30
0.0
 10
5.8483406747
 20
3.5199920531
 30
0.0
 10
5.8448361138
 20
3.5168592796
 30
0.0
 10
5.8413830061
 20
3.5138226661
 30
0.0
 10
5.8379810656
 20
3.5108903135
 30
0.0
 10
5.8346312568
 20
3.5080715723
 30
0.0
 10
5.831335521
 20
3.5053775902
 30
0.0
 10
5.8280968299
 20
3.5028203065
 30
0.0
 10
5.8249182793
 20
3.5004117855
 30
0.0
 10
5.8228003402
 20
3.498883683
 30
0.0
 10
5.8217509289
 20
3.4981486911
 30
0.0
  0
SPLINE
  5
2A4
100
AcDbEntity
  8
0
100
AcDbSpline
 62
9
  6
CONTINUOUS
 70
0
 71
3
 72
49
 73
45
 74
0
 42
0.0000001
 43
0.0000001
 44
0.0000000001
 40
0.0
 40
0.0
 40
0.0
 40
0.0
 40
0.0220081672
 40
0.0448564474
 40
0.0684902338
 40
0.0928561545
 40
0.1179146432
 40
0.1436273275
 40
0.1699581373
 40
0.1968780934
 40
0.2243583405
 40
0.2523734886
 40
0.3099310047
 40
0.3394383394
 40
0.3694147894
 40
0.399849603
 40
0.4307358065
 40
0.4620706075
 40
0.493852584
 40
0.5260857761
 40
0.5587788375
 40
0.5919437816
 40
0.6256010357
 40
0.6597793896
 40
0.6945155258
 40
0.7121078688
 40
0.7298599207
 40
0.7477816431
 40
0.7568098713
 40
0.7658848713
 40
0.7841777348
 40
0.802668214
 40
0.821369102
 40
0.840299049
 40
0.8498577716
 40
0.8594804531
 40
0.8789078756
 40
0.8985720458
 40
0.9184772381
 40
0.9285269344
 40
0.9386412018
 40
0.9590132273
 40
0.9794960453
 40
1.0
 40
1.0
 40
1.0
 40
1.0
 10
6.1035497211
 20
3.4981486911
 30
0.0
 10
6.1024996037
 20
3.4988832166
 30
0.0
 10
6.1003806626
 20
3.5004110209
 30
0.0
 10
6.097201803
 20
3.5028197968
 30
0.0
 10
6.0939641767
 20
3.5053768853
 30
0.0
 10
6.0906705826
 20
3.5080696619
 30
0.0
 10
6.0873231602
 20
3.5108870759
 30
0.0
 10
6.0839228904
 20
3.513818826
 30
0.0
 10
6.0804702077
 20
3.5168553967
 30
0.0
 10
6.0769654281
 20
3.5199883177
 30
0.0
 10
6.0734082003
 20
3.5232095568
 30
0.0
 10
6.0685504263
 20
3.5276522533
 30
0.0
 10
6.0636293827
 20
3.5322005418
 30
0.0
 10
6.0586299292
 20
3.5368321988
 30
0.0
 10
6.0547867614
 20
3.5403880909
 30
0.0
 10
6.0508776798
 20
3.5439909575
 30
0.0
 10
6.0468979026
 20
3.5476337974
 30
0.0
 10
6.0428412236
 20
3.5513087163
 30
0.0
 10
6.0387016856
 20
3.5550088436
 30
0.0
 10
6.0344702794
 20
3.5587246054
 30
0.0
 10
6.0301364414
 20
3.562445289
 30
0.0
 10
6.0256900309
 20
3.5661614769
 30
0.0
 10
6.0211137233
 20
3.5698560227
 30
0.0
 10
6.0163892197
 20
3.5735107411
 30
0.0
 10
6.0123309037
 20
3.5764958272
 30
0.0
 10
6.0089876652
 20
3.5788360033
 30
0.0
 10
6.0064159033
 20
3.5805701325
 30
0.0
 10
6.0042301689
 20
3.5819839561
 30
0.0
 10
6.0024513704
 20
3.5830958686
 30
0.0
 10
6.0006422955
 20
3.5841998839
 30
0.0
 10
5.9983387343
 20
3.585551025
 30
0.0
 10
5.995509043
 20
3.5871110272
 30
0.0
 10
5.9926009103
 20
3.5886027579
 30
0.0
 10
5.990115397
 20
3.5897757443
 30
0.0
 10
5.9880837134
 20
3.5906687985
 30
0.0
 10
5.9860088511
 20
3.5915346081
 30
0.0
 10
5.983358274
 20
3.5925474875
 30
0.0
 10
5.9800959061
 20
3.5936277216
 30
0.0
 10
5.9773095604
 20
3.5943975551
 30
0.0
 10
5.9750367195
 20
3.5949259933
 30
0.0
 10
5.9727231015
 20
3.5953947941
 30
0.0
 10
5.9697897091
 20
3.5958580546
 30
0.0
 10
5.9662315383
 20
3.5962036544
 30
0.0
 10
5.9638442487
 20
3.5962841934
 30
0.0
 10
5.962650325
 20
3.5962841814
 30
0.0
  0
SPLINE
  5
2A5
100
AcDbEntity
  8
0
100
AcDbSpline
 62
9
  6
CONTINUOUS
 70
0
 71
3
 72
64
 73
60
 74
0
 42
0.0000001
 43
0.0000001
 44
0.0000000001
 40
0.0
 40
0.0
 40
0.0
 40
0.0
 40
0.0257589033
 40
0.0514724461
 40
0.0770299231
 40
0.1023184702
 40
0.1272454642
 40
0.1517798478
 40
0.175897839
 40
0.19957115
 40
0.2227735015
 40
0.2455085261
 40
0.2677877338
 40
0.2896190836
 40
0.3110084805
 40
0.3319708154
 40
0.3525247065
 40
0.3726865119
 40
0.3924705827
 40
0.4118919908
 40
0.430965864
 40
0.4497059131
 40
0.4681244402
 40
0.4862328108
 40
0.5040417774
 40
0.5215612184
 40
0.5388001253
 40
0.5557663803
 40
0.5724666577
 40
0.5889069945
 40
0.6050928626
 40
0.6210289806
 40
0.6367187428
 40
0.6521649333
 40
0.6673699659
 40
0.6823357719
 40
0.7115507917
 40
0.7398093351
 40
0.7671008976
 40
0.7934018777
 40
0.8186824449
 40
0.8428956759
 40
0.8545857333
 40
0.8659888858
 40
0.8878955184
 40
0.8983774248
 40
0.9085302392
 40
0.9183432826
 40
0.9278058226
 40
0.9369033954
 40
0.9456194326
 40
0.9539382074
 40
0.9618451423
 40
0.9693271553
 40
0.9763731118
 40
0.9829718727
 40
0.989111571
 40
0.9947863815
 40
1.0
 40
1.0
 40
1.0
 40
1.0
 10
5.962650325
 20
3.0582952103
 30
0.0
 10
5.9646260283
 20
3.058295125
 30
0.0
 10
5.9685743495
 20
3.0582178143
 30
0.0
 10
5.9744741305
 20
3.0578795083
 30
0.0
 10
5.9803215448
 20
3.0573272051
 30
0.0
 10
5.9860849651
 20
3.0565689118
 30
0.0
 10
5.9917391308
 20
3.0556120096
 30
0.0
 10
5.9972677798
 20
3.0544734891
 30
0.0
 10
6.0026607203
 20
3.053169241
 30
0.0
 10
6.0079091323
 20
3.0517150064
 30
0.0
 10
6.0130070663
 20
3.0501254301
 30
0.0
 10
6.0179522704
 20
3.048413912
 30
0.0
 10
6.0227459019
 20
3.0465931518
 30
0.0
 10
6.0273900194
 20
3.0446754339
 30
0.0
 10
6.0318877907
 20
3.0426729105
 30
0.0
 10
6.0362427595
 20
3.0405947765
 30
0.0
 10
6.0404594228
 20
3.0384491109
 30
0.0
 10
6.0445427542
 20
3.0362438731
 30
0.0
 10
6.0484981104
 20
3.0339871575
 30
0.0
 10
6.0523300821
 20
3.031684916
 30
0.0
 10
6.056043086
 20
3.0293422385
 30
0.0
 10
6.0596417068
 20
3.0269642787
 30
0.0
 10
6.0631306838
 20
3.0245563332
 30
0.0
 10
6.066514154
 20
3.0221226634
 30
0.0
 10
6.0697956132
 20
3.019666562
 30
0.0
 10
6.072978701
 20
3.0171914927
 30
0.0
 10
6.0760670568
 20
3.0147009387
 30
0.0
 10
6.0790641115
 20
3.0121981896
 30
0.0
 10
6.0819724706
 20
3.0096856434
 30
0.0
 10
6.0847947886
 20
3.0071658494
 30
0.0
 10
6.0875336761
 20
3.0046413355
 30
0.0
 10
6.0901917168
 20
3.0021147047
 30
0.0
 10
6.0927708154
 20
2.9995879773
 30
0.0
 10
6.0952727922
 20
2.9970632249
 30
0.0
 10
6.0976994428
 20
2.9945425173
 30
0.0
 10
6.1008118486
 20
2.9912167071
 30
0.0
 10
6.1045239299
 20
2.9870816056
 30
0.0
 10
6.1087347165
 20
2.9821269928
 30
0.0
 10
6.1126727689
 20
2.9772368224
 30
0.0
 10
6.1163419017
 20
2.9724261006
 30
0.0
 10
6.1197451238
 20
2.9677120878
 30
0.0
 10
6.1223890281
 20
2.9638341907
 30
0.0
 10
6.1243690339
 20
2.9607935225
 30
0.0
 10
6.126210938
 20
2.9578745055
 30
0.0
 10
6.1279414085
 20
2.9549950232
 30
0.0
 10
6.1295529655
 20
2.952157717
 30
0.0
 10
6.1306715316
 20
2.9501075464
 30
0.0
 10
6.1317165352
 20
2.9481067233
 30
0.0
 10
6.132686617
 20
2.9461585203
 30
0.0
 10
6.1335796259
 20
2.9442664248
 30
0.0
 10
6.1343928393
 20
2.9424342398
 30
0.0
 10
6.1351235112
 20
2.9406659906
 30
0.0
 10
6.1357688944
 20
2.9389656872
 30
0.0
 10
6.1363262243
 20
2.9373373152
 30
0.0
 10
6.1367927959
 20
2.9357850584
 30
0.0
 10
6.1371654234
 20
2.9343134707
 30
0.0
 10
6.1374392789
 20
2.9329271373
 30
0.0
 10
6.1376095153
 20
2.9316312357
 30
0.0
 10
6.1376523622
 20
2.9307958488
 30
0.0
 10
6.137652223
 20
2.9303959652
 30
0.0
  0
SPLINE
  5
2A6
100
AcDbEntity
  8
0
100
AcDbSpline
 62
9
  6
CONTINUOUS
 70
0
 71
3
 72
38
 73
34
 74
0
 42
0.0000001
 43
0.0000001
 44
0.0000000001
 40
0.0
 40
0.0
 40
0.0
 40
0.0
 40
0.0793519025
 40
0.1175890242
 40
0.1548096484
 40
0.1909766617
 40
0.2260579661
 40
0.2600274657
 40
0.2928662616
 40
0.3245569057
 40
0.3550732355
 40
0.3844013812
 40
0.4125473302
 40
0.4395417005
 40
0.4654454059
 40
0.490356009
 40
0.5144070597
 40
0.537765341
 40
0.5606504464
 40
0.5833382808
 40
0.606156243
 40
0.6294715931
 40
0.6536643086
 40
0.6790757986
 40
0.7060125127
 40
0.7347480301
 40
0.7655232772
 40
0.7985487215
 40
0.8339679186
 40
0.8718252715
 40
0.9121288005
 40
0.9548640978
 40
1.0
 40
1.0
 40
1.0
 40
1.0
 10
5.2105027787
 20
1.9513460134
 30
0.0
 10
5.2117181099
 20
1.9507791262
 30
0.0
 10
5.2135065572
 20
1.9499115012
 30
0.0
 10
5.2158261021
 20
1.9487009808
 30
0.0
 10
5.2174794597
 20
1.9477922805
 30
0.0
 10
5.2190644901
 20
1.9468710295
 30
0.0
 10
5.2205776611
 20
1.9459366586
 30
0.0
 10
5.2220154358
 20
1.9449886027
 30
0.0
 10
5.2233741939
 20
1.9440263738
 30
0.0
 10
5.2246499373
 20
1.943049686
 30
0.0
 10
5.2258376481
 20
1.942057724
 30
0.0
 10
5.2269319813
 20
1.9410499223
 30
0.0
 10
5.227927528
 20
1.9400256948
 30
0.0
 10
5.2288188526
 20
1.9389844006
 30
0.0
 10
5.2296004584
 20
1.9379253349
 30
0.0
 10
5.2302666722
 20
1.9368478459
 30
0.0
 10
5.23081154
 20
1.9357516442
 30
0.0
 10
5.2312285682
 20
1.9346367847
 30
0.0
 10
5.2315108548
 20
1.9335037656
 30
0.0
 10
5.2316513636
 20
1.9323534557
 30
0.0
 10
5.2316431893
 20
1.9311871331
 30
0.0
 10
5.2314797259
 20
1.9300065414
 30
0.0
 10
5.2311555427
 20
1.9288143337
 30
0.0
 10
5.2306690047
 20
1.9276127571
 30
0.0
 10
5.2300181632
 20
1.9264040765
 30
0.0
 10
5.2292010114
 20
1.9251904693
 30
0.0
 10
5.2282154112
 20
1.9239739525
 30
0.0
 10
5.2270592786
 20
1.92275731
 30
0.0
 10
5.2257333389
 20
1.9215433304
 30
0.0
 10
5.224241935
 20
1.9203333877
 30
0.0
 10
5.2225895381
 20
1.9191303287
 30
0.0
 10
5.2207809457
 20
1.9179370119
 30
0.0
 10
5.2195084974
 20
1.9171705567
 30
0.0
 10
5.2188480966
 20
1.9167888181
 30
0.0
  0
SPLINE
  5
2A7
100
AcDbEntity
  8
0
100
AcDbSpline
 62
9
  6
CONTINUOUS
 70
0
 71
3
 72
49
 73
45
 74
0
 42
0.0000001
 43
0.0000001
 44
0.0000000001
 40
0.0
 40
0.0
 40
0.0
 40
0.0
 40
0.0204992685
 40
0.0409810733
 40
0.0613596577
 40
0.0815369822
 40
0.1014475521
 40
0.1211082614
 40
0.1405332867
 40
0.1597223015
 40
0.1692250086
 40
0.1786650582
 40
0.1973683317
 40
0.2158548715
 40
0.2341421327
 40
0.2522429277
 40
0.2701658708
 40
0.2879180012
 40
0.305508699
 40
0.3402383059
 40
0.3744110163
 40
0.4080650687
 40
0.4412259949
 40
0.473913324
 40
0.4900843669
 40
0.5061424052
 40
0.5379216999
 40
0.5692524006
 40
0.6001339218
 40
0.6305647959
 40
0.6605394822
 40
0.69004503
 40
0.7190675495
 40
0.7475932359
 40
0.775606845
 40
0.8030849564
 40
0.8300020015
 40
0.8563331871
 40
0.8820546272
 40
0.9071330645
 40
0.9315168947
 40
0.9551545393
 40
0.9779972734
 40
1.0
 40
1.0
 40
1.0
 40
1.0
 10
5.0550652531
 20
2.0243007247
 30
0.0
 10
5.055662052
 20
2.023266981
 30
0.0
 10
5.05692564
 20
2.021240308
 30
0.0
 10
5.0590050386
 20
2.0183322613
 30
0.0
 10
5.0612422127
 20
2.0155679219
 30
0.0
 10
5.0636111404
 20
2.0129606321
 30
0.0
 10
5.0660903384
 20
2.0105174751
 30
0.0
 10
5.0686565603
 20
2.0082317076
 30
0.0
 10
5.0712915533
 20
2.0060920482
 30
0.0
 10
5.0735371946
 20
2.0044154097
 30
0.0
 10
5.0753514028
 20
2.0031351538
 30
0.0
 10
5.0771633654
 20
2.0019012918
 30
0.0
 10
5.0794443196
 20
2.0004274652
 30
0.0
 10
5.0822087916
 20
1.9987554486
 30
0.0
 10
5.0849867201
 20
1.9971758379
 30
0.0
 10
5.087772824
 20
1.9956790133
 30
0.0
 10
5.0905618127
 20
1.9942549996
 30
0.0
 10
5.0933494065
 20
1.992894761
 30
0.0
 10
5.0970464005
 20
1.9911679526
 30
0.0
 10
5.1016588184
 20
1.9891434638
 30
0.0
 10
5.1071874109
 20
1.9868847358
 30
0.0
 10
5.1126738451
 20
1.9847677203
 30
0.0
 10
5.118113758
 20
1.9827729109
 30
0.0
 10
5.1226204365
 20
1.9811917157
 30
0.0
 10
5.1261976101
 20
1.9799700993
 30
0.0
 10
5.129730419
 20
1.9787823051
 30
0.0
 10
5.1341091389
 20
1.9773407512
 30
0.0
 10
5.1393193814
 20
1.9756651652
 30
0.0
 10
5.1444634376
 20
1.9740405248
 30
0.0
 10
5.1495377308
 20
1.9724573202
 30
0.0
 10
5.1545383262
 20
1.9709069556
 30
0.0
 10
5.1594615225
 20
1.9693838804
 30
0.0
 10
5.1643030571
 20
1.9678823234
 30
0.0
 10
5.1690585586
 20
1.9663966588
 30
0.0
 10
5.1737230701
 20
1.9649213926
 30
0.0
 10
5.1782910583
 20
1.9634517196
 30
0.0
 10
5.182756376
 20
1.9619830659
 30
0.0
 10
5.1871127153
 20
1.9605108842
 30
0.0
 10
5.1913531993
 20
1.9590308853
 30
0.0
 10
5.1954692237
 20
1.9575392241
 30
0.0
 10
5.1994501431
 20
1.9560320171
 30
0.0
 10
5.203284137
 20
1.9545058732
 30
0.0
 10
5.2069592255
 20
1.9529574415
 30
0.0
 10
5.2093415559
 20
1.9518873221
 30
0.0
 10
5.2105027787
 20
1.9513460134
 30
0.0
  0
SPLINE
  5
2A8
100
AcDbEntity
  8
0
100
AcDbSpline
 62
9
  6
CONTINUOUS
 70
0
 71
3
 72
50
 73
46
 74
0
 42
0.0000001
 43
0.0000001
 44
0.0000000001
 40
0.0
 40
0.0
 40
0.0
 40
0.0
 40
0.0220055582
 40
0.0448521607
 40
0.068490051
 40
0.0928656861
 40
0.1179267585
 40
0.1436385704
 40
0.1699706168
 40
0.1968910732
 40
0.2243691562
 40
0.2523831971
 40
0.2809139081
 40
0.3099416103
 40
0.3694220343
 40
0.3998559338
 40
0.4307417452
 40
0.4620739411
 40
0.4938541246
 40
0.5260866166
 40
0.5423743728
 40
0.5587778371
 40
0.5919401807
 40
0.6087046579
 40
0.6255954586
 40
0.6426162619
 40
0.6597712043
 40
0.6770649931
 40
0.6945033795
 40
0.7120934181
 40
0.7298436008
 40
0.7477639759
 40
0.7658644539
 40
0.7841524297
 40
0.8026386441
 40
0.8213387388
 40
0.8402736638
 40
0.85945718
 40
0.8788800351
 40
0.8985409416
 40
0.918453187
 40
0.9386328316
 40
0.9590139036
 40
0.9794982493
 40
1.0
 40
1.0
 40
1.0
 40
1.0
 10
5.0696033827
 20
2.1953909262
 30
0.0
 10
5.069492019
 20
2.1941144168
 30
0.0
 10
5.0692280814
 20
2.1915157489
 30
0.0
 10
5.0687314825
 20
2.1875584045
 30
0.0
 10
5.0681358666
 20
2.1834752764
 30
0.0
 10
5.0674505895
 20
2.179275604
 30
0.0
 10
5.0666847568
 20
2.174967206
 30
0.0
 10
5.0658462294
 20
2.1705563851
 30
0.0
 10
5.0649426382
 20
2.166047983
 30
0.0
 10
5.0639815343
 20
2.1614463933
 30
0.0
 10
5.0629703256
 20
2.1567553312
 30
0.0
 10
5.0619159773
 20
2.1519777226
 30
0.0
 10
5.060825308
 20
2.1471157644
 30
0.0
 10
5.0593193876
 20
2.1404691925
 30
0.0
 10
5.0577802514
 20
2.1337165189
 30
0.0
 10
5.0562385267
 20
2.1268534958
 30
0.0
 10
5.0550742038
 20
2.1215856065
 30
0.0
 10
5.0539187457
 20
2.116235521
 30
0.0
 10
5.0527844576
 20
2.1108007519
 30
0.0
 10
5.0518701299
 20
2.1062151326
 30
0.0
 10
5.0511610263
 20
2.1025017793
 30
0.0
 10
5.0504639638
 20
2.0987310791
 30
0.0
 10
5.0498008202
 20
2.0949259131
 30
0.0
 10
5.0491820029
 20
2.0910846818
 30
0.0
 10
5.0487400901
 20
2.0881671013
 30
0.0
 10
5.048324947
 20
2.0852226229
 30
0.0
 10
5.047939044
 20
2.0822504941
 30
0.0
 10
5.0475870365
 20
2.0792496554
 30
0.0
 10
5.0472748246
 20
2.0762189198
 30
0.0
 10
5.0470080058
 20
2.0731571477
 30
0.0
 10
5.0467922995
 20
2.0700631864
 30
0.0
 10
5.0466332572
 20
2.0669360082
 30
0.0
 10
5.0465370274
 20
2.0637748809
 30
0.0
 10
5.0465155461
 20
2.0605793251
 30
0.0
 10
5.0465803434
 20
2.0573493424
 30
0.0
 10
5.0467431677
 20
2.0540849968
 30
0.0
 10
5.0470153354
 20
2.0507871071
 30
0.0
 10
5.0474091384
 20
2.0474589645
 30
0.0
 10
5.0479445784
 20
2.0441075772
 30
0.0
 10
5.0486408348
 20
2.0407422684
 30
0.0
 10
5.0495169325
 20
2.0373733488
 30
0.0
 10
5.0505904321
 20
2.0340177473
 30
0.0
 10
5.0518659159
 20
2.0306976977
 30
0.0
 10
5.0533448164
 20
2.02744245
 30
0.0
 10
5.0544683209
 20
2.0253345591
 30
0.0
 10
5.0550652531
 20
2.0243007247
 30
0.0
  0
SPLINE
  5
2A9
100
AcDbEntity
  8
0
100
AcDbSpline
 62
9
  6
CONTINUOUS
 70
0
 71
3
 72
57
 73
53
 74
0
 42
0.0000001
 43
0.0000001
 44
0.0000000001
 40
0.0
 40
0.0
 40
0.0
 40
0.0
 40
0.0257482751
 40
0.0514508295
 40
0.0769974493
 40
0.1022758491
 40
0.1517175028
 40
0.1758357121
 40
0.1995142344
 40
0.2227236246
 40
0.2454615182
 40
0.2677437269
 40
0.2895830952
 40
0.31098912
 40
0.3319682122
 40
0.3525313207
 40
0.372697701
 40
0.3924856028
 40
0.4119115026
 40
0.44973234
 40
0.4681540595
 40
0.4862647562
 40
0.5215940122
 40
0.5388332189
 40
0.5557996834
 40
0.5725009105
 40
0.5889431295
 40
0.6210666232
 40
0.6522004287
 40
0.6823674401
 40
0.697094249
 40
0.7115844198
 40
0.7398467252
 40
0.7671364164
 40
0.7934319793
 40
0.8187094916
 40
0.8429306112
 40
0.8660260751
 40
0.8879226212
 40
0.908548237
 40
0.9183626384
 40
0.9278279445
 40
0.9369269109
 40
0.945642871
 40
0.9539600613
 40
0.9618638806
 40
0.9693412415
 40
0.9763810551
 40
0.9829745226
 40
0.9891117898
 40
0.9947860289
 40
1.0
 40
1.0
 40
1.0
 40
1.0
 10
5.5209773691
 20
2.2932952103
 30
0.0
 10
5.5199900229
 20
2.2950055477
 30
0.0
 10
5.5180835574
 20
2.298462023
 30
0.0
 10
5.515427528
 20
2.3037380993
 30
0.0
 10
5.5129828398
 20
2.3090759114
 30
0.0
 10
5.5100385819
 20
2.3161818126
 30
0.0
 10
5.5075223781
 20
2.3233409751
 30
0.0
 10
5.5054155996
 20
2.3304963393
 30
0.0
 10
5.5040501747
 20
2.335769567
 30
0.0
 10
5.502876777
 20
2.3409801697
 30
0.0
 10
5.5018852968
 20
2.3461193536
 30
0.0
 10
5.5010646254
 20
2.3511820611
 30
0.0
 10
5.5004031901
 20
2.3561649228
 30
0.0
 10
5.4998895416
 20
2.361064622
 30
0.0
 10
5.4995117678
 20
2.3658784139
 30
0.0
 10
5.4992596631
 20
2.3706051698
 30
0.0
 10
5.4991258811
 20
2.3752453132
 30
0.0
 10
5.4991024648
 20
2.379800089
 30
0.0
 10
5.4992070224
 20
2.3857080438
 30
0.0
 10
5.4994986226
 20
2.3915064248
 30
0.0
 10
5.4999560161
 20
2.3971911517
 30
0.0
 10
5.5005051376
 20
2.4026757459
 30
0.0
 10
5.5011978838
 20
2.4080538099
 30
0.0
 10
5.5020225287
 20
2.4133231365
 30
0.0
 10
5.5026929201
 20
2.4171698691
 30
0.0
 10
5.5034156601
 20
2.4209448621
 30
0.0
 10
5.5044353193
 20
2.4258460034
 30
0.0
 10
5.505820574
 20
2.4318009596
 30
0.0
 10
5.5076557191
 20
2.4387285814
 30
0.0
 10
5.5093128512
 20
2.4443203042
 30
0.0
 10
5.5106983181
 20
2.4486592939
 30
0.0
 10
5.5120959238
 20
2.4528406247
 30
0.0
 10
5.513900788
 20
2.4579012728
 30
0.0
 10
5.5161667573
 20
2.4637564512
 30
0.0
 10
5.5184988879
 20
2.4693382557
 30
0.0
 10
5.520881036
 20
2.4746418512
 30
0.0
 10
5.523296373
 20
2.4796593393
 30
0.0
 10
5.525731829
 20
2.4843771227
 30
0.0
 10
5.5281728004
 20
2.4887792308
 30
0.0
 10
5.5302321065
 20
2.4922259247
 30
0.0
 10
5.5318729259
 20
2.494809826
 30
0.0
 10
5.5330749491
 20
2.4966246153
 30
0.0
 10
5.5342670302
 20
2.4983444001
 30
0.0
 10
5.5354470535
 20
2.4999647727
 30
0.0
 10
5.5366129135
 20
2.5014813119
 30
0.0
 10
5.5377625138
 20
2.50288961
 30
0.0
 10
5.53889375
 20
2.5041852958
 30
0.0
 10
5.5400045878
 20
2.5053639367
 30
0.0
 10
5.5410925065
 20
2.506421081
 30
0.0
 10
5.5421557074
 20
2.5073509454
 30
0.0
 10
5.543192478
 20
2.5081464721
 30
0.0
 10
5.5438942824
 20
2.5086015892
 30
0.0
 10
5.5442405881
 20
2.5088015836
 30
0.0
  0
SPLINE
  5
2AA
100
AcDbEntity
  8
0
100
AcDbSpline
 62
9
  6
CONTINUOUS
 70
0
 71
3
 72
43
 73
39
 74
0
 42
0.0000001
 43
0.0000001
 44
0.0000000001
 40
0.0
 40
0.0
 40
0.0
 40
0.0
 40
0.0354712772
 40
0.0531971602
 40
0.0709014447
 40
0.0885727352
 40
0.1062001866
 40
0.1237790191
 40
0.141306533
 40
0.1761920415
 40
0.210823182
 40
0.2451801531
 40
0.2792591526
 40
0.2961915544
 40
0.3130500783
 40
0.3465459714
 40
0.3797518507
 40
0.3962468717
 40
0.4126698721
 40
0.4452998875
 40
0.4776422731
 40
0.509695934
 40
0.5414581217
 40
0.5729247359
 40
0.6040909217
 40
0.6349488516
 40
0.6654883604
 40
0.7255657801
 40
0.7550728586
 40
0.7842024463
 40
0.8129296135
 40
0.8412274018
 40
0.8690672686
 40
0.8964151048
 40
0.9232372533
 40
0.9494887763
 40
0.9750995106
 40
1.0
 40
1.0
 40
1.0
 40
1.0
 10
6.8942929633
 20
2.0104110823
 30
0.0
 10
6.8957333765
 20
2.0129045284
 30
0.0
 10
6.8978166871
 20
2.0166891688
 30
0.0
 10
6.9004420746
 20
2.0218116488
 30
0.0
 10
6.9023338677
 20
2.0256855202
 30
0.0
 10
6.9041484707
 20
2.0295872869
 30
0.0
 10
6.905885689
 20
2.0335129768
 30
0.0
 10
6.9075475057
 20
2.0374584969
 30
0.0
 10
6.9096629214
 20
2.0427322871
 30
0.0
 10
6.9121323146
 20
2.0493544601
 30
0.0
 10
6.9148431241
 20
2.0573405629
 30
0.0
 10
6.9173206007
 20
2.0653333753
 30
0.0
 10
6.9192159261
 20
2.0720000751
 30
0.0
 10
6.9206409854
 20
2.0773224138
 30
0.0
 10
6.9220040744
 20
2.0826120945
 30
0.0
 10
6.9236103016
 20
2.0892030412
 30
0.0
 10
6.9251092847
 20
2.0957888292
 30
0.0
 10
6.9262501175
 20
2.1010342327
 30
0.0
 10
6.9273509903
 20
2.1062403947
 30
0.0
 10
6.9286669114
 20
2.1127159181
 30
0.0
 10
6.9301666151
 20
2.1204485862
 30
0.0
 10
6.931598075
 20
2.1281224939
 30
0.0
 10
6.9329741769
 20
2.1357342616
 30
0.0
 10
6.9343052488
 20
2.1432808705
 30
0.0
 10
6.9356023169
 20
2.1507588934
 30
0.0
 10
6.936874788
 20
2.1581647826
 30
0.0
 10
6.9385405525
 20
2.1678845242
 30
0.0
 10
6.9401990985
 20
2.1774942743
 30
0.0
 10
6.9418841622
 20
2.1869831714
 30
0.0
 10
6.9431556379
 20
2.1939605847
 30
0.0
 10
6.9444500794
 20
2.2008339215
 30
0.0
 10
6.9457750838
 20
2.2075947949
 30
0.0
 10
6.9471382233
 20
2.2142338463
 30
0.0
 10
6.9485487898
 20
2.2207405083
 30
0.0
 10
6.9500153614
 20
2.2271025746
 30
0.0
 10
6.9515464545
 20
2.233304369
 30
0.0
 10
6.9531531217
 20
2.2393257768
 30
0.0
 10
6.9542984813
 20
2.2432636326
 30
0.0
 10
6.954889036
 20
2.2451968924
 30
0.0
  0
SPLINE
  5
2AB
100
AcDbEntity
  8
0
100
AcDbSpline
 62
9
  6
CONTINUOUS
 70
0
 71
3
 72
41
 73
37
 74
0
 42
0.0000001
 43
0.0000001
 44
0.0000000001
 40
0.0
 40
0.0
 40
0.0
 40
0.0
 40
0.0248977601
 40
0.0505076608
 40
0.0767633364
 40
0.0901115007
 40
0.1035947979
 40
0.1309472831
 40
0.1587894548
 40
0.1870899136
 40
0.2158170702
 40
0.2449467501
 40
0.2744579543
 40
0.3345412691
 40
0.3650823678
 40
0.3959418989
 40
0.4271094548
 40
0.4585774473
 40
0.5223966663
 40
0.5547411256
 40
0.587372784
 40
0.6202918199
 40
0.6534997356
 40
0.6869954758
 40
0.7207797308
 40
0.7548552343
 40
0.7892106016
 40
0.8238338629
 40
0.8587134543
 40
0.8762390679
 40
0.8938154493
 40
0.9114389291
 40
0.9291057726
 40
0.946806803
 40
0.9645305142
 40
1.0
 40
1.0
 40
1.0
 40
1.0
 10
6.7212605236
 20
1.8405404388
 30
0.0
 10
6.7226393466
 20
1.8420183416
 30
0.0
 10
6.7254766607
 20
1.8449790543
 30
0.0
 10
6.7298879159
 20
1.8493813336
 30
0.0
 10
6.7337048365
 20
1.8530503609
 30
0.0
 10
6.7368463928
 20
1.8560006285
 30
0.0
 10
6.7400740986
 20
1.8589890773
 30
0.0
 10
6.7442022233
 20
1.8627367039
 30
0.0
 10
6.7492706584
 20
1.867237441
 30
0.0
 10
6.7544639323
 20
1.8717651887
 30
0.0
 10
6.759769442
 20
1.8763229253
 30
0.0
 10
6.7651764682
 20
1.880913113
 30
0.0
 10
6.7725521993
 20
1.8871173824
 30
0.0
 10
6.7800461198
 20
1.8933589795
 30
0.0
 10
6.7876312864
 20
1.8996619849
 30
0.0
 10
6.7934089746
 20
1.904467211
 30
0.0
 10
6.7992369726
 20
1.9093296212
 30
0.0
 10
6.8071007784
 20
1.9159285298
 30
0.0
 10
6.8149947202
 20
1.9226402369
 30
0.0
 10
6.8228891282
 20
1.929496097
 30
0.0
 10
6.8288427669
 20
1.9347605681
 30
0.0
 10
6.834791132
 20
1.9401361864
 30
0.0
 10
6.8407229946
 20
1.9456338439
 30
0.0
 10
6.8466220057
 20
1.9512690788
 30
0.0
 10
6.8524699546
 20
1.9570580249
 30
0.0
 10
6.8582479668
 20
1.9630146123
 30
0.0
 10
6.8639312478
 20
1.9691551076
 30
0.0
 10
6.8694917882
 20
1.9754943269
 30
0.0
 10
6.8739908328
 20
1.9809433404
 30
0.0
 10
6.8774994979
 20
1.985411853
 30
0.0
 10
6.8800849184
 20
1.9888233852
 30
0.0
 10
6.8826156559
 20
1.9922899009
 30
0.0
 10
6.8850869376
 20
1.9958114322
 30
0.0
 10
6.8874952458
 20
1.9993861909
 30
0.0
 10
6.8906180741
 20
2.0042208206
 30
0.0
 10
6.8928536877
 20
2.0079171485
 30
0.0
 10
6.8942929633
 20
2.0104110823
 30
0.0
  0
SPLINE
  5
2AC
100
AcDbEntity
  8
0
100
AcDbSpline
 62
9
  6
CONTINUOUS
 70
0
 71
3
 72
44
 73
40
 74
0
 42
0.0000001
 43
0.0000001
 44
0.0000000001
 40
0.0
 40
0.0
 40
0.0
 40
0.0
 40
0.035466848
 40
0.0531901284
 40
0.0708914942
 40
0.0885595237
 40
0.1061837885
 40
0.1237600053
 40
0.1412851742
 40
0.1761656065
 40
0.2107904458
 40
0.2451431836
 40
0.2792185821
 40
0.2961487304
 40
0.3130050116
 40
0.3464983339
 40
0.379703384
 40
0.3961983123
 40
0.4126212553
 40
0.4452510528
 40
0.4775931019
 40
0.5096463914
 40
0.5414085615
 40
0.5728750661
 40
0.6040400495
 40
0.6348972914
 40
0.6654393363
 40
0.6956521307
 40
0.725519149
 40
0.7550240707
 40
0.784149878
 40
0.8128739869
 40
0.8411723398
 40
0.8690218143
 40
0.8963979977
 40
0.9232495594
 40
0.9495092728
 40
0.9751128275
 40
1.0
 40
1.0
 40
1.0
 40
1.0
 10
5.0310076867
 20
2.0104110823
 30
0.0
 10
5.0324467584
 20
2.0079172752
 30
0.0
 10
5.0346823525
 20
2.0042212159
 30
0.0
 10
5.0378052706
 20
1.9993869032
 30
0.0
 10
5.0402137415
 20
1.9958121443
 30
0.0
 10
5.0426850055
 20
1.992290369
 30
0.0
 10
5.0452157323
 20
1.9888236576
 30
0.0
 10
5.0478012599
 20
1.985412183
 30
0.0
 10
5.0513101343
 20
1.9809438036
 30
0.0
 10
5.055809475
 20
1.9754948281
 30
0.0
 10
5.0613694597
 20
1.9691551393
 30
0.0
 10
5.0670521381
 20
1.9630142138
 30
0.0
 10
5.071877447
 20
1.958040063
 30
0.0
 10
5.0757734536
 20
1.9541449389
 30
0.0
 10
5.0796721591
 20
1.9503196815
 30
0.0
 10
5.0845764942
 20
1.9456333292
 30
0.0
 10
5.0895301754
 20
1.9410423811
 30
0.0
 10
5.0935022544
 20
1.9374316308
 30
0.0
 10
5.0974602978
 20
1.9338749972
 30
0.0
 10
5.1024099602
 20
1.9294972956
 30
0.0
 10
5.1083564479
 20
1.9243318861
 30
0.0
 10
5.1142868314
 20
1.9192557022
 30
0.0
 10
5.1201908431
 20
1.9142582314
 30
0.0
 10
5.1260603155
 20
1.909331696
 30
0.0
 10
5.1318878649
 20
1.9044695477
 30
0.0
 10
5.137665794
 20
1.8996650981
 30
0.0
 10
5.143385892
 20
1.8949120036
 30
0.0
 10
5.149040301
 20
1.8902056384
 30
0.0
 10
5.1546207647
 20
1.8855420552
 30
0.0
 10
5.1601187452
 20
1.8809174249
 30
0.0
 10
5.165525334
 20
1.8763283692
 30
0.0
 10
5.1708304634
 20
1.8717713021
 30
0.0
 10
5.1760235047
 20
1.8672430127
 30
0.0
 10
5.1810934537
 20
1.8627404371
 30
0.0
 10
5.1860278647
 20
1.8582626318
 30
0.0
 10
5.1908092164
 20
1.853808931
 30
0.0
 10
5.1954160136
 20
1.8493799767
 30
0.0
 10
5.1998258525
 20
1.8449777435
 30
0.0
 10
5.2026618952
 20
1.8420177206
 30
0.0
 10
5.2040401263
 20
1.8405404388
 30
0.0
  0
SPLINE
  5
2AD
100
AcDbEntity
  8
0
100
AcDbSpline
 62
9
  6
CONTINUOUS
 70
0
 71
3
 72
39
 73
35
 74
0
 42
0.0000001
 43
0.0000001
 44
0.0000000001
 40
0.0
 40
0.0
 40
0.0
 40
0.0
 40
0.079351622
 40
0.1175897584
 40
0.1548116067
 40
0.1909796515
 40
0.2260614131
 40
0.2600304409
 40
0.2928675252
 40
0.3245578387
 40
0.3550767362
 40
0.3844088644
 40
0.4125587917
 40
0.4395558279
 40
0.4654597571
 40
0.4903673175
 40
0.514416126
 40
0.5377763441
 40
0.560666016
 40
0.5833587749
 40
0.6061791193
 40
0.629491005
 40
0.6414577028
 40
0.6536910995
 40
0.6791112625
 40
0.7060649809
 40
0.7348165693
 40
0.7655950044
 40
0.7985976517
 40
0.8339869957
 40
0.871830668
 40
0.912131324
 40
0.9548675002
 40
1.0
 40
1.0
 40
1.0
 40
1.0
 10
6.8556972673
 20
5.3453909262
 30
0.0
 10
6.8555804949
 20
5.3467268879
 30
0.0
 10
6.85543758
 20
5.3487095763
 30
0.0
 10
6.8553260605
 20
5.3513236879
 30
0.0
 10
6.8552862917
 20
5.3532099689
 30
0.0
 10
6.8552915853
 20
5.3550433433
 30
0.0
 10
6.855344214
 20
5.3568210152
 30
0.0
 10
6.8554464369
 20
5.3585401846
 30
0.0
 10
6.8556005386
 20
5.3601979845
 30
0.0
 10
6.8558086639
 20
5.3617911645
 30
0.0
 10
6.8560739371
 20
5.3633158496
 30
0.0
 10
6.8563995765
 20
5.3647676685
 30
0.0
 10
6.8567888067
 20
5.3661421593
 30
0.0
 10
6.8572449239
 20
5.3674348633
 30
0.0
 10
6.8577713066
 20
5.3686413031
 30
0.0
 10
6.8583714218
 20
5.3697568876
 30
0.0
 10
6.8590485977
 20
5.3707766366
 30
0.0
 10
6.8598059462
 20
5.3716950379
 30
0.0
 10
6.8606463921
 20
5.372505925
 30
0.0
 10
6.8615725984
 20
5.3732027875
 30
0.0
 10
6.8625866988
 20
5.3737789788
 30
0.0
 10
6.8634989579
 20
5.3741500483
 30
0.0
 10
6.8642685004
 20
5.374380813
 30
0.0
 10
6.865085651
 20
5.3745713854
 30
0.0
 10
6.8661697433
 20
5.3747220926
 30
0.0
 10
6.8675425759
 20
5.3747616308
 30
0.0
 10
6.8690027561
 20
5.3746599813
 30
0.0
 10
6.870549008
 20
5.3744146593
 30
0.0
 10
6.8721802225
 20
5.3740232221
 30
0.0
 10
6.8738938033
 20
5.3734831708
 30
0.0
 10
6.8756865755
 20
5.3727966091
 30
0.0
 10
6.877554208
 20
5.371966697
 30
0.0
 10
6.8794915969
 20
5.3709965065
 30
0.0
 10
6.8807914442
 20
5.3702775507
 30
0.0
 10
6.8814521753
 20
5.3698964775
 30
0.0
  0
SPLINE
  5
2AE
100
AcDbEntity
  8
0
100
AcDbSpline
 62
9
  6
CONTINUOUS
 70
0
 71
3
 72
44
 73
40
 74
0
 42
0.0000001
 43
0.0000001
 44
0.0000000001
 40
0.0
 40
0.0
 40
0.0
 40
0.0
 40
0.0354667851
 40
0.053189884
 40
0.0708909378
 40
0.0885585094
 40
0.1061823529
 40
0.1237583428
 40
0.1412833743
 40
0.1761633924
 40
0.2107875834
 40
0.2451406136
 40
0.2792165554
 40
0.2961468059
 40
0.3130032013
 40
0.3464970137
 40
0.3797027064
 40
0.3961979362
 40
0.412621127
 40
0.4452512459
 40
0.4775934445
 40
0.5096467863
 40
0.5414090016
 40
0.5728755913
 40
0.6040406295
 40
0.6348978219
 40
0.6654397895
 40
0.6956526674
 40
0.7255198283
 40
0.7550248433
 40
0.7841506975
 40
0.8128748626
 40
0.841173136
 40
0.8690222488
 40
0.8963978483
 40
0.9232491565
 40
0.9495088855
 40
0.9751126114
 40
1.0
 40
1.0
 40
1.0
 40
1.0
 10
5.962650325
 20
3.6240634662
 30
0.0
 10
5.9597710939
 20
3.6240640631
 30
0.0
 10
5.9554524364
 20
3.6239760313
 30
0.0
 10
5.9497043816
 20
3.6236887219
 30
0.0
 10
5.9454043884
 20
3.6233903465
 30
0.0
 10
5.9411189064
 20
3.6230110542
 30
0.0
 10
5.9368513757
 20
3.6225527123
 30
0.0
 10
5.9326042506
 20
3.6220193326
 30
0.0
 10
5.9269801424
 20
3.621214781
 30
0.0
 10
5.9200116087
 20
3.6200427859
 30
0.0
 10
5.9117413587
 20
3.6183974853
 30
0.0
 10
5.9035818263
 20
3.6165465165
 30
0.0
 10
5.8968613578
 20
3.6148547345
 30
0.0
 10
5.8915399874
 20
3.6134283559
 30
0.0
 10
5.8862777827
 20
3.6119646856
 30
0.0
 10
5.8797670056
 20
3.6100605942
 30
0.0
 10
5.8733141767
 20
3.608066017
 30
0.0
 10
5.8682010452
 20
3.6064314359
 30
0.0
 10
5.8631418201
 20
3.6047819677
 30
0.0
 10
5.8568757297
 20
3.6026842751
 30
0.0
 10
5.849429071
 20
3.6001171521
 30
0.0
 10
5.8420677714
 20
3.5975193302
 30
0.0
 10
5.8347878485
 20
3.5949049428
 30
0.0
 10
5.8275865918
 20
3.592285097
 30
0.0
 10
5.8204620559
 20
3.5896693904
 30
0.0
 10
5.8134123153
 20
3.5870677997
 30
0.0
 10
5.8064359768
 20
3.5844905766
 30
0.0
 10
5.7995329292
 20
3.5819468921
 30
0.0
 10
5.7927038903
 20
3.5794458542
 30
0.0
 10
5.7859498266
 20
3.5769967827
 30
0.0
 10
5.7792722754
 20
3.5746090696
 30
0.0
 10
5.7726731767
 20
3.5722932145
 30
0.0
 10
5.7661550747
 20
3.5700600549
 30
0.0
 10
5.7597208314
 20
3.5679206721
 30
0.0
 10
5.7533758126
 20
3.5658863193
 30
0.0
 10
5.7471281822
 20
3.5639724178
 30
0.0
 10
5.7409892056
 20
3.5621972795
 30
0.0
 10
5.7349718139
 20
3.5605793352
 30
0.0
 10
5.7309903089
 20
3.5596032459
 30
0.0
 10
5.7290218126
 20
3.5591482996
 30
0.0
  0
SPLINE
  5
2AF
100
AcDbEntity
  8
0
100
AcDbSpline
 62
9
  6
CONTINUOUS
 70
0
 71
3
 72
43
 73
39
 74
0
 42
0.0000001
 43
0.0000001
 44
0.0000000001
 40
0.0
 40
0.0
 40
0.0
 40
0.0
 40
0.0249049705
 40
0.0505155381
 40
0.0635628031
 40
0.0767590337
 40
0.1035752866
 40
0.1309240636
 40
0.1587655011
 40
0.1870664751
 40
0.2157957509
 40
0.2449253814
 40
0.2744346234
 40
0.3043033457
 40
0.3345151906
 40
0.3959160769
 40
0.4585521391
 40
0.4903156546
 40
0.5223708445
 40
0.5385071191
 40
0.5547155487
 40
0.5873480966
 40
0.6202682737
 40
0.6368367951
 40
0.6534777881
 40
0.6869756315
 40
0.7207617809
 40
0.7548389091
 40
0.7891966236
 40
0.8238219884
 40
0.858703565
 40
0.8762303398
 40
0.893807909
 40
0.9114325352
 40
0.9291004927
 40
0.9468027343
 40
0.9645277424
 40
1.0
 40
1.0
 40
1.0
 40
1.0
 10
6.1962788374
 20
3.5591482996
 30
0.0
 10
6.1943089541
 20
3.5596035787
 30
0.0
 10
6.1903257004
 20
3.5605808695
 30
0.0
 10
6.18534256
 20
3.5619219209
 30
0.0
 10
6.1812931674
 20
3.5630722406
 30
0.0
 10
6.1771597666
 20
3.5642844572
 30
0.0
 10
6.171930581
 20
3.5658850588
 30
0.0
 10
6.1655907481
 20
3.5679170694
 30
0.0
 10
6.1591590092
 20
3.5700558025
 30
0.0
 10
6.152640909
 20
3.5722889864
 30
0.0
 10
6.1460408381
 20
3.5746049002
 30
0.0
 10
6.1393621023
 20
3.5769924525
 30
0.0
 10
6.1326072823
 20
3.579441708
 30
0.0
 10
6.12577792
 20
3.5819429746
 30
0.0
 10
6.1165242313
 20
3.5853529803
 30
0.0
 10
6.1047797649
 20
3.5896968964
 30
0.0
 10
6.0929028669
 20
3.5940459601
 30
0.0
 10
6.0832414065
 20
3.5975161393
 30
0.0
 10
6.0771202494
 20
3.5996755176
 30
0.0
 10
6.0721807569
 20
3.6013884207
 30
0.0
 10
6.0671902263
 20
3.6030970757
 30
0.0
 10
6.060896346
 20
3.6052052251
 30
0.0
 10
6.0545521483
 20
3.6072541565
 30
0.0
 10
6.049428004
 20
3.6088554316
 30
0.0
 10
6.0442481581
 20
3.6104352461
 30
0.0
 10
6.0377089508
 20
3.6123488178
 30
0.0
 10
6.0297712182
 20
3.6145191377
 30
0.0
 10
6.021723178
 20
3.6165448232
 30
0.0
 10
6.0135632693
 20
3.6183967222
 30
0.0
 10
6.005292596
 20
3.6200429793
 30
0.0
 10
5.9983236756
 20
3.621214892
 30
0.0
 10
5.9926991483
 20
3.6220192883
 30
0.0
 10
5.9884516821
 20
3.6225526041
 30
0.0
 10
5.9841839449
 20
3.6230110802
 30
0.0
 10
5.9798982891
 20
3.6233905671
 30
0.0
 10
5.9755980082
 20
3.6236888689
 30
0.0
 10
5.9698492512
 20
3.6239760227
 30
0.0
 10
5.965529999
 20
3.6240639659
 30
0.0
 10
5.962650325
 20
3.6240634662
 30
0.0
  0
SPLINE
  5
2B0
100
AcDbEntity
  8
0
100
AcDbSpline
 62
9
  6
CONTINUOUS
 70
0
 71
3
 72
42
 73
38
 74
0
 42
0.0000001
 43
0.0000001
 44
0.0000000001
 40
0.0
 40
0.0
 40
0.0
 40
0.0
 40
0.0248976894
 40
0.0505074157
 40
0.0767627325
 40
0.0901106223
 40
0.1035936243
 40
0.1309457396
 40
0.158787707
 40
0.1870879599
 40
0.2158148513
 40
0.2449443209
 40
0.2744553087
 40
0.3345380999
 40
0.3650790233
 40
0.3959383201
 40
0.4271054935
 40
0.4585730585
 40
0.4903364214
 40
0.5223916529
 40
0.5547356798
 40
0.5873668511
 40
0.620285232
 40
0.6534918902
 40
0.6869861395
 40
0.7207700739
 40
0.7548449279
 40
0.7891986663
 40
0.8238230739
 40
0.8587036648
 40
0.8762295154
 40
0.8938067518
 40
0.9114323174
 40
0.9291018488
 40
0.9468048393
 40
0.9645298062
 40
1.0
 40
1.0
 40
1.0
 40
1.0
 10
4.9704116139
 20
2.2451968924
 30
0.0
 10
4.9710021019
 20
2.2432638504
 30
0.0
 10
4.9721474863
 20
2.2393263248
 30
0.0
 10
4.9737543227
 20
2.2333049702
 30
0.0
 10
4.9750233182
 20
2.2281649695
 30
0.0
 10
4.9760075422
 20
2.223969244
 30
0.0
 10
4.9769817623
 20
2.219679822
 30
0.0
 10
4.9781632255
 20
2.2142310161
 30
0.0
 10
4.9795267415
 20
2.2075913138
 30
0.0
 10
4.9808512404
 20
2.2008299861
 30
0.0
 10
4.9821456055
 20
2.1939564676
 30
0.0
 10
4.9834172978
 20
2.1869788053
 30
0.0
 10
4.9851024663
 20
2.1774891734
 30
0.0
 10
4.9867608866
 20
2.1678785231
 30
0.0
 10
4.9884268824
 20
2.1581581521
 30
0.0
 10
4.9896994847
 20
2.1507519771
 30
0.0
 10
4.9909964151
 20
2.14327366
 30
0.0
 10
4.9923273881
 20
2.135726779
 30
0.0
 10
4.9937035403
 20
2.1281147161
 30
0.0
 10
4.9951355912
 20
2.12044056
 30
0.0
 10
4.9966349736
 20
2.1127074687
 30
0.0
 10
4.9982174849
 20
2.1049193949
 30
0.0
 10
4.9998985638
 20
2.0970803155
 30
0.0
 10
5.001693471
 20
2.0891945615
 30
0.0
 10
5.0036244045
 20
2.0812685501
 30
0.0
 10
5.0057135057
 20
2.073309736
 30
0.0
 10
5.0079825327
 20
2.065327604
 30
0.0
 10
5.0104588325
 20
2.0573356165
 30
0.0
 10
5.0131687427
 20
2.049350482
 30
0.0
 10
5.0156381049
 20
2.0427294462
 30
0.0
 10
5.0177535805
 20
2.0374563975
 30
0.0
 10
5.0194154377
 20
2.0335113495
 30
0.0
 10
5.0211525335
 20
2.0295860727
 30
0.0
 10
5.0229670103
 20
2.0256846904
 30
0.0
 10
5.0248587492
 20
2.0218111522
 30
0.0
 10
5.0274841157
 20
2.0166889634
 30
0.0
 10
5.0295673675
 20
2.0129044803
 30
0.0
 10
5.0310076867
 20
2.0104110823
 30
0.0
  0
SPLINE
  5
2B1
100
AcDbEntity
  8
0
100
AcDbSpline
 62
9
  6
CONTINUOUS
 70
0
 71
3
 72
48
 73
44
 74
0
 42
0.0000001
 43
0.0000001
 44
0.0000000001
 40
0.0
 40
0.0
 40
0.0
 40
0.0
 40
0.0205015032
 40
0.0409868939
 40
0.0613720345
 40
0.0815599212
 40
0.1014778379
 40
0.1211409355
 40
0.1405670656
 40
0.1597596479
 40
0.1692662165
 40
0.1787104524
 40
0.197419511
 40
0.2159089385
 40
0.2341971554
 40
0.2522981846
 40
0.2702220316
 40
0.2879756793
 40
0.3055674377
 40
0.3402976934
 40
0.3744694617
 40
0.4081219985
 40
0.4412818557
 40
0.473969225
 40
0.5061984728
 40
0.5379761802
 40
0.5693060848
 40
0.6001889808
 40
0.6306196199
 40
0.6605912132
 40
0.6900953631
 40
0.7191180914
 40
0.7476440856
 40
0.7756568298
 40
0.8031331846
 40
0.8300484464
 40
0.856377205
 40
0.8820868578
 40
0.9071432833
 40
0.9315128432
 40
0.9551483397
 40
0.977994587
 40
1.0
 40
1.0
 40
1.0
 40
1.0
 10
6.8702353969
 20
5.1743007247
 30
0.0
 10
6.8708323198
 20
5.1753345468
 30
0.0
 10
6.8719556639
 20
5.1774425822
 30
0.0
 10
6.8734341913
 20
5.1806983094
 30
0.0
 10
6.8747095756
 20
5.184019216
 30
0.0
 10
6.8757838353
 20
5.1873756555
 30
0.0
 10
6.8766610254
 20
5.1907452573
 30
0.0
 10
6.8773578666
 20
5.1941111201
 30
0.0
 10
6.8778932457
 20
5.197463363
 30
0.0
 10
6.8782218782
 20
5.2002470394
 30
0.0
 10
6.878422662
 20
5.202459074
 30
0.0
 10
6.8785845821
 20
5.2046460644
 30
0.0
 10
6.8787204492
 20
5.207359083
 30
0.0
 10
6.8787867379
 20
5.2105897421
 30
0.0
 10
6.8787663202
 20
5.2137855452
 30
0.0
 10
6.8786697442
 20
5.2169469287
 30
0.0
 10
6.878507398
 20
5.2200743757
 30
0.0
 10
6.87829024
 20
5.2231687262
 30
0.0
 10
6.8779366063
 20
5.2272339519
 30
0.0
 10
6.8773838895
 20
5.2322407281
 30
0.0
 10
6.8765763516
 20
5.2381579804
 30
0.0
 10
6.875665779
 20
5.2439675607
 30
0.0
 10
6.8746722845
 20
5.2496757271
 30
0.0
 10
6.8736151685
 20
5.2552880508
 30
0.0
 10
6.872513812
 20
5.2608097637
 30
0.0
 10
6.8713797048
 20
5.2662440923
 30
0.0
 10
6.8702246931
 20
5.2715938115
 30
0.0
 10
6.8690604559
 20
5.2768612118
 30
0.0
 10
6.8678950768
 20
5.2820473159
 30
0.0
 10
6.8667368835
 20
5.2871527331
 30
0.0
 10
6.8655942884
 20
5.2921776228
 30
0.0
 10
6.8644741656
 20
5.2971212984
 30
0.0
 10
6.8633834613
 20
5.3019825892
 30
0.0
 10
6.862329275
 20
5.3067597685
 30
0.0
 10
6.8613183805
 20
5.3114504053
 30
0.0
 10
6.8603576727
 20
5.3160514664
 30
0.0
 10
6.8594541356
 20
5.3205592427
 30
0.0
 10
6.8586154474
 20
5.3249694311
 30
0.0
 10
6.8578495433
 20
5.3292770521
 30
0.0
 10
6.8571643944
 20
5.3334759687
 30
0.0
 10
6.8565688155
 20
5.3375585798
 30
0.0
 10
6.8560722938
 20
5.3415157619
 30
0.0
 10
6.8558085068
 20
5.3441144155
 30
0.0
 10
6.8556972673
 20
5.3453909262
 30
0.0
  0
SPLINE
  5
2B2
100
AcDbEntity
  8
0
100
AcDbSpline
 62
9
  6
CONTINUOUS
 70
0
 71
3
 72
50
 73
46
 74
0
 42
0.0000001
 43
0.0000001
 44
0.0000000001
 40
0.0
 40
0.0
 40
0.0
 40
0.0
 40
0.0220061693
 40
0.0448534301
 40
0.0684920915
 40
0.0928686784
 40
0.1179307341
 40
0.1436433826
 40
0.16997624
 40
0.196897605
 40
0.2243766459
 40
0.2523915718
 40
0.2809231845
 40
0.3099518957
 40
0.3694343763
 40
0.4307561806
 40
0.4620895748
 40
0.4938709573
 40
0.5261047977
 40
0.5423933363
 40
0.5587976115
 40
0.5919614566
 40
0.6256179602
 40
0.6426397406
 40
0.6597958819
 40
0.6770910682
 40
0.6945308495
 40
0.7121221247
 40
0.7298733092
 40
0.7477944715
 40
0.7568225371
 40
0.7658971877
 40
0.7841887039
 40
0.8026776129
 40
0.8213774072
 40
0.8403073396
 40
0.8594883606
 40
0.8789148685
 40
0.8985775909
 40
0.9184817689
 40
0.9285314046
 40
0.9386455745
 40
0.9590167165
 40
0.9794979595
 40
1.0
 40
1.0
 40
1.0
 40
1.0
 10
6.7147978712
 20
5.1013460134
 30
0.0
 10
6.7159590806
 20
5.1018878351
 30
0.0
 10
6.7183416386
 20
5.1029586188
 30
0.0
 10
6.7220172194
 20
5.1045072711
 30
0.0
 10
6.7258512594
 20
5.1060330712
 30
0.0
 10
6.7298310811
 20
5.1075394943
 30
0.0
 10
6.7339453447
 20
5.1090305151
 30
0.0
 10
6.7381846478
 20
5.1105097927
 30
0.0
 10
6.7425409878
 20
5.1119815092
 30
0.0
 10
6.7470067962
 20
5.1134500078
 30
0.0
 10
6.7515751489
 20
5.1149198448
 30
0.0
 10
6.7562400217
 20
5.116395598
 30
0.0
 10
6.760996106
 20
5.1178820745
 30
0.0
 10
6.7675054003
 20
5.1199012875
 30
0.0
 10
6.7758416533
 20
5.1224753543
 30
0.0
 10
6.7842951172
 20
5.1251247217
 30
0.0
 10
6.7911936065
 20
5.1273413167
 30
0.0
 10
6.7964676356
 20
5.1290764028
 30
0.0
 10
6.8008962504
 20
5.1305774735
 30
0.0
 10
6.8044667818
 20
5.131820248
 30
0.0
 10
6.8080809811
 20
5.1331020972
 30
0.0
 10
6.8126317542
 20
5.1347684798
 30
0.0
 10
6.8171869084
 20
5.1365257716
 30
0.0
 10
6.8208498483
 20
5.1380040627
 30
0.0
 10
6.823616755
 20
5.139156451
 30
0.0
 10
6.8263918226
 20
5.1403520176
 30
0.0
 10
6.8291729717
 20
5.1415968151
 30
0.0
 10
6.8319582595
 20
5.142896499
 30
0.0
 10
6.8347456948
 20
5.1442568144
 30
0.0
 10
6.8370628781
 20
5.1454427777
 30
0.0
 10
6.838915299
 20
5.1464270299
 30
0.0
 10
6.8407759454
 20
5.1474414977
 30
0.0
 10
6.8430976746
 20
5.1487608022
 30
0.0
 10
6.8458631901
 20
5.1504314786
 30
0.0
 10
6.8486088745
 20
5.1522042821
 30
0.0
 10
6.8513277852
 20
5.1540897141
 30
0.0
 10
6.8540118175
 20
5.1560962227
 30
0.0
 10
6.8566463319
 20
5.1582360803
 30
0.0
 10
6.8592128222
 20
5.1605212266
 30
0.0
 10
6.8612724848
 20
5.1625493521
 30
0.0
 10
6.862866395
 20
5.1642535216
 30
0.0
 10
6.864429093
 20
5.1660227853
 30
0.0
 10
6.8662968934
 20
5.1683314292
 30
0.0
 10
6.8683751862
 20
5.1712398497
 30
0.0
 10
6.869638501
 20
5.1732668461
 30
0.0
 10
6.8702353969
 20
5.1743007247
 30
0.0
  0
SPLINE
  5
2B3
100
AcDbEntity
  8
0
100
AcDbSpline
 62
9
  6
CONTINUOUS
 70
0
 71
3
 72
60
 73
56
 74
0
 42
0.0000001
 43
0.0000001
 44
0.0000000001
 40
0.0
 40
0.0
 40
0.0
 40
0.0
 40
0.025748554
 40
0.0514512529
 40
0.0769977777
 40
0.1022757489
 40
0.151716708
 40
0.1758343143
 40
0.1995116111
 40
0.2227193819
 40
0.245456693
 40
0.2677389656
 40
0.2895784796
 40
0.3109841512
 40
0.3319620064
 40
0.3525242182
 40
0.3726902559
 40
0.3924782161
 40
0.4119043905
 40
0.4309832755
 40
0.4497276171
 40
0.4681492568
 40
0.4862598731
 40
0.5215892007
 40
0.5388286265
 40
0.5557954437
 40
0.5724971237
 40
0.5889395781
 40
0.6210629727
 40
0.652196664
 40
0.6823642854
 40
0.6970918115
 40
0.7115823431
 40
0.7398441758
 40
0.7671330364
 40
0.7934288048
 40
0.8061975898
 40
0.8187090807
 40
0.8429299919
 40
0.8546222894
 40
0.8660238589
 40
0.8879191413
 40
0.9085472339
 40
0.9183638645
 40
0.9278296274
 40
0.9369277695
 40
0.9456422326
 40
0.9539578434
 40
0.9618605658
 40
0.969337843
 40
0.9763790678
 40
0.9829745332
 40
0.9891125423
 40
0.9947866445
 40
1.0
 40
1.0
 40
1.0
 40
1.0
 10
6.4043232809
 20
5.4432952103
 30
0.0
 10
6.4033357443
 20
5.4415849454
 30
0.0
 10
6.4012955603
 20
5.4382056095
 30
0.0
 10
6.3980543359
 20
5.4332673282
 30
0.0
 10
6.3946540019
 20
5.4284812532
 30
0.0
 10
6.3899722306
 20
5.4223785713
 30
0.0
 10
6.3850303995
 20
5.4166199448
 30
0.0
 10
6.379887226
 20
5.4112177923
 30
0.0
 10
6.3760033862
 20
5.407398819
 30
0.0
 10
6.3720777196
 20
5.4037775068
 30
0.0
 10
6.368122837
 20
5.4003494259
 30
0.0
 10
6.3641486929
 20
5.3971074078
 30
0.0
 10
6.3601641113
 20
5.3940431491
 30
0.0
 10
6.3561777954
 20
5.3911484419
 30
0.0
 10
6.3521981126
 20
5.388414241
 30
0.0
 10
6.3482308158
 20
5.385832615
 30
0.0
 10
6.3442792075
 20
5.3833968241
 30
0.0
 10
6.3403462745
 20
5.3810993028
 30
0.0
 10
6.336434912
 20
5.3789325492
 30
0.0
 10
6.3325479824
 20
5.3768891232
 30
0.0
 10
6.3286884593
 20
5.3749612295
 30
0.0
 10
6.3248584038
 20
5.3731424157
 30
0.0
 10
6.3198340278
 20
5.370875715
 30
0.0
 10
6.3148299594
 20
5.3687868388
 30
0.0
 10
6.3098541444
 20
5.3668664422
 30
0.0
 10
6.3061874923
 20
5.3655236047
 30
0.0
 10
6.3025568956
 20
5.3642616755
 30
0.0
 10
6.2978025606
 20
5.3626938952
 30
0.0
 10
6.291952725
 20
5.3609161601
 30
0.0
 10
6.2850355082
 20
5.3590419054
 30
0.0
 10
6.2793642223
 20
5.3576812539
 30
0.0
 10
6.2749137298
 20
5.3567112674
 30
0.0
 10
6.2705937573
 20
5.35583076
 30
0.0
 10
6.2653087019
 20
5.3548635444
 30
0.0
 10
6.2591050107
 20
5.3538986043
 30
0.0
 10
6.2540566089
 20
5.3532498084
 30
0.0
 10
6.2501236342
 20
5.3528239835
 30
0.0
 10
6.2463438526
 20
5.3524649368
 30
0.0
 10
6.2426395835
 20
5.3521867504
 30
0.0
 10
6.2390156963
 20
5.3519918445
 30
0.0
 10
6.2355676117
 20
5.3518562954
 30
0.0
 10
6.2314315367
 20
5.3517849294
 30
0.0
 10
6.2274166903
 20
5.3518448672
 30
0.0
 10
6.2243581245
 20
5.3519735202
 30
0.0
 10
6.2221853019
 20
5.3521070951
 30
0.0
 10
6.220100023
 20
5.3522796711
 30
0.0
 10
6.2181070345
 20
5.3524915832
 30
0.0
 10
6.2162110789
 20
5.3527431553
 30
0.0
 10
6.2144168819
 20
5.3530347126
 30
0.0
 10
6.2127291474
 20
5.3533665785
 30
0.0
 10
6.2111526798
 20
5.3537390596
 30
0.0
 10
6.2096927573
 20
5.3541522751
 30
0.0
 10
6.208355652
 20
5.354608126
 30
0.0
 10
6.2071483709
 20
5.3551083815
 30
0.0
 10
6.2064034668
 20
5.3554887689
 30
0.0
 10
6.2060572089
 20
5.3556887561
 30
0.0
  0
SPLINE
  5
2B4
100
AcDbEntity
  8
0
100
AcDbSpline
 62
9
  6
CONTINUOUS
 70
0
 71
3
 72
39
 73
35
 74
0
 42
0.0000001
 43
0.0000001
 44
0.0000000001
 40
0.0
 40
0.0
 40
0.0
 40
0.0
 40
0.0793470878
 40
0.1175830981
 40
0.1548029265
 40
0.1909690672
 40
0.2260490505
 40
0.2600164365
 40
0.2928520269
 40
0.3245410335
 40
0.3550588113
 40
0.3843899402
 40
0.4125389162
 40
0.4395349718
 40
0.4654378096
 40
0.4903440836
 40
0.5143913807
 40
0.5377499606
 40
0.5606378761
 40
0.5833286597
 40
0.6061465948
 40
0.6294553159
 40
0.6414200169
 40
0.6536509658
 40
0.6790649872
 40
0.7060119076
 40
0.7347577203
 40
0.7655334277
 40
0.7985386222
 40
0.833936481
 40
0.8717914889
 40
0.9121051221
 40
0.9548547625
 40
1.0
 40
1.0
 40
1.0
 40
1.0
 10
5.8217509289
 20
6.6481486911
 30
0.0
 10
5.8206523794
 20
6.6473796148
 30
0.0
 10
5.8190068422
 20
6.6462645447
 30
0.0
 10
5.8167988038
 20
6.6448609551
 30
0.0
 10
5.8151851842
 20
6.6438834003
 30
0.0
 10
5.8135948496
 20
6.6429713179
 30
0.0
 10
5.8120290836
 20
6.6421280746
 30
0.0
 10
5.8104891807
 20
6.6413570273
 30
0.0
 10
5.8089764799
 20
6.6406615883
 30
0.0
 10
5.8074927233
 20
6.6400452397
 30
0.0
 10
5.8060397055
 20
6.6395126219
 30
0.0
 10
5.8046196049
 20
6.6390687081
 30
0.0
 10
5.8032346763
 20
6.6387185222
 30
0.0
 10
5.8018871358
 20
6.6384671481
 30
0.0
 10
5.8005791744
 20
6.6383197511
 30
0.0
 10
5.7993130365
 20
6.638281629
 30
0.0
 10
5.79809137
 20
6.6383581566
 30
0.0
 10
5.7969173886
 20
6.6385547733
 30
0.0
 10
5.7957949629
 20
6.6388770806
 30
0.0
 10
5.7947283909
 20
6.6393306253
 30
0.0
 10
5.7937223528
 20
6.6399205651
 30
0.0
 10
5.7929448382
 20
6.6405248487
 30
0.0
 10
5.7923601769
 20
6.6410756983
 30
0.0
 10
5.7917865105
 20
6.6416878127
 30
0.0
 10
5.7911138431
 20
6.6425509237
 30
0.0
 10
5.7903930491
 20
6.6437196398
 30
0.0
 10
5.7897508878
 20
6.6450347146
 30
0.0
 10
5.7891901798
 20
6.6464963828
 30
0.0
 10
5.7887136442
 20
6.6481049815
 30
0.0
 10
5.7883247494
 20
6.6498594774
 30
0.0
 10
5.7880230538
 20
6.651755957
 30
0.0
 10
5.7878080114
 20
6.6537890135
 30
0.0
 10
5.787679468
 20
6.6559526341
 30
0.0
 10
5.7876520517
 20
6.6574382789
 30
0.0
 10
5.7876516168
 20
6.6582012546
 30
0.0
  0
SPLINE
  5
2B5
100
AcDbEntity
  8
0
100
AcDbSpline
 62
9
  6
CONTINUOUS
 70
0
 71
3
 72
52
 73
48
 74
0
 42
0.0000001
 43
0.0000001
 44
0.0000000001
 40
0.0
 40
0.0
 40
0.0
 40
0.0
 40
0.0204993421
 40
0.0409806885
 40
0.0613576472
 40
0.0714775486
 40
0.0815338319
 40
0.1014426198
 40
0.1211032799
 40
0.140528609
 40
0.1597168687
 40
0.1692184375
 40
0.1786575252
 40
0.1973599245
 40
0.2158467068
 40
0.2341348998
 40
0.2522368109
 40
0.2612206901
 40
0.270160724
 40
0.287913338
 40
0.305504439
 40
0.3402347335
 40
0.3573885758
 40
0.374408631
 40
0.4080632731
 40
0.4412246697
 40
0.4739123008
 40
0.4900834232
 40
0.5061415058
 40
0.5379209806
 40
0.5692519066
 40
0.6001335795
 40
0.6305644317
 40
0.6605391717
 40
0.6900448979
 40
0.7190675991
 40
0.7475933483
 40
0.7756069722
 40
0.8030852022
 40
0.8300023403
 40
0.8563334616
 40
0.8820545711
 40
0.9071327749
 40
0.9315165764
 40
0.9551543138
 40
0.9779971804
 40
1.0
 40
1.0
 40
1.0
 40
1.0
 10
5.962650325
 20
6.7462841814
 30
0.0
 10
5.9614566695
 20
6.7462842049
 30
0.0
 10
5.9590697315
 20
6.7462033071
 30
0.0
 10
5.9555117203
 20
6.7458567568
 30
0.0
 10
5.9525778841
 20
6.7453930178
 30
0.0
 10
5.9502632087
 20
6.7449244348
 30
0.0
 10
5.9479892287
 20
6.7443968355
 30
0.0
 10
5.9452022098
 20
6.7436279603
 30
0.0
 10
5.9419397333
 20
6.7425483035
 30
0.0
 10
5.9387692287
 20
6.7413362199
 30
0.0
 10
5.9361943883
 20
6.7402300045
 30
0.0
 10
5.9341785457
 20
6.7392993712
 30
0.0
 10
5.932204071
 20
6.7383473492
 30
0.0
 10
5.929787289
 20
6.7371089494
 30
0.0
 10
5.9269571021
 20
6.7355506886
 30
0.0
 10
5.9242001467
 20
6.7339344795
 30
0.0
 10
5.9219533346
 20
6.7325439172
 30
0.0
 10
5.920187128
 20
6.73141203
 30
0.0
 10
5.9184488914
 20
6.7302743716
 30
0.0
 10
5.9163106716
 20
6.7288328594
 30
0.0
 10
5.9129665557
 20
6.7264946393
 30
0.0
 10
5.9097058247
 20
6.7240990557
 30
0.0
 10
5.906518967
 20
6.7216613714
 30
0.0
 10
5.9034093054
 20
6.7192262501
 30
0.0
 10
5.8996099076
 20
6.7161605813
 30
0.0
 10
5.8951622834
 20
6.7124468825
 30
0.0
 10
5.891539508
 20
6.7093345745
 30
0.0
 10
5.8886929664
 20
6.7068474097
 30
0.0
 10
5.8858979498
 20
6.7043817069
 30
0.0
 10
5.8824601553
 20
6.7013103558
 30
0.0
 10
5.878403874
 20
6.6976359403
 30
0.0
 10
5.8744248013
 20
6.6939933938
 30
0.0
 10
5.8705165613
 20
6.6903904881
 30
0.0
 10
5.866673604
 20
6.6868349919
 30
0.0
 10
5.8628929477
 20
6.6833328979
 30
0.0
 10
5.8591717519
 20
6.6798907716
 30
0.0
 10
5.8555073479
 20
6.6765152074
 30
0.0
 10
5.8518974586
 20
6.6732132338
 30
0.0
 10
5.8483406747
 20
6.6699920531
 30
0.0
 10
5.8448361138
 20
6.6668592796
 30
0.0
 10
5.8413830061
 20
6.6638226661
 30
0.0
 10
5.8379810656
 20
6.6608903135
 30
0.0
 10
5.8346312568
 20
6.6580715723
 30
0.0
 10
5.831335521
 20
6.6553775902
 30
0.0
 10
5.8280968299
 20
6.6528203065
 30
0.0
 10
5.8249182793
 20
6.6504117855
 30
0.0
 10
5.8228003402
 20
6.648883683
 30
0.0
 10
5.8217509289
 20
6.6481486911
 30
0.0
  0
SPLINE
  5
2B6
100
AcDbEntity
  8
0
100
AcDbSpline
 62
9
  6
CONTINUOUS
 70
0
 71
3
 72
49
 73
45
 74
0
 42
0.0000001
 43
0.0000001
 44
0.0000000001
 40
0.0
 40
0.0
 40
0.0
 40
0.0
 40
0.0220081672
 40
0.0448564474
 40
0.0684902338
 40
0.0928561545
 40
0.1179146432
 40
0.1436273275
 40
0.1699581373
 40
0.1968780934
 40
0.2243583405
 40
0.2523734886
 40
0.3099310047
 40
0.3394383394
 40
0.3694147894
 40
0.399849603
 40
0.4307358065
 40
0.4620706075
 40
0.493852584
 40
0.5260857761
 40
0.5587788375
 40
0.5919437816
 40
0.6256010357
 40
0.6597793896
 40
0.6945155258
 40
0.7121078688
 40
0.7298599207
 40
0.7477816431
 40
0.7568098713
 40
0.7658848713
 40
0.7841777348
 40
0.802668214
 40
0.821369102
 40
0.840299049
 40
0.8498577716
 40
0.8594804531
 40
0.8789078756
 40
0.8985720458
 40
0.9184772381
 40
0.9285269344
 40
0.9386412018
 40
0.9590132273
 40
0.9794960453
 40
1.0
 40
1.0
 40
1.0
 40
1.0
 10
6.1035497211
 20
6.6481486911
 30
0.0
 10
6.1024996037
 20
6.6488832166
 30
0.0
 10
6.1003806626
 20
6.6504110209
 30
0.0
 10
6.097201803
 20
6.6528197968
 30
0.0
 10
6.0939641767
 20
6.6553768853
 30
0.0
 10
6.0906705826
 20
6.6580696619
 30
0.0
 10
6.0873231602
 20
6.6608870759
 30
0.0
 10
6.0839228904
 20
6.663818826
 30
0.0
 10
6.0804702077
 20
6.6668553967
 30
0.0
 10
6.0769654281
 20
6.6699883177
 30
0.0
 10
6.0734082003
 20
6.6732095568
 30
0.0
 10
6.0685504263
 20
6.6776522533
 30
0.0
 10
6.0636293827
 20
6.6822005418
 30
0.0
 10
6.0586299292
 20
6.6868321988
 30
0.0
 10
6.0547867614
 20
6.6903880909
 30
0.0
 10
6.0508776798
 20
6.6939909575
 30
0.0
 10
6.0468979026
 20
6.6976337974
 30
0.0
 10
6.0428412236
 20
6.7013087163
 30
0.0
 10
6.0387016856
 20
6.7050088436
 30
0.0
 10
6.0344702794
 20
6.7087246054
 30
0.0
 10
6.0301364414
 20
6.712445289
 30
0.0
 10
6.0256900309
 20
6.7161614769
 30
0.0
 10
6.0211137233
 20
6.7198560227
 30
0.0
 10
6.0163892197
 20
6.7235107411
 30
0.0
 10
6.0123309037
 20
6.7264958272
 30
0.0
 10
6.0089876652
 20
6.7288360033
 30
0.0
 10
6.0064159033
 20
6.7305701325
 30
0.0
 10
6.0042301689
 20
6.7319839561
 30
0.0
 10
6.0024513704
 20
6.7330958686
 30
0.0
 10
6.0006422955
 20
6.7341998839
 30
0.0
 10
5.9983387343
 20
6.735551025
 30
0.0
 10
5.995509043
 20
6.7371110272
 30
0.0
 10
5.9926009103
 20
6.7386027579
 30
0.0
 10
5.990115397
 20
6.7397757443
 30
0.0
 10
5.9880837134
 20
6.7406687985
 30
0.0
 10
5.9860088511
 20
6.7415346081
 30
0.0
 10
5.983358274
 20
6.7425474875
 30
0.0
 10
5.9800959061
 20
6.7436277216
 30
0.0
 10
5.9773095604
 20
6.7443975551
 30
0.0
 10
5.9750367195
 20
6.7449259933
 30
0.0
 10
5.9727231015
 20
6.7453947941
 30
0.0
 10
5.9697897091
 20
6.7458580546
 30
0.0
 10
5.9662315383
 20
6.7462036544
 30
0.0
 10
5.9638442487
 20
6.7462841934
 30
0.0
 10
5.962650325
 20
6.7462841814
 30
0.0
  0
SPLINE
  5
2B7
100
AcDbEntity
  8
0
100
AcDbSpline
 62
9
  6
CONTINUOUS
 70
0
 71
3
 72
64
 73
60
 74
0
 42
0.0000001
 43
0.0000001
 44
0.0000000001
 40
0.0
 40
0.0
 40
0.0
 40
0.0
 40
0.0257589033
 40
0.0514724461
 40
0.0770299231
 40
0.1023184702
 40
0.1272454642
 40
0.1517798478
 40
0.175897839
 40
0.19957115
 40
0.2227735015
 40
0.2455085261
 40
0.2677877338
 40
0.2896190836
 40
0.3110084805
 40
0.3319708154
 40
0.3525247065
 40
0.3726865119
 40
0.3924705827
 40
0.4118919908
 40
0.430965864
 40
0.4497059131
 40
0.4681244402
 40
0.4862328108
 40
0.5040417774
 40
0.5215612184
 40
0.5388001253
 40
0.5557663803
 40
0.5724666577
 40
0.5889069945
 40
0.6050928626
 40
0.6210289806
 40
0.6367187428
 40
0.6521649333
 40
0.6673699659
 40
0.6823357719
 40
0.7115507917
 40
0.7398093351
 40
0.7671008976
 40
0.7934018777
 40
0.8186824449
 40
0.8428956759
 40
0.8545857333
 40
0.8659888858
 40
0.8878955184
 40
0.8983774248
 40
0.9085302392
 40
0.9183432826
 40
0.9278058226
 40
0.9369033954
 40
0.9456194326
 40
0.9539382074
 40
0.9618451423
 40
0.9693271553
 40
0.9763731118
 40
0.9829718727
 40
0.989111571
 40
0.9947863815
 40
1.0
 40
1.0
 40
1.0
 40
1.0
 10
5.962650325
 20
6.2082952103
 30
0.0
 10
5.9646260283
 20
6.208295125
 30
0.0
 10
5.9685743495
 20
6.2082178143
 30
0.0
 10
5.9744741305
 20
6.2078795083
 30
0.0
 10
5.9803215448
 20
6.2073272051
 30
0.0
 10
5.9860849651
 20
6.2065689118
 30
0.0
 10
5.9917391308
 20
6.2056120096
 30
0.0
 10
5.9972677798
 20
6.2044734891
 30
0.0
 10
6.0026607203
 20
6.203169241
 30
0.0
 10
6.0079091323
 20
6.2017150064
 30
0.0
 10
6.0130070663
 20
6.2001254301
 30
0.0
 10
6.0179522704
 20
6.198413912
 30
0.0
 10
6.0227459019
 20
6.1965931518
 30
0.0
 10
6.0273900194
 20
6.1946754339
 30
0.0
 10
6.0318877907
 20
6.1926729105
 30
0.0
 10
6.0362427595
 20
6.1905947765
 30
0.0
 10
6.0404594228
 20
6.1884491109
 30
0.0
 10
6.0445427542
 20
6.1862438731
 30
0.0
 10
6.0484981104
 20
6.1839871575
 30
0.0
 10
6.0523300821
 20
6.181684916
 30
0.0
 10
6.056043086
 20
6.1793422385
 30
0.0
 10
6.0596417068
 20
6.1769642787
 30
0.0
 10
6.0631306838
 20
6.1745563332
 30
0.0
 10
6.066514154
 20
6.1721226634
 30
0.0
 10
6.0697956132
 20
6.169666562
 30
0.0
 10
6.072978701
 20
6.1671914927
 30
0.0
 10
6.0760670568
 20
6.1647009387
 30
0.0
 10
6.0790641115
 20
6.1621981896
 30
0.0
 10
6.0819724706
 20
6.1596856434
 30
0.0
 10
6.0847947886
 20
6.1571658494
 30
0.0
 10
6.0875336761
 20
6.1546413355
 30
0.0
 10
6.0901917168
 20
6.1521147047
 30
0.0
 10
6.0927708154
 20
6.1495879773
 30
0.0
 10
6.0952727922
 20
6.1470632249
 30
0.0
 10
6.0976994428
 20
6.1445425173
 30
0.0
 10
6.1008118486
 20
6.1412167071
 30
0.0
 10
6.1045239299
 20
6.1370816056
 30
0.0
 10
6.1087347165
 20
6.1321269928
 30
0.0
 10
6.1126727689
 20
6.1272368224
 30
0.0
 10
6.1163419017
 20
6.1224261006
 30
0.0
 10
6.1197451238
 20
6.1177120878
 30
0.0
 10
6.1223890281
 20
6.1138341907
 30
0.0
 10
6.1243690339
 20
6.1107935225
 30
0.0
 10
6.126210938
 20
6.1078745055
 30
0.0
 10
6.1279414085
 20
6.1049950232
 30
0.0
 10
6.1295529655
 20
6.102157717
 30
0.0
 10
6.1306715316
 20
6.1001075464
 30
0.0
 10
6.1317165352
 20
6.0981067233
 30
0.0
 10
6.132686617
 20
6.0961585203
 30
0.0
 10
6.1335796259
 20
6.0942664248
 30
0.0
 10
6.1343928393
 20
6.0924342398
 30
0.0
 10
6.1351235112
 20
6.0906659906
 30
0.0
 10
6.1357688944
 20
6.0889656872
 30
0.0
 10
6.1363262243
 20
6.0873373152
 30
0.0
 10
6.1367927959
 20
6.0857850584
 30
0.0
 10
6.1371654234
 20
6.0843134707
 30
0.0
 10
6.1374392789
 20
6.0829271373
 30
0.0
 10
6.1376095153
 20
6.0816312357
 30
0.0
 10
6.1376523622
 20
6.0807958488
 30
0.0
 10
6.137652223
 20
6.0803959652
 30
0.0
  0
SPLINE
  5
2B8
100
AcDbEntity
  8
0
100
AcDbSpline
 62
9
  6
CONTINUOUS
 70
0
 71
3
 72
38
 73
34
 74
0
 42
0.0000001
 43
0.0000001
 44
0.0000000001
 40
0.0
 40
0.0
 40
0.0
 40
0.0
 40
0.0793519025
 40
0.1175890242
 40
0.1548096484
 40
0.1909766617
 40
0.2260579661
 40
0.2600274657
 40
0.2928662616
 40
0.3245569057
 40
0.3550732355
 40
0.3844013812
 40
0.4125473302
 40
0.4395417005
 40
0.4654454059
 40
0.490356009
 40
0.5144070597
 40
0.537765341
 40
0.5606504464
 40
0.5833382808
 40
0.606156243
 40
0.6294715931
 40
0.6536643086
 40
0.6790757986
 40
0.7060125127
 40
0.7347480301
 40
0.7655232772
 40
0.7985487215
 40
0.8339679186
 40
0.8718252715
 40
0.9121288005
 40
0.9548640978
 40
1.0
 40
1.0
 40
1.0
 40
1.0
 10
5.2105027787
 20
5.1013460134
 30
0.0
 10
5.2117181099
 20
5.1007791262
 30
0.0
 10
5.2135065572
 20
5.0999115012
 30
0.0
 10
5.2158261021
 20
5.0987009808
 30
0.0
 10
5.2174794597
 20
5.0977922805
 30
0.0
 10
5.2190644901
 20
5.0968710295
 30
0.0
 10
5.2205776611
 20
5.0959366586
 30
0.0
 10
5.2220154358
 20
5.0949886027
 30
0.0
 10
5.2233741939
 20
5.0940263738
 30
0.0
 10
5.2246499373
 20
5.093049686
 30
0.0
 10
5.2258376481
 20
5.092057724
 30
0.0
 10
5.2269319813
 20
5.0910499223
 30
0.0
 10
5.227927528
 20
5.0900256948
 30
0.0
 10
5.2288188526
 20
5.0889844006
 30
0.0
 10
5.2296004584
 20
5.0879253349
 30
0.0
 10
5.2302666722
 20
5.0868478459
 30
0.0
 10
5.23081154
 20
5.0857516442
 30
0.0
 10
5.2312285682
 20
5.0846367847
 30
0.0
 10
5.2315108548
 20
5.0835037656
 30
0.0
 10
5.2316513636
 20
5.0823534557
 30
0.0
 10
5.2316431893
 20
5.0811871331
 30
0.0
 10
5.2314797259
 20
5.0800065414
 30
0.0
 10
5.2311555427
 20
5.0788143337
 30
0.0
 10
5.2306690047
 20
5.0776127571
 30
0.0
 10
5.2300181632
 20
5.0764040765
 30
0.0
 10
5.2292010114
 20
5.0751904693
 30
0.0
 10
5.2282154112
 20
5.0739739525
 30
0.0
 10
5.2270592786
 20
5.07275731
 30
0.0
 10
5.2257333389
 20
5.0715433304
 30
0.0
 10
5.224241935
 20
5.0703333877
 30
0.0
 10
5.2225895381
 20
5.0691303287
 30
0.0
 10
5.2207809457
 20
5.0679370119
 30
0.0
 10
5.2195084974
 20
5.0671705567
 30
0.0
 10
5.2188480966
 20
5.0667888181
 30
0.0
  0
SPLINE
  5
2B9
100
AcDbEntity
  8
0
100
AcDbSpline
 62
9
  6
CONTINUOUS
 70
0
 71
3
 72
49
 73
45
 74
0
 42
0.0000001
 43
0.0000001
 44
0.0000000001
 40
0.0
 40
0.0
 40
0.0
 40
0.0
 40
0.0204992685
 40
0.0409810733
 40
0.0613596577
 40
0.0815369822
 40
0.1014475521
 40
0.1211082614
 40
0.1405332867
 40
0.1597223015
 40
0.1692250086
 40
0.1786650582
 40
0.1973683317
 40
0.2158548715
 40
0.2341421327
 40
0.2522429277
 40
0.2701658708
 40
0.2879180012
 40
0.305508699
 40
0.3402383059
 40
0.3744110163
 40
0.4080650687
 40
0.4412259949
 40
0.473913324
 40
0.4900843669
 40
0.5061424052
 40
0.5379216999
 40
0.5692524006
 40
0.6001339218
 40
0.6305647959
 40
0.6605394822
 40
0.69004503
 40
0.7190675495
 40
0.7475932359
 40
0.775606845
 40
0.8030849564
 40
0.8300020015
 40
0.8563331871
 40
0.8820546272
 40
0.9071330645
 40
0.9315168947
 40
0.9551545393
 40
0.9779972734
 40
1.0
 40
1.0
 40
1.0
 40
1.0
 10
5.0550652531
 20
5.1743007247
 30
0.0
 10
5.055662052
 20
5.173266981
 30
0.0
 10
5.05692564
 20
5.171240308
 30
0.0
 10
5.0590050386
 20
5.1683322613
 30
0.0
 10
5.0612422127
 20
5.1655679219
 30
0.0
 10
5.0636111404
 20
5.1629606321
 30
0.0
 10
5.0660903384
 20
5.1605174751
 30
0.0
 10
5.0686565603
 20
5.1582317076
 30
0.0
 10
5.0712915533
 20
5.1560920482
 30
0.0
 10
5.0735371946
 20
5.1544154097
 30
0.0
 10
5.0753514028
 20
5.1531351538
 30
0.0
 10
5.0771633654
 20
5.1519012918
 30
0.0
 10
5.0794443196
 20
5.1504274652
 30
0.0
 10
5.0822087916
 20
5.1487554486
 30
0.0
 10
5.0849867201
 20
5.1471758379
 30
0.0
 10
5.087772824
 20
5.1456790133
 30
0.0
 10
5.0905618127
 20
5.1442549996
 30
0.0
 10
5.0933494065
 20
5.142894761
 30
0.0
 10
5.0970464005
 20
5.1411679526
 30
0.0
 10
5.1016588184
 20
5.1391434638
 30
0.0
 10
5.1071874109
 20
5.1368847358
 30
0.0
 10
5.1126738451
 20
5.1347677203
 30
0.0
 10
5.118113758
 20
5.1327729109
 30
0.0
 10
5.1226204365
 20
5.1311917157
 30
0.0
 10
5.1261976101
 20
5.1299700993
 30
0.0
 10
5.129730419
 20
5.1287823051
 30
0.0
 10
5.1341091389
 20
5.1273407512
 30
0.0
 10
5.1393193814
 20
5.1256651652
 30
0.0
 10
5.1444634376
 20
5.1240405248
 30
0.0
 10
5.1495377308
 20
5.1224573202
 30
0.0
 10
5.1545383262
 20
5.1209069556
 30
0.0
 10
5.1594615225
 20
5.1193838804
 30
0.0
 10
5.1643030571
 20
5.1178823234
 30
0.0
 10
5.1690585586
 20
5.1163966588
 30
0.0
 10
5.1737230701
 20
5.1149213926
 30
0.0
 10
5.1782910583
 20
5.1134517196
 30
0.0
 10
5.182756376
 20
5.1119830659
 30
0.0
 10
5.1871127153
 20
5.1105108842
 30
0.0
 10
5.1913531993
 20
5.1090308853
 30
0.0
 10
5.1954692237
 20
5.1075392241
 30
0.0
 10
5.1994501431
 20
5.1060320171
 30
0.0
 10
5.203284137
 20
5.1045058732
 30
0.0
 10
5.2069592255
 20
5.1029574415
 30
0.0
 10
5.2093415559
 20
5.1018873221
 30
0.0
 10
5.2105027787
 20
5.1013460134
 30
0.0
  0
SPLINE
  5
2BA
100
AcDbEntity
  8
0
100
AcDbSpline
 62
9
  6
CONTINUOUS
 70
0
 71
3
 72
50
 73
46
 74
0
 42
0.0000001
 43
0.0000001
 44
0.0000000001
 40
0.0
 40
0.0
 40
0.0
 40
0.0
 40
0.0220055582
 40
0.0448521607
 40
0.068490051
 40
0.0928656861
 40
0.1179267585
 40
0.1436385704
 40
0.1699706168
 40
0.1968910732
 40
0.2243691562
 40
0.2523831971
 40
0.2809139081
 40
0.3099416103
 40
0.3694220343
 40
0.3998559338
 40
0.4307417452
 40
0.4620739411
 40
0.4938541246
 40
0.5260866166
 40
0.5423743728
 40
0.5587778371
 40
0.5919401807
 40
0.6087046579
 40
0.6255954586
 40
0.6426162619
 40
0.6597712043
 40
0.6770649931
 40
0.6945033795
 40
0.7120934181
 40
0.7298436008
 40
0.7477639759
 40
0.7658644539
 40
0.7841524297
 40
0.8026386441
 40
0.8213387388
 40
0.8402736638
 40
0.85945718
 40
0.8788800351
 40
0.8985409416
 40
0.918453187
 40
0.9386328316
 40
0.9590139036
 40
0.9794982493
 40
1.0
 40
1.0
 40
1.0
 40
1.0
 10
5.0696033827
 20
5.3453909262
 30
0.0
 10
5.069492019
 20
5.3441144168
 30
0.0
 10
5.0692280814
 20
5.3415157489
 30
0.0
 10
5.0687314825
 20
5.3375584045
 30
0.0
 10
5.0681358666
 20
5.3334752764
 30
0.0
 10
5.0674505895
 20
5.329275604
 30
0.0
 10
5.0666847568
 20
5.324967206
 30
0.0
 10
5.0658462294
 20
5.3205563851
 30
0.0
 10
5.0649426382
 20
5.316047983
 30
0.0
 10
5.0639815343
 20
5.3114463933
 30
0.0
 10
5.0629703256
 20
5.3067553312
 30
0.0
 10
5.0619159773
 20
5.3019777226
 30
0.0
 10
5.060825308
 20
5.2971157644
 30
0.0
 10
5.0593193876
 20
5.2904691925
 30
0.0
 10
5.0577802514
 20
5.2837165189
 30
0.0
 10
5.0562385267
 20
5.2768534958
 30
0.0
 10
5.0550742038
 20
5.2715856065
 30
0.0
 10
5.0539187457
 20
5.266235521
 30
0.0
 10
5.0527844576
 20
5.2608007519
 30
0.0
 10
5.0518701299
 20
5.2562151326
 30
0.0
 10
5.0511610263
 20
5.2525017793
 30
0.0
 10
5.0504639638
 20
5.2487310791
 30
0.0
 10
5.0498008202
 20
5.2449259131
 30
0.0
 10
5.0491820029
 20
5.2410846818
 30
0.0
 10
5.0487400901
 20
5.2381671013
 30
0.0
 10
5.048324947
 20
5.2352226229
 30
0.0
 10
5.047939044
 20
5.2322504941
 30
0.0
 10
5.0475870365
 20
5.2292496554
 30
0.0
 10
5.0472748246
 20
5.2262189198
 30
0.0
 10
5.0470080058
 20
5.2231571477
 30
0.0
 10
5.0467922995
 20
5.2200631864
 30
0.0
 10
5.0466332572
 20
5.2169360082
 30
0.0
 10
5.0465370274
 20
5.2137748809
 30
0.0
 10
5.0465155461
 20
5.2105793251
 30
0.0
 10
5.0465803434
 20
5.2073493424
 30
0.0
 10
5.0467431677
 20
5.2040849968
 30
0.0
 10
5.0470153354
 20
5.2007871071
 30
0.0
 10
5.0474091384
 20
5.1974589645
 30
0.0
 10
5.0479445784
 20
5.1941075772
 30
0.0
 10
5.0486408348
 20
5.1907422684
 30
0.0
 10
5.0495169325
 20
5.1873733488
 30
0.0
 10
5.0505904321
 20
5.1840177473
 30
0.0
 10
5.0518659159
 20
5.1806976977
 30
0.0
 10
5.0533448164
 20
5.17744245
 30
0.0
 10
5.0544683209
 20
5.1753345591
 30
0.0
 10
5.0550652531
 20
5.1743007247
 30
0.0
  0
SPLINE
  5
2BB
100
AcDbEntity
  8
0
100
AcDbSpline
 62
9
  6
CONTINUOUS
 70
0
 71
3
 72
57
 73
53
 74
0
 42
0.0000001
 43
0.0000001
 44
0.0000000001
 40
0.0
 40
0.0
 40
0.0
 40
0.0
 40
0.0257482751
 40
0.0514508295
 40
0.0769974493
 40
0.1022758491
 40
0.1517175028
 40
0.1758357121
 40
0.1995142344
 40
0.2227236246
 40
0.2454615182
 40
0.2677437269
 40
0.2895830952
 40
0.31098912
 40
0.3319682122
 40
0.3525313207
 40
0.372697701
 40
0.3924856028
 40
0.4119115026
 40
0.44973234
 40
0.4681540595
 40
0.4862647562
 40
0.5215940122
 40
0.5388332189
 40
0.5557996834
 40
0.5725009105
 40
0.5889431295
 40
0.6210666232
 40
0.6522004287
 40
0.6823674401
 40
0.697094249
 40
0.7115844198
 40
0.7398467252
 40
0.7671364164
 40
0.7934319793
 40
0.8187094916
 40
0.8429306112
 40
0.8660260751
 40
0.8879226212
 40
0.908548237
 40
0.9183626384
 40
0.9278279445
 40
0.9369269109
 40
0.945642871
 40
0.9539600613
 40
0.9618638806
 40
0.9693412415
 40
0.9763810551
 40
0.9829745226
 40
0.9891117898
 40
0.9947860289
 40
1.0
 40
1.0
 40
1.0
 40
1.0
 10
5.5209773691
 20
5.4432952103
 30
0.0
 10
5.5199900229
 20
5.4450055477
 30
0.0
 10
5.5180835574
 20
5.448462023
 30
0.0
 10
5.515427528
 20
5.4537380993
 30
0.0
 10
5.5129828398
 20
5.4590759114
 30
0.0
 10
5.5100385819
 20
5.4661818126
 30
0.0
 10
5.5075223781
 20
5.4733409751
 30
0.0
 10
5.5054155996
 20
5.4804963393
 30
0.0
 10
5.5040501747
 20
5.485769567
 30
0.0
 10
5.502876777
 20
5.4909801697
 30
0.0
 10
5.5018852968
 20
5.4961193536
 30
0.0
 10
5.5010646254
 20
5.5011820611
 30
0.0
 10
5.5004031901
 20
5.5061649228
 30
0.0
 10
5.4998895416
 20
5.511064622
 30
0.0
 10
5.4995117678
 20
5.5158784139
 30
0.0
 10
5.4992596631
 20
5.5206051698
 30
0.0
 10
5.4991258811
 20
5.5252453132
 30
0.0
 10
5.4991024648
 20
5.529800089
 30
0.0
 10
5.4992070224
 20
5.5357080438
 30
0.0
 10
5.4994986226
 20
5.5415064248
 30
0.0
 10
5.4999560161
 20
5.5471911517
 30
0.0
 10
5.5005051376
 20
5.5526757459
 30
0.0
 10
5.5011978838
 20
5.5580538099
 30
0.0
 10
5.5020225287
 20
5.5633231365
 30
0.0
 10
5.5026929201
 20
5.5671698691
 30
0.0
 10
5.5034156601
 20
5.5709448621
 30
0.0
 10
5.5044353193
 20
5.5758460034
 30
0.0
 10
5.505820574
 20
5.5818009596
 30
0.0
 10
5.5076557191
 20
5.5887285814
 30
0.0
 10
5.5093128512
 20
5.5943203042
 30
0.0
 10
5.5106983181
 20
5.5986592939
 30
0.0
 10
5.5120959238
 20
5.6028406247
 30
0.0
 10
5.513900788
 20
5.6079012728
 30
0.0
 10
5.5161667573
 20
5.6137564512
 30
0.0
 10
5.5184988879
 20
5.6193382557
 30
0.0
 10
5.520881036
 20
5.6246418512
 30
0.0
 10
5.523296373
 20
5.6296593393
 30
0.0
 10
5.525731829
 20
5.6343771227
 30
0.0
 10
5.5281728004
 20
5.6387792308
 30
0.0
 10
5.5302321065
 20
5.6422259247
 30
0.0
 10
5.5318729259
 20
5.644809826
 30
0.0
 10
5.5330749491
 20
5.6466246153
 30
0.0
 10
5.5342670302
 20
5.6483444001
 30
0.0
 10
5.5354470535
 20
5.6499647727
 30
0.0
 10
5.5366129135
 20
5.6514813119
 30
0.0
 10
5.5377625138
 20
5.65288961
 30
0.0
 10
5.53889375
 20
5.6541852958
 30
0.0
 10
5.5400045878
 20
5.6553639367
 30
0.0
 10
5.5410925065
 20
5.656421081
 30
0.0
 10
5.5421557074
 20
5.6573509454
 30
0.0
 10
5.543192478
 20
5.6581464721
 30
0.0
 10
5.5438942824
 20
5.6586015892
 30
0.0
 10
5.5442405881
 20
5.6588015836
 30
0.0
  0
SPLINE
  5
2BC
100
AcDbEntity
  8
0
100
AcDbSpline
 62
9
  6
CONTINUOUS
 70
0
 71
3
 72
38
 73
34
 74
0
 42
0.0000001
 43
0.0000001
 44
0.0000000001
 40
0.0
 40
0.0
 40
0.0
 40
0.0
 40
0.0451433432
 40
0.08788846
 40
0.1281904621
 40
0.1660230792
 40
0.2013910295
 40
0.2343901203
 40
0.2651783862
 40
0.2939425364
 40
0.3209027559
 40
0.3463174074
 40
0.3704927023
 40
0.3938007378
 40
0.4166239093
 40
0.4393221761
 40
0.4622167902
 40
0.4855791085
 40
0.5096262051
 40
0.5345328002
 40
0.5604381773
 40
0.5874386293
 40
0.6155933165
 40
0.6449308065
 40
0.6754548502
 40
0.7071492294
 40
0.7399883012
 40
0.7739572023
 40
0.8090371884
 40
0.8452022845
 40
0.8824204913
 40
0.9206547764
 40
1.0
 40
1.0
 40
1.0
 40
1.0
 10
5.0438482183
 20
5.3698958328
 30
0.0
 10
5.044509086
 20
5.3702770255
 30
0.0
 10
5.0458091161
 20
5.3709963134
 30
0.0
 10
5.0477465897
 20
5.3719671012
 30
0.0
 10
5.0496140533
 20
5.3727973279
 30
0.0
 10
5.0514063496
 20
5.3734836869
 30
0.0
 10
5.0531196855
 20
5.3740224603
 30
0.0
 10
5.0547506701
 20
5.3744135966
 30
0.0
 10
5.0562971493
 20
5.3746593977
 30
0.0
 10
5.0577577199
 20
5.3747619131
 30
0.0
 10
5.05913088
 20
5.3747230941
 30
0.0
 10
5.0604151564
 20
5.3745448238
 30
0.0
 10
5.0616091052
 20
5.3742282829
 30
0.0
 10
5.0627125274
 20
5.373778703
 30
0.0
 10
5.0637266266
 20
5.3732022794
 30
0.0
 10
5.0646530574
 20
5.3725054013
 30
0.0
 10
5.0654939134
 20
5.3716946488
 30
0.0
 10
5.0662516826
 20
5.3707764884
 30
0.0
 10
5.0669291703
 20
5.3697569605
 30
0.0
 10
5.0675294341
 20
5.3686414835
 30
0.0
 10
5.0680559053
 20
5.3674350176
 30
0.0
 10
5.0685120675
 20
5.3661421653
 30
0.0
 10
5.0689013095
 20
5.3647674493
 30
0.0
 10
5.0692269337
 20
5.3633153725
 30
0.0
 10
5.0694921727
 20
5.361790442
 30
0.0
 10
5.0697002476
 20
5.3601970756
 30
0.0
 10
5.0698543057
 20
5.3585391826
 30
0.0
 10
5.0699564956
 20
5.3568200215
 30
0.0
 10
5.070009098
 20
5.3550424429
 30
0.0
 10
5.0700143722
 20
5.3532092223
 30
0.0
 10
5.0699745906
 20
5.3513231307
 30
0.0
 10
5.069863061
 20
5.3487092722
 30
0.0
 10
5.0697201474
 20
5.3467267709
 30
0.0
 10
5.0696033827
 20
5.3453909262
 30
0.0
  0
SPLINE
  5
2BD
100
AcDbEntity
  8
0
100
AcDbSpline
 62
9
  6
CONTINUOUS
 70
0
 71
3
 72
43
 73
39
 74
0
 42
0.0000001
 43
0.0000001
 44
0.0000000001
 40
0.0
 40
0.0
 40
0.0
 40
0.0
 40
0.0354712772
 40
0.0531971602
 40
0.0709014447
 40
0.0885727352
 40
0.1062001866
 40
0.1237790191
 40
0.141306533
 40
0.1761920415
 40
0.210823182
 40
0.2451801531
 40
0.2792591526
 40
0.2961915544
 40
0.3130500783
 40
0.3465459714
 40
0.3797518507
 40
0.3962468717
 40
0.4126698721
 40
0.4452998875
 40
0.4776422731
 40
0.509695934
 40
0.5414581217
 40
0.5729247359
 40
0.6040909217
 40
0.6349488516
 40
0.6654883604
 40
0.7255657801
 40
0.7550728586
 40
0.7842024463
 40
0.8129296135
 40
0.8412274018
 40
0.8690672686
 40
0.8964151048
 40
0.9232372533
 40
0.9494887763
 40
0.9750995106
 40
1.0
 40
1.0
 40
1.0
 40
1.0
 10
6.8942929633
 20
5.1604110823
 30
0.0
 10
6.8957333765
 20
5.1629045284
 30
0.0
 10
6.8978166871
 20
5.1666891688
 30
0.0
 10
6.9004420746
 20
5.1718116488
 30
0.0
 10
6.9023338677
 20
5.1756855202
 30
0.0
 10
6.9041484707
 20
5.1795872869
 30
0.0
 10
6.905885689
 20
5.1835129768
 30
0.0
 10
6.9075475057
 20
5.1874584969
 30
0.0
 10
6.9096629214
 20
5.1927322871
 30
0.0
 10
6.9121323146
 20
5.1993544601
 30
0.0
 10
6.9148431241
 20
5.2073405629
 30
0.0
 10
6.9173206007
 20
5.2153333753
 30
0.0
 10
6.9192159261
 20
5.2220000751
 30
0.0
 10
6.9206409854
 20
5.2273224138
 30
0.0
 10
6.9220040744
 20
5.2326120945
 30
0.0
 10
6.9236103016
 20
5.2392030412
 30
0.0
 10
6.9251092847
 20
5.2457888292
 30
0.0
 10
6.9262501175
 20
5.2510342327
 30
0.0
 10
6.9273509903
 20
5.2562403947
 30
0.0
 10
6.9286669114
 20
5.2627159181
 30
0.0
 10
6.9301666151
 20
5.2704485862
 30
0.0
 10
6.931598075
 20
5.2781224939
 30
0.0
 10
6.9329741769
 20
5.2857342616
 30
0.0
 10
6.9343052488
 20
5.2932808705
 30
0.0
 10
6.9356023169
 20
5.3007588934
 30
0.0
 10
6.936874788
 20
5.3081647826
 30
0.0
 10
6.9385405525
 20
5.3178845242
 30
0.0
 10
6.9401990985
 20
5.3274942743
 30
0.0
 10
6.9418841622
 20
5.3369831714
 30
0.0
 10
6.9431556379
 20
5.3439605847
 30
0.0
 10
6.9444500794
 20
5.3508339215
 30
0.0
 10
6.9457750838
 20
5.3575947949
 30
0.0
 10
6.9471382233
 20
5.3642338463
 30
0.0
 10
6.9485487898
 20
5.3707405083
 30
0.0
 10
6.9500153614
 20
5.3771025746
 30
0.0
 10
6.9515464545
 20
5.383304369
 30
0.0
 10
6.9531531217
 20
5.3893257768
 30
0.0
 10
6.9542984813
 20
5.3932636326
 30
0.0
 10
6.954889036
 20
5.3951968924
 30
0.0
  0
SPLINE
  5
2BE
100
AcDbEntity
  8
0
100
AcDbSpline
 62
9
  6
CONTINUOUS
 70
0
 71
3
 72
41
 73
37
 74
0
 42
0.0000001
 43
0.0000001
 44
0.0000000001
 40
0.0
 40
0.0
 40
0.0
 40
0.0
 40
0.0248977601
 40
0.0505076608
 40
0.0767633364
 40
0.0901115007
 40
0.1035947979
 40
0.1309472831
 40
0.1587894548
 40
0.1870899136
 40
0.2158170702
 40
0.2449467501
 40
0.2744579543
 40
0.3345412691
 40
0.3650823678
 40
0.3959418989
 40
0.4271094548
 40
0.4585774473
 40
0.5223966663
 40
0.5547411256
 40
0.587372784
 40
0.6202918199
 40
0.6534997356
 40
0.6869954758
 40
0.7207797308
 40
0.7548552343
 40
0.7892106016
 40
0.8238338629
 40
0.8587134543
 40
0.8762390679
 40
0.8938154493
 40
0.9114389291
 40
0.9291057726
 40
0.946806803
 40
0.9645305142
 40
1.0
 40
1.0
 40
1.0
 40
1.0
 10
6.7212605236
 20
4.9905404388
 30
0.0
 10
6.7226393466
 20
4.9920183416
 30
0.0
 10
6.7254766607
 20
4.9949790543
 30
0.0
 10
6.7298879159
 20
4.9993813336
 30
0.0
 10
6.7337048365
 20
5.0030503609
 30
0.0
 10
6.7368463928
 20
5.0060006285
 30
0.0
 10
6.7400740986
 20
5.0089890773
 30
0.0
 10
6.7442022233
 20
5.0127367039
 30
0.0
 10
6.7492706584
 20
5.017237441
 30
0.0
 10
6.7544639323
 20
5.0217651887
 30
0.0
 10
6.759769442
 20
5.0263229253
 30
0.0
 10
6.7651764682
 20
5.030913113
 30
0.0
 10
6.7725521993
 20
5.0371173824
 30
0.0
 10
6.7800461198
 20
5.0433589795
 30
0.0
 10
6.7876312864
 20
5.0496619849
 30
0.0
 10
6.7934089746
 20
5.054467211
 30
0.0
 10
6.7992369726
 20
5.0593296212
 30
0.0
 10
6.8071007784
 20
5.0659285298
 30
0.0
 10
6.8149947202
 20
5.0726402369
 30
0.0
 10
6.8228891282
 20
5.079496097
 30
0.0
 10
6.8288427669
 20
5.0847605681
 30
0.0
 10
6.834791132
 20
5.0901361864
 30
0.0
 10
6.8407229946
 20
5.0956338439
 30
0.0
 10
6.8466220057
 20
5.1012690788
 30
0.0
 10
6.8524699546
 20
5.1070580249
 30
0.0
 10
6.8582479668
 20
5.1130146123
 30
0.0
 10
6.8639312478
 20
5.1191551076
 30
0.0
 10
6.8694917882
 20
5.1254943269
 30
0.0
 10
6.8739908328
 20
5.1309433404
 30
0.0
 10
6.8774994979
 20
5.135411853
 30
0.0
 10
6.8800849184
 20
5.1388233852
 30
0.0
 10
6.8826156559
 20
5.1422899009
 30
0.0
 10
6.8850869376
 20
5.1458114322
 30
0.0
 10
6.8874952458
 20
5.1493861909
 30
0.0
 10
6.8906180741
 20
5.1542208206
 30
0.0
 10
6.8928536877
 20
5.1579171485
 30
0.0
 10
6.8942929633
 20
5.1604110823
 30
0.0
  0
SPLINE
  5
2BF
100
AcDbEntity
  8
0
100
AcDbSpline
 62
9
  6
CONTINUOUS
 70
0
 71
3
 72
44
 73
40
 74
0
 42
0.0000001
 43
0.0000001
 44
0.0000000001
 40
0.0
 40
0.0
 40
0.0
 40
0.0
 40
0.035466848
 40
0.0531901284
 40
0.0708914942
 40
0.0885595237
 40
0.1061837885
 40
0.1237600053
 40
0.1412851742
 40
0.1761656065
 40
0.2107904458
 40
0.2451431836
 40
0.2792185821
 40
0.2961487304
 40
0.3130050116
 40
0.3464983339
 40
0.379703384
 40
0.3961983123
 40
0.4126212553
 40
0.4452510528
 40
0.4775931019
 40
0.5096463914
 40
0.5414085615
 40
0.5728750661
 40
0.6040400495
 40
0.6348972914
 40
0.6654393363
 40
0.6956521307
 40
0.725519149
 40
0.7550240707
 40
0.784149878
 40
0.8128739869
 40
0.8411723398
 40
0.8690218143
 40
0.8963979977
 40
0.9232495594
 40
0.9495092728
 40
0.9751128275
 40
1.0
 40
1.0
 40
1.0
 40
1.0
 10
5.0310076867
 20
5.1604110823
 30
0.0
 10
5.0324467584
 20
5.1579172752
 30
0.0
 10
5.0346823525
 20
5.1542212159
 30
0.0
 10
5.0378052706
 20
5.1493869032
 30
0.0
 10
5.0402137415
 20
5.1458121443
 30
0.0
 10
5.0426850055
 20
5.142290369
 30
0.0
 10
5.0452157323
 20
5.1388236576
 30
0.0
 10
5.0478012599
 20
5.135412183
 30
0.0
 10
5.0513101343
 20
5.1309438036
 30
0.0
 10
5.055809475
 20
5.1254948281
 30
0.0
 10
5.0613694597
 20
5.1191551393
 30
0.0
 10
5.0670521381
 20
5.1130142138
 30
0.0
 10
5.071877447
 20
5.108040063
 30
0.0
 10
5.0757734536
 20
5.1041449389
 30
0.0
 10
5.0796721591
 20
5.1003196815
 30
0.0
 10
5.0845764942
 20
5.0956333292
 30
0.0
 10
5.0895301754
 20
5.0910423811
 30
0.0
 10
5.0935022544
 20
5.0874316308
 30
0.0
 10
5.0974602978
 20
5.0838749972
 30
0.0
 10
5.1024099602
 20
5.0794972956
 30
0.0
 10
5.1083564479
 20
5.0743318861
 30
0.0
 10
5.1142868314
 20
5.0692557022
 30
0.0
 10
5.1201908431
 20
5.0642582314
 30
0.0
 10
5.1260603155
 20
5.059331696
 30
0.0
 10
5.1318878649
 20
5.0544695477
 30
0.0
 10
5.137665794
 20
5.0496650981
 30
0.0
 10
5.143385892
 20
5.0449120036
 30
0.0
 10
5.149040301
 20
5.0402056384
 30
0.0
 10
5.1546207647
 20
5.0355420552
 30
0.0
 10
5.1601187452
 20
5.0309174249
 30
0.0
 10
5.165525334
 20
5.0263283692
 30
0.0
 10
5.1708304634
 20
5.0217713021
 30
0.0
 10
5.1760235047
 20
5.0172430127
 30
0.0
 10
5.1810934537
 20
5.0127404371
 30
0.0
 10
5.1860278647
 20
5.0082626318
 30
0.0
 10
5.1908092164
 20
5.003808931
 30
0.0
 10
5.1954160136
 20
4.9993799767
 30
0.0
 10
5.1998258525
 20
4.9949777435
 30
0.0
 10
5.2026618952
 20
4.9920177206
 30
0.0
 10
5.2040401263
 20
4.9905404388
 30
0.0
  0
SPLINE
  5
2C0
100
AcDbEntity
  8
0
100
AcDbSpline
 62
9
  6
CONTINUOUS
 70
0
 71
3
 72
44
 73
40
 74
0
 42
0.0000001
 43
0.0000001
 44
0.0000000001
 40
0.0
 40
0.0
 40
0.0
 40
0.0
 40
0.0354667851
 40
0.053189884
 40
0.0708909378
 40
0.0885585094
 40
0.1061823529
 40
0.1237583428
 40
0.1412833743
 40
0.1761633924
 40
0.2107875834
 40
0.2451406136
 40
0.2792165554
 40
0.2961468059
 40
0.3130032013
 40
0.3464970137
 40
0.3797027064
 40
0.3961979362
 40
0.412621127
 40
0.4452512459
 40
0.4775934445
 40
0.5096467863
 40
0.5414090016
 40
0.5728755913
 40
0.6040406295
 40
0.6348978219
 40
0.6654397895
 40
0.6956526674
 40
0.7255198283
 40
0.7550248433
 40
0.7841506975
 40
0.8128748626
 40
0.841173136
 40
0.8690222488
 40
0.8963978483
 40
0.9232491565
 40
0.9495088855
 40
0.9751126114
 40
1.0
 40
1.0
 40
1.0
 40
1.0
 10
5.962650325
 20
6.7740634662
 30
0.0
 10
5.9597710939
 20
6.7740640631
 30
0.0
 10
5.9554524364
 20
6.7739760313
 30
0.0
 10
5.9497043816
 20
6.7736887219
 30
0.0
 10
5.9454043884
 20
6.7733903465
 30
0.0
 10
5.9411189064
 20
6.7730110542
 30
0.0
 10
5.9368513757
 20
6.7725527123
 30
0.0
 10
5.9326042506
 20
6.7720193326
 30
0.0
 10
5.9269801424
 20
6.771214781
 30
0.0
 10
5.9200116087
 20
6.7700427859
 30
0.0
 10
5.9117413587
 20
6.7683974853
 30
0.0
 10
5.9035818263
 20
6.7665465165
 30
0.0
 10
5.8968613578
 20
6.7648547345
 30
0.0
 10
5.8915399874
 20
6.7634283559
 30
0.0
 10
5.8862777827
 20
6.7619646856
 30
0.0
 10
5.8797670056
 20
6.7600605942
 30
0.0
 10
5.8733141767
 20
6.758066017
 30
0.0
 10
5.8682010452
 20
6.7564314359
 30
0.0
 10
5.8631418201
 20
6.7547819677
 30
0.0
 10
5.8568757297
 20
6.7526842751
 30
0.0
 10
5.849429071
 20
6.7501171521
 30
0.0
 10
5.8420677714
 20
6.7475193302
 30
0.0
 10
5.8347878485
 20
6.7449049428
 30
0.0
 10
5.8275865918
 20
6.742285097
 30
0.0
 10
5.8204620559
 20
6.7396693904
 30
0.0
 10
5.8134123153
 20
6.7370677997
 30
0.0
 10
5.8064359768
 20
6.7344905766
 30
0.0
 10
5.7995329292
 20
6.7319468921
 30
0.0
 10
5.7927038903
 20
6.7294458542
 30
0.0
 10
5.7859498266
 20
6.7269967827
 30
0.0
 10
5.7792722754
 20
6.7246090696
 30
0.0
 10
5.7726731767
 20
6.7222932145
 30
0.0
 10
5.7661550747
 20
6.7200600549
 30
0.0
 10
5.7597208314
 20
6.7179206721
 30
0.0
 10
5.7533758126
 20
6.7158863193
 30
0.0
 10
5.7471281822
 20
6.7139724178
 30
0.0
 10
5.7409892056
 20
6.7121972795
 30
0.0
 10
5.7349718139
 20
6.7105793352
 30
0.0
 10
5.7309903089
 20
6.7096032459
 30
0.0
 10
5.7290218126
 20
6.7091482996
 30
0.0
  0
SPLINE
  5
2C1
100
AcDbEntity
  8
0
100
AcDbSpline
 62
9
  6
CONTINUOUS
 70
0
 71
3
 72
43
 73
39
 74
0
 42
0.0000001
 43
0.0000001
 44
0.0000000001
 40
0.0
 40
0.0
 40
0.0
 40
0.0
 40
0.0249049705
 40
0.0505155381
 40
0.0635628031
 40
0.0767590337
 40
0.1035752866
 40
0.1309240636
 40
0.1587655011
 40
0.1870664751
 40
0.2157957509
 40
0.2449253814
 40
0.2744346234
 40
0.3043033457
 40
0.3345151906
 40
0.3959160769
 40
0.4585521391
 40
0.4903156546
 40
0.5223708445
 40
0.5385071191
 40
0.5547155487
 40
0.5873480966
 40
0.6202682737
 40
0.6368367951
 40
0.6534777881
 40
0.6869756315
 40
0.7207617809
 40
0.7548389091
 40
0.7891966236
 40
0.8238219884
 40
0.858703565
 40
0.8762303398
 40
0.893807909
 40
0.9114325352
 40
0.9291004927
 40
0.9468027343
 40
0.9645277424
 40
1.0
 40
1.0
 40
1.0
 40
1.0
 10
6.1962788374
 20
6.7091482996
 30
0.0
 10
6.1943089541
 20
6.7096035787
 30
0.0
 10
6.1903257004
 20
6.7105808695
 30
0.0
 10
6.18534256
 20
6.7119219209
 30
0.0
 10
6.1812931674
 20
6.7130722406
 30
0.0
 10
6.1771597666
 20
6.7142844572
 30
0.0
 10
6.171930581
 20
6.7158850588
 30
0.0
 10
6.1655907481
 20
6.7179170694
 30
0.0
 10
6.1591590092
 20
6.7200558025
 30
0.0
 10
6.152640909
 20
6.7222889864
 30
0.0
 10
6.1460408381
 20
6.7246049002
 30
0.0
 10
6.1393621023
 20
6.7269924525
 30
0.0
 10
6.1326072823
 20
6.729441708
 30
0.0
 10
6.12577792
 20
6.7319429746
 30
0.0
 10
6.1165242313
 20
6.7353529803
 30
0.0
 10
6.1047797649
 20
6.7396968964
 30
0.0
 10
6.0929028669
 20
6.7440459601
 30
0.0
 10
6.0832414065
 20
6.7475161393
 30
0.0
 10
6.0771202494
 20
6.7496755176
 30
0.0
 10
6.0721807569
 20
6.7513884207
 30
0.0
 10
6.0671902263
 20
6.7530970757
 30
0.0
 10
6.060896346
 20
6.7552052251
 30
0.0
 10
6.0545521483
 20
6.7572541565
 30
0.0
 10
6.049428004
 20
6.7588554316
 30
0.0
 10
6.0442481581
 20
6.7604352461
 30
0.0
 10
6.0377089508
 20
6.7623488178
 30
0.0
 10
6.0297712182
 20
6.7645191377
 30
0.0
 10
6.021723178
 20
6.7665448232
 30
0.0
 10
6.0135632693
 20
6.7683967222
 30
0.0
 10
6.005292596
 20
6.7700429793
 30
0.0
 10
5.9983236756
 20
6.771214892
 30
0.0
 10
5.9926991483
 20
6.7720192883
 30
0.0
 10
5.9884516821
 20
6.7725526041
 30
0.0
 10
5.9841839449
 20
6.7730110802
 30
0.0
 10
5.9798982891
 20
6.7733905671
 30
0.0
 10
5.9755980082
 20
6.7736888689
 30
0.0
 10
5.9698492512
 20
6.7739760227
 30
0.0
 10
5.965529999
 20
6.7740639659
 30
0.0
 10
5.962650325
 20
6.7740634662
 30
0.0
  0
SPLINE
  5
2C2
100
AcDbEntity
  8
0
100
AcDbSpline
 62
9
  6
CONTINUOUS
 70
0
 71
3
 72
42
 73
38
 74
0
 42
0.0000001
 43
0.0000001
 44
0.0000000001
 40
0.0
 40
0.0
 40
0.0
 40
0.0
 40
0.0248976894
 40
0.0505074157
 40
0.0767627325
 40
0.0901106223
 40
0.1035936243
 40
0.1309457396
 40
0.158787707
 40
0.1870879599
 40
0.2158148513
 40
0.2449443209
 40
0.2744553087
 40
0.3345380999
 40
0.3650790233
 40
0.3959383201
 40
0.4271054935
 40
0.4585730585
 40
0.4903364214
 40
0.5223916529
 40
0.5547356798
 40
0.5873668511
 40
0.620285232
 40
0.6534918902
 40
0.6869861395
 40
0.7207700739
 40
0.7548449279
 40
0.7891986663
 40
0.8238230739
 40
0.8587036648
 40
0.8762295154
 40
0.8938067518
 40
0.9114323174
 40
0.9291018488
 40
0.9468048393
 40
0.9645298062
 40
1.0
 40
1.0
 40
1.0
 40
1.0
 10
4.9704116139
 20
5.3951968924
 30
0.0
 10
4.9710021019
 20
5.3932638504
 30
0.0
 10
4.9721474863
 20
5.3893263248
 30
0.0
 10
4.9737543227
 20
5.3833049702
 30
0.0
 10
4.9750233182
 20
5.3781649695
 30
0.0
 10
4.9760075422
 20
5.373969244
 30
0.0
 10
4.9769817623
 20
5.369679822
 30
0.0
 10
4.9781632255
 20
5.3642310161
 30
0.0
 10
4.9795267415
 20
5.3575913138
 30
0.0
 10
4.9808512404
 20
5.3508299861
 30
0.0
 10
4.9821456055
 20
5.3439564676
 30
0.0
 10
4.9834172978
 20
5.3369788053
 30
0.0
 10
4.9851024663
 20
5.3274891734
 30
0.0
 10
4.9867608866
 20
5.3178785231
 30
0.0
 10
4.9884268824
 20
5.3081581521
 30
0.0
 10
4.9896994847
 20
5.3007519771
 30
0.0
 10
4.9909964151
 20
5.29327366
 30
0.0
 10
4.9923273881
 20
5.285726779
 30
0.0
 10
4.9937035403
 20
5.2781147161
 30
0.0
 10
4.9951355912
 20
5.27044056
 30
0.0
 10
4.9966349736
 20
5.2627074687
 30
0.0
 10
4.9982174849
 20
5.2549193949
 30
0.0
 10
4.9998985638
 20
5.2470803155
 30
0.0
 10
5.001693471
 20
5.2391945615
 30
0.0
 10
5.0036244045
 20
5.2312685501
 30
0.0
 10
5.0057135057
 20
5.223309736
 30
0.0
 10
5.0079825327
 20
5.215327604
 30
0.0
 10
5.0104588325
 20
5.2073356165
 30
0.0
 10
5.0131687427
 20
5.199350482
 30
0.0
 10
5.0156381049
 20
5.1927294462
 30
0.0
 10
5.0177535805
 20
5.1874563975
 30
0.0
 10
5.0194154377
 20
5.1835113495
 30
0.0
 10
5.0211525335
 20
5.1795860727
 30
0.0
 10
5.0229670103
 20
5.1756846904
 30
0.0
 10
5.0248587492
 20
5.1718111522
 30
0.0
 10
5.0274841157
 20
5.1666889634
 30
0.0
 10
5.0295673675
 20
5.1629044803
 30
0.0
 10
5.0310076867
 20
5.1604110823
 30
0.0
  0
SPLINE
  5
2C3
100
AcDbEntity
  8
0
100
AcDbSpline
 62
9
  6
CONTINUOUS
 70
0
 71
3
 72
61
 73
57
 74
0
 42
0.0000001
 43
0.0000001
 44
0.0000000001
 40
0.0
 40
0.0
 40
0.0
 40
0.0
 40
0.0052110023
 40
0.010883577
 40
0.0170231817
 40
0.0236260937
 40
0.0306821821
 40
0.0381767756
 40
0.0460919363
 40
0.0544102744
 40
0.0631204064
 40
0.0722112122
 40
0.0816708599
 40
0.0914869543
 40
0.1016466512
 40
0.1121367467
 40
0.1229437484
 40
0.1340539851
 40
0.1571445228
 40
0.1813546994
 40
0.2066366423
 40
0.2329432771
 40
0.2602327289
 40
0.288487659
 40
0.3177017597
 40
0.3478723768
 40
0.3790042398
 40
0.4111218042
 40
0.4275615361
 40
0.4442616194
 40
0.461227691
 40
0.4784661178
 40
0.495984826
 40
0.5137928669
 40
0.5319002503
 40
0.5503179533
 40
0.5690579222
 40
0.5881328809
 40
0.607555468
 40
0.6273395279
 40
0.6475007753
 40
0.6680568163
 40
0.6890270051
 40
0.7104255686
 40
0.7322592586
 40
0.7545372754
 40
0.7772721671
 40
0.8004792624
 40
0.8241546353
 40
0.8482697452
 40
0.87279846
 40
0.8977192204
 40
0.9230009681
 40
0.9485493985
 40
0.9742523886
 40
1.0
 40
1.0
 40
1.0
 40
1.0
 10
5.7876482783
 20
2.9304027676
 30
0.0
 10
5.7876478992
 20
2.9308024394
 30
0.0
 10
5.7876900388
 20
2.9316374601
 30
0.0
 10
5.7878592559
 20
2.9329330864
 30
0.0
 10
5.7881326667
 20
2.9343196245
 30
0.0
 10
5.7885059538
 20
2.9357921456
 30
0.0
 10
5.7889748337
 20
2.9373458276
 30
0.0
 10
5.7895350353
 20
2.9389756692
 30
0.0
 10
5.7901822845
 20
2.9406768661
 30
0.0
 10
5.7909129187
 20
2.942445219
 30
0.0
 10
5.7917250589
 20
2.944276718
 30
0.0
 10
5.7926168385
 20
2.9461680125
 30
0.0
 10
5.7935864771
 20
2.9481158089
 30
0.0
 10
5.7946321732
 20
2.9501168152
 30
0.0
 10
5.7957521275
 20
2.9521677344
 30
0.0
 10
5.7969445319
 20
2.9542652688
 30
0.0
 10
5.7982075965
 20
2.9564061193
 30
0.0
 10
5.8000068125
 20
2.9593522756
 30
0.0
 10
5.8024263261
 20
2.9631235175
 30
0.0
 10
5.8055625895
 20
2.9677237389
 30
0.0
 10
5.8089664964
 20
2.9724374835
 30
0.0
 10
5.8126369876
 20
2.9772474141
 30
0.0
 10
5.8165741467
 20
2.982138057
 30
0.0
 10
5.8207844528
 20
2.9870922213
 30
0.0
 10
5.8252759917
 20
2.9920941834
 30
0.0
 10
5.8300572821
 20
2.9971289783
 30
0.0
 10
5.8351380772
 20
3.0021825437
 30
0.0
 10
5.8396010498
 20
3.0063600359
 30
0.0
 10
5.8433354453
 20
3.0096927583
 30
0.0
 10
5.8462441585
 20
3.0122046284
 30
0.0
 10
5.8492412638
 20
3.0147070384
 30
0.0
 10
5.8523292242
 20
3.0171977364
 30
0.0
 10
5.8555118342
 20
3.0196729741
 30
0.0
 10
5.8587928904
 20
3.0221290911
 30
0.0
 10
5.8621762143
 20
3.0245624172
 30
0.0
 10
5.8656656129
 20
3.0269693033
 30
0.0
 10
5.8692649212
 20
3.0293460217
 30
0.0
 10
5.8729777389
 20
3.0316890597
 30
0.0
 10
5.8768091284
 20
3.03399237
 30
0.0
 10
5.8807642803
 20
3.0362493116
 30
0.0
 10
5.8848482556
 20
3.0384533643
 30
0.0
 10
5.889066164
 20
3.0405978826
 30
0.0
 10
5.8934224563
 20
3.0426763158
 30
0.0
 10
5.897921075
 20
3.0446802576
 30
0.0
 10
5.9025658731
 20
3.0465980679
 30
0.0
 10
5.9073596893
 20
3.0484181739
 30
0.0
 10
5.9123053232
 20
3.0501288165
 30
0.0
 10
5.9174038188
 20
3.0517178034
 30
0.0
 10
5.9226524391
 20
3.0531718419
 30
0.0
 10
5.9280447752
 20
3.0544758247
 30
0.0
 10
5.9335721919
 20
3.0556139492
 30
0.0
 10
5.9392248556
 20
3.0565702053
 30
0.0
 10
5.9449864958
 20
3.0573278091
 30
0.0
 10
5.9508317484
 20
3.0578797248
 30
0.0
 10
5.9567290055
 20
3.0582178095
 30
0.0
 10
5.9606755418
 20
3.058295103
 30
0.0
 10
5.962650325
 20
3.0582952103
 30
0.0
  0
SPLINE
  5
2C4
100
AcDbEntity
  8
0
100
AcDbSpline
 62
9
  6
CONTINUOUS
 70
0
 71
3
 72
39
 73
35
 74
0
 42
0.0000001
 43
0.0000001
 44
0.0000000001
 40
0.0
 40
0.0
 40
0.0
 40
0.0
 40
0.0451396719
 40
0.0878812577
 40
0.1281824278
 40
0.166019104
 40
0.2013943281
 40
0.2343935131
 40
0.2651774539
 40
0.2939366356
 40
0.3208943354
 40
0.3463109707
 40
0.3585394431
 40
0.3705017852
 40
0.3938103196
 40
0.4166321655
 40
0.4393287522
 40
0.4622224731
 40
0.4855854281
 40
0.509634808
 40
0.5345425745
 40
0.5604474437
 40
0.5874462077
 40
0.6155986406
 40
0.6449339945
 40
0.6754567457
 40
0.7071514226
 40
0.7399914109
 40
0.7739604748
 40
0.8090400573
 40
0.8452043893
 40
0.8824216923
 40
0.9206551649
 40
1.0
 40
1.0
 40
1.0
 40
1.0
 10
6.7064532661
 20
1.9167889185
 30
0.0
 10
6.7057927675
 20
1.9171706379
 30
0.0
 10
6.7045199691
 20
1.9179368709
 30
0.0
 10
6.7027107141
 20
1.9191294771
 30
0.0
 10
6.7010580579
 20
1.9203317515
 30
0.0
 10
6.6995673355
 20
1.9215408274
 30
0.0
 10
6.6982436192
 20
1.9227550404
 30
0.0
 10
6.6970893021
 20
1.9239719639
 30
0.0
 10
6.6961034078
 20
1.9251883405
 30
0.0
 10
6.6952846853
 20
1.9264020086
 30
0.0
 10
6.6946320009
 20
1.9276105687
 30
0.0
 10
6.6942203631
 20
1.928624677
 30
0.0
 10
6.6939772609
 20
1.929427547
 30
0.0
 10
6.6937928166
 20
1.9302092662
 30
0.0
 10
6.6936584348
 20
1.9311847791
 30
0.0
 10
6.6936505978
 20
1.9323511374
 30
0.0
 10
6.6937909863
 20
1.9335018395
 30
0.0
 10
6.6940728528
 20
1.9346353509
 30
0.0
 10
6.6944892958
 20
1.9357506576
 30
0.0
 10
6.6950336044
 20
1.9368471691
 30
0.0
 10
6.6956995264
 20
1.9379248047
 30
0.0
 10
6.6964810771
 20
1.9389839975
 30
0.0
 10
6.6973725509
 20
1.9400254618
 30
0.0
 10
6.6983683713
 20
1.9410498802
 30
0.0
 10
6.6994630224
 20
1.9420578714
 30
0.0
 10
6.7006510161
 20
1.9430499956
 30
0.0
 10
6.7019269375
 20
1.9440268131
 30
0.0
 10
6.7032857667
 20
1.9449891249
 30
0.0
 10
6.7047235499
 20
1.9459371856
 30
0.0
 10
6.7062366807
 20
1.9468715164
 30
0.0
 10
6.707821636
 20
1.9477926916
 30
0.0
 10
6.7094748939
 20
1.9487012933
 30
0.0
 10
6.7117942909
 20
1.9499116688
 30
0.0
 10
6.7135826212
 20
1.9507791873
 30
0.0
 10
6.7147978712
 20
1.9513460134
 30
0.0
  0
SPLINE
  5
2C5
100
AcDbEntity
  8
0
100
AcDbSpline
 62
9
  6
CONTINUOUS
 70
0
 71
3
 72
39
 73
35
 74
0
 42
0.0000001
 43
0.0000001
 44
0.0000000001
 40
0.0
 40
0.0
 40
0.0
 40
0.0
 40
0.0451443629
 40
0.0878926203
 40
0.1281996966
 40
0.1660390379
 40
0.2014127357
 40
0.2344106249
 40
0.2651942893
 40
0.2939542765
 40
0.3209138146
 40
0.3463331251
 40
0.358563053
 40
0.3705262436
 40
0.3938348866
 40
0.4166559372
 40
0.4393520256
 40
0.4622464016
 40
0.4856116346
 40
0.5096649413
 40
0.5345751409
 40
0.5604797375
 40
0.5874763109
 40
0.6156255945
 40
0.644957904
 40
0.675478838
 40
0.7071740769
 40
0.7400156926
 40
0.773983989
 40
0.8090608726
 40
0.8452211652
 40
0.8824337111
 40
0.9206623563
 40
1.0
 40
1.0
 40
1.0
 40
1.0
 10
6.1376490278
 20
3.5082011719
 30
0.0
 10
6.137648683
 20
3.5074382187
 30
0.0
 10
6.1376215243
 20
3.5059526247
 30
0.0
 10
6.1374934489
 20
3.5037891458
 30
0.0
 10
6.1372787042
 20
3.5017564791
 30
0.0
 10
6.1369770315
 20
3.4998607894
 30
0.0
 10
6.1365871697
 20
3.4981073374
 30
0.0
 10
6.1361102955
 20
3.4964992937
 30
0.0
 10
6.1355496924
 20
3.4950373504
 30
0.0
 10
6.1349078692
 20
3.4937214843
 30
0.0
 10
6.134187482
 20
3.4925519004
 30
0.0
 10
6.1335150214
 20
3.4916882531
 30
0.0
 10
6.1329412791
 20
3.49107615
 30
0.0
 10
6.1323565165
 20
3.4905254834
 30
0.0
 10
6.1315788689
 20
3.4899213496
 30
0.0
 10
6.1305726253
 20
3.4893315095
 30
0.0
 10
6.1295058025
 20
3.4888779525
 30
0.0
 10
6.1283830973
 20
3.4885555451
 30
0.0
 10
6.127208831
 20
3.488358762
 30
0.0
 10
6.1259869105
 20
3.4882820252
 30
0.0
 10
6.1247205806
 20
3.4883199195
 30
0.0
 10
6.1234125031
 20
3.4884671166
 30
0.0
 10
6.1220649043
 20
3.4887183508
 30
0.0
 10
6.1206799414
 20
3.4890684894
 30
0.0
 10
6.1192597975
 20
3.4895124836
 30
0.0
 10
6.1178066886
 20
3.490045333
 30
0.0
 10
6.1163228424
 20
3.4906621066
 30
0.0
 10
6.1148101111
 20
3.4913579676
 30
0.0
 10
6.1132702445
 20
3.492129189
 30
0.0
 10
6.1117046534
 20
3.4929724311
 30
0.0
 10
6.1101145747
 20
3.4938843696
 30
0.0
 10
6.1085012435
 20
3.4948616944
 30
0.0
 10
6.1062935129
 20
3.4962649593
 30
0.0
 10
6.104648169
 20
3.4973797718
 30
0.0
 10
6.1035497211
 20
3.4981486911
 30
0.0
  0
SPLINE
  5
2C6
100
AcDbEntity
  8
0
100
AcDbSpline
 62
9
  6
CONTINUOUS
 70
0
 71
3
 72
38
 73
34
 74
0
 42
0.0000001
 43
0.0000001
 44
0.0000000001
 40
0.0
 40
0.0
 40
0.0
 40
0.0
 40
0.0451433432
 40
0.08788846
 40
0.1281904621
 40
0.1660230792
 40
0.2013910295
 40
0.2343901203
 40
0.2651783862
 40
0.2939425364
 40
0.3209027559
 40
0.3463174074
 40
0.3704927023
 40
0.3938007378
 40
0.4166239093
 40
0.4393221761
 40
0.4622167902
 40
0.4855791085
 40
0.5096262051
 40
0.5345328002
 40
0.5604381773
 40
0.5874386293
 40
0.6155933165
 40
0.6449308065
 40
0.6754548502
 40
0.7071492294
 40
0.7399883012
 40
0.7739572023
 40
0.8090371884
 40
0.8452022845
 40
0.8824204913
 40
0.9206547764
 40
1.0
 40
1.0
 40
1.0
 40
1.0
 10
5.0438482183
 20
2.2198958328
 30
0.0
 10
5.044509086
 20
2.2202770255
 30
0.0
 10
5.0458091161
 20
2.2209963134
 30
0.0
 10
5.0477465897
 20
2.2219671012
 30
0.0
 10
5.0496140533
 20
2.2227973279
 30
0.0
 10
5.0514063496
 20
2.2234836869
 30
0.0
 10
5.0531196855
 20
2.2240224603
 30
0.0
 10
5.0547506701
 20
2.2244135966
 30
0.0
 10
5.0562971493
 20
2.2246593977
 30
0.0
 10
5.0577577199
 20
2.2247619131
 30
0.0
 10
5.05913088
 20
2.2247230941
 30
0.0
 10
5.0604151564
 20
2.2245448238
 30
0.0
 10
5.0616091052
 20
2.2242282829
 30
0.0
 10
5.0627125274
 20
2.223778703
 30
0.0
 10
5.0637266266
 20
2.2232022794
 30
0.0
 10
5.0646530574
 20
2.2225054013
 30
0.0
 10
5.0654939134
 20
2.2216946488
 30
0.0
 10
5.0662516826
 20
2.2207764884
 30
0.0
 10
5.0669291703
 20
2.2197569605
 30
0.0
 10
5.0675294341
 20
2.2186414835
 30
0.0
 10
5.0680559053
 20
2.2174350176
 30
0.0
 10
5.0685120675
 20
2.2161421653
 30
0.0
 10
5.0689013095
 20
2.2147674493
 30
0.0
 10
5.0692269337
 20
2.2133153725
 30
0.0
 10
5.0694921727
 20
2.211790442
 30
0.0
 10
5.0697002476
 20
2.2101970756
 30
0.0
 10
5.0698543057
 20
2.2085391826
 30
0.0
 10
5.0699564956
 20
2.2068200215
 30
0.0
 10
5.070009098
 20
2.2050424429
 30
0.0
 10
5.0700143722
 20
2.2032092223
 30
0.0
 10
5.0699745906
 20
2.2013231307
 30
0.0
 10
5.069863061
 20
2.1987092722
 30
0.0
 10
5.0697201474
 20
2.1967267709
 30
0.0
 10
5.0696033827
 20
2.1953909262
 30
0.0
  0
SPLINE
  5
2C7
100
AcDbEntity
  8
0
100
AcDbSpline
 62
9
  6
CONTINUOUS
 70
0
 71
3
 72
46
 73
42
 74
0
 42
0.0000001
 43
0.0000001
 44
0.0000000001
 40
0.0
 40
0.0
 40
0.0
 40
0.0
 40
0.0052139488
 40
0.0108878463
 40
0.0170270252
 40
0.0236277855
 40
0.030680113
 40
0.0381695668
 40
0.0460814557
 40
0.0544034251
 40
0.0631220623
 40
0.0722228648
 40
0.0816904805
 40
0.0915096821
 40
0.1121561363
 40
0.1340748304
 40
0.1571809591
 40
0.1814103246
 40
0.2067058584
 40
0.2330246483
 40
0.260333719
 40
0.2886113003
 40
0.3480302002
 40
0.4113208613
 40
0.4444820851
 40
0.4787076762
 40
0.4962382971
 40
0.5140583354
 40
0.5506046925
 40
0.5693550838
 40
0.5884393126
 40
0.6276618084
 40
0.6683899715
 40
0.7107453974
 40
0.7548414056
 40
0.8007548779
 40
0.8484789981
 40
0.8978635804
 40
0.9485589529
 40
0.9742399364
 40
1.0
 40
1.0
 40
1.0
 40
1.0
 10
5.7192405426
 20
2.2056898853
 30
0.0
 10
5.7188942369
 20
2.2054899398
 30
0.0
 10
5.7181495604
 20
2.2051092102
 30
0.0
 10
5.716942665
 20
2.2046079179
 30
0.0
 10
5.7156054682
 20
2.2041510885
 30
0.0
 10
5.7141443358
 20
2.2037374676
 30
0.0
 10
5.7125655149
 20
2.2033658078
 30
0.0
 10
5.7108751964
 20
2.2030347846
 30
0.0
 10
5.709078917
 20
2.2027435399
 30
0.0
 10
5.7071815497
 20
2.2024920474
 30
0.0
 10
5.7051876843
 20
2.2022800126
 30
0.0
 10
5.7031018884
 20
2.2021071945
 30
0.0
 10
5.7009286761
 20
2.201973322
 30
0.0
 10
5.6978685677
 20
2.2018442494
 30
0.0
 10
5.6938505199
 20
2.2017855493
 30
0.0
 10
5.6888139086
 20
2.2018740816
 30
0.0
 10
5.6835076088
 20
2.2021235776
 30
0.0
 10
5.6779521339
 20
2.2025406009
 30
0.0
 10
5.6721647166
 20
2.2031314095
 30
0.0
 10
5.6661606657
 20
2.2039051158
 30
0.0
 10
5.6599529537
 20
2.2048714495
 30
0.0
 10
5.6512758678
 20
2.2064594671
 30
0.0
 10
5.6399746055
 20
2.2090131365
 30
0.0
 10
5.6284779358
 20
2.2123182677
 30
0.0
 10
5.6189845144
 20
2.2155354356
 30
0.0
 10
5.6128883111
 20
2.2178312576
 30
0.0
 10
5.607945859
 20
2.219843517
 30
0.0
 10
5.6028773942
 20
2.2220158125
 30
0.0
 10
5.597787129
 20
2.2243725695
 30
0.0
 10
5.5926845167
 20
2.2269240347
 30
0.0
 10
5.5874550846
 20
2.2296779672
 30
0.0
 10
5.5808522983
 20
2.2334377942
 30
0.0
 10
5.5729248451
 20
2.2384590241
 30
0.0
 10
5.5649563572
 20
2.2440921722
 30
0.0
 10
5.5569967487
 20
2.2504019587
 30
0.0
 10
5.5491179176
 20
2.257448343
 30
0.0
 10
5.5414205893
 20
2.2652745187
 30
0.0
 10
5.534037065
 20
2.2738879214
 30
0.0
 10
5.528299081
 20
2.2816527419
 30
0.0
 10
5.5240034677
 20
2.288204926
 30
0.0
 10
5.5219652111
 20
2.2915842446
 30
0.0
 10
5.5209773691
 20
2.2932952103
 30
0.0
  0
ENDSEC
  0
SECTION
  2
OBJECTS
  0
DICTIONARY
  5
C
100
AcDbDictionary
280
0
281
1
  3
ACAD_GROUP
350
D
  3
ACAD_MLINESTYLE
350
17
  3
ACAD_LAYOUT
350
1A
  3
ACAD_PLOTSETTINGS
350
19
  3
ACAD_PLOTSTYLENAME
350
E
  0
DICTIONARY
  5
D
102
{ACAD_REACTORS
330
C
102
}
100
AcDbDictionary
280
0
281
1
  0
ACDBDICTIONARYWDFLT
  5
E
102
{ACAD_REACTORS
330
C
102
}
100
AcDbDictionary
281
1
  3
Normal
350
F
100
AcDbDictionaryWithDefault
340
F
  0
DICTIONARY
  5
17
102
{ACAD_REACTORS
330
C
102
}
100
AcDbDictionary
280
0
281
1
  3
Standard
350
18
  0
DICTIONARY
  5
19
102
{ACAD_REACTORS
330
C
102
}
100
AcDbDictionary
281
1
  0
DICTIONARY
  5
1A
102
{ACAD_REACTORS
330
C
102
}
100
AcDbDictionary
281
1
  3
Model
350
2C8
  3
Layout1
350
2C9
  0
ACDBPLACEHOLDER
  5
F
102
{ACAD_REACTORS
330
E
102
}
  0
MLINESTYLE
  5
18
102
{ACAD_REACTORS
330
17
102
}
100
AcDbMlineStyle
  2
STANDARD
 70
0
  3

 62
256
 51
90.0
 52
90.0
 71
2
 49
0.5
 62
256
  6
BYLAYER
 49
-0.5
 62
256
  6
BYLAYER
  0
LAYOUT
  5
2C8
102
{ACAD_REACTORS
330
1A
102
}
100
AcDbPlotSettings
  1

  2
none_device
  4
ISO_A4_(297.00_x_210.00_MM)
  6

 40
0.0
 41
0.0
 42
0.0
 43
0.0
 44
297.0
 45
210.0
 46
0.0
 47
0.0
 48
0.0
 49
0.0
140
0.0
141
0.0
142
1.0
143
1.0
 70
1024
 72
0
 73
0
 74
0
  7

 75
0
147
1.0
148
0.0
149
0.0
100
AcDbLayout
  1
Model
 70
0
 71
0
 10
0.0
 20
0.0
 11
11.6929133858
 21
8.2677165354
 12
0.0
 22
0.0
 32
0.0
 14
0.0
 24
0.0
 34
0.0
 15
0.0
 25
0.0
 35
0.0
146
0.0
 13
0.0
 23
0.0
 33
0.0
 16
1.0
 26
0.0
 36
0.0
 17
0.0
 27
1.0
 37
0.0
 76
0
330
202
345
0
346
0
  0
LAYOUT
  5
2C9
102
{ACAD_REACTORS
330
1A
102
}
100
AcDbPlotSettings
  1

  2
none_device
  4
ISO_A4_(297.00_x_210.00_MM)
  6

 40
0.0
 41
0.0
 42
0.0
 43
0.0
 44
297.0
 45
210.0
 46
0.0
 47
0.0
 48
0.0
 49
0.0
140
0.0
141
0.0
142
1.0
143
1.0
 70
0
 72
0
 73
0
 74
0
  7

 75
0
147
1.0
148
0.0
149
0.0
100
AcDbLayout
  1
Layout1
 70
0
 71
1
 10
0.0
 20
0.0
 11
11.6929133858
 21
8.2677165354
 12
0.0
 22
0.0
 32
0.0
 14
0.0
 24
0.0
 34
0.0
 15
0.0
 25
0.0
 35
0.0
146
0.0
 13
0.0
 23
0.0
 33
0.0
 16
1.0
 26
0.0
 36
0.0
 17
0.0
 27
1.0
 37
0.0
 76
0
330
203
345
0
346
0
  0
ENDSEC
  0
EOF
