999
DXF file: 3-2923TR_TOP.dxf
999
Pro/ENGINEER 2014000 by Parametric Technology Corporation
  0
SECTION
  2
HEADER
  9
$ACADVER
  1
AC1015
  9
$DWGCODEPAGE
  3
ANSI_1252
  9
$EXTMAX
 10
11.6929133858
 20
8.2677165354
 30
0.0
  9
$EXTMIN
 10
0.0
 20
0.0
 30
0.0
  9
$LIMMIN
 10
0.0
 20
0.0
  9
$LIMMAX
 10
11.6929133858
 20
8.2677165354
  9
$VIEWCTR
 10
5.8464566929
 20
4.1338582677
  9
$VIEWSIZE
 40
8.2677165354
  9
$CLAYER
  8
0
  9
$LTSCALE
 40
0.6431102362
  9
$CELTYPE
  6
BYLAYER
  9
$DIMSCALE
 40
1.0
  9
$DIMASZ
 40
0.1875
  9
$DIMEXO
 40
0.0625
  9
$DIMDLI
 40
0.4443307087
  9
$DIMEXE
 40
0.125
  9
$DIMCEN
 40
0.1052362205
  9
$DIMLFAC
 40
1.0
  9
$DIMBLK
  1
_CLOSED
  9
$DIMTXT
 40
0.15625
  9
$DIMTOL
 70
0
  9
$DIMLIM
 70
0
  9
$DIMTFAC
 40
1.0
  9
$DIMGAP
 40
0.09
  9
$DIMDSEP
 70
46
  9
$PDMODE
 70
3
  9
$PDSIZE
 40
0.3125
  9
$HANDSEED
  5
262
  9
$TILEMODE
 70
1
  9
$MEASUREMENT
 70
0
  9
$INSUNITS
 70
1
  0
ENDSEC
  0
SECTION
  2
CLASSES
  0
CLASS
  1
ACDBDICTIONARYWDFLT
  2
AcDbDictionaryWithDefault
  3
AutoCAD 2000
 90
0
280
0
281
0
  0
CLASS
  1
ACDBPLACEHOLDER
  2
AcDbPlaceHolder
  3
AutoCAD 2000
 90
0
280
0
281
0
  0
CLASS
  1
LAYOUT
  2
AcDbLayout
  3
AutoCAD 2000
 90
0
280
0
281
0
  0
ENDSEC
  0
SECTION
  2
TABLES
  0
TABLE
  2
VPORT
  5
8
100
AcDbSymbolTable
 70
2
  0
VPORT
  5
1F4
100
AcDbSymbolTableRecord
100
AcDbViewportTableRecord
  2
*ACTIVE
 70
0
 10
0.0
 20
0.0
 11
1.0
 21
1.0
 12
5.8464566929
 22
4.1338582677
 13
0.0
 23
0.0
 14
1.0
 24
1.0
 15
0.0
 25
0.0
 16
0.0
 26
0.0
 36
1.0
 17
0.0
 27
0.0
 37
0.0
 40
8.2677165354
 41
1.4142857143
 42
50.0
 43
0.0
 44
0.0
 50
0.0
 51
0.0
 71
0
 72
100
 73
1
 74
1
 75
0
 76
0
 77
0
 78
0
  0
ENDTAB
  0
TABLE
  2
LTYPE
  5
5
100
AcDbSymbolTable
 70
6
  0
LTYPE
  5
14
100
AcDbSymbolTableRecord
100
AcDbLinetypeTableRecord
  2
BYBLOCK
 70
0
  3

 72
65
 73
0
 40
0.0
  0
LTYPE
  5
15
100
AcDbSymbolTableRecord
100
AcDbLinetypeTableRecord
  2
BYLAYER
 70
0
  3

 72
65
 73
0
 40
0.0
  0
LTYPE
  5
16
100
AcDbSymbolTableRecord
100
AcDbLinetypeTableRecord
  2
CONTINUOUS
 70
64
  3
Solid line
 72
65
 73
0
 40
0.0
  0
LTYPE
  5
1F5
100
AcDbSymbolTableRecord
100
AcDbLinetypeTableRecord
  2
CENTER
 70
64
  3
____ _ ____ _ ____ _ ____ _ ____ _ ____ _ ____
 72
65
 73
4
 40
0.6
 49
0.375
 74
0
 49
-0.075
 74
0
 49
0.075
 74
0
 49
-0.075
 74
0
  0
LTYPE
  5
1F6
100
AcDbSymbolTableRecord
100
AcDbLinetypeTableRecord
  2
HIDDEN
 70
64
  3
- - - - - - - - - - - - - - - - - - - -
 72
65
 73
2
 40
0.2
 49
0.1
 74
0
 49
-0.1
 74
0
  0
LTYPE
  5
1F7
100
AcDbSymbolTableRecord
100
AcDbLinetypeTableRecord
  2
PHANTOM
 70
64
  3
_____ _ _ _____ _ _ _____ _ _ _____
 72
65
 73
6
 40
0.8
 49
0.45
 74
0
 49
-0.05
 74
0
 49
0.1
 74
0
 49
-0.05
 74
0
 49
0.1
 74
0
 49
-0.05
 74
0
  0
LTYPE
  5
1F8
100
AcDbSymbolTableRecord
100
AcDbLinetypeTableRecord
  2
DOT
 70
64
  3
. . . . . . . . . . . . . . . . . . . .
 72
65
 73
2
 40
0.2
 49
0.1
 74
0
 49
-0.1
 74
0
  0
LTYPE
  5
1F9
100
AcDbSymbolTableRecord
100
AcDbLinetypeTableRecord
  2
DASHED
 70
64
  3
- - - - - - - - - - - - - - - - - - - -
 72
65
 73
2
 40
0.2
 49
0.1
 74
0
 49
-0.1
 74
0
  0
ENDTAB
  0
TABLE
  2
LAYER
  5
2
100
AcDbSymbolTable
 70
36
  0
LAYER
  5
10
100
AcDbSymbolTableRecord
100
AcDbLayerTableRecord
  2
0
 70
0
 62
7
  6
CONTINUOUS
370
-3
390
F
  0
LAYER
  5
1FA
100
AcDbSymbolTableRecord
100
AcDbLayerTableRecord
  2
DEFAULT_1
 70
0
 62
7
  6
CENTER
370
-3
390
F
  0
LAYER
  5
1FB
100
AcDbSymbolTableRecord
100
AcDbLayerTableRecord
  2
DEFAULT_2
 70
0
 62
8
  6
HIDDEN
370
-3
390
F
  0
LAYER
  5
1FC
100
AcDbSymbolTableRecord
100
AcDbLayerTableRecord
  2
DEFAULT_3
 70
0
 62
7
  6
PHANTOM
370
-3
390
F
  0
LAYER
  5
1FD
100
AcDbSymbolTableRecord
100
AcDbLayerTableRecord
  2
DEFAULT_COORDINATE_SYSTEM
 70
0
 62
7
  6
CONTINUOUS
370
-3
390
F
  0
LAYER
  5
1FE
100
AcDbSymbolTableRecord
100
AcDbLayerTableRecord
  2
DEFAULT_DATUM_AXES
 70
0
 62
7
  6
CONTINUOUS
370
-3
390
F
  0
LAYER
  5
1FF
100
AcDbSymbolTableRecord
100
AcDbLayerTableRecord
  2
DEFAULT_DATUM_PLANES
 70
0
 62
7
  6
CONTINUOUS
370
-3
390
F
  0
ENDTAB
  0
TABLE
  2
STYLE
  5
3
100
AcDbSymbolTable
 70
1
  0
STYLE
  5
11
100
AcDbSymbolTableRecord
100
AcDbTextStyleTableRecord
  2
STANDARD
 70
0
 40
0.0
 41
0.8
 50
0.0
 71
0
 42
0.2
  3
txt
  4

  0
STYLE
  5
200
100
AcDbSymbolTableRecord
100
AcDbTextStyleTableRecord
  2
TEXTSTYLE_1
 70
0
 40
0.0
 41
0.8
 50
0.0
 71
0
 42
0.2
  3
gdt
  4

  0
ENDTAB
  0
TABLE
  2
VIEW
  5
6
100
AcDbSymbolTable
 70
0
  0
ENDTAB
  0
TABLE
  2
UCS
  5
7
100
AcDbSymbolTable
 70
0
  0
ENDTAB
  0
TABLE
  2
APPID
  5
9
100
AcDbSymbolTable
 70
1
  0
APPID
  5
201
100
AcDbSymbolTableRecord
100
AcDbRegAppTableRecord
  2
ACAD
 70
0
  0
ENDTAB
  0
TABLE
  2
BLOCK_RECORD
  5
1
100
AcDbSymbolTable
 70
0
  0
BLOCK_RECORD
  5
202
100
AcDbSymbolTableRecord
100
AcDbBlockTableRecord
  2
*Model_Space
  0
BLOCK_RECORD
  5
203
100
AcDbSymbolTableRecord
100
AcDbBlockTableRecord
  2
*Paper_Space
  0
ENDTAB
  0
TABLE
  2
DIMSTYLE
  5
A
100
AcDbSymbolTable
 70
1
100
AcDbDimStyleTable
 71
0
  0
DIMSTYLE
105
204
100
AcDbSymbolTableRecord
100
AcDbDimStyleTableRecord
  2
STANDARD
 70
0
  3

  4

 40
1.0
 41
0.1875
 42
0.0625
 43
0.38
 44
0.125
 45
0.0
 46
0.0
 47
0.001
 48
0.001
140
0.15625
141
0.09
142
0.0
143
25.4
144
1.0
145
0.0
146
1.0
147
0.09
 71
0.0
 72
0.0
 73
1
 74
1
 75
0
 76
0
 77
0
 78
4
170
0
171
2
172
0
173
0
174
0
175
0
176
0
177
0
178
0
270
2
271
3
272
3
273
2
274
2
275
0
280
0
281
0
282
0
283
1
284
4
285
0
286
0
287
3
288
0
340
11
278
46
  0
ENDTAB
  0
ENDSEC
  0
SECTION
  2
BLOCKS
  0
BLOCK
  5
20
100
AcDbEntity
  8
0
100
AcDbBlockBegin
  2
*Model_Space
 70
0
 10
0.0
 20
0.0
 30
0.0
  3
*Model_Space
  1

  0
ENDBLK
  5
21
100
AcDbEntity
  8
0
100
AcDbBlockEnd
  0
BLOCK
  5
1C
100
AcDbEntity
  8
0
100
AcDbBlockBegin
  2
*Paper_Space
 70
0
 10
0.0
 20
0.0
 30
0.0
  3
*Paper_Space
  1

  0
ENDBLK
  5
1D
100
AcDbEntity
  8
0
100
AcDbBlockEnd
  0
ENDSEC
  0
SECTION
  2
ENTITIES
  0
LINE
  5
205
100
AcDbEntity
  8
0
100
AcDbLine
 62
6
  6
CONTINUOUS
 10
2.6394745317
 20
6.0823461953
 11
2.6394745317
 21
5.6943461953
  0
LINE
  5
206
100
AcDbEntity
  8
0
100
AcDbLine
 62
6
  6
CONTINUOUS
 10
7.421954047
 20
2.1008658804
 11
4.9469950163
 21
2.1008658804
  0
LINE
  5
207
100
AcDbEntity
  8
0
100
AcDbLine
 62
6
  6
CONTINUOUS
 10
7.421954047
 20
2.3803146993
 11
4.9469950163
 21
2.3803146993
  0
LINE
  5
208
100
AcDbEntity
  8
0
100
AcDbLine
 62
6
  6
CONTINUOUS
 10
7.421954047
 20
2.7803146993
 11
6.2737431023
 21
2.7803146993
  0
LINE
  5
209
100
AcDbEntity
  8
0
100
AcDbLine
 62
6
  6
CONTINUOUS
 10
6.0951841354
 20
2.7803146958
 11
4.9469950163
 21
2.7803146993
  0
LINE
  5
20A
100
AcDbEntity
  8
0
100
AcDbLine
 62
9
  6
CONTINUOUS
 10
6.2736582422
 20
2.7803146992
 11
6.2737299888
 21
2.7803146975
  0
LINE
  5
20B
100
AcDbEntity
  8
0
100
AcDbLine
 62
9
  6
CONTINUOUS
 10
6.0951841354
 20
2.7803146958
 11
6.0952452935
 21
2.780314699
  0
LWPOLYLINE
  5
20C
100
AcDbEntity
  8
0
100
AcDbPolyline
 62
6
  6
CONTINUOUS
 90
17
 70
0
 10
7.2977869959
 20
2.7803146993
 10
7.2966247331
 20
2.7803247249
 10
7.2947348838
 20
2.780378833
 10
7.2927374157
 20
2.7804827691
 10
7.2905609438
 20
2.7806499887
 10
7.2881245289
 20
2.7809034539
 10
7.2854125859
 20
2.7812677745
 10
7.2824583257
 20
2.7817636174
 10
7.2793043991
 20
2.7824081062
 10
7.2759723088
 20
2.7832204509
 10
7.2724709306
 20
2.7842232392
 10
7.268811474
 20
2.785440082
 10
7.265008708
 20
2.7868950383
 10
7.2610797373
 20
2.7886128122
 10
7.2570443846
 20
2.7906185417
 10
7.2529245603
 20
2.7929381348
 10
7.2492215383
 20
2.7952781995
  0
LWPOLYLINE
  5
20D
100
AcDbEntity
  8
0
100
AcDbPolyline
 62
6
  6
CONTINUOUS
 90
10
 70
0
 10
6.5871915565
 20
2.8103221379
 10
6.5895381132
 20
2.8102600652
 10
6.5919508243
 20
2.8100610379
 10
6.5940076958
 20
2.8097712086
 10
6.595681861
 20
2.8094409371
 10
6.596971263
 20
2.8091169889
 10
6.5978974962
 20
2.8088369114
 10
6.598490216
 20
2.8086294834
 10
6.5987750182
 20
2.8085174715
 10
6.5988143586
 20
2.8085007389
  0
LWPOLYLINE
  5
20E
100
AcDbEntity
  8
0
100
AcDbPolyline
 62
6
  6
CONTINUOUS
 90
8
 70
0
 10
5.7817881554
 20
2.8103221378
 10
5.7855422121
 20
2.8101698918
 10
5.7899275673
 20
2.8096183736
 10
5.7944008383
 20
2.8086445803
 10
5.79877385
 20
2.8072784727
 10
5.8028693044
 20
2.8056003522
 10
5.8065309207
 20
2.8037354723
 10
5.8094745317
 20
2.8019369594
  0
LINE
  5
20F
100
AcDbEntity
  8
0
100
AcDbLine
 62
6
  6
CONTINUOUS
 10
5.3577045317
 20
5.6443461953
 11
5.3577028781
 21
4.0008658804
  0
LWPOLYLINE
  5
210
100
AcDbEntity
  8
0
100
AcDbPolyline
 62
6
  6
CONTINUOUS
 90
7
 70
0
 10
6.5988143586
 20
2.8085007389
 10
6.5987966871
 20
2.8085088302
 10
6.5985651831
 20
2.8086210881
 10
6.5980697356
 20
2.8088813556
 10
6.5973039673
 20
2.8093161346
 10
6.5962686986
 20
2.8099487987
 10
6.5952982444
 20
2.8105793578
  0
LINE
  5
211
100
AcDbEntity
  8
0
100
AcDbLine
 62
6
  6
CONTINUOUS
 10
6.6406952323
 20
2.7803146993
 11
6.5979278459
 21
2.8088262902
  0
LINE
  5
212
100
AcDbEntity
  8
0
100
AcDbLine
 62
6
  6
CONTINUOUS
 10
5.5294745317
 20
3.7508658804
 11
5.5294745317
 21
4.0008658804
  0
LINE
  5
213
100
AcDbEntity
  8
0
100
AcDbLine
 62
6
  6
CONTINUOUS
 10
5.5369745317
 20
4.3323461953
 11
5.5369745317
 21
4.0303146993
  0
LINE
  5
214
100
AcDbEntity
  8
0
100
AcDbLine
 62
6
  6
CONTINUOUS
 10
5.8094765608
 20
3.3803146993
 11
6.5594725025
 21
3.3803146993
  0
LINE
  5
215
100
AcDbEntity
  8
0
100
AcDbLine
 62
9
  6
CONTINUOUS
 10
5.8094745323
 20
2.9153961449
 11
5.8094745317
 21
2.9154382325
  0
LINE
  5
216
100
AcDbEntity
  8
0
100
AcDbLine
 62
6
  6
CONTINUOUS
 10
5.8094745317
 20
2.7803146993
 11
5.8094745317
 21
2.915387651
  0
LINE
  5
217
100
AcDbEntity
  8
0
100
AcDbLine
 62
6
  6
CONTINUOUS
 10
5.809474532
 20
3.2091048396
 11
5.8094745317
 21
3.3803146993
  0
LINE
  5
218
100
AcDbEntity
  8
0
100
AcDbLine
 62
9
  6
CONTINUOUS
 10
5.8094745318
 20
3.2090592986
 11
5.809474532
 21
3.2091048396
  0
LINE
  5
219
100
AcDbEntity
  8
0
100
AcDbLine
 62
6
  6
CONTINUOUS
 10
5.8694745317
 20
3.3803146993
 11
5.8694745317
 21
3.9803146993
  0
LINE
  5
21A
100
AcDbEntity
  8
0
100
AcDbLine
 62
6
  6
CONTINUOUS
 10
5.8694745317
 20
3.7508658804
 11
5.5294798671
 21
3.7508658804
  0
LINE
  5
21B
100
AcDbEntity
  8
0
100
AcDbLine
 62
6
  6
CONTINUOUS
 10
6.4994745317
 20
3.7508658804
 11
6.8394691963
 21
3.7508658804
  0
LINE
  5
21C
100
AcDbEntity
  8
0
100
AcDbLine
 62
9
  6
CONTINUOUS
 10
6.5689409113
 20
3.248798562
 11
6.5689419894
 21
3.2487978433
  0
LINE
  5
21D
100
AcDbEntity
  8
0
100
AcDbLine
 62
6
  6
CONTINUOUS
 10
7.2492178104
 20
2.7952806294
 11
6.5689399992
 21
3.2487991702
  0
LINE
  5
21E
100
AcDbEntity
  8
0
100
AcDbLine
 62
9
  6
CONTINUOUS
 10
7.2492108386
 20
2.7952852771
 11
7.2492128377
 21
2.7952839438
  0
LWPOLYLINE
  5
21F
100
AcDbEntity
  8
0
100
AcDbPolyline
 62
6
  6
CONTINUOUS
 90
5
 70
0
 10
6.5689381791
 20
3.2488002733
 10
6.5661877889
 20
3.2507920363
 10
6.5635338082
 20
3.2530537566
 10
6.5612835212
 20
3.2552986789
 10
6.5594745317
 20
3.2573922045
  0
LINE
  5
220
100
AcDbEntity
  8
0
100
AcDbLine
 62
6
  6
CONTINUOUS
 10
6.0094745317
 20
3.0741099181
 11
6.0094733804
 21
3.0741896866
  0
LINE
  5
221
100
AcDbEntity
  8
0
100
AcDbLine
 62
6
  6
CONTINUOUS
 10
5.9994745317
 20
4.0303146993
 11
5.9994745317
 21
3.9803146993
  0
LINE
  5
222
100
AcDbEntity
  8
0
100
AcDbLine
 62
6
  6
CONTINUOUS
 10
6.0094745317
 20
2.7803146993
 11
6.0094745317
 21
3.0741862176
  0
LINE
  5
223
100
AcDbEntity
  8
0
100
AcDbLine
 62
9
  6
CONTINUOUS
 10
6.009474533
 20
3.0741963246
 11
6.0094745325
 21
3.0741913484
  0
LINE
  5
224
100
AcDbEntity
  8
0
100
AcDbLine
 62
6
  6
CONTINUOUS
 10
5.8694831835
 20
3.9803146993
 11
6.4994658799
 21
3.9803146993
  0
LINE
  5
225
100
AcDbEntity
  8
0
100
AcDbLine
 62
6
  6
CONTINUOUS
 10
5.9994745317
 20
4.0008658804
 11
5.3577077039
 21
4.0008658804
  0
LINE
  5
226
100
AcDbEntity
  8
0
100
AcDbLine
 62
6
  6
CONTINUOUS
 10
6.3694745317
 20
4.0008658804
 11
7.0112413595
 21
4.0008658804
  0
LINE
  5
227
100
AcDbEntity
  8
0
100
AcDbLine
 62
6
  6
CONTINUOUS
 10
5.5369745317
 20
4.0303146993
 11
6.8319745317
 21
4.0303146993
  0
LINE
  5
228
100
AcDbEntity
  8
0
100
AcDbLine
 62
9
  6
CONTINUOUS
 10
6.3594745315
 20
3.0741835719
 11
6.359474523
 21
3.0742462774
  0
LINE
  5
229
100
AcDbEntity
  8
0
100
AcDbLine
 62
6
  6
CONTINUOUS
 10
6.3594745317
 20
2.7803146993
 11
6.3594745317
 21
3.0741814845
  0
LINE
  5
22A
100
AcDbEntity
  8
0
100
AcDbLine
 62
6
  6
CONTINUOUS
 10
6.3694745317
 20
4.0303146993
 11
6.3694745317
 21
3.9803146993
  0
LINE
  5
22B
100
AcDbEntity
  8
0
100
AcDbLine
 62
6
  6
CONTINUOUS
 10
6.35947544
 20
3.0742471232
 11
6.3594744824
 21
3.0741814852
  0
LWPOLYLINE
  5
22C
100
AcDbEntity
  8
0
100
AcDbPolyline
 62
6
  6
CONTINUOUS
 90
5
 70
0
 10
5.8094745317
 20
3.2574065881
 10
5.8078380839
 20
3.2554858636
 10
5.8055589816
 20
3.2531870032
 10
5.8028523554
 20
3.2508633388
 10
5.8000136206
 20
3.2488018693
  0
LINE
  5
22D
100
AcDbEntity
  8
0
100
AcDbLine
 62
6
  6
CONTINUOUS
 10
5.3577045317
 20
4.3323461953
 11
7.0112445317
 21
4.3323461953
  0
LINE
  5
22E
100
AcDbEntity
  8
0
100
AcDbLine
 62
6
  6
CONTINUOUS
 10
6.4994745317
 20
3.3803146993
 11
6.4994745317
 21
3.9803146993
  0
LINE
  5
22F
100
AcDbEntity
  8
0
100
AcDbLine
 62
9
  6
CONTINUOUS
 10
6.55947453
 20
2.9154947747
 11
6.5594745313
 21
2.9154445755
  0
LINE
  5
230
100
AcDbEntity
  8
0
100
AcDbLine
 62
9
  6
CONTINUOUS
 10
6.5594745296
 20
3.2091776348
 11
6.5594745316
 21
3.2091142751
  0
LINE
  5
231
100
AcDbEntity
  8
0
100
AcDbLine
 62
6
  6
CONTINUOUS
 10
6.5594745317
 20
2.7803146993
 11
6.5594745317
 21
2.9154507721
  0
LINE
  5
232
100
AcDbEntity
  8
0
100
AcDbLine
 62
6
  6
CONTINUOUS
 10
6.5594745317
 20
3.2091744401
 11
6.5594745317
 21
3.3803146993
  0
LINE
  5
233
100
AcDbEntity
  8
0
100
AcDbLine
 62
9
  6
CONTINUOUS
 10
5.1197417995
 20
2.7952876586
 11
5.1197447005
 21
2.795289594
  0
LINE
  5
234
100
AcDbEntity
  8
0
100
AcDbLine
 62
6
  6
CONTINUOUS
 10
5.1197447005
 20
2.795289594
 11
5.8000099684
 21
3.248799773
  0
LINE
  5
235
100
AcDbEntity
  8
0
100
AcDbLine
 62
9
  6
CONTINUOUS
 10
5.8000151167
 20
3.2488032052
 11
5.8000168439
 21
3.2488043565
  0
LWPOLYLINE
  5
236
100
AcDbEntity
  8
0
100
AcDbPolyline
 62
6
  6
CONTINUOUS
 90
17
 70
0
 10
5.1197262796
 20
2.7952774465
 10
5.1160312868
 20
2.7929422379
 10
5.1119192313
 20
2.7906262453
 10
5.1078914272
 20
2.788623089
 10
5.1039697046
 20
2.7869069946
 10
5.1001740583
 20
2.7854530365
 10
5.0965216569
 20
2.7842366325
 10
5.09302627
 20
2.7832335348
 10
5.0896992925
 20
2.7824203567
 10
5.086549481
 20
2.7817746241
 10
5.0835973143
 20
2.7812771113
 10
5.0808842042
 20
2.7809107821
 10
5.0784428138
 20
2.7806552212
 10
5.0762592269
 20
2.7804861816
 10
5.0742545345
 20
2.7803808386
 10
5.0723585482
 20
2.7803256849
 10
5.0711189858
 20
2.7803146993
  0
LINE
  5
237
100
AcDbEntity
  8
0
100
AcDbLine
 62
6
  6
CONTINUOUS
 10
6.8319745317
 20
4.3323461953
 11
6.8319745317
 21
4.0303146993
  0
LINE
  5
238
100
AcDbEntity
  8
0
100
AcDbLine
 62
6
  6
CONTINUOUS
 10
6.8394745317
 20
3.7508658804
 11
6.8394745317
 21
4.0008658804
  0
LINE
  5
239
100
AcDbEntity
  8
0
100
AcDbLine
 62
6
  6
CONTINUOUS
 10
7.0112461852
 20
4.0008658804
 11
7.0112445317
 21
5.6443461953
  0
LINE
  5
23A
100
AcDbEntity
  8
0
100
AcDbLine
 62
6
  6
CONTINUOUS
 10
5.7282538311
 20
2.7803146993
 11
5.7710161166
 21
2.8088228896
  0
LWPOLYLINE
  5
23B
100
AcDbEntity
  8
0
100
AcDbPolyline
 62
6
  6
CONTINUOUS
 90
6
 70
0
 10
5.7736609325
 20
2.8105861109
 10
5.7726634709
 20
2.8099379032
 10
5.7716355364
 20
2.8093096752
 10
5.7708784697
 20
2.8088797361
 10
5.7703876423
 20
2.8086219066
 10
5.7702078889
 20
2.8085340488
  0
LWPOLYLINE
  5
23C
100
AcDbEntity
  8
0
100
AcDbPolyline
 62
6
  6
CONTINUOUS
 90
11
 70
0
 10
5.7702078889
 20
2.8085340488
 10
5.7701618732
 20
2.8085125975
 10
5.7701999782
 20
2.8085282293
 10
5.7705175463
 20
2.8086515043
 10
5.771134861
 20
2.8088637084
 10
5.7720678955
 20
2.8091404035
 10
5.7733438684
 20
2.8094557172
 10
5.7749821742
 20
2.8097757584
 10
5.7769780082
 20
2.8100572469
 10
5.7793480735
 20
2.8102561589
 10
5.7817711444
 20
2.8103221395
  0
LWPOLYLINE
  5
23D
100
AcDbEntity
  8
0
100
AcDbPolyline
 62
6
  6
CONTINUOUS
 90
8
 70
0
 10
6.5594745317
 20
2.8019405185
 10
6.5624887249
 20
2.8037751182
 10
6.5661497901
 20
2.8056325209
 10
6.5702399289
 20
2.8073017827
 10
6.574599782
 20
2.8086582213
 10
6.5790517534
 20
2.8096236014
 10
6.5834079865
 20
2.8101700458
 10
6.5871568565
 20
2.8103221368
  0
LINE
  5
23E
100
AcDbEntity
  8
0
100
AcDbLine
 62
6
  6
CONTINUOUS
 10
9.6794745317
 20
5.6443461953
 11
2.6894745317
 21
5.6443461953
  0
LINE
  5
23F
100
AcDbEntity
  8
0
100
AcDbLine
 62
9
  6
CONTINUOUS
 10
9.7294745317
 20
5.6943461953
 11
2.6394745317
 21
5.6943461953
  0
LINE
  5
240
100
AcDbEntity
  8
0
100
AcDbLine
 62
6
  6
CONTINUOUS
 10
9.7294745317
 20
6.0823461953
 11
2.6394745317
 21
6.0823461953
  0
LINE
  5
241
100
AcDbEntity
  8
0
100
AcDbLine
 62
6
  6
CONTINUOUS
 10
9.7294745317
 20
6.0823461953
 11
9.7294745317
 21
5.6943461953
  0
ARC
  5
242
100
AcDbEntity
  8
0
100
AcDbCircle
 62
9
  6
CONTINUOUS
 10
4.7493211695
 20
2.96830204
 40
1.0314525581
100
AcDbArc
 50
349.4937096994
 51
350.9874637386
  0
ARC
  5
243
100
AcDbEntity
  8
0
100
AcDbCircle
 62
9
  6
CONTINUOUS
 10
7.595359446
 20
2.9641118547
 40
1.0068276542
100
AcDbArc
 50
188.9881998572
 51
190.5233130984
  0
ARC
  5
244
100
AcDbEntity
  8
0
100
AcDbCircle
 62
6
  6
CONTINUOUS
 10
7.4219745317
 20
2.5803146993
 40
0.2
100
AcDbArc
 50
270.0
 51
90.0
  0
ARC
  5
245
100
AcDbEntity
  8
0
100
AcDbCircle
 62
6
  6
CONTINUOUS
 10
4.9469745317
 20
2.5803146993
 40
0.2
100
AcDbArc
 50
90.0
 51
270.0
  0
ARC
  5
246
100
AcDbEntity
  8
0
100
AcDbCircle
 62
6
  6
CONTINUOUS
 10
7.4219745317
 20
2.3008658804
 40
0.2
100
AcDbArc
 50
270.0
 51
44.3334246723
  0
ARC
  5
247
100
AcDbEntity
  8
0
100
AcDbCircle
 62
6
  6
CONTINUOUS
 10
4.9469745317
 20
2.3008658804
 40
0.2
100
AcDbArc
 50
135.6665753277
 51
270.0
  0
ARC
  5
248
100
AcDbEntity
  8
0
100
AcDbCircle
 62
9
  6
CONTINUOUS
 10
5.7019694669
 20
2.9179673762
 40
0.1291134542
100
AcDbArc
 50
302.2074564864
 51
303.0437463524
  0
ARC
  5
249
100
AcDbEntity
  8
0
100
AcDbCircle
 62
9
  6
CONTINUOUS
 10
6.6664607892
 20
2.9172505829
 40
0.1282300245
100
AcDbArc
 50
236.2879642149
 51
238.2543381088
  0
ARC
  5
24A
100
AcDbEntity
  8
0
100
AcDbCircle
 62
9
  6
CONTINUOUS
 10
5.7052121906
 20
2.9128468559
 40
0.1230525332
100
AcDbArc
 50
301.9222701838
 51
302.2006686466
  0
ARC
  5
24B
100
AcDbEntity
  8
0
100
AcDbCircle
 62
6
  6
CONTINUOUS
 10
2.6894745317
 20
5.6943461953
 40
0.05
100
AcDbArc
 50
180.0
 51
270.0
  0
ARC
  5
24C
100
AcDbEntity
  8
0
100
AcDbCircle
 62
6
  6
CONTINUOUS
 10
9.6794745317
 20
5.6943461953
 40
0.05
100
AcDbArc
 50
270.0
 51
360.0
  0
SPLINE
  5
24D
100
AcDbEntity
  8
0
100
AcDbSpline
 62
9
  6
CONTINUOUS
 70
0
 71
3
 72
45
 73
41
 74
0
 42
0.0000001
 43
0.0000001
 44
0.0000000001
 40
0.0
 40
0.0
 40
0.0
 40
0.0
 40
0.0313031302
 40
0.0470175297
 40
0.0627730097
 40
0.094386126
 40
0.1261037755
 40
0.1578944722
 40
0.1738110943
 40
0.1897380504
 40
0.2215919475
 40
0.2533988169
 40
0.2692702902
 40
0.2851131192
 40
0.3009236075
 40
0.31669866
 40
0.3324351135
 40
0.3481301358
 40
0.379383476
 40
0.3949418237
 40
0.4104522835
 40
0.4259151646
 40
0.4413342097
 40
0.4720564045
 40
0.5026586901
 40
0.5331740029
 40
0.5636388535
 40
0.5941022516
 40
0.6246078651
 40
0.6551910432
 40
0.6858802329
 40
0.7166975557
 40
0.7476576995
 40
0.7787684043
 40
0.8100304862
 40
0.8729692647
 40
0.9046375306
 40
0.9363948393
 40
0.9681974339
 40
1.0
 40
1.0
 40
1.0
 40
1.0
 10
6.3594764158
 20
3.0742444965
 30
0.0
 10
6.3594754834
 20
3.0772094679
 30
0.0
 10
6.3594070367
 20
3.081663282
 30
0.0
 10
6.3591745625
 20
3.0876046684
 30
0.0
 10
6.3588438548
 20
3.0935708375
 30
0.0
 10
6.358239894
 20
3.1010390027
 30
0.0
 10
6.3571886067
 20
3.1099892048
 30
0.0
 10
6.356020806
 20
3.1174232635
 30
0.0
 10
6.3548997765
 20
3.1233458229
 30
0.0
 10
6.3536499981
 20
3.1292486778
 30
0.0
 10
6.3518434981
 20
3.1365702288
 30
0.0
 10
6.3496961338
 20
3.1437941737
 30
0.0
 10
6.3477659658
 20
3.1494933566
 30
0.0
 10
6.3462119237
 20
3.1537186258
 30
0.0
 10
6.3445485661
 20
3.1578922559
 30
0.0
 10
6.3427748658
 20
3.1620092419
 30
0.0
 10
6.3408918872
 20
3.1660654273
 30
0.0
 10
6.3382406347
 20
3.1713786373
 30
0.0
 10
6.335370517
 20
3.1765615408
 30
0.0
 10
6.3322837566
 20
3.1815940076
 30
0.0
 10
6.3298668457
 20
3.1852804599
 30
0.0
 10
6.3273452803
 20
3.1888800427
 30
0.0
 10
6.3238515911
 20
3.1935544859
 30
0.0
 10
6.3192339668
 20
3.1991747883
 30
0.0
 10
6.3133088072
 20
3.2055508436
 30
0.0
 10
6.3070255143
 20
3.2115391804
 30
0.0
 10
6.3004030993
 20
3.2171294702
 30
0.0
 10
6.2934654767
 20
3.2223213914
 30
0.0
 10
6.2862343605
 20
3.2271159076
 30
0.0
 10
6.2787311515
 20
3.2315142372
 30
0.0
 10
6.2709773309
 20
3.23551816
 30
0.0
 10
6.2629947369
 20
3.2391308456
 30
0.0
 10
6.2548049691
 20
3.2423552885
 30
0.0
 10
6.2464293848
 20
3.2451947509
 30
0.0
 10
6.2350196018
 20
3.2484772135
 30
0.0
 10
6.2233455672
 20
3.2509874835
 30
0.0
 10
6.211503063
 20
3.2527405722
 30
0.0
 10
6.2025294805
 20
3.2536813076
 30
0.0
 10
6.1935121282
 20
3.2542455326
 30
0.0
 10
6.1874868089
 20
3.254371082
 30
0.0
 10
6.1844745317
 20
3.2543711386
 30
0.0
  0
SPLINE
  5
24E
100
AcDbEntity
  8
0
100
AcDbSpline
 62
9
  6
CONTINUOUS
 70
0
 71
3
 72
33
 73
29
 74
0
 42
0.0000001
 43
0.0000001
 44
0.0000000001
 40
0.0
 40
0.0
 40
0.0
 40
0.0
 40
0.0287858928
 40
0.0580928964
 40
0.0878726333
 40
0.1180776538
 40
0.1486605328
 40
0.1795741379
 40
0.2107752311
 40
0.2422227953
 40
0.2738758718
 40
0.3056947628
 40
0.3376464298
 40
0.3697001145
 40
0.4018250873
 40
0.4339910334
 40
0.4661733575
 40
0.4983517984
 40
0.5626162782
 40
0.6266320873
 40
0.6902865025
 40
0.7219462422
 40
0.7534784246
 40
0.81612142
 40
0.8472131666
 40
0.8781391051
 40
0.9394565329
 40
1.0
 40
1.0
 40
1.0
 40
1.0
 10
6.5594746619
 20
3.2091163754
 30
0.0
 10
6.5594746922
 20
3.206298925
 30
0.0
 10
6.5594571367
 20
3.2006130133
 30
0.0
 10
6.5593907592
 20
3.1920126219
 30
0.0
 10
6.5592947507
 20
3.1832736104
 30
0.0
 10
6.5591771976
 20
3.1744099802
 30
0.0
 10
6.5590462937
 20
3.1654355501
 30
0.0
 10
6.558910597
 20
3.1563636895
 30
0.0
 10
6.5587757744
 20
3.1472071742
 30
0.0
 10
6.5586464555
 20
3.1379781948
 30
0.0
 10
6.5585274681
 20
3.1286886017
 30
0.0
 10
6.5584237909
 20
3.1193494807
 30
0.0
 10
6.5583371355
 20
3.1099709739
 30
0.0
 10
6.5582688998
 20
3.1005623555
 30
0.0
 10
6.5582204724
 20
3.0911326399
 30
0.0
 10
6.5581935663
 20
3.081690247
 30
0.0
 10
6.5581880405
 20
3.0722425846
 30
0.0
 10
6.5582074082
 20
3.0596532572
 30
0.0
 10
6.5582789016
 20
3.0439483049
 30
0.0
 10
6.5584318554
 20
3.0251630821
 30
0.0
 10
6.5585984525
 20
3.0095693694
 30
0.0
 10
6.5587448623
 20
2.9971550102
 30
0.0
 10
6.5588956033
 20
2.9848397042
 30
0.0
 10
6.5590471746
 20
2.9725800045
 30
0.0
 10
6.5591861473
 20
2.9603794955
 30
0.0
 10
6.5593112661
 20
2.9483085846
 30
0.0
 10
6.5594334319
 20
2.9333548782
 30
0.0
 10
6.5594744607
 20
2.9214276007
 30
0.0
 10
6.5594745836
 20
2.9155018434
 30
0.0
  0
LINE
  5
24F
100
AcDbEntity
  8
0
100
AcDbLine
 62
9
  6
CONTINUOUS
 10
6.5594745841
 20
2.9154516387
 11
6.5594744703
 21
2.9146840672
  0
SPLINE
  5
250
100
AcDbEntity
  8
0
100
AcDbSpline
 62
9
  6
CONTINUOUS
 70
0
 71
3
 72
99
 73
95
 74
0
 42
0.0000001
 43
0.0000001
 44
0.0000000001
 40
0.0
 40
0.0
 40
0.0
 40
0.0
 40
0.0041883106
 40
0.00838725
 40
0.0126169014
 40
0.016897564
 40
0.0212493098
 40
0.0256910988
 40
0.0349119994
 40
0.0446938639
 40
0.0498305639
 40
0.0551458974
 40
0.0606498812
 40
0.0663512179
 40
0.0722572335
 40
0.0783740929
 40
0.0847069839
 40
0.0912596882
 40
0.0980345072
 40
0.105033036
 40
0.112255963
 40
0.1197018546
 40
0.1273683987
 40
0.1352528922
 40
0.1433507213
 40
0.1516553874
 40
0.1601601724
 40
0.168857898
 40
0.1867921918
 40
0.1960071673
 40
0.2053728699
 40
0.2245070166
 40
0.2440922615
 40
0.264028294
 40
0.2842238635
 40
0.294391302
 40
0.304590592
 40
0.3250521868
 40
0.3455527515
 40
0.3660381304
 40
0.3864629956
 40
0.4068015642
 40
0.4270302802
 40
0.447126249
 40
0.4868717022
 40
0.5259676169
 40
0.5452560181
 40
0.5643657958
 40
0.5832927232
 40
0.6020324938
 40
0.6389329871
 40
0.6750257083
 40
0.6927529056
 40
0.7102559176
 40
0.7275250345
 40
0.7445490151
 40
0.7613135272
 40
0.777804089
 40
0.7940020504
 40
0.8098857194
 40
0.8254330068
 40
0.8406137458
 40
0.8553962135
 40
0.8697457086
 40
0.8767438894
 40
0.8836167752
 40
0.8903593362
 40
0.8969660817
 40
0.9034291216
 40
0.90974091
 40
0.9158950365
 40
0.9218864433
 40
0.9277109038
 40
0.933361246
 40
0.9388311973
 40
0.944118121
 40
0.9492238766
 40
0.9541558057
 40
0.9589253552
 40
0.9635472885
 40
0.9680454692
 40
0.9724547395
 40
0.9746411516
 40
0.976823805
 40
0.9790102853
 40
0.9812079968
 40
0.9834238295
 40
0.9856646198
 40
0.987937118
 40
0.99024794
 40
0.9926035263
 40
0.9950101083
 40
0.9974736838
 40
1.0
 40
1.0
 40
1.0
 40
1.0
 10
6.5689399676
 20
3.2487990965
 30
0.0
 10
6.5694889446
 20
3.2484330955
 30
0.0
 10
6.5705638598
 20
3.2476627296
 30
0.0
 10
6.5720985427
 20
3.2463974608
 30
0.0
 10
6.5735557945
 20
3.2450223631
 30
0.0
 10
6.5749363144
 20
3.2435373464
 30
0.0
 10
6.576241383
 20
3.241942236
 30
0.0
 10
6.5779031337
 20
3.2396399483
 30
0.0
 10
6.5797992585
 20
3.236461294
 30
0.0
 10
6.5814118026
 20
3.2330112528
 30
0.0
 10
6.5825768019
 20
3.2300435791
 30
0.0
 10
6.5834034447
 20
3.227669126
 30
0.0
 10
6.5841714735
 20
3.2251819797
 30
0.0
 10
6.5848836538
 20
3.2225817231
 30
0.0
 10
6.5855434008
 20
3.2198682852
 30
0.0
 10
6.5861541577
 20
3.2170415913
 30
0.0
 10
6.5867192571
 20
3.2141016635
 30
0.0
 10
6.5872423363
 20
3.211048803
 30
0.0
 10
6.5877274571
 20
3.2078835955
 30
0.0
 10
6.5881785498
 20
3.2046067807
 30
0.0
 10
6.588599524
 20
3.2012194329
 30
0.0
 10
6.5889947176
 20
3.1977230787
 30
0.0
 10
6.5893684332
 20
3.1941195875
 30
0.0
 10
6.5897249202
 20
3.1904111766
 30
0.0
 10
6.5900684577
 20
3.1866006104
 30
0.0
 10
6.5904033374
 20
3.1826911979
 30
0.0
 10
6.5907338002
 20
3.1786865822
 30
0.0
 10
6.5911787004
 20
3.1731692813
 30
0.0
 10
6.59162586
 20
3.1675399253
 30
0.0
 10
6.5920906456
 20
3.1618064153
 30
0.0
 10
6.5925823571
 20
3.1558854627
 30
0.0
 10
6.5932388847
 20
3.1483389262
 30
0.0
 10
6.5941064953
 20
3.1391394698
 30
0.0
 10
6.5950771118
 20
3.1297821524
 30
0.0
 10
6.5959726893
 20
3.1219090126
 30
0.0
 10
6.5967451331
 20
3.1155659418
 30
0.0
 10
6.597557882
 20
3.1091856596
 30
0.0
 10
6.5986426369
 20
3.1011991983
 30
0.0
 10
6.6000475704
 20
3.0916215012
 30
0.0
 10
6.6015513678
 20
3.0820646849
 30
0.0
 10
6.6031478244
 20
3.0725488055
 30
0.0
 10
6.6048262244
 20
3.0630881242
 30
0.0
 10
6.6065769743
 20
3.0536932798
 30
0.0
 10
6.6089865845
 20
3.0413117671
 30
0.0
 10
6.6121286471
 20
3.0260453755
 30
0.0
 10
6.615413333
 20
3.010939467
 30
0.0
 10
6.6180779243
 20
2.999025915
 30
0.0
 10
6.6200764923
 20
2.9902192312
 30
0.0
 10
6.6220757483
 20
2.9815013609
 30
0.0
 10
6.6247179416
 20
2.9700555693
 30
0.0
 10
6.6279811926
 20
2.9559778654
 30
0.0
 10
6.6311763125
 20
2.9420480906
 30
0.0
 10
6.6336375405
 20
2.9310852301
 30
0.0
 10
6.6354156242
 20
2.9230082199
 30
0.0
 10
6.6371277995
 20
2.9150302329
 30
0.0
 10
6.6387644436
 20
2.9071551734
 30
0.0
 10
6.6403145701
 20
2.8993876269
 30
0.0
 10
6.6417673718
 20
2.8917336625
 30
0.0
 10
6.6431102074
 20
2.8842004958
 30
0.0
 10
6.6443288067
 20
2.8767967271
 30
0.0
 10
6.6454092542
 20
2.8695334233
 30
0.0
 10
6.6463333801
 20
2.8624233297
 30
0.0
 10
6.6470819986
 20
2.8554822634
 30
0.0
 10
6.6475468094
 20
2.8498087151
 30
0.0
 10
6.6478049271
 20
2.845370361
 30
0.0
 10
6.647937629
 20
2.8421255663
 30
0.0
 10
6.6480077047
 20
2.838940468
 30
0.0
 10
6.6480116988
 20
2.8358191223
 30
0.0
 10
6.6479447882
 20
2.8327663113
 30
0.0
 10
6.6478021743
 20
2.8297874152
 30
0.0
 10
6.6475790557
 20
2.8268878946
 30
0.0
 10
6.64727057
 20
2.8240733343
 30
0.0
 10
6.6468722274
 20
2.8213501362
 30
0.0
 10
6.6463778288
 20
2.818726097
 30
0.0
 10
6.6457808445
 20
2.8162102064
 30
0.0
 10
6.6450748114
 20
2.8138117315
 30
0.0
 10
6.6442531448
 20
2.8115399397
 30
0.0
 10
6.6433092965
 20
2.8094044971
 30
0.0
 10
6.6422372207
 20
2.8074160947
 30
0.0
 10
6.6410308224
 20
2.8055867519
 30
0.0
 10
6.6396843733
 20
2.8039297359
 30
0.0
 10
6.6384365639
 20
2.8027000091
 30
0.0
 10
6.6373676302
 20
2.8018215053
 30
0.0
 10
6.636530243
 20
2.8012159191
 30
0.0
 10
6.6356545388
 20
2.8006638546
 30
0.0
 10
6.6347406786
 20
2.8001665059
 30
0.0
 10
6.633789338
 20
2.7997245797
 30
0.0
 10
6.6328011727
 20
2.7993389506
 30
0.0
 10
6.6317768671
 20
2.7990104536
 30
0.0
 10
6.6307170949
 20
2.7987399265
 30
0.0
 10
6.6296225315
 20
2.7985281998
 30
0.0
 10
6.6284938346
 20
2.7983761008
 30
0.0
 10
6.6273317063
 20
2.7982844546
 30
0.0
 10
6.6265454659
 20
2.7982644736
 30
0.0
 10
6.6261474876
 20
2.7982644259
 30
0.0
  0
SPLINE
  5
251
100
AcDbEntity
  8
0
100
AcDbSpline
 62
9
  6
CONTINUOUS
 70
0
 71
3
 72
30
 73
26
 74
0
 42
0.0000001
 43
0.0000001
 44
0.0000000001
 40
0.0
 40
0.0
 40
0.0
 40
0.0
 40
0.0301714765
 40
0.0605450103
 40
0.1218596674
 40
0.1838722148
 40
0.2465112015
 40
0.3097002882
 40
0.3733456268
 40
0.4373493862
 40
0.4694545626
 40
0.5016056019
 40
0.5659584777
 40
0.6302345706
 40
0.694240221
 40
0.726059854
 40
0.7577105539
 40
0.7891571743
 40
0.820363136
 40
0.8512845151
 40
0.881874996
 40
0.9120883037
 40
0.9418782679
 40
0.9711983482
 40
1.0
 40
1.0
 40
1.0
 40
1.0
 10
5.8094740356
 20
2.9154382766
 30
0.0
 10
5.8094741707
 20
2.9183914787
 30
0.0
 10
5.8094846241
 20
2.9243176628
 30
0.0
 10
5.8095393813
 20
2.9362452453
 30
0.0
 10
5.8096615166
 20
2.9512891127
 30
0.0
 10
5.8098633806
 20
2.9694904844
 30
0.0
 10
5.8100914195
 20
2.987875022
 30
0.0
 10
5.8103161571
 20
3.0064194322
 30
0.0
 10
5.8105161339
 20
3.0250977267
 30
0.0
 10
5.8106441763
 20
3.0407340743
 30
0.0
 10
5.8107126666
 20
3.0532880577
 30
0.0
 10
5.810756871
 20
3.065876321
 30
0.0
 10
5.8107648357
 20
3.0816136099
 30
0.0
 10
5.810692532
 20
3.1004687284
 30
0.0
 10
5.8105595914
 20
3.1161390317
 30
0.0
 10
5.8104207019
 20
3.1286156866
 30
0.0
 10
5.8103033003
 20
3.137905476
 30
0.0
 10
5.8101752941
 20
3.1471350515
 30
0.0
 10
5.8100392096
 20
3.156293116
 30
0.0
 10
5.8099021147
 20
3.1653673558
 30
0.0
 10
5.8097714742
 20
3.1743445204
 30
0.0
 10
5.8096546471
 20
3.1832111257
 30
0.0
 10
5.8095590451
 20
3.1919536363
 30
0.0
 10
5.8094919737
 20
3.2005582416
 30
0.0
 10
5.8094737698
 20
3.206247236
 30
0.0
 10
5.8094735297
 20
3.2090663588
 30
0.0
  0
SPLINE
  5
252
100
AcDbEntity
  8
0
100
AcDbSpline
 62
9
  6
CONTINUOUS
 70
0
 71
3
 72
52
 73
48
 74
0
 42
0.0000001
 43
0.0000001
 44
0.0000000001
 40
0.0
 40
0.0
 40
0.0
 40
0.0
 40
0.0247284651
 40
0.0367909626
 40
0.048692154
 40
0.0604612217
 40
0.0721252019
 40
0.0837090739
 40
0.0952363918
 40
0.1067290336
 40
0.1182070417
 40
0.1296885723
 40
0.1411900868
 40
0.1643106142
 40
0.187681081
 40
0.2113899344
 40
0.235514129
 40
0.2477532057
 40
0.2601187759
 40
0.2852557425
 40
0.3109775056
 40
0.3373266702
 40
0.3643486082
 40
0.3920868496
 40
0.4205811542
 40
0.4498841422
 40
0.4800517261
 40
0.5111368014
 40
0.5432147802
 40
0.5763821143
 40
0.5934038693
 40
0.6107334622
 40
0.6463926494
 40
0.6647676427
 40
0.6835364556
 40
0.7027217506
 40
0.7223474245
 40
0.7424444605
 40
0.7630467232
 40
0.7841885983
 40
0.8059051148
 40
0.8282266352
 40
0.8511577024
 40
0.8988409331
 40
0.9488177854
 40
0.9743507812
 40
1.0
 40
1.0
 40
1.0
 40
1.0
 10
6.0202979767
 20
2.7804778736
 30
0.0
 10
6.0211263353
 20
2.7816225057
 30
0.0
 10
6.0224378554
 20
2.7832704785
 30
0.0
 10
6.024318803
 20
2.7853213624
 30
0.0
 10
6.0257667974
 20
2.7867618213
 30
0.0
 10
6.027261353
 20
2.7881201169
 30
0.0
 10
6.028800409
 20
2.7893995653
 30
0.0
 10
6.0303819849
 20
2.7906033292
 30
0.0
 10
6.0320047656
 20
2.7917338524
 30
0.0
 10
6.0336673866
 20
2.7927936499
 30
0.0
 10
6.0353684998
 20
2.7937852267
 30
0.0
 10
6.0371067972
 20
2.7947111108
 30
0.0
 10
6.0394762493
 20
2.7958633094
 30
0.0
 10
6.0425320742
 20
2.7971519739
 30
0.0
 10
6.0463249987
 20
2.7984645529
 30
0.0
 10
6.0502448648
 20
2.7995621546
 30
0.0
 10
6.0535978442
 20
2.8003040614
 30
0.0
 10
6.0563372199
 20
2.8008031574
 30
0.0
 10
6.0591449358
 20
2.8012455888
 30
0.0
 10
6.062731914
 20
2.8016846923
 30
0.0
 10
6.0671303049
 20
2.8020383032
 30
0.0
 10
6.0716463356
 20
2.8022312016
 30
0.0
 10
6.076281356
 20
2.8022715988
 30
0.0
 10
6.081037846
 20
2.8021674932
 30
0.0
 10
6.085919759
 20
2.8019268556
 30
0.0
 10
6.0909327099
 20
2.8015575118
 30
0.0
 10
6.096083929
 20
2.8010674532
 30
0.0
 10
6.101382625
 20
2.8004639662
 30
0.0
 10
6.1068412001
 20
2.7997562236
 30
0.0
 10
6.1114950436
 20
2.7990945919
 30
0.0
 10
6.1153106506
 20
2.7985251428
 30
0.0
 10
6.119264672
 20
2.7979187671
 30
0.0
 10
6.1232922607
 20
2.7972822829
 30
0.0
 10
6.1274002595
 20
2.7966279153
 30
0.0
 10
6.1305787609
 20
2.7961219972
 30
0.0
 10
6.1338283881
 20
2.7956083324
 30
0.0
 10
6.1371539612
 20
2.79508907
 30
0.0
 10
6.1405613936
 20
2.7945693642
 30
0.0
 10
6.1440571819
 20
2.7940546418
 30
0.0
 10
6.1476479473
 20
2.7935501981
 30
0.0
 10
6.1513400054
 20
2.7930614413
 30
0.0
 10
6.1551378518
 20
2.792593803
 30
0.0
 10
6.1604152037
 20
2.7920038519
 30
0.0
 10
6.1672779166
 20
2.791376067
 30
0.0
 10
6.1743068586
 20
2.7909709534
 30
0.0
 10
6.1800844762
 20
2.7907962375
 30
0.0
 10
6.1830089957
 20
2.7907652112
 30
0.0
 10
6.1844745317
 20
2.7907652399
 30
0.0
  0
SPLINE
  5
253
100
AcDbEntity
  8
0
100
AcDbSpline
 62
9
  6
CONTINUOUS
 70
0
 71
3
 72
19
 73
15
 74
0
 42
0.0000001
 43
0.0000001
 44
0.0000000001
 40
0.0
 40
0.0
 40
0.0
 40
0.0
 40
0.1478538327
 40
0.2899824184
 40
0.3587416575
 40
0.425875932
 40
0.491325474
 40
0.5550383786
 40
0.6169739405
 40
0.6771046989
 40
0.791875126
 40
0.8465480698
 40
0.8994358369
 40
1.0
 40
1.0
 40
1.0
 40
1.0
 10
5.7702784669
 20
2.8084040217
 30
0.0
 10
5.7690387488
 20
2.8076317193
 30
0.0
 10
5.7665798118
 20
2.8061605333
 30
0.0
 10
5.7634643349
 20
2.8044687405
 30
0.0
 10
5.7610042725
 20
2.8032469657
 30
0.0
 10
5.7592003195
 20
2.802408604
 30
0.0
 10
5.7574194423
 20
2.80164059
 30
0.0
 10
5.7556639536
 20
2.800945502
 30
0.0
 10
5.7539361032
 20
2.800325707
 30
0.0
 10
5.7517071841
 20
2.7996135409
 30
0.0
 10
5.7495086748
 20
2.7990445286
 30
0.0
 10
5.7473491525
 20
2.7986397355
 30
0.0
 10
5.7453121141
 20
2.7983580333
 30
0.0
 10
5.7437950164
 20
2.7982644388
 30
0.0
 10
5.7428015758
 20
2.7982644259
 30
0.0
  0
SPLINE
  5
254
100
AcDbEntity
  8
0
100
AcDbSpline
 62
9
  6
CONTINUOUS
 70
0
 71
3
 72
42
 73
38
 74
0
 42
0.0000001
 43
0.0000001
 44
0.0000000001
 40
0.0
 40
0.0
 40
0.0
 40
0.0
 40
0.0070531568
 40
0.014634622
 40
0.0227174777
 40
0.0312779245
 40
0.0402897577
 40
0.0497250358
 40
0.0595545481
 40
0.0697481493
 40
0.080277053
 40
0.0911244285
 40
0.1022777839
 40
0.1137243756
 40
0.1374444379
 40
0.1621805751
 40
0.1878459187
 40
0.2143906584
 40
0.2417693247
 40
0.2699385946
 40
0.3285462564
 40
0.3900891407
 40
0.4219503294
 40
0.4545385486
 40
0.4878617587
 40
0.5219335941
 40
0.5923867077
 40
0.628823866
 40
0.6661046018
 40
0.7042640468
 40
0.7433426762
 40
0.7833857319
 40
0.8244426716
 40
0.8665694795
 40
0.9098275755
 40
0.9542804295
 40
1.0
 40
1.0
 40
1.0
 40
1.0
 10
5.1197286657
 20
2.7952794867
 30
0.0
 10
5.11994734
 20
2.7954249676
 30
0.0
 10
5.1204102742
 20
2.7957130889
 30
0.0
 10
5.1211490237
 20
2.7961257581
 30
0.0
 10
5.1219539801
 20
2.79653344
 30
0.0
 10
5.1228211149
 20
2.7969348094
 30
0.0
 10
5.1237466654
 20
2.797328643
 30
0.0
 10
5.1247268293
 20
2.7977137177
 30
0.0
 10
5.1257577993
 20
2.7980888094
 30
0.0
 10
5.1268358297
 20
2.7984527194
 30
0.0
 10
5.1279576886
 20
2.7988044042
 30
0.0
 10
5.1291208563
 20
2.7991429125
 30
0.0
 10
5.1303234113
 20
2.7994675142
 30
0.0
 10
5.1319968771
 20
2.7998858196
 30
0.0
 10
5.1341753559
 20
2.8003678147
 30
0.0
 10
5.1368892665
 20
2.8008735056
 30
0.0
 10
5.1397219457
 20
2.8013080167
 30
0.0
 10
5.1426643392
 20
2.8016668051
 30
0.0
 10
5.1457090371
 20
2.8019456785
 30
0.0
 10
5.1499523432
 20
2.8022088841
 30
0.0
 10
5.1554778708
 20
2.8023079002
 30
0.0
 10
5.1611374196
 20
2.8020868504
 30
0.0
 10
5.1658141533
 20
2.8017056372
 30
0.0
 10
5.169433557
 20
2.8013061509
 30
0.0
 10
5.1731215288
 20
2.8007912726
 30
0.0
 10
5.1781831724
 20
2.7999338369
 30
0.0
 10
5.1833181954
 20
2.7988273498
 30
0.0
 10
5.1885110376
 20
2.7974622413
 30
0.0
 10
5.1925066507
 20
2.7962801339
 30
0.0
 10
5.1965567407
 20
2.794942814
 30
0.0
 10
5.2006586692
 20
2.7934413562
 30
0.0
 10
5.2048097966
 20
2.7917671318
 30
0.0
 10
5.2090064572
 20
2.7899090024
 30
0.0
 10
5.213244664
 20
2.7878557107
 30
0.0
 10
5.2175202416
 20
2.7855960892
 30
0.0
 10
5.2218269274
 20
2.7831159518
 30
0.0
 10
5.224672994
 20
2.781332287
 30
0.0
 10
5.2260983097
 20
2.7804011475
 30
0.0
  0
SPLINE
  5
255
100
AcDbEntity
  8
0
100
AcDbSpline
 62
9
  6
CONTINUOUS
 70
0
 71
3
 72
15
 73
11
 74
0
 42
0.0000001
 43
0.0000001
 44
0.0000000001
 40
0.0
 40
0.0
 40
0.0
 40
0.0
 40
0.1175976821
 40
0.2374893389
 40
0.3596963742
 40
0.4842005205
 40
0.6108722171
 40
0.7394057453
 40
0.8693754304
 40
1.0
 40
1.0
 40
1.0
 40
1.0
 10
6.0952459799
 20
2.7803143146
 30
0.0
 10
6.0987439946
 20
2.7803144362
 30
0.0
 10
6.1058082844
 20
2.7802799173
 30
0.0
 10
6.1165069042
 20
2.7801468968
 30
0.0
 10
6.1274101291
 20
2.779958901
 30
0.0
 10
6.1385145643
 20
2.7797447666
 30
0.0
 10
6.149807271
 20
2.7795331145
 30
0.0
 10
6.1612631653
 20
2.7793536496
 30
0.0
 10
6.1728374668
 20
2.7792352051
 30
0.0
 10
6.1805890243
 20
2.7792059995
 30
0.0
 10
6.1844745317
 20
2.7792063041
 30
0.0
  0
LINE
  5
256
100
AcDbEntity
  8
0
100
AcDbLine
 62
9
  6
CONTINUOUS
 10
6.2737314014
 20
2.7803143209
 11
6.2739305271
 21
2.7803142855
  0
SPLINE
  5
257
100
AcDbEntity
  8
0
100
AcDbSpline
 62
9
  6
CONTINUOUS
 70
0
 71
3
 72
8
 73
4
 74
0
 42
0.0000001
 43
0.0000001
 44
0.0000000001
 40
0.0
 40
0.0
 40
0.0
 40
0.0
 40
1.0
 40
1.0
 40
1.0
 40
1.0
 10
5.8094740329
 20
2.9153083969
 30
0.0
 10
5.8094740333
 20
2.9153376539
 30
0.0
 10
5.8094740336
 20
2.9153669108
 30
0.0
 10
5.809474034
 20
2.9153961677
 30
0.0
  0
SPLINE
  5
258
100
AcDbEntity
  8
0
100
AcDbSpline
 62
9
  6
CONTINUOUS
 70
0
 71
3
 72
58
 73
54
 74
0
 42
0.0000001
 43
0.0000001
 44
0.0000000001
 40
0.0
 40
0.0
 40
0.0
 40
0.0
 40
0.0155537197
 40
0.0311212075
 40
0.0623006182
 40
0.1248533719
 40
0.1405399335
 40
0.1562451639
 40
0.1719689086
 40
0.1877110743
 40
0.203471638
 40
0.2192503553
 40
0.2508554861
 40
0.2825174388
 40
0.2983680679
 40
0.314228103
 40
0.3459602568
 40
0.3776919641
 40
0.409400132
 40
0.4410437606
 40
0.4725914784
 40
0.5040138988
 40
0.5196685231
 40
0.5352806894
 40
0.5508496401
 40
0.5663748414
 40
0.5818552266
 40
0.5972911112
 40
0.6126844688
 40
0.628039052
 40
0.6586449835
 40
0.6739123469
 40
0.6891625517
 40
0.7044037955
 40
0.719645084
 40
0.7348937262
 40
0.75015699
 40
0.7654428809
 40
0.7807602238
 40
0.7961173937
 40
0.8115182825
 40
0.8269657217
 40
0.8424627587
 40
0.8580127898
 40
0.8736178791
 40
0.8892764937
 40
0.9049865677
 40
0.9207461475
 40
0.9286444524
 40
0.9365541316
 40
0.9523995034
 40
0.9682676021
 40
1.0
 40
1.0
 40
1.0
 40
1.0
 10
6.3596096699
 20
2.8820349913
 30
0.0
 10
6.3607423033
 20
2.8847824719
 30
0.0
 10
6.3629566477
 20
2.8903014234
 30
0.0
 10
6.3671849567
 20
2.9014293423
 30
0.0
 10
6.3740702367
 20
2.9211488706
 30
0.0
 10
6.3799257318
 20
2.9412395465
 30
0.0
 10
6.384220378
 20
2.95866799
 30
0.0
 10
6.3862270232
 20
2.9674441934
 30
0.0
 10
6.3880872518
 20
2.9762633429
 30
0.0
 10
6.3897996736
 20
2.9851231759
 30
0.0
 10
6.3913627891
 20
2.9940212527
 30
0.0
 10
6.3932467938
 20
3.0059384817
 30
0.0
 10
6.3952157195
 20
3.0209159022
 30
0.0
 10
6.3966461196
 20
3.0359683913
 30
0.0
 10
6.3974550351
 20
3.048050334
 30
0.0
 10
6.3980337575
 20
3.0601588936
 30
0.0
 10
6.3983102554
 20
3.0753169345
 30
0.0
 10
6.3978827363
 20
3.093501523
 30
0.0
 10
6.3966510416
 20
3.1116333451
 30
0.0
 10
6.3945585765
 20
3.1296518289
 30
0.0
 10
6.3915493035
 20
3.1474855132
 30
0.0
 10
6.3882289125
 20
3.1621459434
 30
0.0
 10
6.3850598729
 20
3.1736985328
 30
0.0
 10
6.3824244835
 20
3.1822520163
 30
0.0
 10
6.3795214593
 20
3.1906923141
 30
0.0
 10
6.3763458213
 20
3.1990070419
 30
0.0
 10
6.372894668
 20
3.207183773
 30
0.0
 10
6.3691648995
 20
3.2152095262
 30
0.0
 10
6.3651533672
 20
3.2230716161
 30
0.0
 10
6.3594321848
 20
3.2333057165
 30
0.0
 10
6.3531278315
 20
3.2431778568
 30
0.0
 10
6.3462533159
 20
3.2526219123
 30
0.0
 10
6.3408184808
 20
3.2594738236
 30
0.0
 10
6.3351029602
 20
3.266086722
 30
0.0
 10
6.3291087877
 20
3.2724478814
 30
0.0
 10
6.3228420443
 20
3.2785467555
 30
0.0
 10
6.3163091002
 20
3.284372473
 30
0.0
 10
6.3095164412
 20
3.2899140324
 30
0.0
 10
6.3024707238
 20
3.2951602605
 30
0.0
 10
6.2951798337
 20
3.3000993703
 30
0.0
 10
6.2876553907
 20
3.3047224453
 30
0.0
 10
6.2799097081
 20
3.3090198068
 30
0.0
 10
6.27195534
 20
3.3129817289
 30
0.0
 10
6.2638050381
 20
3.3165980956
 30
0.0
 10
6.2554731168
 20
3.3198593532
 30
0.0
 10
6.2469762078
 20
3.3227588964
 30
0.0
 10
6.2383314853
 20
3.3252893061
 30
0.0
 10
6.2310238867
 20
3.3270830127
 30
0.0
 10
6.2251215212
 20
3.3283264265
 30
0.0
 10
6.2191770656
 20
3.3294422337
 30
0.0
 10
6.2116915952
 20
3.3305935425
 30
0.0
 10
6.1996388534
 20
3.3319131379
 30
0.0
 10
6.1905375105
 20
3.332313142
 30
0.0
 10
6.1844745317
 20
3.3323134249
 30
0.0
  0
SPLINE
  5
259
100
AcDbEntity
  8
0
100
AcDbSpline
 62
9
  6
CONTINUOUS
 70
0
 71
3
 72
60
 73
56
 74
0
 42
0.0000001
 43
0.0000001
 44
0.0000000001
 40
0.0
 40
0.0
 40
0.0
 40
0.0
 40
0.0317258599
 40
0.0475905736
 40
0.063432582
 40
0.0713406041
 40
0.0792372949
 40
0.0949938631
 40
0.1107012216
 40
0.1263574434
 40
0.1419604994
 40
0.1575089241
 40
0.1730047881
 40
0.1884513693
 40
0.2038515995
 40
0.2192082004
 40
0.2345248062
 40
0.2498095638
 40
0.2650712695
 40
0.2803178875
 40
0.2955566297
 40
0.3107945368
 40
0.3260404875
 40
0.3413028853
 40
0.3718975827
 40
0.3872461942
 40
0.4026333945
 40
0.4180630556
 40
0.4335372828
 40
0.449056531
 40
0.4646198325
 40
0.4802266188
 40
0.4958762791
 40
0.5272906976
 40
0.558832981
 40
0.5904718483
 40
0.6221804236
 40
0.6380492804
 40
0.6539194115
 40
0.66978848
 40
0.6856550924
 40
0.7173712914
 40
0.7490483558
 40
0.7806633819
 40
0.8122109755
 40
0.8279593986
 40
0.8436898769
 40
0.8594017623
 40
0.875094423
 40
0.8907679831
 40
0.9064229355
 40
0.9376783905
 40
0.9532816239
 40
0.9688693858
 40
1.0
 40
1.0
 40
1.0
 40
1.0
 10
6.1844745317
 20
3.3323134249
 30
0.0
 10
6.1784268247
 20
3.3323131534
 30
0.0
 10
6.1693484602
 20
3.3319151908
 30
0.0
 10
6.1573257675
 20
3.3306022415
 30
0.0
 10
6.1498587698
 20
3.3294567193
 30
0.0
 10
6.1439287895
 20
3.3283465068
 30
0.0
 10
6.1380405997
 20
3.3271093186
 30
0.0
 10
6.1307501764
 20
3.3253245963
 30
0.0
 10
6.1221251075
 20
3.322806788
 30
0.0
 10
6.1136467227
 20
3.3199215401
 30
0.0
 10
6.1053320722
 20
3.3166761506
 30
0.0
 10
6.0971976643
 20
3.3130771326
 30
0.0
 10
6.0892576924
 20
3.3091340197
 30
0.0
 10
6.0815248679
 20
3.3048568221
 30
0.0
 10
6.0740117249
 20
3.300255185
 30
0.0
 10
6.0667305612
 20
3.2953387513
 30
0.0
 10
6.0596930835
 20
3.2901163
 30
0.0
 10
6.0529072627
 20
3.2845995117
 30
0.0
 10
6.0463796697
 20
3.2787996086
 30
0.0
 10
6.0401167239
 20
3.2727275549
 30
0.0
 10
6.0341246746
 20
3.2663942922
 30
0.0
 10
6.0284097517
 20
3.2598101927
 30
0.0
 10
6.0229742931
 20
3.2529876878
 30
0.0
 10
6.0160972295
 20
3.2435837768
 30
0.0
 10
6.0097872656
 20
3.2337524776
 30
0.0
 10
6.0040573053
 20
3.2235595024
 30
0.0
 10
6.0000379263
 20
3.2157282973
 30
0.0
 10
5.9962990066
 20
3.2077333009
 30
0.0
 10
5.9928374491
 20
3.1995870696
 30
0.0
 10
5.9896501904
 20
3.1913024748
 30
0.0
 10
5.9867343706
 20
3.1828918645
 30
0.0
 10
5.9840852708
 20
3.1743674871
 30
0.0
 10
5.9808966717
 20
3.1628526587
 30
0.0
 10
5.9775497963
 20
3.1482375251
 30
0.0
 10
5.9745058622
 20
3.1304556422
 30
0.0
 10
5.9723770268
 20
3.1124856602
 30
0.0
 10
5.9713199186
 20
3.0974164243
 30
0.0
 10
5.9708760533
 20
3.0853292018
 30
0.0
 10
5.9707373562
 20
3.0762543189
 30
0.0
 10
5.9707877871
 20
3.0671789998
 30
0.0
 10
5.9711004129
 20
3.0550869111
 30
0.0
 10
5.9719382321
 20
3.0399972241
 30
0.0
 10
5.9736186182
 20
3.0219605967
 30
0.0
 10
5.9759342057
 20
3.0040271157
 30
0.0
 10
5.9783795046
 20
2.9891815794
 30
0.0
 10
5.9806357569
 20
2.9773805054
 30
0.0
 10
5.9824746186
 20
2.9685743067
 30
0.0
 10
5.9844588462
 20
2.9598106535
 30
0.0
 10
5.9865861289
 20
2.9510917945
 30
0.0
 10
5.9888566873
 20
2.9424203162
 30
0.0
 10
5.992073842
 20
2.9309318464
 30
0.0
 10
5.9955813149
 20
2.9195401774
 30
0.0
 10
5.9993810329
 20
2.9082585684
 30
0.0
 10
6.0033707099
 20
2.8970681012
 30
0.0
 10
6.0065857117
 20
2.8887602137
 30
0.0
 10
6.0088316619
 20
2.8832674093
 30
0.0
  0
SPLINE
  5
25A
100
AcDbEntity
  8
0
100
AcDbSpline
 62
9
  6
CONTINUOUS
 70
0
 71
3
 72
15
 73
11
 74
0
 42
0.0000001
 43
0.0000001
 44
0.0000000001
 40
0.0
 40
0.0
 40
0.0
 40
0.0
 40
0.1306140307
 40
0.2605763272
 40
0.389104996
 40
0.5157757388
 40
0.6402853492
 40
0.7624951046
 40
0.8823949451
 40
1.0
 40
1.0
 40
1.0
 40
1.0
 10
6.1844745317
 20
2.7792063041
 30
0.0
 10
6.1883578316
 20
2.7792060162
 30
0.0
 10
6.196105077
 20
2.7792352136
 30
0.0
 10
6.2076730596
 20
2.7793534964
 30
0.0
 10
6.219122978
 20
2.7795328087
 30
0.0
 10
6.2304101682
 20
2.7797444082
 30
0.0
 10
6.241509407
 20
2.7799583491
 30
0.0
 10
6.2524078058
 20
2.7801460784
 30
0.0
 10
6.263101745
 20
2.7802796584
 30
0.0
 10
6.2701630535
 20
2.7803143801
 30
0.0
 10
6.2736595821
 20
2.7803143245
 30
0.0
  0
SPLINE
  5
25B
100
AcDbEntity
  8
0
100
AcDbSpline
 62
9
  6
CONTINUOUS
 70
0
 71
3
 72
103
 73
99
 74
0
 42
0.0000001
 43
0.0000001
 44
0.0000000001
 40
0.0
 40
0.0
 40
0.0
 40
0.0
 40
0.0025246456
 40
0.0049866198
 40
0.007391654
 40
0.0097457306
 40
0.0120550657
 40
0.0143260849
 40
0.0165653902
 40
0.0187797188
 40
0.0209758948
 40
0.023160802
 40
0.0253418578
 40
0.0275266353
 40
0.031932473
 40
0.0364269346
 40
0.041044827
 40
0.0458100158
 40
0.0507373675
 40
0.0558387134
 40
0.0611217844
 40
0.0665888517
 40
0.0722377077
 40
0.078062512
 40
0.0840545386
 40
0.0902061303
 40
0.0965134947
 40
0.1029721048
 40
0.1095763885
 40
0.1163198849
 40
0.1231953767
 40
0.1301950024
 40
0.1373108214
 40
0.1445380606
 40
0.159312689
 40
0.1744893021
 40
0.190034863
 40
0.197935043
 40
0.2059146537
 40
0.2221037059
 40
0.2385863502
 40
0.255346274
 40
0.2723664502
 40
0.2896297615
 40
0.3071248555
 40
0.3248443572
 40
0.3427807559
 40
0.3609263772
 40
0.3978154444
 40
0.435468065
 40
0.4738538156
 40
0.5129390169
 40
0.5327270419
 40
0.5526686941
 40
0.5727569099
 40
0.5929809099
 40
0.6133159084
 40
0.6337343295
 40
0.6542090068
 40
0.6747090116
 40
0.6951763186
 40
0.7155419189
 40
0.7256650268
 40
0.735736783
 40
0.7457471121
 40
0.7556834548
 40
0.7752826154
 40
0.7849195637
 40
0.7944307219
 40
0.8038030617
 40
0.8130248822
 40
0.830976608
 40
0.848205519
 40
0.8565239284
 40
0.8646320724
 40
0.8725244762
 40
0.8801987357
 40
0.8876527602
 40
0.8948847756
 40
0.901893404
 40
0.9086777577
 40
0.9152377743
 40
0.9215762249
 40
0.9276977809
 40
0.9336079351
 40
0.9393131205
 40
0.9448208571
 40
0.9501399112
 40
0.9552804056
 40
0.9602535513
 40
0.965071802
 40
0.9742974671
 40
0.9787406735
 40
0.9830939133
 40
0.987376921
 40
0.99160909
 40
0.9958100698
 40
1.0
 40
1.0
 40
1.0
 40
1.0
 10
5.7428015758
 20
2.7982644259
 30
0.0
 10
5.7424038586
 20
2.7982644645
 30
0.0
 10
5.7416181297
 20
2.7982843998
 30
0.0
 10
5.7404567462
 20
2.7983758924
 30
0.0
 10
5.7393287537
 20
2.7985277572
 30
0.0
 10
5.7382348548
 20
2.7987391721
 30
0.0
 10
5.7371757074
 20
2.7990093131
 30
0.0
 10
5.7361519872
 20
2.7993373531
 30
0.0
 10
5.7351643683
 20
2.7997224573
 30
0.0
 10
5.7342135355
 20
2.8001637945
 30
0.0
 10
5.7333001437
 20
2.8006604925
 30
0.0
 10
5.7324248684
 20
2.8012118543
 30
0.0
 10
5.7315878449
 20
2.8018166574
 30
0.0
 10
5.7305193197
 20
2.8026940129
 30
0.0
 10
5.7292718628
 20
2.8039221255
 30
0.0
 10
5.7279255832
 20
2.8055770132
 30
0.0
 10
5.7267191486
 20
2.8074040531
 30
0.0
 10
5.725646855
 20
2.8093900252
 30
0.0
 10
5.7247026068
 20
2.8115230042
 30
0.0
 10
5.7238804182
 20
2.8137924712
 30
0.0
 10
5.7231737962
 20
2.8161889588
 30
0.0
 10
5.7225762189
 20
2.8187033939
 30
0.0
 10
5.7220812502
 20
2.8213266983
 30
0.0
 10
5.7216825766
 20
2.8240497827
 30
0.0
 10
5.7213736606
 20
2.8268640513
 30
0.0
 10
5.7211488644
 20
2.8297624454
 30
0.0
 10
5.7210043097
 20
2.8327394683
 30
0.0
 10
5.7209356482
 20
2.8357904765
 30
0.0
 10
5.720938634
 20
2.8389109093
 30
0.0
 10
5.7210090002
 20
2.8420961948
 30
0.0
 10
5.7211424787
 20
2.845341757
 30
0.0
 10
5.72133485
 20
2.8486430826
 30
0.0
 10
5.7215817772
 20
2.8519963207
 30
0.0
 10
5.7219830069
 20
2.8565658863
 30
0.0
 10
5.722609728
 20
2.8623897636
 30
0.0
 10
5.7235332838
 20
2.8694977562
 30
0.0
 10
5.724429035
 20
2.8755161023
 30
0.0
 10
5.7252141962
 20
2.8804040303
 30
0.0
 10
5.7260505231
 20
2.8853862909
 30
0.0
 10
5.7271730196
 20
2.8916912825
 30
0.0
 10
5.7286241729
 20
2.8993421639
 30
0.0
 10
5.7301739622
 20
2.9071072022
 30
0.0
 10
5.7318105754
 20
2.9149800237
 30
0.0
 10
5.7335221277
 20
2.922955361
 30
0.0
 10
5.7352989223
 20
2.9310292422
 30
0.0
 10
5.7371325296
 20
2.9391991059
 30
0.0
 10
5.7390144207
 20
2.9474631108
 30
0.0
 10
5.7415908492
 20
2.9586660901
 30
0.0
 10
5.7448886163
 20
2.9728901988
 30
0.0
 10
5.748884876
 20
2.9902254532
 30
0.0
 10
5.7528774288
 20
3.0079164818
 30
0.0
 10
5.7561340465
 20
3.0228882329
 30
0.0
 10
5.7586720201
 20
3.0350421522
 30
0.0
 10
5.7605392986
 20
3.0442787124
 30
0.0
 10
5.7623531314
 20
3.0535959149
 30
0.0
 10
5.7641037648
 20
3.0629882575
 30
0.0
 10
5.7657823862
 20
3.0724465917
 30
0.0
 10
5.7673795062
 20
3.0819590937
 30
0.0
 10
5.7688856847
 20
3.0915127624
 30
0.0
 10
5.7702899416
 20
3.1010897421
 30
0.0
 10
5.7715892398
 20
3.1106641708
 30
0.0
 10
5.7725842737
 20
3.1186297252
 30
0.0
 10
5.7733255397
 20
3.1249762537
 30
0.0
 10
5.7738520962
 20
3.1297053943
 30
0.0
 10
5.7743504797
 20
3.1344079979
 30
0.0
 10
5.7749772236
 20
3.1406062174
 30
0.0
 10
5.7755577498
 20
3.1467499165
 30
0.0
 10
5.7760993833
 20
3.1528298506
 30
0.0
 10
5.7764840757
 20
3.1573062946
 30
0.0
 10
5.7768510573
 20
3.1617186026
 30
0.0
 10
5.7773161174
 20
3.1674570061
 30
0.0
 10
5.7778691751
 20
3.1744299939
 30
0.0
 10
5.7784222542
 20
3.1812602321
 30
0.0
 10
5.7788752995
 20
3.1865427284
 30
0.0
 10
5.779219667
 20
3.1903582952
 30
0.0
 10
5.7795767055
 20
3.1940707767
 30
0.0
 10
5.7799506925
 20
3.1976780202
 30
0.0
 10
5.7803459259
 20
3.20117834
 30
0.0
 10
5.780766707
 20
3.2045700646
 30
0.0
 10
5.7812173508
 20
3.207851524
 30
0.0
 10
5.7817021291
 20
3.2110210977
 30
0.0
 10
5.7822255627
 20
3.2140774986
 30
0.0
 10
5.7827912047
 20
3.2170201558
 30
0.0
 10
5.7834022756
 20
3.2198491147
 30
0.0
 10
5.7840621317
 20
3.2225645958
 30
0.0
 10
5.7847741127
 20
3.2251668301
 30
0.0
 10
5.7855415833
 20
3.2276560388
 30
0.0
 10
5.7863678912
 20
3.2300324632
 30
0.0
 10
5.7872564592
 20
3.2322961435
 30
0.0
 10
5.7882095416
 20
3.2344476557
 30
0.0
 10
5.7895491846
 20
3.2371280432
 30
0.0
 10
5.7910442164
 20
3.2396352387
 30
0.0
 10
5.7927057291
 20
3.2419391016
 30
0.0
 10
5.7940108141
 20
3.2435353153
 30
0.0
 10
5.795391963
 20
3.2450211359
 30
0.0
 10
5.7968500082
 20
3.2463969914
 30
0.0
 10
5.7983853753
 20
3.2476629744
 30
0.0
 10
5.7994607313
 20
3.2484337294
 30
0.0
 10
5.8000099146
 20
3.2487998871
 30
0.0
  0
SPLINE
  5
25C
100
AcDbEntity
  8
0
100
AcDbSpline
 62
9
  6
CONTINUOUS
 70
0
 71
3
 72
48
 73
44
 74
0
 42
0.0000001
 43
0.0000001
 44
0.0000000001
 40
0.0
 40
0.0
 40
0.0
 40
0.0
 40
0.0256535312
 40
0.0511911693
 40
0.1011798414
 40
0.1253303964
 40
0.148872166
 40
0.171806977
 40
0.1941345831
 40
0.2370045473
 40
0.257609843
 40
0.2777079943
 40
0.297332915
 40
0.3165175777
 40
0.3352878683
 40
0.3536650881
 40
0.389325233
 40
0.406650806
 40
0.4236679777
 40
0.456831344
 40
0.4889077221
 40
0.5199884712
 40
0.5501505385
 40
0.5794491059
 40
0.6079410169
 40
0.6356745432
 40
0.6626919061
 40
0.6890384406
 40
0.7147554386
 40
0.7398891159
 40
0.764488359
 40
0.8122971634
 40
0.8356652311
 40
0.858784858
 40
0.8817642796
 40
0.8932429003
 40
0.9047366974
 40
0.9278468892
 40
0.9395134472
 40
0.951285758
 40
0.9752526277
 40
0.9875133506
 40
1.0
 40
1.0
 40
1.0
 40
1.0
 10
6.1844745317
 20
2.7907652399
 30
0.0
 10
6.1859408856
 20
2.7907652158
 30
0.0
 10
6.1888670605
 20
2.7907963105
 30
0.0
 10
6.194648095
 20
2.7909713211
 30
0.0
 10
6.2003375973
 20
2.7912994227
 30
0.0
 10
6.205901924
 20
2.7917629515
 30
0.0
 10
6.2099196814
 20
2.792158587
 30
0.0
 10
6.2138282499
 20
2.7925957385
 30
0.0
 10
6.2188281409
 20
2.7932119247
 30
0.0
 10
6.2236875491
 20
2.7938771115
 30
0.0
 10
6.2284136955
 20
2.7945727122
 30
0.0
 10
6.2318226632
 20
2.7950925779
 30
0.0
 10
6.2351494366
 20
2.7956125589
 30
0.0
 10
6.2384002231
 20
2.7961271402
 30
0.0
 10
6.2415801474
 20
2.7966332188
 30
0.0
 10
6.2456900785
 20
2.7972874633
 30
0.0
 10
6.2497192979
 20
2.7979235028
 30
0.0
 10
6.2536743873
 20
2.7985303182
 30
0.0
 10
6.2574907213
 20
2.7991002215
 30
0.0
 10
6.2621458542
 20
2.799761706
 30
0.0
 10
6.2676061025
 20
2.8004688397
 30
0.0
 10
6.2729062939
 20
2.801071791
 30
0.0
 10
6.2780587831
 20
2.8015612075
 30
0.0
 10
6.2830730576
 20
2.801929697
 30
0.0
 10
6.2879562772
 20
2.8021691971
 30
0.0
 10
6.292713988
 20
2.8022719157
 30
0.0
 10
6.2973501186
 20
2.802229968
 30
0.0
 10
6.3018671724
 20
2.8020355041
 30
0.0
 10
6.3062664776
 20
2.8016795656
 30
0.0
 10
6.3105485461
 20
2.8011533647
 30
0.0
 10
6.3160465992
 20
2.8002203581
 30
0.0
 10
6.3213735154
 20
2.7989005982
 30
0.0
 10
6.3264684183
 20
2.797132083
 30
0.0
 10
6.3301285764
 20
2.7955846034
 30
0.0
 10
6.3330637457
 20
2.7940886318
 30
0.0
 10
6.3353318831
 20
2.7927627806
 30
0.0
 10
6.3375517509
 20
2.7913438463
 30
0.0
 10
6.3396914038
 20
2.7897828853
 30
0.0
 10
6.3417355528
 20
2.7880785229
 30
0.0
 10
6.3437384728
 20
2.7862524106
 30
0.0
 10
6.3456388242
 20
2.7842670892
 30
0.0
 10
6.3474214927
 20
2.78212711
 30
0.0
 10
6.348275594
 20
2.7809986923
 30
0.0
 10
6.348693063
 20
2.7804197807
 30
0.0
  0
SPLINE
  5
25D
100
AcDbEntity
  8
0
100
AcDbSpline
 62
9
  6
CONTINUOUS
 70
0
 71
3
 72
44
 73
40
 74
0
 42
0.0000001
 43
0.0000001
 44
0.0000000001
 40
0.0
 40
0.0
 40
0.0
 40
0.0
 40
0.0317994383
 40
0.0635986791
 40
0.0953523472
 40
0.1270166413
 40
0.18994777
 40
0.2212065544
 40
0.2523144777
 40
0.283272409
 40
0.3140880132
 40
0.3447759123
 40
0.375358168
 40
0.4058628857
 40
0.4363247996
 40
0.4667868909
 40
0.4820353788
 40
0.4973015922
 40
0.5278994528
 40
0.5586171584
 40
0.5740339755
 40
0.5894946476
 40
0.6050029597
 40
0.6205592717
 40
0.6518090442
 40
0.6675026347
 40
0.6832379661
 40
0.699012269
 40
0.7148224487
 40
0.7306654664
 40
0.7465376586
 40
0.7783476494
 40
0.8102069924
 40
0.8420554558
 40
0.8738490267
 40
0.9055698349
 40
0.9371922805
 40
0.9686814535
 40
1.0
 40
1.0
 40
1.0
 40
1.0
 10
6.1844745317
 20
3.2543711386
 30
0.0
 10
6.1814620031
 20
3.2543710831
 30
0.0
 10
6.1754362021
 20
3.2542455166
 30
0.0
 10
6.1664181696
 20
3.2536812102
 30
0.0
 10
6.1574439956
 20
3.2527403445
 30
0.0
 10
6.1456007879
 20
3.2509870141
 30
0.0
 10
6.1339260574
 20
3.248476372
 30
0.0
 10
6.1225155209
 20
3.2451934264
 30
0.0
 10
6.1141392166
 20
3.2423535261
 30
0.0
 10
6.1059486362
 20
3.2391285113
 30
0.0
 10
6.0979651721
 20
3.2355150821
 30
0.0
 10
6.0902104675
 20
3.2315102141
 30
0.0
 10
6.0827064586
 20
3.2271107157
 30
0.0
 10
6.0754746579
 20
3.222314884
 30
0.0
 10
6.0685366533
 20
3.217121862
 30
0.0
 10
6.0630192286
 20
3.2124636549
 30
0.0
 10
6.058777488
 20
3.2085411267
 30
0.0
 10
6.0546472588
 20
3.2044829643
 30
0.0
 10
6.0497058357
 20
3.1991644896
 30
0.0
 10
6.0450887807
 20
3.1935435173
 30
0.0
 10
6.0415954517
 20
3.1888685188
 30
0.0
 10
6.0390741275
 20
3.1852685574
 30
0.0
 10
6.0366574208
 20
3.1815817365
 30
0.0
 10
6.0335709
 20
3.1765487253
 30
0.0
 10
6.0307010263
 20
3.1713652159
 30
0.0
 10
6.0280500791
 20
3.1660512943
 30
0.0
 10
6.0261673455
 20
3.1619944433
 30
0.0
 10
6.0243939319
 20
3.1578766701
 30
0.0
 10
6.0227309173
 20
3.1537021124
 30
0.0
 10
6.0211772322
 20
3.1494757776
 30
0.0
 10
6.0192474919
 20
3.1437748993
 30
0.0
 10
6.0171005771
 20
3.1365484174
 30
0.0
 10
6.014933086
 20
3.1277598133
 30
0.0
 10
6.0131572595
 20
3.1188855792
 30
0.0
 10
6.0117555174
 20
3.1099582867
 30
0.0
 10
6.0107049586
 20
3.1010047783
 30
0.0
 10
6.0099824372
 20
3.0920480404
 30
0.0
 10
6.0095647926
 20
3.0831104167
 30
0.0
 10
6.0094735929
 20
3.0771599267
 30
0.0
 10
6.0094725
 20
3.0741929557
 30
0.0
  0
SPLINE
  5
25E
100
AcDbEntity
  8
0
100
AcDbSpline
 62
9
  6
CONTINUOUS
 70
0
 71
3
 72
20
 73
16
 74
0
 42
0.0000001
 43
0.0000001
 44
0.0000000001
 40
0.0
 40
0.0
 40
0.0
 40
0.0
 40
0.1006105099
 40
0.1535521704
 40
0.2082879088
 40
0.2648333802
 40
0.3231902747
 40
0.3833485085
 40
0.4452880879
 40
0.5089811371
 40
0.5743934277
 40
0.6414817175
 40
0.7101942239
 40
0.8522403898
 40
1.0
 40
1.0
 40
1.0
 40
1.0
 10
6.6261474876
 20
2.7982644259
 30
0.0
 10
6.6251662956
 20
2.7982645188
 30
0.0
 10
6.623667659
 20
2.7983576147
 30
0.0
 10
6.6216550418
 20
2.7986352122
 30
0.0
 10
6.6200799189
 20
2.798928551
 30
0.0
 10
6.6184677825
 20
2.7993020299
 30
0.0
 10
6.6168210645
 20
2.7997542994
 30
0.0
 10
6.6151424027
 20
2.8002839845
 30
0.0
 10
6.6134343747
 20
2.8008897135
 30
0.0
 10
6.6116995973
 20
2.801570165
 30
0.0
 10
6.609940169
 20
2.8023227408
 30
0.0
 10
6.6081580854
 20
2.8031447964
 30
0.0
 10
6.6057276013
 20
2.8043433132
 30
0.0
 10
6.6026488788
 20
2.8060031879
 30
0.0
 10
6.6002182096
 20
2.8074468714
 30
0.0
 10
6.5989926211
 20
2.8082047876
 30
0.0
  0
SPLINE
  5
25F
100
AcDbEntity
  8
0
100
AcDbSpline
 62
9
  6
CONTINUOUS
 70
0
 71
3
 72
36
 73
32
 74
0
 42
0.0000001
 43
0.0000001
 44
0.0000000001
 40
0.0
 40
0.0
 40
0.0
 40
0.0
 40
0.0457004273
 40
0.0901379036
 40
0.1333823048
 40
0.1754995565
 40
0.2165488324
 40
0.2565861201
 40
0.3338095231
 40
0.477916816
 40
0.5453176474
 40
0.6097766182
 40
0.6409222218
 40
0.6713444711
 40
0.7299699939
 40
0.7581494967
 40
0.7855375409
 40
0.8120909016
 40
0.8377651433
 40
0.862511328
 40
0.8862415346
 40
0.908848476
 40
0.9302271982
 40
0.9404229423
 40
0.9502574541
 40
0.9596992195
 40
0.9687176491
 40
0.9772834339
 40
0.9853690239
 40
0.992949315
 40
1.0
 40
1.0
 40
1.0
 40
1.0
 10
7.1430070272
 20
2.7805032119
 30
0.0
 10
7.1444304747
 20
2.7814303986
 30
0.0
 10
7.1472730212
 20
2.7832060619
 30
0.0
 10
7.1515735666
 20
2.7856756031
 30
0.0
 10
7.1558427767
 20
2.7879258878
 30
0.0
 10
7.1600749579
 20
2.7899698506
 30
0.0
 10
7.1642652225
 20
2.7918202233
 30
0.0
 10
7.1697258786
 20
2.7940165458
 30
0.0
 10
7.1789088387
 20
2.7972056854
 30
0.0
 10
7.189357035
 20
2.7997935374
 30
0.0
 10
7.1994996965
 20
2.8013572925
 30
0.0
 10
7.2055351478
 20
2.8019356463
 30
0.0
 10
7.2102139877
 20
2.8021805136
 30
0.0
 10
7.2146810307
 20
2.8022871126
 30
0.0
 10
7.2190407642
 20
2.8022071329
 30
0.0
 10
7.2232778054
 20
2.8019427259
 30
0.0
 10
7.2263180721
 20
2.8016632024
 30
0.0
 10
7.2292561337
 20
2.8013039785
 30
0.0
 10
7.232084677
 20
2.8008692246
 30
0.0
 10
7.2347947225
 20
2.8003634781
 30
0.0
 10
7.2373750291
 20
2.7997918853
 30
0.0
 10
7.2398121041
 20
2.7991598229
 30
0.0
 10
7.2417411062
 20
2.7985785466
 30
0.0
 10
7.2431995238
 20
2.7980858932
 30
0.0
 10
7.2442290791
 20
2.7977111025
 30
0.0
 10
7.2452080782
 20
2.7973263239
 30
0.0
 10
7.2461325775
 20
2.796932817
 30
0.0
 10
7.2469986339
 20
2.7965318453
 30
0.0
 10
7.2478023481
 20
2.7961246762
 30
0.0
 10
7.2485396737
 20
2.7957125926
 30
0.0
 10
7.2490015619
 20
2.7954248748
 30
0.0
 10
7.2492197394
 20
2.7952796521
 30
0.0
  0
ENDSEC
  0
SECTION
  2
OBJECTS
  0
DICTIONARY
  5
C
100
AcDbDictionary
280
0
281
1
  3
ACAD_GROUP
350
D
  3
ACAD_MLINESTYLE
350
17
  3
ACAD_LAYOUT
350
1A
  3
ACAD_PLOTSETTINGS
350
19
  3
ACAD_PLOTSTYLENAME
350
E
  0
DICTIONARY
  5
D
102
{ACAD_REACTORS
330
C
102
}
100
AcDbDictionary
280
0
281
1
  0
ACDBDICTIONARYWDFLT
  5
E
102
{ACAD_REACTORS
330
C
102
}
100
AcDbDictionary
281
1
  3
Normal
350
F
100
AcDbDictionaryWithDefault
340
F
  0
DICTIONARY
  5
17
102
{ACAD_REACTORS
330
C
102
}
100
AcDbDictionary
280
0
281
1
  3
Standard
350
18
  0
DICTIONARY
  5
19
102
{ACAD_REACTORS
330
C
102
}
100
AcDbDictionary
281
1
  0
DICTIONARY
  5
1A
102
{ACAD_REACTORS
330
C
102
}
100
AcDbDictionary
281
1
  3
Model
350
260
  3
Layout1
350
261
  0
ACDBPLACEHOLDER
  5
F
102
{ACAD_REACTORS
330
E
102
}
  0
MLINESTYLE
  5
18
102
{ACAD_REACTORS
330
17
102
}
100
AcDbMlineStyle
  2
STANDARD
 70
0
  3

 62
256
 51
90.0
 52
90.0
 71
2
 49
0.5
 62
256
  6
BYLAYER
 49
-0.5
 62
256
  6
BYLAYER
  0
LAYOUT
  5
260
102
{ACAD_REACTORS
330
1A
102
}
100
AcDbPlotSettings
  1

  2
none_device
  4
ISO_A4_(297.00_x_210.00_MM)
  6

 40
0.0
 41
0.0
 42
0.0
 43
0.0
 44
297.0
 45
210.0
 46
0.0
 47
0.0
 48
0.0
 49
0.0
140
0.0
141
0.0
142
1.0
143
1.0
 70
1024
 72
0
 73
0
 74
0
  7

 75
0
147
1.0
148
0.0
149
0.0
100
AcDbLayout
  1
Model
 70
0
 71
0
 10
0.0
 20
0.0
 11
11.6929133858
 21
8.2677165354
 12
0.0
 22
0.0
 32
0.0
 14
0.0
 24
0.0
 34
0.0
 15
0.0
 25
0.0
 35
0.0
146
0.0
 13
0.0
 23
0.0
 33
0.0
 16
1.0
 26
0.0
 36
0.0
 17
0.0
 27
1.0
 37
0.0
 76
0
330
202
345
0
346
0
  0
LAYOUT
  5
261
102
{ACAD_REACTORS
330
1A
102
}
100
AcDbPlotSettings
  1

  2
none_device
  4
ISO_A4_(297.00_x_210.00_MM)
  6

 40
0.0
 41
0.0
 42
0.0
 43
0.0
 44
297.0
 45
210.0
 46
0.0
 47
0.0
 48
0.0
 49
0.0
140
0.0
141
0.0
142
1.0
143
1.0
 70
0
 72
0
 73
0
 74
0
  7

 75
0
147
1.0
148
0.0
149
0.0
100
AcDbLayout
  1
Layout1
 70
0
 71
1
 10
0.0
 20
0.0
 11
11.6929133858
 21
8.2677165354
 12
0.0
 22
0.0
 32
0.0
 14
0.0
 24
0.0
 34
0.0
 15
0.0
 25
0.0
 35
0.0
146
0.0
 13
0.0
 23
0.0
 33
0.0
 16
1.0
 26
0.0
 36
0.0
 17
0.0
 27
1.0
 37
0.0
 76
0
330
203
345
0
346
0
  0
ENDSEC
  0
EOF
