999
DXF file: 3-2923TS_RIGHT.dxf
999
Pro/ENGINEER 2014000 by Parametric Technology Corporation
  0
SECTION
  2
HEADER
  9
$ACADVER
  1
AC1015
  9
$DWGCODEPAGE
  3
ANSI_1252
  9
$EXTMAX
 10
16.5354330709
 20
11.6929133858
 30
0.0
  9
$EXTMIN
 10
0.0
 20
0.0
 30
0.0
  9
$LIMMIN
 10
0.0
 20
0.0
  9
$LIMMAX
 10
16.5354330709
 20
11.6929133858
  9
$VIEWCTR
 10
8.2677165354
 20
5.8464566929
  9
$VIEWSIZE
 40
11.6929133858
  9
$CLAYER
  8
0
  9
$LTSCALE
 40
0.9094488189
  9
$CELTYPE
  6
BYLAYER
  9
$DIMSCALE
 40
1.0
  9
$DIMASZ
 40
0.1875
  9
$DIMEXO
 40
0.0625
  9
$DIMDLI
 40
0.6283464567
  9
$DIMEXE
 40
0.125
  9
$DIMCEN
 40
0.1488188976
  9
$DIMLFAC
 40
1.0
  9
$DIMBLK
  1
_CLOSED
  9
$DIMTXT
 40
0.15625
  9
$DIMTOL
 70
0
  9
$DIMLIM
 70
0
  9
$DIMTFAC
 40
1.0
  9
$DIMGAP
 40
0.09
  9
$DIMDSEP
 70
46
  9
$PDMODE
 70
3
  9
$PDSIZE
 40
0.3125
  9
$HANDSEED
  5
29A
  9
$TILEMODE
 70
1
  9
$MEASUREMENT
 70
0
  9
$INSUNITS
 70
1
  0
ENDSEC
  0
SECTION
  2
CLASSES
  0
CLASS
  1
ACDBDICTIONARYWDFLT
  2
AcDbDictionaryWithDefault
  3
AutoCAD 2000
 90
0
280
0
281
0
  0
CLASS
  1
ACDBPLACEHOLDER
  2
AcDbPlaceHolder
  3
AutoCAD 2000
 90
0
280
0
281
0
  0
CLASS
  1
LAYOUT
  2
AcDbLayout
  3
AutoCAD 2000
 90
0
280
0
281
0
  0
ENDSEC
  0
SECTION
  2
TABLES
  0
TABLE
  2
VPORT
  5
8
100
AcDbSymbolTable
 70
2
  0
VPORT
  5
1F4
100
AcDbSymbolTableRecord
100
AcDbViewportTableRecord
  2
*ACTIVE
 70
0
 10
0.0
 20
0.0
 11
1.0
 21
1.0
 12
8.2677165354
 22
5.8464566929
 13
0.0
 23
0.0
 14
1.0
 24
1.0
 15
0.0
 25
0.0
 16
0.0
 26
0.0
 36
1.0
 17
0.0
 27
0.0
 37
0.0
 40
11.6929133858
 41
1.4141414141
 42
50.0
 43
0.0
 44
0.0
 50
0.0
 51
0.0
 71
0
 72
100
 73
1
 74
1
 75
0
 76
0
 77
0
 78
0
  0
ENDTAB
  0
TABLE
  2
LTYPE
  5
5
100
AcDbSymbolTable
 70
6
  0
LTYPE
  5
14
100
AcDbSymbolTableRecord
100
AcDbLinetypeTableRecord
  2
BYBLOCK
 70
0
  3

 72
65
 73
0
 40
0.0
  0
LTYPE
  5
15
100
AcDbSymbolTableRecord
100
AcDbLinetypeTableRecord
  2
BYLAYER
 70
0
  3

 72
65
 73
0
 40
0.0
  0
LTYPE
  5
16
100
AcDbSymbolTableRecord
100
AcDbLinetypeTableRecord
  2
CONTINUOUS
 70
64
  3
Solid line
 72
65
 73
0
 40
0.0
  0
LTYPE
  5
1F5
100
AcDbSymbolTableRecord
100
AcDbLinetypeTableRecord
  2
CENTER
 70
64
  3
____ _ ____ _ ____ _ ____ _ ____ _ ____ _ ____
 72
65
 73
4
 40
0.6
 49
0.375
 74
0
 49
-0.075
 74
0
 49
0.075
 74
0
 49
-0.075
 74
0
  0
LTYPE
  5
1F6
100
AcDbSymbolTableRecord
100
AcDbLinetypeTableRecord
  2
HIDDEN
 70
64
  3
- - - - - - - - - - - - - - - - - - - -
 72
65
 73
2
 40
0.2
 49
0.1
 74
0
 49
-0.1
 74
0
  0
LTYPE
  5
1F7
100
AcDbSymbolTableRecord
100
AcDbLinetypeTableRecord
  2
PHANTOM
 70
64
  3
_____ _ _ _____ _ _ _____ _ _ _____
 72
65
 73
6
 40
0.8
 49
0.45
 74
0
 49
-0.05
 74
0
 49
0.1
 74
0
 49
-0.05
 74
0
 49
0.1
 74
0
 49
-0.05
 74
0
  0
LTYPE
  5
1F8
100
AcDbSymbolTableRecord
100
AcDbLinetypeTableRecord
  2
DOT
 70
64
  3
. . . . . . . . . . . . . . . . . . . .
 72
65
 73
2
 40
0.2
 49
0.1
 74
0
 49
-0.1
 74
0
  0
LTYPE
  5
1F9
100
AcDbSymbolTableRecord
100
AcDbLinetypeTableRecord
  2
DASHED
 70
64
  3
- - - - - - - - - - - - - - - - - - - -
 72
65
 73
2
 40
0.2
 49
0.1
 74
0
 49
-0.1
 74
0
  0
ENDTAB
  0
TABLE
  2
LAYER
  5
2
100
AcDbSymbolTable
 70
36
  0
LAYER
  5
10
100
AcDbSymbolTableRecord
100
AcDbLayerTableRecord
  2
0
 70
0
 62
7
  6
CONTINUOUS
370
-3
390
F
  0
LAYER
  5
1FA
100
AcDbSymbolTableRecord
100
AcDbLayerTableRecord
  2
DEFAULT_1
 70
0
 62
7
  6
CENTER
370
-3
390
F
  0
LAYER
  5
1FB
100
AcDbSymbolTableRecord
100
AcDbLayerTableRecord
  2
DEFAULT_2
 70
0
 62
8
  6
HIDDEN
370
-3
390
F
  0
LAYER
  5
1FC
100
AcDbSymbolTableRecord
100
AcDbLayerTableRecord
  2
DEFAULT_3
 70
0
 62
7
  6
PHANTOM
370
-3
390
F
  0
LAYER
  5
1FD
100
AcDbSymbolTableRecord
100
AcDbLayerTableRecord
  2
DEFAULT_COORDINATE_SYSTEM
 70
0
 62
7
  6
CONTINUOUS
370
-3
390
F
  0
LAYER
  5
1FE
100
AcDbSymbolTableRecord
100
AcDbLayerTableRecord
  2
DEFAULT_DATUM_AXES
 70
0
 62
7
  6
CONTINUOUS
370
-3
390
F
  0
LAYER
  5
1FF
100
AcDbSymbolTableRecord
100
AcDbLayerTableRecord
  2
DEFAULT_DATUM_PLANES
 70
0
 62
7
  6
CONTINUOUS
370
-3
390
F
  0
ENDTAB
  0
TABLE
  2
STYLE
  5
3
100
AcDbSymbolTable
 70
1
  0
STYLE
  5
11
100
AcDbSymbolTableRecord
100
AcDbTextStyleTableRecord
  2
STANDARD
 70
0
 40
0.0
 41
0.8
 50
0.0
 71
0
 42
0.2
  3
txt
  4

  0
STYLE
  5
200
100
AcDbSymbolTableRecord
100
AcDbTextStyleTableRecord
  2
TEXTSTYLE_1
 70
0
 40
0.0
 41
0.8
 50
0.0
 71
0
 42
0.2
  3
gdt
  4

  0
ENDTAB
  0
TABLE
  2
VIEW
  5
6
100
AcDbSymbolTable
 70
0
  0
ENDTAB
  0
TABLE
  2
UCS
  5
7
100
AcDbSymbolTable
 70
0
  0
ENDTAB
  0
TABLE
  2
APPID
  5
9
100
AcDbSymbolTable
 70
1
  0
APPID
  5
201
100
AcDbSymbolTableRecord
100
AcDbRegAppTableRecord
  2
ACAD
 70
0
  0
ENDTAB
  0
TABLE
  2
BLOCK_RECORD
  5
1
100
AcDbSymbolTable
 70
0
  0
BLOCK_RECORD
  5
202
100
AcDbSymbolTableRecord
100
AcDbBlockTableRecord
  2
*Model_Space
  0
BLOCK_RECORD
  5
203
100
AcDbSymbolTableRecord
100
AcDbBlockTableRecord
  2
*Paper_Space
  0
ENDTAB
  0
TABLE
  2
DIMSTYLE
  5
A
100
AcDbSymbolTable
 70
1
100
AcDbDimStyleTable
 71
0
  0
DIMSTYLE
105
204
100
AcDbSymbolTableRecord
100
AcDbDimStyleTableRecord
  2
STANDARD
 70
0
  3

  4

 40
1.0
 41
0.1875
 42
0.0625
 43
0.38
 44
0.125
 45
0.0
 46
0.0
 47
0.001
 48
0.001
140
0.15625
141
0.09
142
0.0
143
25.4
144
1.0
145
0.0
146
1.0
147
0.09
 71
0.0
 72
0.0
 73
1
 74
1
 75
0
 76
0
 77
0
 78
4
170
0
171
2
172
0
173
0
174
0
175
0
176
0
177
0
178
0
270
2
271
3
272
3
273
2
274
2
275
0
280
0
281
0
282
0
283
1
284
4
285
0
286
0
287
3
288
0
340
11
278
46
  0
ENDTAB
  0
ENDSEC
  0
SECTION
  2
BLOCKS
  0
BLOCK
  5
20
100
AcDbEntity
  8
0
100
AcDbBlockBegin
  2
*Model_Space
 70
0
 10
0.0
 20
0.0
 30
0.0
  3
*Model_Space
  1

  0
ENDBLK
  5
21
100
AcDbEntity
  8
0
100
AcDbBlockEnd
  0
BLOCK
  5
1C
100
AcDbEntity
  8
0
100
AcDbBlockBegin
  2
*Paper_Space
 70
0
 10
0.0
 20
0.0
 30
0.0
  3
*Paper_Space
  1

  0
ENDBLK
  5
1D
100
AcDbEntity
  8
0
100
AcDbBlockEnd
  0
ENDSEC
  0
SECTION
  2
ENTITIES
  0
LINE
  5
205
100
AcDbEntity
  8
0
100
AcDbLine
 62
6
  6
CONTINUOUS
 10
10.1075344917
 20
1.8500272408
 11
10.5155344917
 21
1.8500272408
  0
LINE
  5
206
100
AcDbEntity
  8
0
100
AcDbLine
 62
9
  6
CONTINUOUS
 10
10.0775344917
 20
1.8800272408
 11
10.5155344917
 21
1.8800272408
  0
LINE
  5
207
100
AcDbEntity
  8
0
100
AcDbLine
 62
6
  6
CONTINUOUS
 10
8.4340541767
 20
3.5732555873
 11
10.0775344917
 21
3.5732555873
  0
LINE
  5
208
100
AcDbEntity
  8
0
100
AcDbLine
 62
6
  6
CONTINUOUS
 10
8.4340541767
 20
3.7450272408
 11
8.1840541767
 21
3.7450272408
  0
LINE
  5
209
100
AcDbEntity
  8
0
100
AcDbLine
 62
6
  6
CONTINUOUS
 10
6.5343941659
 20
3.1625272408
 11
6.5343941659
 21
5.6375272408
  0
LINE
  5
20A
100
AcDbEntity
  8
0
100
AcDbLine
 62
9
  6
CONTINUOUS
 10
7.3068603611
 20
7.4165409711
 11
7.3068385439
 21
7.4165220779
  0
LINE
  5
20B
100
AcDbEntity
  8
0
100
AcDbLine
 62
6
  6
CONTINUOUS
 10
7.2138429848
 20
7.3359855613
 11
7.3068388659
 21
7.4165223568
  0
LINE
  5
20C
100
AcDbEntity
  8
0
100
AcDbLine
 62
6
  6
CONTINUOUS
 10
7.2831693376
 20
4.0250272408
 11
7.5343941659
 21
4.0250272408
  0
LINE
  5
20D
100
AcDbEntity
  8
0
100
AcDbLine
 62
6
  6
CONTINUOUS
 10
7.5343941659
 20
4.0850272408
 11
8.1343941659
 21
4.0850272408
  0
LINE
  5
20E
100
AcDbEntity
  8
0
100
AcDbLine
 62
6
  6
CONTINUOUS
 10
6.9343941659
 20
4.9411170793
 11
6.9523438925
 21
4.9100272408
  0
LINE
  5
20F
100
AcDbEntity
  8
0
100
AcDbLine
 62
9
  6
CONTINUOUS
 10
6.933285699
 20
5.6585547936
 11
6.9332886632
 21
5.6585189051
  0
LINE
  5
210
100
AcDbEntity
  8
0
100
AcDbLine
 62
6
  6
CONTINUOUS
 10
6.8138429848
 20
6.3125272408
 11
6.8138429848
 21
8.7875272408
  0
LINE
  5
211
100
AcDbEntity
  8
0
100
AcDbLine
 62
9
  6
CONTINUOUS
 10
6.9343941425
 20
3.8603730899
 11
6.934394165
 21
3.8601744406
  0
LINE
  5
212
100
AcDbEntity
  8
0
100
AcDbLine
 62
6
  6
CONTINUOUS
 10
6.9343941659
 20
3.1625272408
 11
6.9343941659
 21
3.7055868723
  0
LINE
  5
213
100
AcDbEntity
  8
0
100
AcDbLine
 62
6
  6
CONTINUOUS
 10
6.9343941659
 20
3.8601733787
 11
6.9343941659
 21
5.6343032927
  0
LINE
  5
214
100
AcDbEntity
  8
0
100
AcDbLine
 62
9
  6
CONTINUOUS
 10
6.9343941658
 20
3.70564328
 11
6.934394164
 21
3.705611532
  0
LINE
  5
215
100
AcDbEntity
  8
0
100
AcDbLine
 62
6
  6
CONTINUOUS
 10
7.2149383813
 20
6.8594368584
 11
7.2156538745
 21
6.8619201498
  0
LINE
  5
216
100
AcDbEntity
  8
0
100
AcDbLine
 62
6
  6
CONTINUOUS
 10
7.2156573448
 20
6.8619313176
 11
7.2166608357
 21
6.8648472183
  0
LINE
  5
217
100
AcDbEntity
  8
0
100
AcDbLine
 62
6
  6
CONTINUOUS
 10
7.2166456536
 20
6.8648065479
 11
7.2180161317
 21
6.86816927
  0
LINE
  5
218
100
AcDbEntity
  8
0
100
AcDbLine
 62
6
  6
CONTINUOUS
 10
7.2179752988
 20
6.8680767285
 11
7.2197674779
 21
6.8718115637
  0
LINE
  5
219
100
AcDbEntity
  8
0
100
AcDbLine
 62
6
  6
CONTINUOUS
 10
7.2197009911
 20
6.8716833564
 11
7.2219664755
 21
6.8757095566
  0
LINE
  5
21A
100
AcDbEntity
  8
0
100
AcDbLine
 62
6
  6
CONTINUOUS
 10
7.2218678923
 20
6.8755472894
 11
7.2246664462
 21
6.8797975039
  0
LINE
  5
21B
100
AcDbEntity
  8
0
100
AcDbLine
 62
6
  6
CONTINUOUS
 10
7.2245187995
 20
6.8795898879
 11
7.2279091517
 21
6.8839889533
  0
LWPOLYLINE
  5
21C
100
AcDbEntity
  8
0
100
AcDbPolyline
 62
6
  6
CONTINUOUS
 90
3
 70
0
 10
7.2277262796
 20
6.8837696513
 10
7.2317194724
 20
6.8881796067
 10
7.2356770853
 20
6.8918879474
  0
LINE
  5
21D
100
AcDbEntity
  8
0
100
AcDbLine
 62
6
  6
CONTINUOUS
 10
7.2315664027
 20
6.888023994
 11
7.2316460811
 21
6.8880988898
  0
LINE
  5
21E
100
AcDbEntity
  8
0
100
AcDbLine
 62
9
  6
CONTINUOUS
 10
7.6516355089
 20
7.2521185293
 11
7.6516482379
 21
7.2521295546
  0
LINE
  5
21F
100
AcDbEntity
  8
0
100
AcDbLine
 62
6
  6
CONTINUOUS
 10
7.2356772678
 20
6.8918881256
 11
7.651622467
 21
7.2521072347
  0
LINE
  5
220
100
AcDbEntity
  8
0
100
AcDbLine
 62
6
  6
CONTINUOUS
 10
8.1840541767
 20
4.2150272408
 11
8.1343941659
 21
4.2150272408
  0
LINE
  5
221
100
AcDbEntity
  8
0
100
AcDbLine
 62
6
  6
CONTINUOUS
 10
6.9448447065
 20
5.623016212
 11
7.4084506051
 21
4.8200272408
  0
LINE
  5
222
100
AcDbEntity
  8
0
100
AcDbLine
 62
6
  6
CONTINUOUS
 10
6.9334725345
 20
5.6569289428
 11
6.9333799779
 21
5.6577018364
  0
LINE
  5
223
100
AcDbEntity
  8
0
100
AcDbLine
 62
6
  6
CONTINUOUS
 10
6.9334694704
 20
5.6569536544
 11
6.9333777038
 21
5.6577215642
  0
LINE
  5
224
100
AcDbEntity
  8
0
100
AcDbLine
 62
6
  6
CONTINUOUS
 10
6.9332857449
 20
5.6585542976
 11
6.9333799779
 21
5.6577018364
  0
LINE
  5
225
100
AcDbEntity
  8
0
100
AcDbLine
 62
6
  6
CONTINUOUS
 10
7.2138429848
 20
6.3125272408
 11
7.2138429848
 21
6.8555868723
  0
LINE
  5
226
100
AcDbEntity
  8
0
100
AcDbLine
 62
6
  6
CONTINUOUS
 10
7.2138429848
 20
7.0101733787
 11
7.2138429848
 21
8.7843032927
  0
LINE
  5
227
100
AcDbEntity
  8
0
100
AcDbLine
 62
9
  6
CONTINUOUS
 10
7.2138429614
 20
7.0103730899
 11
7.2138429838
 21
7.0101744406
  0
LINE
  5
228
100
AcDbEntity
  8
0
100
AcDbLine
 62
9
  6
CONTINUOUS
 10
7.2138429847
 20
6.85564328
 11
7.2138429829
 21
6.855611532
  0
LINE
  5
229
100
AcDbEntity
  8
0
100
AcDbLine
 62
6
  6
CONTINUOUS
 10
7.2138429848
 20
6.8537948078
 11
7.2138451569
 21
6.8538171098
  0
LINE
  5
22A
100
AcDbEntity
  8
0
100
AcDbLine
 62
6
  6
CONTINUOUS
 10
6.9343941659
 20
3.7037948078
 11
6.934396338
 21
3.7038171098
  0
LINE
  5
22B
100
AcDbEntity
  8
0
100
AcDbLine
 62
6
  6
CONTINUOUS
 10
7.2138429848
 20
6.8537911437
 11
7.2139497899
 21
6.8546397663
  0
LINE
  5
22C
100
AcDbEntity
  8
0
100
AcDbLine
 62
6
  6
CONTINUOUS
 10
6.9343941659
 20
3.7037911437
 11
6.934500971
 21
3.7046397663
  0
LINE
  5
22D
100
AcDbEntity
  8
0
100
AcDbLine
 62
6
  6
CONTINUOUS
 10
7.2139404039
 20
6.8545699633
 11
7.2141417387
 21
6.8558352308
  0
LINE
  5
22E
100
AcDbEntity
  8
0
100
AcDbLine
 62
6
  6
CONTINUOUS
 10
6.934491585
 20
3.7045699633
 11
6.9346929198
 21
3.7058352308
  0
LINE
  5
22F
100
AcDbEntity
  8
0
100
AcDbLine
 62
6
  6
CONTINUOUS
 10
7.2141338037
 20
6.8557883566
 11
7.2144563496
 21
6.8574257123
  0
LINE
  5
230
100
AcDbEntity
  8
0
100
AcDbLine
 62
6
  6
CONTINUOUS
 10
7.2144538483
 20
6.8574147381
 11
7.2149478133
 21
6.8594730405
  0
LINE
  5
231
100
AcDbEntity
  8
0
100
AcDbLine
 62
6
  6
CONTINUOUS
 10
8.1840541767
 20
4.5850272408
 11
8.1343941659
 21
4.5850272408
  0
LINE
  5
232
100
AcDbEntity
  8
0
100
AcDbLine
 62
6
  6
CONTINUOUS
 10
7.5343941659
 20
4.7150272408
 11
8.1343941659
 21
4.7150272408
  0
LINE
  5
233
100
AcDbEntity
  8
0
100
AcDbLine
 62
6
  6
CONTINUOUS
 10
7.4863928915
 20
4.7750272408
 11
7.5343941659
 21
4.7750272408
  0
LINE
  5
234
100
AcDbEntity
  8
0
100
AcDbLine
 62
9
  6
CONTINUOUS
 10
7.2127345179
 20
8.8085547936
 11
7.2127374819
 21
8.8085189069
  0
LINE
  5
235
100
AcDbEntity
  8
0
100
AcDbLine
 62
6
  6
CONTINUOUS
 10
7.5343941659
 20
4.0250324236
 11
7.5343941659
 21
4.775022058
  0
LINE
  5
236
100
AcDbEntity
  8
0
100
AcDbLine
 62
6
  6
CONTINUOUS
 10
6.9346849848
 20
3.7057883566
 11
6.9350075307
 21
3.7074257123
  0
LINE
  5
237
100
AcDbEntity
  8
0
100
AcDbLine
 62
6
  6
CONTINUOUS
 10
6.9350050294
 20
3.7074147381
 11
6.9354989944
 21
3.7094730405
  0
LINE
  5
238
100
AcDbEntity
  8
0
100
AcDbLine
 62
6
  6
CONTINUOUS
 10
6.9354895624
 20
3.7094368584
 11
6.9362050556
 21
3.7119201498
  0
LINE
  5
239
100
AcDbEntity
  8
0
100
AcDbLine
 62
6
  6
CONTINUOUS
 10
8.4340541767
 20
5.0550272408
 11
8.1840541767
 21
5.0550272408
  0
LINE
  5
23A
100
AcDbEntity
  8
0
100
AcDbLine
 62
6
  6
CONTINUOUS
 10
7.2129213534
 20
8.8069289427
 11
7.2128287968
 21
8.8077018364
  0
LINE
  5
23B
100
AcDbEntity
  8
0
100
AcDbLine
 62
6
  6
CONTINUOUS
 10
7.2129182892
 20
8.8069536544
 11
7.2128265226
 21
8.8077215642
  0
LINE
  5
23C
100
AcDbEntity
  8
0
100
AcDbLine
 62
6
  6
CONTINUOUS
 10
7.2127345638
 20
8.8085542976
 11
7.2128287968
 21
8.8077018364
  0
LINE
  5
23D
100
AcDbEntity
  8
0
100
AcDbLine
 62
6
  6
CONTINUOUS
 10
7.8138429848
 20
7.1750324236
 11
7.8138429848
 21
7.925022058
  0
LINE
  5
23E
100
AcDbEntity
  8
0
100
AcDbLine
 62
6
  6
CONTINUOUS
 10
6.9362085259
 20
3.7119313176
 11
6.9372120168
 21
3.7148472183
  0
LINE
  5
23F
100
AcDbEntity
  8
0
100
AcDbLine
 62
6
  6
CONTINUOUS
 10
6.9371968347
 20
3.7148065479
 11
6.9385673128
 21
3.71816927
  0
LINE
  5
240
100
AcDbEntity
  8
0
100
AcDbLine
 62
6
  6
CONTINUOUS
 10
10.0775344917
 20
5.2262714482
 11
9.968353614
 21
5.2262714482
  0
LINE
  5
241
100
AcDbEntity
  8
0
100
AcDbLine
 62
6
  6
CONTINUOUS
 10
8.6949291767
 20
5.2267988944
 11
8.4340541767
 21
5.2267988944
  0
LINE
  5
242
100
AcDbEntity
  8
0
100
AcDbLine
 62
6
  6
CONTINUOUS
 10
9.1011791767
 20
5.2267988944
 11
9.9383691373
 21
5.2267988943
  0
LINE
  5
243
100
AcDbEntity
  8
0
100
AcDbLine
 62
9
  6
CONTINUOUS
 10
8.7055541767
 20
5.3567988944
 11
9.0905541767
 21
5.3567988944
  0
LINE
  5
244
100
AcDbEntity
  8
0
100
AcDbLine
 62
9
  6
CONTINUOUS
 10
8.7155563156
 20
5.3667988944
 11
9.0805520378
 21
5.3667988944
  0
LINE
  5
245
100
AcDbEntity
  8
0
100
AcDbLine
 62
6
  6
CONTINUOUS
 10
8.1343941659
 20
4.715018589
 11
8.1343941659
 21
4.0850358926
  0
LINE
  5
246
100
AcDbEntity
  8
0
100
AcDbLine
 62
6
  6
CONTINUOUS
 10
8.1840541767
 20
5.0550272408
 11
8.1840541767
 21
3.7450272408
  0
LINE
  5
247
100
AcDbEntity
  8
0
100
AcDbLine
 62
6
  6
CONTINUOUS
 10
6.9385264799
 20
3.7180767285
 11
6.940318659
 21
3.7218115637
  0
LINE
  5
248
100
AcDbEntity
  8
0
100
AcDbLine
 62
6
  6
CONTINUOUS
 10
6.9402521722
 20
3.7216833564
 11
6.9425176566
 21
3.7257095566
  0
LINE
  5
249
100
AcDbEntity
  8
0
100
AcDbLine
 62
6
  6
CONTINUOUS
 10
8.4138429848
 20
7.865018589
 11
8.4138429848
 21
7.2350358926
  0
LINE
  5
24A
100
AcDbEntity
  8
0
100
AcDbLine
 62
6
  6
CONTINUOUS
 10
8.4340541767
 20
5.2267988944
 11
8.4340541767
 21
3.5732555873
  0
LINE
  5
24B
100
AcDbEntity
  8
0
100
AcDbLine
 62
6
  6
CONTINUOUS
 10
8.4635029956
 20
6.9025310202
 11
8.4635029956
 21
8.1975234614
  0
LINE
  5
24C
100
AcDbEntity
  8
0
100
AcDbLine
 62
6
  6
CONTINUOUS
 10
6.9424190734
 20
3.7255472894
 11
6.9452176273
 21
3.7297975039
  0
LINE
  5
24D
100
AcDbEntity
  8
0
100
AcDbLine
 62
6
  6
CONTINUOUS
 10
7.2138429848
 20
8.0911170793
 11
7.2317927114
 21
8.0600272408
  0
LINE
  5
24E
100
AcDbEntity
  8
0
100
AcDbLine
 62
6
  6
CONTINUOUS
 10
8.7055541767
 20
5.2242720353
 11
8.7055541767
 21
5.3567988944
  0
LINE
  5
24F
100
AcDbEntity
  8
0
100
AcDbLine
 62
6
  6
CONTINUOUS
 10
8.7655344917
 20
6.7232620665
 11
8.7655344917
 21
8.3767924151
  0
LINE
  5
250
100
AcDbEntity
  8
0
100
AcDbLine
 62
6
  6
CONTINUOUS
 10
6.9450699806
 20
3.7295898879
 11
6.9484603328
 21
3.7339889533
  0
LWPOLYLINE
  5
251
100
AcDbEntity
  8
0
100
AcDbPolyline
 62
6
  6
CONTINUOUS
 90
3
 70
0
 10
6.9482774607
 20
3.7337696513
 10
6.9522706535
 20
3.7381796067
 10
6.9562282664
 20
3.7418879474
  0
LINE
  5
252
100
AcDbEntity
  8
0
100
AcDbLine
 62
6
  6
CONTINUOUS
 10
6.9343941659
 20
4.1859855613
 11
7.027390047
 21
4.2665223568
  0
LINE
  5
253
100
AcDbEntity
  8
0
100
AcDbLine
 62
9
  6
CONTINUOUS
 10
7.0274115422
 20
4.2665409711
 11
7.027389725
 21
4.2665220779
  0
LINE
  5
254
100
AcDbEntity
  8
0
100
AcDbLine
 62
6
  6
CONTINUOUS
 10
7.2242935254
 20
8.773016212
 11
7.687899424
 21
7.9700272408
  0
LINE
  5
255
100
AcDbEntity
  8
0
100
AcDbLine
 62
6
  6
CONTINUOUS
 10
9.0905541767
 20
5.2242719984
 11
9.0905541767
 21
5.3567988944
  0
LINE
  5
256
100
AcDbEntity
  8
0
100
AcDbLine
 62
6
  6
CONTINUOUS
 10
6.9521175838
 20
3.738023994
 11
6.9521972623
 21
3.7380988898
  0
LINE
  5
257
100
AcDbEntity
  8
0
100
AcDbLine
 62
9
  6
CONTINUOUS
 10
7.37218669
 20
4.1021185293
 11
7.372199419
 21
4.1021295546
  0
LINE
  5
258
100
AcDbEntity
  8
0
100
AcDbLine
 62
6
  6
CONTINUOUS
 10
6.9562284489
 20
3.7418881256
 11
7.3721736481
 21
4.1021072347
  0
LINE
  5
259
100
AcDbEntity
  8
0
100
AcDbLine
 62
6
  6
CONTINUOUS
 10
10.0775344917
 20
6.7232572408
 11
8.7655344917
 21
6.7232572408
  0
LINE
  5
25A
100
AcDbEntity
  8
0
100
AcDbLine
 62
6
  6
CONTINUOUS
 10
8.4635029956
 20
6.9025272408
 11
8.7655344917
 21
6.9025272408
  0
LINE
  5
25B
100
AcDbEntity
  8
0
100
AcDbLine
 62
6
  6
CONTINUOUS
 10
7.5626181565
 20
7.1750272408
 11
7.8138429848
 21
7.1750272408
  0
LINE
  5
25C
100
AcDbEntity
  8
0
100
AcDbLine
 62
6
  6
CONTINUOUS
 10
7.8138429848
 20
7.2350272408
 11
8.4138429848
 21
7.2350272408
  0
LINE
  5
25D
100
AcDbEntity
  8
0
100
AcDbLine
 62
7
  6
CONTINUOUS
 10
9.9068730744
 20
3.5732555873
 11
9.9068730744
 21
5.2267988943
  0
LINE
  5
25E
100
AcDbEntity
  8
0
100
AcDbLine
 62
6
  6
CONTINUOUS
 10
9.9380541767
 20
5.2267988944
 11
9.9380541767
 21
3.5732555873
  0
LINE
  5
25F
100
AcDbEntity
  8
0
100
AcDbLine
 62
6
  6
CONTINUOUS
 10
10.0775344917
 20
1.8800272408
 11
10.0775344917
 21
10.0700272408
  0
LINE
  5
260
100
AcDbEntity
  8
0
100
AcDbLine
 62
6
  6
CONTINUOUS
 10
8.4138429848
 20
7.3650272408
 11
8.4635029956
 21
7.3650272408
  0
LINE
  5
261
100
AcDbEntity
  8
0
100
AcDbLine
 62
9
  6
CONTINUOUS
 10
10.1075344917
 20
1.8500272408
 11
10.1075344917
 21
10.1000272408
  0
LINE
  5
262
100
AcDbEntity
  8
0
100
AcDbLine
 62
6
  6
CONTINUOUS
 10
8.4138429848
 20
7.7350272408
 11
8.4635029956
 21
7.7350272408
  0
LINE
  5
263
100
AcDbEntity
  8
0
100
AcDbLine
 62
6
  6
CONTINUOUS
 10
10.5155344917
 20
1.8500272408
 11
10.5155344917
 21
10.1000272408
  0
LINE
  5
264
100
AcDbEntity
  8
0
100
AcDbLine
 62
6
  6
CONTINUOUS
 10
7.8138429848
 20
7.8650272408
 11
8.4138429848
 21
7.8650272408
  0
LINE
  5
265
100
AcDbEntity
  8
0
100
AcDbLine
 62
6
  6
CONTINUOUS
 10
7.7658417104
 20
7.9250272408
 11
7.8138429848
 21
7.9250272408
  0
LINE
  5
266
100
AcDbEntity
  8
0
100
AcDbLine
 62
6
  6
CONTINUOUS
 10
8.4635029956
 20
8.1975272408
 11
8.7655344917
 21
8.1975272408
  0
LINE
  5
267
100
AcDbEntity
  8
0
100
AcDbLine
 62
6
  6
CONTINUOUS
 10
10.0775344917
 20
8.3767972408
 11
8.7655344917
 21
8.3767972408
  0
LINE
  5
268
100
AcDbEntity
  8
0
100
AcDbLine
 62
9
  6
CONTINUOUS
 10
10.0775344917
 20
10.0700272408
 11
10.5155344917
 21
10.0700272408
  0
LINE
  5
269
100
AcDbEntity
  8
0
100
AcDbLine
 62
6
  6
CONTINUOUS
 10
10.1075344917
 20
10.1000272408
 11
10.5155344917
 21
10.1000272408
  0
ARC
  5
26A
100
AcDbEntity
  8
0
100
AcDbCircle
 62
6
  6
CONTINUOUS
 10
6.7343941659
 20
5.6375272408
 40
0.2
100
AcDbArc
 50
6.034909015
 51
180.0
  0
ARC
  5
26B
100
AcDbEntity
  8
0
100
AcDbCircle
 62
6
  6
CONTINUOUS
 10
6.7343941659
 20
3.1625272408
 40
0.2
100
AcDbArc
 50
180.0
 51
360.0
  0
ARC
  5
26C
100
AcDbEntity
  8
0
100
AcDbCircle
 62
6
  6
CONTINUOUS
 10
7.0138429848
 20
8.7875272408
 40
0.2
100
AcDbArc
 50
6.034909015
 51
180.0
  0
ARC
  5
26D
100
AcDbEntity
  8
0
100
AcDbCircle
 62
6
  6
CONTINUOUS
 10
7.0138429848
 20
6.3125272408
 40
0.2
100
AcDbArc
 50
180.0
 51
360.0
  0
ARC
  5
26E
100
AcDbEntity
  8
0
100
AcDbCircle
 62
6
  6
CONTINUOUS
 10
7.0227869928
 20
5.668016212
 40
0.09
100
AcDbArc
 50
186.0349090625
 51
187.0604987886
  0
ARC
  5
26F
100
AcDbEntity
  8
0
100
AcDbCircle
 62
6
  6
CONTINUOUS
 10
7.4863928915
 20
4.8650272408
 40
0.09
100
AcDbArc
 50
210.0
 51
270.0000000005
  0
ARC
  5
270
100
AcDbEntity
  8
0
100
AcDbCircle
 62
6
  6
CONTINUOUS
 10
6.8744016061
 20
4.8650272408
 40
0.09
100
AcDbArc
 50
312.3871487468
 51
29.9999999917
  0
ARC
  5
271
100
AcDbEntity
  8
0
100
AcDbCircle
 62
6
  6
CONTINUOUS
 10
7.3022358117
 20
8.818016212
 40
0.09
100
AcDbArc
 50
186.0349090625
 51
187.0604987654
  0
ARC
  5
272
100
AcDbEntity
  8
0
100
AcDbCircle
 62
6
  6
CONTINUOUS
 10
7.7658417104
 20
8.0150272408
 40
0.09
100
AcDbArc
 50
210.0
 51
270.0000000005
  0
ARC
  5
273
100
AcDbEntity
  8
0
100
AcDbCircle
 62
6
  6
CONTINUOUS
 10
7.153850425
 20
8.0150272408
 40
0.09
100
AcDbArc
 50
312.3871487468
 51
29.9999999917
  0
ARC
  5
274
100
AcDbEntity
  8
0
100
AcDbCircle
 62
6
  6
CONTINUOUS
 10
7.0227869928
 20
5.668016212
 40
0.09
100
AcDbArc
 50
187.0763511005
 51
210.0000000005
  0
ARC
  5
275
100
AcDbEntity
  8
0
100
AcDbCircle
 62
6
  6
CONTINUOUS
 10
7.3022358117
 20
8.818016212
 40
0.09
100
AcDbArc
 50
187.0763511531
 51
210.0000000005
  0
ARC
  5
276
100
AcDbEntity
  8
0
100
AcDbCircle
 62
6
  6
CONTINUOUS
 10
10.1075344917
 20
10.0700272408
 40
0.03
100
AcDbArc
 50
90.0
 51
180.0
  0
ARC
  5
277
100
AcDbEntity
  8
0
100
AcDbCircle
 62
6
  6
CONTINUOUS
 10
10.1075344917
 20
1.8800272408
 40
0.03
100
AcDbArc
 50
180.0
 51
270.0
  0
ARC
  5
278
100
AcDbEntity
  8
0
100
AcDbCircle
 62
6
  6
CONTINUOUS
 10
8.7155541767
 20
5.3567988944
 40
0.01
100
AcDbArc
 50
90.0
 51
180.0
  0
ARC
  5
279
100
AcDbEntity
  8
0
100
AcDbCircle
 62
6
  6
CONTINUOUS
 10
9.0805541767
 20
5.3567988944
 40
0.01
100
AcDbArc
 50
0.0
 51
90.0
  0
SPLINE
  5
27A
100
AcDbEntity
  8
0
100
AcDbSpline
 62
6
  6
CONTINUOUS
 70
0
 71
3
 72
32
 73
28
 74
0
 42
0.0000001
 43
0.0000001
 44
0.0000000001
 40
0.0
 40
0.0
 40
0.0
 40
0.0
 40
0.1934339676
 40
0.3798795061
 40
0.4682157372
 40
0.5522012886
 40
0.6310475766
 40
0.7039736146
 40
0.7702469681
 40
0.8292047468
 40
0.880191782
 40
0.9025168058
 40
0.922660762
 40
0.9405746414
 40
0.9562094283
 40
0.9695161015
 40
0.9804464675
 40
0.9850101975
 40
0.9889709582
 40
0.9923274431
 40
0.9950783457
 40
0.9972223592
 40
0.9987581771
 40
0.9992976044
 40
0.9996844928
 40
0.9999186791
 40
1.0
 40
1.0
 40
1.0
 40
1.0
 10
9.9683536137
 20
5.2262714483
 30
0.0
 10
9.966419978
 20
5.2262714483
 30
0.0
 10
9.9626225536
 20
5.2262844496
 30
0.0
 10
9.9579423039
 20
5.2263316189
 30
0.0
 10
9.9543563289
 20
5.2263850117
 30
0.0
 10
9.9518459639
 20
5.2264301308
 30
0.0
 10
9.9494897509
 20
5.2264791928
 30
0.0
 10
9.9473106858
 20
5.2265303542
 30
0.0
 10
9.9453304998
 20
5.2265817274
 30
0.0
 10
9.9435696556
 20
5.2266312862
 30
0.0
 10
9.9422480345
 20
5.2266710044
 30
0.0
 10
9.9413142724
 20
5.2267002545
 30
0.0
 10
9.9407109743
 20
5.2267196203
 30
0.0
 10
9.9401745321
 20
5.2267372219
 30
0.0
 10
9.939706411
 20
5.2267528769
 30
0.0
 10
9.9393080676
 20
5.2267664088
 30
0.0
 10
9.9390203339
 20
5.2267762771
 30
0.0
 10
9.9388259713
 20
5.2267829703
 30
0.0
 10
9.9387072756
 20
5.2267870699
 30
0.0
 10
9.9386066912
 20
5.2267905568
 30
0.0
 10
9.9385242568
 20
5.2267934193
 30
0.0
 10
9.9384600126
 20
5.2267956716
 30
0.0
 10
9.93841786
 20
5.2267971292
 30
0.0
 10
9.9383932647
 20
5.2267980245
 30
0.0
 10
9.9383816683
 20
5.2267983902
 30
0.0
 10
9.9383746565
 20
5.2267987231
 30
0.0
 10
9.9383714992
 20
5.226798752
 30
0.0
 10
9.9383706893
 20
5.2267988217
 30
0.0
  0
SPLINE
  5
27B
100
AcDbEntity
  8
0
100
AcDbSpline
 62
6
  6
CONTINUOUS
 70
0
 71
3
 72
49
 73
45
 74
0
 42
0.0000001
 43
0.0000001
 44
0.0000000001
 40
0.0
 40
0.0
 40
0.0
 40
0.0
 40
0.0006201919
 40
0.0024752705
 40
0.0055569965
 40
0.0098571399
 40
0.0153646654
 40
0.0220585635
 40
0.0299156652
 40
0.0389128737
 40
0.0490253864
 40
0.0602212685
 40
0.0857287731
 40
0.1151604105
 40
0.1482090398
 40
0.1845550765
 40
0.2238538717
 40
0.2657496063
 40
0.3098554444
 40
0.3557726014
 40
0.4030682437
 40
0.4512988659
 40
0.4999994331
 40
0.5487001587
 40
0.5969310348
 40
0.6442268471
 40
0.6901440788
 40
0.7342499335
 40
0.7761456075
 40
0.8154442735
 40
0.8517902483
 40
0.8848390191
 40
0.9142708889
 40
0.9397785512
 40
0.9509744906
 40
0.9610870393
 40
0.9700842722
 40
0.9779413973
 40
0.9846353147
 40
0.990142852
 40
0.9944430005
 40
0.9975247289
 40
0.9993798081
 40
1.0
 40
1.0
 40
1.0
 40
1.0
 10
9.1011791767
 20
5.2267988944
 30
0.0
 10
9.1010968155
 20
5.2267785311
 30
0.0
 10
9.1007680623
 20
5.2266974136
 30
0.0
 10
9.1000297215
 20
5.2265164741
 30
0.0
 10
9.0988020218
 20
5.2262174135
 30
0.0
 10
9.0970882229
 20
5.2258027586
 30
0.0
 10
9.0948932633
 20
5.225275543
 30
0.0
 10
9.0922234011
 20
5.2246421018
 30
0.0
 10
9.0890866034
 20
5.2239088372
 30
0.0
 10
9.0854913308
 20
5.2230824454
 30
0.0
 10
9.0814472337
 20
5.2221699283
 30
0.0
 10
9.0751933563
 20
5.2207897715
 30
0.0
 10
9.0663427671
 20
5.2189130687
 30
0.0
 10
9.0545378577
 20
5.2165610849
 30
0.0
 10
9.0412420829
 20
5.2141100575
 30
0.0
 10
9.0265769635
 20
5.2116513288
 30
0.0
 10
9.0106729094
 20
5.2092769918
 30
0.0
 10
8.993672164
 20
5.2070804019
 30
0.0
 10
8.9757286875
 20
5.2051435762
 30
0.0
 10
8.9570097683
 20
5.2035501914
 30
0.0
 10
8.9376954618
 20
5.2023577376
 30
0.0
 10
8.9179770771
 20
5.2016253583
 30
0.0
 10
8.8980543877
 20
5.2013742324
 30
0.0
 10
8.8781316639
 20
5.2016253635
 30
0.0
 10
8.8584131985
 20
5.2023577168
 30
0.0
 10
8.839098824
 20
5.203550177
 30
0.0
 10
8.8203798683
 20
5.2051435533
 30
0.0
 10
8.8024363877
 20
5.207080381
 30
0.0
 10
8.7854356646
 20
5.2092769581
 30
0.0
 10
8.7695316445
 20
5.2116512903
 30
0.0
 10
8.7548665302
 20
5.2141100081
 30
0.0
 10
8.741570714
 20
5.2165610468
 30
0.0
 10
8.7297657319
 20
5.2189130371
 30
0.0
 10
8.7209150823
 20
5.2207897501
 30
0.0
 10
8.7146611719
 20
5.222169917
 30
0.0
 10
8.7106170589
 20
5.2230824371
 30
0.0
 10
8.7070217748
 20
5.22390883
 30
0.0
 10
8.7038849683
 20
5.2246420969
 30
0.0
 10
8.701215099
 20
5.2252755406
 30
0.0
 10
8.6990201347
 20
5.2258027577
 30
0.0
 10
8.6973063332
 20
5.2262174129
 30
0.0
 10
8.6960786324
 20
5.2265164738
 30
0.0
 10
8.6953402912
 20
5.2266974135
 30
0.0
 10
8.695011538
 20
5.2267785311
 30
0.0
 10
8.6949291767
 20
5.2267988944
 30
0.0
  0
SPLINE
  5
27C
100
AcDbEntity
  8
0
100
AcDbSpline
 62
9
  6
CONTINUOUS
 70
0
 71
3
 72
37
 73
33
 74
0
 42
0.0000001
 43
0.0000001
 44
0.0000000001
 40
0.0
 40
0.0
 40
0.0
 40
0.0
 40
0.035365283
 40
0.0703929534
 40
0.1050600378
 40
0.1393455456
 40
0.1732318816
 40
0.2067052555
 40
0.2723717319
 40
0.3045688988
 40
0.3363452406
 40
0.3677121101
 40
0.3986870011
 40
0.4292937385
 40
0.4595609464
 40
0.4895226804
 40
0.5192192119
 40
0.5486972737
 40
0.57800941
 40
0.6072066973
 40
0.6363404081
 40
0.6654655256
 40
0.6946406339
 40
0.7239267433
 40
0.7533779754
 40
0.7830435177
 40
0.8129722714
 40
0.8432128651
 40
0.8738102938
 40
0.9047846686
 40
0.9361425085
 40
1.0
 40
1.0
 40
1.0
 40
1.0
 10
7.3347460691
 20
4.0690926247
 30
0.0
 10
7.3374121722
 20
4.0695646637
 30
0.0
 10
7.3427098962
 20
4.0705562542
 30
0.0
 10
7.3505837707
 20
4.0722019009
 30
0.0
 10
7.358338296
 20
4.074005311
 30
0.0
 10
7.365962657
 20
4.0759728286
 30
0.0
 10
7.3734462262
 20
4.0781108529
 30
0.0
 10
7.3831589981
 20
4.0811773268
 30
0.0
 10
7.3926130062
 20
4.0846253101
 30
0.0
 10
7.4017557515
 20
4.0884922479
 30
0.0
 10
7.4083749221
 20
4.0915729098
 30
0.0
 10
7.4147902847
 20
4.094857842
 30
0.0
 10
7.4209917422
 20
4.0983521183
 30
0.0
 10
7.4269687597
 20
4.1020608185
 30
0.0
 10
7.4327121175
 20
4.1059864047
 30
0.0
 10
7.4382126544
 20
4.11013108
 30
0.0
 10
7.4434610834
 20
4.114497109
 30
0.0
 10
7.4484481577
 20
4.1190866022
 30
0.0
 10
7.4531637511
 20
4.1239014926
 30
0.0
 10
7.4575996193
 20
4.1289403261
 30
0.0
 10
7.4617478401
 20
4.1342004009
 30
0.0
 10
7.4656000357
 20
4.1396790121
 30
0.0
 10
7.469147968
 20
4.1453732563
 30
0.0
 10
7.4723825336
 20
4.1512796987
 30
0.0
 10
7.4752973672
 20
4.1573918935
 30
0.0
 10
7.477886733
 20
4.1637021005
 30
0.0
 10
7.4801443977
 20
4.1702024006
 30
0.0
 10
7.4820642781
 20
4.176884604
 30
0.0
 10
7.4836393412
 20
4.1837383767
 30
0.0
 10
7.4848676311
 20
4.1907497016
 30
0.0
 10
7.4860475534
 20
4.2003413943
 30
0.0
 10
7.4863926321
 20
4.207638307
 30
0.0
 10
7.4863928915
 20
4.2125272408
 30
0.0
  0
SPLINE
  5
27D
100
AcDbEntity
  8
0
100
AcDbSpline
 62
9
  6
CONTINUOUS
 70
0
 71
3
 72
66
 73
62
 74
0
 42
0.0000001
 43
0.0000001
 44
0.0000000001
 40
0.0
 40
0.0
 40
0.0
 40
0.0
 40
0.0138204014
 40
0.0278797518
 40
0.0349946434
 40
0.0421630689
 40
0.0566537757
 40
0.0862042278
 40
0.1012418558
 40
0.1164260626
 40
0.1471531783
 40
0.1782546398
 40
0.1939103613
 40
0.20961487
 40
0.2253570368
 40
0.2411270001
 40
0.2569171576
 40
0.272721003
 40
0.2885340792
 40
0.3043526343
 40
0.3201746452
 40
0.3359981396
 40
0.3518226287
 40
0.3676473399
 40
0.3834717855
 40
0.399296794
 40
0.415121635
 40
0.4309461536
 40
0.4467717457
 40
0.462597863
 40
0.4942445889
 40
0.5258945605
 40
0.5575424377
 40
0.5733686383
 40
0.5891937973
 40
0.6050172647
 40
0.6208401925
 40
0.6366629201
 40
0.6524848377
 40
0.6683056786
 40
0.6841261487
 40
0.6999464984
 40
0.7157665132
 40
0.7315862835
 40
0.7474060495
 40
0.7632258277
 40
0.7790454733
 40
0.7948648447
 40
0.8106838109
 40
0.8265018291
 40
0.8423182355
 40
0.8739408929
 40
0.8897464158
 40
0.9055453512
 40
0.9213344423
 40
0.937111199
 40
0.9528718861
 40
0.9686104571
 40
0.9764703375
 40
0.9843229839
 40
1.0
 40
1.0
 40
1.0
 40
1.0
 10
7.4863928915
 20
4.2125272408
 30
0.0
 10
7.4863928432
 20
4.2157323743
 30
0.0
 10
7.4861934353
 20
4.2221994817
 30
0.0
 10
7.4854672477
 20
4.2302872894
 30
0.0
 10
7.4846017582
 20
4.236803842
 30
0.0
 10
7.483537539
 20
4.2433924037
 30
0.0
 10
7.4811576369
 20
4.2550328477
 30
0.0
 10
7.4773318635
 20
4.2682197289
 30
0.0
 10
7.4724731405
 20
4.2812068815
 30
0.0
 10
7.4668658013
 20
4.29418774
 30
0.0
 10
7.4585851119
 20
4.3100455893
 30
0.0
 10
7.4487777918
 20
4.3251366303
 30
0.0
 10
7.4400508547
 20
4.336703912
 30
0.0
 10
7.4330696536
 20
4.3451110283
 30
0.0
 10
7.4256879357
 20
4.3532043203
 30
0.0
 10
7.4179247065
 20
4.3609606106
 30
0.0
 10
7.4098009136
 20
4.3683596166
 30
0.0
 10
7.4013365758
 20
4.3753821297
 30
0.0
 10
7.3925536538
 20
4.3820127616
 30
0.0
 10
7.3834729707
 20
4.3882367381
 30
0.0
 10
7.3741175564
 20
4.3940440416
 30
0.0
 10
7.3645089074
 20
4.399424672
 30
0.0
 10
7.354670444
 20
4.4043737276
 30
0.0
 10
7.3446247718
 20
4.408887687
 30
0.0
 10
7.3343939427
 20
4.412964576
 30
0.0
 10
7.3240010024
 20
4.4166080275
 30
0.0
 10
7.3134671686
 20
4.4198211213
 30
0.0
 10
7.3028130154
 20
4.4226091349
 30
0.0
 10
7.2920584673
 20
4.424981677
 30
0.0
 10
7.2776118113
 20
4.4276032977
 30
0.0
 10
7.2593882801
 20
4.4298897395
 30
0.0
 10
7.2373905033
 20
4.4311473356
 30
0.0
 10
7.2190286768
 20
4.4310416108
 30
0.0
 10
7.2043652307
 20
4.4303143317
 30
0.0
 10
7.1933868863
 20
4.4294601092
 30
0.0
 10
7.1824367051
 20
4.4283085727
 30
0.0
 10
7.1715212128
 20
4.4268694332
 30
0.0
 10
7.1606463927
 20
4.4251525868
 30
0.0
 10
7.1498177812
 20
4.4231680752
 30
0.0
 10
7.1390404487
 20
4.420924512
 30
0.0
 10
7.1283192052
 20
4.4184284112
 30
0.0
 10
7.1176584196
 20
4.4156865129
 30
0.0
 10
7.1070621539
 20
4.4127057118
 30
0.0
 10
7.0965347659
 20
4.409490628
 30
0.0
 10
7.0860806574
 20
4.406044956
 30
0.0
 10
7.0757039662
 20
4.4023728521
 30
0.0
 10
7.0654092755
 20
4.398477035
 30
0.0
 10
7.0552017684
 20
4.3943586717
 30
0.0
 10
7.0450865274
 20
4.3900196279
 30
0.0
 10
7.0350694254
 20
4.3854599644
 30
0.0
 10
7.0218553695
 20
4.3790859982
 30
0.0
 10
7.0088623537
 20
4.3722672657
 30
0.0
 10
6.9961292381
 20
4.3649933435
 30
0.0
 10
6.9867210077
 20
4.3593084461
 30
0.0
 10
6.9774670925
 20
4.3533879915
 30
0.0
 10
6.968381661
 20
4.3472276395
 30
0.0
 10
6.9594815009
 20
4.3408223871
 30
0.0
 10
6.9522333546
 20
4.3352715806
 30
0.0
 10
6.946548683
 20
4.3307010064
 30
0.0
 10
6.9409499643
 20
4.326047976
 30
0.0
 10
6.936841762
 20
4.322454112
 30
0.0
 10
6.9341494736
 20
4.3200107643
 30
0.0
  0
SPLINE
  5
27E
100
AcDbEntity
  8
0
100
AcDbSpline
 62
9
  6
CONTINUOUS
 70
0
 71
3
 72
15
 73
11
 74
0
 42
0.0000001
 43
0.0000001
 44
0.0000000001
 40
0.0
 40
0.0
 40
0.0
 40
0.0
 40
0.1514758022
 40
0.2954747715
 40
0.4314522672
 40
0.5594951481
 40
0.6798806289
 40
0.7930552152
 40
0.8995783763
 40
1.0
 40
1.0
 40
1.0
 40
1.0
 10
6.9332857707
 20
3.7707638025
 30
0.0
 10
6.9332855104
 20
3.7674748781
 30
0.0
 10
6.9333128032
 20
3.7610593365
 30
0.0
 10
6.933429459
 20
3.7516920413
 30
0.0
 10
6.9336078268
 20
3.742834634
 30
0.0
 10
6.9338191171
 20
3.7344908656
 30
0.0
 10
6.9340335012
 20
3.7266424786
 30
0.0
 10
6.9342223888
 20
3.7192608066
 30
0.0
 10
6.9343572951
 20
3.7123114428
 30
0.0
 10
6.9343938263
 20
3.7078181217
 30
0.0
 10
6.9343937518
 20
3.7056377132
 30
0.0
  0
SPLINE
  5
27F
100
AcDbEntity
  8
0
100
AcDbSpline
 62
9
  6
CONTINUOUS
 70
0
 71
3
 72
64
 73
60
 74
0
 42
0.0000001
 43
0.0000001
 44
0.0000000001
 40
0.0
 40
0.0
 40
0.0
 40
0.0
 40
0.0000036287
 40
0.0000145658
 40
0.0000327821
 40
0.0000582481
 40
0.0000909346
 40
0.0001308121
 40
0.0002320232
 40
0.0003616465
 40
0.0005194474
 40
0.0007051911
 40
0.000918643
 40
0.0011595684
 40
0.0014277325
 40
0.0020448384
 40
0.0027680834
 40
0.0035955901
 40
0.0045254815
 40
0.0055558807
 40
0.0066849109
 40
0.0079106953
 40
0.010645021
 40
0.0137436535
 40
0.0171887224
 40
0.0209604207
 40
0.0250389034
 40
0.029404332
 40
0.0340368749
 40
0.0389167085
 40
0.0493389894
 40
0.0605239075
 40
0.0723808932
 40
0.084837407
 40
0.0978210236
 40
0.1112594428
 40
0.1250826384
 40
0.1392461033
 40
0.1537220951
 40
0.1835020547
 40
0.2142058041
 40
0.2456665431
 40
0.277787991
 40
0.3104807743
 40
0.3436739384
 40
0.3773219088
 40
0.4113827515
 40
0.4458243718
 40
0.4806234553
 40
0.5512142134
 40
0.6230508151
 40
0.6960751214
 40
0.7702657038
 40
0.8456277641
 40
0.8837610564
 40
0.9221973525
 40
0.9415316411
 40
0.9609442035
 40
1.0
 40
1.0
 40
1.0
 40
1.0
 10
6.9448447065
 20
5.623016212
 30
0.0
 10
6.9448445617
 20
5.623016428
 30
0.0
 10
6.9448452988
 20
5.6230142664
 30
0.0
 10
6.9448453612
 20
5.6230130907
 30
0.0
 10
6.9448465409
 20
5.6230086513
 30
0.0
 10
6.9448476866
 20
5.6230036072
 30
0.0
 10
6.944849359
 20
5.6229966664
 30
0.0
 10
6.9448522177
 20
5.6229846049
 30
0.0
 10
6.9448567174
 20
5.6229657011
 30
0.0
 10
6.9448631439
 20
5.6229386238
 30
0.0
 10
6.9448709701
 20
5.6229056321
 30
0.0
 10
6.9448801693
 20
5.622866801
 30
0.0
 10
6.9448907305
 20
5.6228221693
 30
0.0
 10
6.9449026372
 20
5.6227717885
 30
0.0
 10
6.9449211739
 20
5.6226932565
 30
0.0
 10
6.9449475989
 20
5.6225810796
 30
0.0
 10
6.9449831247
 20
5.6224298737
 30
0.0
 10
6.9450236725
 20
5.6222568269
 30
0.0
 10
6.9450691218
 20
5.6220623255
 30
0.0
 10
6.9451193521
 20
5.6218467558
 30
0.0
 10
6.9451742428
 20
5.6216105039
 30
0.0
 10
6.9452565317
 20
5.6212552825
 30
0.0
 10
6.9453701604
 20
5.6207624657
 30
0.0
 10
6.9455186342
 20
5.6201145039
 30
0.0
 10
6.9456826223
 20
5.6193938455
 30
0.0
 10
6.9458608543
 20
5.6186044302
 30
0.0
 10
6.9460520383
 20
5.6177503385
 30
0.0
 10
6.9462548779
 20
5.6168356533
 30
0.0
 10
6.9464680781
 20
5.6158644575
 30
0.0
 10
6.9467711448
 20
5.6144686968
 30
0.0
 10
6.9471669308
 20
5.6126126675
 30
0.0
 10
6.9476539966
 20
5.6102649967
 30
0.0
 10
6.9481565657
 20
5.6077717296
 30
0.0
 10
6.9486693239
 20
5.6051490951
 30
0.0
 10
6.9491871845
 20
5.6024120562
 30
0.0
 10
6.9497051395
 20
5.5995754341
 30
0.0
 10
6.9502183539
 20
5.5966520823
 30
0.0
 10
6.9507234477
 20
5.5936519005
 30
0.0
 10
6.9513892098
 20
5.589519508
 30
0.0
 10
6.9521859609
 20
5.5842079914
 30
0.0
 10
6.9530652672
 20
5.5776790196
 30
0.0
 10
6.9538615109
 20
5.5709703954
 30
0.0
 10
6.9545643317
 20
5.5641080506
 30
0.0
 10
6.9551635257
 20
5.557111264
 30
0.0
 10
6.9556497958
 20
5.5499960669
 30
0.0
 10
6.9560152169
 20
5.5427754655
 30
0.0
 10
6.9562518973
 20
5.5354599797
 30
0.0
 10
6.9563519067
 20
5.5280587978
 30
0.0
 10
6.9562922419
 20
5.5180397799
 30
0.0
 10
6.9558312234
 20
5.5053461865
 30
0.0
 10
6.9546003973
 20
5.4899534161
 30
0.0
 10
6.9526075945
 20
5.4743791392
 30
0.0
 10
6.9497550879
 20
5.458681158
 30
0.0
 10
6.9465740098
 20
5.4456052664
 30
0.0
 10
6.9434728643
 20
5.4351687667
 30
0.0
 10
6.9412781574
 20
5.4286554181
 30
0.0
 10
6.9393597208
 20
5.4234684416
 30
0.0
 10
6.9373204686
 20
5.4182801402
 30
0.0
 10
6.9356639513
 20
5.4144304593
 30
0.0
 10
6.9344992473
 20
5.4118860855
 30
0.0
  0
SPLINE
  5
280
100
AcDbEntity
  8
0
100
AcDbSpline
 62
9
  6
CONTINUOUS
 70
0
 71
3
 72
124
 73
120
 74
0
 42
0.0000001
 43
0.0000001
 44
0.0000000001
 40
0.0
 40
0.0
 40
0.0
 40
0.0
 40
0.0000013777
 40
0.0000054312
 40
0.0000121555
 40
0.0000215454
 40
0.000033596
 40
0.0000483021
 40
0.0000856604
 40
0.0001335798
 40
0.0001920195
 40
0.0002609388
 40
0.000340297
 40
0.0005301675
 40
0.0007613054
 40
0.0010333851
 40
0.0013460811
 40
0.0016990678
 40
0.0020920198
 40
0.0029965171
 40
0.0040569687
 40
0.0052707704
 40
0.0066353167
 40
0.0081474333
 40
0.0098024465
 40
0.0115954392
 40
0.0135214941
 40
0.0155756943
 40
0.0200488626
 40
0.0249756108
 40
0.0303173813
 40
0.0360412816
 40
0.0421169403
 40
0.0485140017
 40
0.0552021161
 40
0.0621534584
 40
0.0693476118
 40
0.0843881166
 40
0.100175468
 40
0.1165975397
 40
0.1335607447
 40
0.1509862597
 40
0.1688154858
 40
0.1869942905
 40
0.2054823068
 40
0.2432484189
 40
0.2818942115
 40
0.3014960747
 40
0.3212620879
 40
0.3612347756
 40
0.3814200188
 40
0.4017252082
 40
0.4221423989
 40
0.4426641272
 40
0.4632827743
 40
0.4839917774
 40
0.5047854541
 40
0.5256546915
 40
0.546589866
 40
0.567583899
 40
0.5886270432
 40
0.6096970198
 40
0.6307729411
 40
0.6518382506
 40
0.6728613846
 40
0.6937894562
 40
0.7042028691
 40
0.7145747408
 40
0.7351670509
 40
0.7554915745
 40
0.76552715
 40
0.775463726
 40
0.7852909669
 40
0.7949989467
 40
0.8045779603
 40
0.8140178621
 40
0.8233080428
 40
0.8324374762
 40
0.841394764
 40
0.8501686195
 40
0.8671369106
 40
0.8832924924
 40
0.8985764136
 40
0.9129301014
 40
0.9263175515
 40
0.9326377125
 40
0.9387017496
 40
0.9445040515
 40
0.9500401215
 40
0.960298704
 40
0.9650135132
 40
0.9694463555
 40
0.9735927912
 40
0.9774485523
 40
0.9810104672
 40
0.9842755525
 40
0.9872407512
 40
0.9899029361
 40
0.992258914
 40
0.9943054772
 40
0.9952119758
 40
0.996040415
 40
0.9967906525
 40
0.9974625455
 40
0.9980559509
 40
0.998570725
 40
0.9990067235
 40
0.9993638017
 40
0.9995127003
 40
0.9996418144
 40
0.9997511257
 40
0.9998406159
 40
0.9999102668
 40
0.9999376467
 40
0.99996006
 40
0.9999775043
 40
0.9999899772
 40
0.9999974765
 40
1.0
 40
1.0
 40
1.0
 40
1.0
 10
6.9523438925
 20
4.9100272408
 30
0.0
 10
6.9523440496
 20
4.910027076
 30
0.0
 10
6.9523448928
 20
4.9100266987
 30
0.0
 10
6.952346517
 20
4.910025537
 30
0.0
 10
6.9523493893
 20
4.910023825
 30
0.0
 10
6.9523533192
 20
4.9100213358
 30
0.0
 10
6.9523583965
 20
4.9100181824
 30
0.0
 10
6.9523673861
 20
4.9100125697
 30
0.0
 10
6.9523814146
 20
4.9100038295
 30
0.0
 10
6.9524015769
 20
4.9099912641
 30
0.0
 10
6.9524261705
 20
4.9099759444
 30
0.0
 10
6.9524551766
 20
4.9099578792
 30
0.0
 10
6.952502628
 20
4.9099283331
 30
0.0
 10
6.9525728488
 20
4.9098846222
 30
0.0
 10
6.952670125
 20
4.9098240903
 30
0.0
 10
6.9527846502
 20
4.9097528475
 30
0.0
 10
6.9529162897
 20
4.9096709832
 30
0.0
 10
6.9530649092
 20
4.909578587
 30
0.0
 10
6.9532966295
 20
4.9094345697
 30
0.0
 10
6.9536277195
 20
4.9092288866
 30
0.0
 10
6.9540741424
 20
4.9089517147
 30
0.0
 10
6.9545852571
 20
4.9086345618
 30
0.0
 10
6.9551599066
 20
4.9082781921
 30
0.0
 10
6.9557966467
 20
4.9078835554
 30
0.0
 10
6.9564937263
 20
4.9074518325
 30
0.0
 10
6.9572491476
 20
4.9069843524
 30
0.0
 10
6.958060879
 20
4.9064824665
 30
0.0
 10
6.959249759
 20
4.9057480865
 30
0.0
 10
6.9608613428
 20
4.904754142
 30
0.0
 10
6.9629367608
 20
4.9034769859
 30
0.0
 10
6.965189782
 20
4.9020939415
 30
0.0
 10
6.9676064207
 20
4.900614406
 30
0.0
 10
6.9701738411
 20
4.8990470611
 30
0.0
 10
6.9728795644
 20
4.8974003701
 30
0.0
 10
6.9757114711
 20
4.8956825815
 30
0.0
 10
6.9786588411
 20
4.893901087
 30
0.0
 10
6.9827919431
 20
4.8914121773
 30
0.0
 10
6.9881848336
 20
4.8881838862
 30
0.0
 10
6.9949018265
 20
4.8841976751
 30
0.0
 10
7.0019092772
 20
4.8800782488
 30
0.0
 10
7.009169188
 20
4.875854081
 30
0.0
 10
7.0166511232
 20
4.871549158
 30
0.0
 10
7.0243300434
 20
4.8671838943
 30
0.0
 10
7.0321864076
 20
4.8627756329
 30
0.0
 10
7.0429528591
 20
4.8568191186
 30
0.0
 10
7.0567531106
 20
4.8493579038
 30
0.0
 10
7.0708251182
 20
4.8420153443
 30
0.0
 10
7.0823332509
 20
4.8361947968
 30
0.0
 10
7.094090423
 20
4.8303819287
 30
0.0
 10
7.1060200636
 20
4.8247011853
 30
0.0
 10
7.118124251
 20
4.8191862356
 30
0.0
 10
7.1273372888
 20
4.8151243165
 30
0.0
 10
7.1366544688
 20
4.8111628514
 30
0.0
 10
7.1460750196
 20
4.8073145518
 30
0.0
 10
7.1555991617
 20
4.8035953435
 30
0.0
 10
7.1652267763
 20
4.8000213216
 30
0.0
 10
7.1749566509
 20
4.7966083214
 30
0.0
 10
7.1847877604
 20
4.7933767036
 30
0.0
 10
7.1947182833
 20
4.790348781
 30
0.0
 10
7.2047449229
 20
4.7875468339
 30
0.0
 10
7.2148611366
 20
4.7849943636
 30
0.0
 10
7.2250576821
 20
4.7827203793
 30
0.0
 10
7.2353220705
 20
4.7807544377
 30
0.0
 10
7.2456380983
 20
4.7791274585
 30
0.0
 10
7.2559809954
 20
4.7778681139
 30
0.0
 10
7.2646094324
 20
4.7771455074
 30
0.0
 10
7.2714956297
 20
4.7767790795
 30
0.0
 10
7.2783325374
 20
4.7765590232
 30
0.0
 10
7.2868138182
 20
4.7765640732
 30
0.0
 10
7.2952310845
 20
4.7769446147
 30
0.0
 10
7.3018717362
 20
4.7774752989
 30
0.0
 10
7.3067720498
 20
4.7779827806
 30
0.0
 10
7.3116050185
 20
4.7786011559
 30
0.0
 10
7.3163629144
 20
4.7793290829
 30
0.0
 10
7.3210388934
 20
4.7801598065
 30
0.0
 10
7.3256262021
 20
4.7810872136
 30
0.0
 10
7.3301181172
 20
4.7821050203
 30
0.0
 10
7.3345078908
 20
4.7832070197
 30
0.0
 10
7.338788923
 20
4.7843868915
 30
0.0
 10
7.3442826447
 20
4.7860379757
 30
0.0
 10
7.3508477229
 20
4.7882520445
 30
0.0
 10
7.3583185433
 20
4.7911251566
 30
0.0
 10
7.3652744969
 20
4.7941160967
 30
0.0
 10
7.3717040432
 20
4.7971601298
 30
0.0
 10
7.3767110529
 20
4.7997378282
 30
0.0
 10
7.3804532133
 20
4.8017741964
 30
0.0
 10
7.3830734721
 20
4.8032482985
 30
0.0
 10
7.3855621132
 20
4.804691466
 30
0.0
 10
7.3886282567
 20
4.8065204073
 30
0.0
 10
7.3915097612
 20
4.8083075063
 30
0.0
 10
7.3942082986
 20
4.8100422368
 30
0.0
 10
7.3960453334
 20
4.8112484338
 30
0.0
 10
7.3977537217
 20
4.812391664
 30
0.0
 10
7.399334286
 20
4.8134669305
 30
0.0
 10
7.4007870751
 20
4.8144709105
 30
0.0
 10
7.4021123436
 20
4.8154003981
 30
0.0
 10
7.4033103739
 20
4.8162522241
 30
0.0
 10
7.4043814615
 20
4.8170232019
 30
0.0
 10
7.4053258561
 20
4.8177102204
 30
0.0
 10
7.4060336449
 20
4.818229118
 30
0.0
 10
7.4065369917
 20
4.8185997957
 30
0.0
 10
7.4068674271
 20
4.8188438912
 30
0.0
 10
7.4071663484
 20
4.8190653766
 30
0.0
 10
7.4074337641
 20
4.8192641201
 30
0.0
 10
7.407669685
 20
4.8194399871
 30
0.0
 10
7.4078741211
 20
4.8195928437
 30
0.0
 10
7.4080470828
 20
4.8197225559
 30
0.0
 10
7.4081715237
 20
4.8198161594
 30
0.0
 10
7.408255351
 20
4.819879364
 30
0.0
 10
7.4083064466
 20
4.8199179479
 30
0.0
 10
7.408349682
 20
4.8199506446
 30
0.0
 10
7.4083850562
 20
4.8199774396
 30
0.0
 10
7.408409624
 20
4.819996071
 30
0.0
 10
7.4084253438
 20
4.820008018
 30
0.0
 10
7.4084342006
 20
4.8200147349
 30
0.0
 10
7.408441064
 20
4.8200199969
 30
0.0
 10
7.4084460331
 20
4.8200236892
 30
0.0
 10
7.4084489056
 20
4.8200260402
 30
0.0
 10
7.4084503108
 20
4.8200269452
 30
0.0
 10
7.4084506051
 20
4.8200272408
 30
0.0
  0
SPLINE
  5
281
100
AcDbEntity
  8
0
100
AcDbSpline
 62
9
  6
CONTINUOUS
 70
0
 71
3
 72
45
 73
41
 74
0
 42
0.0000001
 43
0.0000001
 44
0.0000000001
 40
0.0
 40
0.0
 40
0.0
 40
0.0
 40
0.0871543916
 40
0.168827816
 40
0.2074697764
 40
0.2445724684
 40
0.3140291668
 40
0.3774900218
 40
0.43549184
 40
0.4885502334
 40
0.5371444422
 40
0.5816970405
 40
0.6226098053
 40
0.6602696691
 40
0.6779965592
 40
0.695042897
 40
0.7271926246
 40
0.7569025278
 40
0.784347259
 40
0.8096951344
 40
0.833107134
 40
0.8547034581
 40
0.8745573541
 40
0.8927372477
 40
0.9093097444
 40
0.9243400682
 40
0.9378838047
 40
0.9499729426
 40
0.9606368873
 40
0.9699079879
 40
0.9778244628
 40
0.9844305236
 40
0.9872585465
 40
0.9897820216
 40
0.9920152523
 40
0.9939790537
 40
0.9957042469
 40
0.9972364258
 40
0.9986404973
 40
1.0
 40
1.0
 40
1.0
 40
1.0
 10
6.9448447065
 20
3.7885327552
 30
0.0
 10
6.9448446849
 20
3.7871175486
 30
0.0
 10
6.9448821042
 20
3.784375968
 30
0.0
 10
6.9450253822
 20
3.781009615
 30
0.0
 10
6.9451934922
 20
3.7784589072
 30
0.0
 10
6.945385738
 20
3.776108908
 30
0.0
 10
6.9456780571
 20
3.7733630753
 30
0.0
 10
6.9461120572
 20
3.7702928611
 30
0.0
 10
6.9466048993
 20
3.767501624
 30
0.0
 10
6.9471407703
 20
3.7649647001
 30
0.0
 10
6.9477038267
 20
3.7626579712
 30
0.0
 10
6.9482865377
 20
3.7605601891
 30
0.0
 10
6.9488810058
 20
3.7586510002
 30
0.0
 10
6.9493893885
 20
3.7571720173
 30
0.0
 10
6.9497937549
 20
3.756067524
 30
0.0
 10
6.950179463
 20
3.7550515658
 30
0.0
 10
6.9506551291
 20
3.7538617254
 30
0.0
 10
6.9512243421
 20
3.7525278654
 30
0.0
 10
6.9517767822
 20
3.7513072975
 30
0.0
 10
6.9523090706
 20
3.7501901561
 30
0.0
 10
6.9528171729
 20
3.7491668827
 30
0.0
 10
6.9532979951
 20
3.7482297825
 30
0.0
 10
6.9537503038
 20
3.7473736281
 30
0.0
 10
6.9541721311
 20
3.7465936894
 30
0.0
 10
6.9545615989
 20
3.7458853259
 30
0.0
 10
6.9549167101
 20
3.7452439901
 30
0.0
 10
6.9552353427
 20
3.7446656716
 30
0.0
 10
6.9555163639
 20
3.7441475858
 30
0.0
 10
6.9557583647
 20
3.7436873005
 30
0.0
 10
6.9559600115
 20
3.7432824165
 30
0.0
 10
6.9561198638
 20
3.7429305801
 30
0.0
 10
6.956222066
 20
3.742667712
 30
0.0
 10
6.9562793952
 20
3.7424821122
 30
0.0
 10
6.9563087042
 20
3.7423623953
 30
0.0
 10
6.9563264677
 20
3.742254584
 30
0.0
 10
6.956332466
 20
3.7421583934
 30
0.0
 10
6.9563263987
 20
3.7420735039
 30
0.0
 10
6.9563077463
 20
3.7419996243
 30
0.0
 10
6.9562758439
 20
3.7419368546
 30
0.0
 10
6.956245562
 20
3.7419029347
 30
0.0
 10
6.9562288823
 20
3.7418884739
 30
0.0
  0
SPLINE
  5
282
100
AcDbEntity
  8
0
100
AcDbSpline
 62
9
  6
CONTINUOUS
 70
0
 71
3
 72
8
 73
4
 74
0
 42
0.0000001
 43
0.0000001
 44
0.0000000001
 40
0.0
 40
0.0
 40
0.0
 40
0.0
 40
1.0
 40
1.0
 40
1.0
 40
1.0
 10
7.3721498327
 20
4.1020868832
 30
0.0
 10
7.3721577911
 20
4.1020937747
 30
0.0
 10
7.3721657496
 20
4.1021006661
 30
0.0
 10
7.3721737081
 20
4.1021075576
 30
0.0
  0
SPLINE
  5
283
100
AcDbEntity
  8
0
100
AcDbSpline
 62
9
  6
CONTINUOUS
 70
0
 71
3
 72
66
 73
62
 74
0
 42
0.0000001
 43
0.0000001
 44
0.0000000001
 40
0.0
 40
0.0
 40
0.0
 40
0.0
 40
0.01395258
 40
0.0281295874
 40
0.0425161837
 40
0.0570981252
 40
0.0718635777
 40
0.0868007355
 40
0.1018950138
 40
0.1171306359
 40
0.147958561
 40
0.1791721573
 40
0.2106626383
 40
0.2423374173
 40
0.2741246058
 40
0.3059733772
 40
0.3219165516
 40
0.3298907467
 40
0.3378656365
 40
0.3458410709
 40
0.3538168912
 40
0.3697664069
 40
0.3777409428
 40
0.3857142447
 40
0.4016549745
 40
0.4175884523
 40
0.4255517413
 40
0.4335111753
 40
0.4494179719
 40
0.4653109641
 40
0.481185472
 40
0.4970372868
 40
0.5128701879
 40
0.5286843534
 40
0.5444752586
 40
0.5602425367
 40
0.5759909965
 40
0.591722423
 40
0.6074354746
 40
0.6231300675
 40
0.6388103973
 40
0.654479404
 40
0.6701383153
 40
0.6857877689
 40
0.701430679
 40
0.7170698032
 40
0.732707028
 40
0.7483437718
 40
0.7639823311
 40
0.7796249515
 40
0.7952734549
 40
0.8109295721
 40
0.8422711413
 40
0.8736651068
 40
0.8893864248
 40
0.9051256885
 40
0.9208841024
 40
0.9366629034
 40
0.952463496
 40
0.9682864976
 40
1.0
 40
1.0
 40
1.0
 40
1.0
 10
7.4084506051
 20
4.1900272408
 30
0.0
 10
7.4084505886
 20
4.1923845306
 30
0.0
 10
7.4083474408
 20
4.1971375957
 30
0.0
 10
7.4078922718
 20
4.2043081923
 30
0.0
 10
7.4071351874
 20
4.2115602176
 30
0.0
 10
7.4060758341
 20
4.2188746753
 30
0.0
 10
7.4047136404
 20
4.2262334387
 30
0.0
 10
7.4030483286
 20
4.2336182955
 30
0.0
 10
7.4010788154
 20
4.2410102874
 30
0.0
 10
7.3980340185
 20
4.2508862994
 30
0.0
 10
7.3934584781
 20
4.2631299625
 30
0.0
 10
7.3867512453
 20
4.2774573019
 30
0.0
 10
7.3787871968
 20
4.2912946402
 30
0.0
 10
7.3695519372
 20
4.3044406997
 30
0.0
 10
7.3590448303
 20
4.3166780773
 30
0.0
 10
7.349249751
 20
4.3259296572
 30
0.0
 10
7.3418818705
 20
4.3318091682
 30
0.0
 10
7.3375307464
 20
4.3349884452
 30
0.0
 10
7.3341997867
 20
4.33727916
 30
0.0
 10
7.3308036805
 20
4.3394727289
 30
0.0
 10
7.3261926263
 20
4.3422642393
 30
0.0
 10
7.3214618217
 20
4.3448536709
 30
0.0
 10
7.3166257522
 20
4.3472329302
 30
0.0
 10
7.3117236358
 20
4.3494696007
 30
0.0
 10
7.3054793644
 20
4.3519964694
 30
0.0
 10
7.2991041273
 20
4.3541659051
 30
0.0
 10
7.2939408679
 20
4.3556871488
 30
0.0
 10
7.2887422052
 20
4.3570651176
 30
0.0
 10
7.2821817872
 20
4.3585241317
 30
0.0
 10
7.2742368532
 20
4.3598683388
 30
0.0
 10
7.2662450485
 20
4.3608210436
 30
0.0
 10
7.258227908
 20
4.3613983354
 30
0.0
 10
7.2502036055
 20
4.3616211459
 30
0.0
 10
7.2421875521
 20
4.3615103066
 30
0.0
 10
7.2341932735
 20
4.3610869425
 30
0.0
 10
7.2262312985
 20
4.3603701693
 30
0.0
 10
7.2183092924
 20
4.3593776689
 30
0.0
 10
7.2104333405
 20
4.3581272667
 30
0.0
 10
7.202608671
 20
4.3566369666
 30
0.0
 10
7.1948390043
 20
4.3549224909
 30
0.0
 10
7.1871270683
 20
4.3529954953
 30
0.0
 10
7.179474354
 20
4.3508680839
 30
0.0
 10
7.1718821179
 20
4.3485521509
 30
0.0
 10
7.1643508713
 20
4.3460591869
 30
0.0
 10
7.1568815214
 20
4.3433965584
 30
0.0
 10
7.1494743047
 20
4.3405716036
 30
0.0
 10
7.1421292927
 20
4.3375915473
 30
0.0
 10
7.1348462152
 20
4.3344635076
 30
0.0
 10
7.1276255426
 20
4.3311918313
 30
0.0
 10
7.1204675335
 20
4.3277806896
 30
0.0
 10
7.1133722132
 20
4.3242343607
 30
0.0
 10
7.1039929711
 20
4.3193289388
 30
0.0
 10
7.0924262502
 20
4.3128711929
 30
0.0
 10
7.0810870519
 20
4.3060006819
 30
0.0
 10
7.0721547341
 20
4.30025674
 30
0.0
 10
7.0655223133
 20
4.2958226631
 30
0.0
 10
7.0589630792
 20
4.2912639901
 30
0.0
 10
7.0524801719
 20
4.2865796962
 30
0.0
 10
7.046076607
 20
4.2817691847
 30
0.0
 10
7.0376446322
 20
4.2751799621
 30
0.0
 10
7.0314626238
 20
4.270048586
 30
0.0
 10
7.0274119529
 20
4.2665414185
 30
0.0
  0
SPLINE
  5
284
100
AcDbEntity
  8
0
100
AcDbSpline
 62
9
  6
CONTINUOUS
 70
0
 71
3
 72
42
 73
38
 74
0
 42
0.0000001
 43
0.0000001
 44
0.0000000001
 40
0.0
 40
0.0
 40
0.0
 40
0.0
 40
0.0277304848
 40
0.0555801986
 40
0.0835860024
 40
0.1117712436
 40
0.1401562687
 40
0.1687535476
 40
0.1975742825
 40
0.2266252315
 40
0.2559130492
 40
0.2854416328
 40
0.3152157525
 40
0.3452384173
 40
0.4060428697
 40
0.4678952373
 40
0.5308456145
 40
0.5627554492
 40
0.594968007
 40
0.6274959005
 40
0.6603552052
 40
0.6769138901
 40
0.6935609054
 40
0.7271257998
 40
0.7610604363
 40
0.7781693347
 40
0.7953724596
 40
0.8300247233
 40
0.8474520021
 40
0.8649323568
 40
0.8999415561
 40
0.9173479061
 40
0.9346005348
 40
0.9516298672
 40
0.9683116265
 40
0.9844874048
 40
1.0
 40
1.0
 40
1.0
 40
1.0
 10
6.9345826785
 20
4.0361719677
 30
0.0
 10
6.9357500202
 20
4.0341605707
 30
0.0
 10
6.9379595065
 20
4.0300523221
 30
0.0
 10
6.9409156587
 20
4.0236925389
 30
0.0
 10
6.9435440757
 20
4.0171496794
 30
0.0
 10
6.9458703895
 20
4.0104465057
 30
0.0
 10
6.9479146552
 20
4.0036006116
 30
0.0
 10
6.9496977044
 20
3.996627412
 30
0.0
 10
6.9512359174
 20
3.9895392551
 30
0.0
 10
6.9525459558
 20
3.9823467541
 30
0.0
 10
6.9536411302
 20
3.9750585572
 30
0.0
 10
6.954534971
 20
3.9676820022
 30
0.0
 10
6.9552384014
 20
3.9602230518
 30
0.0
 10
6.9559400706
 20
3.950132441
 30
0.0
 10
6.9563874911
 20
3.9373315399
 30
0.0
 10
6.9563140151
 20
3.9217625768
 30
0.0
 10
6.9558001837
 20
3.9086276482
 30
0.0
 10
6.955151233
 20
3.8979903156
 30
0.0
 10
6.9545492424
 20
3.8899069499
 30
0.0
 10
6.9538431411
 20
3.881752163
 30
0.0
 10
6.9531786455
 20
3.8749119138
 30
0.0
 10
6.9526059477
 20
3.8694010841
 30
0.0
 10
6.95200406
 20
3.8638338414
 30
0.0
 10
6.9512077104
 20
3.856821979
 30
0.0
 10
6.9503737989
 20
3.8497755141
 30
0.0
 10
6.949691153
 20
3.8440929112
 30
0.0
 10
6.9489977383
 20
3.8383509891
 30
0.0
 10
6.9483055755
 20
3.8325820096
 30
0.0
 10
6.9476347903
 20
3.8267870943
 30
0.0
 10
6.9469833899
 20
3.8209598679
 30
0.0
 10
6.9463755081
 20
3.8151294699
 30
0.0
 10
6.945847457
 20
3.8093106144
 30
0.0
 10
6.9455036021
 20
3.804989359
 30
0.0
 10
6.9452222741
 20
3.8007244422
 30
0.0
 10
6.9450113615
 20
3.7965458411
 30
0.0
 10
6.9448778686
 20
3.7924912935
 30
0.0
 10
6.9448446765
 20
3.7898337081
 30
0.0
 10
6.9448447065
 20
3.7885327552
 30
0.0
  0
SPLINE
  5
285
100
AcDbEntity
  8
0
100
AcDbSpline
 62
9
  6
CONTINUOUS
 70
0
 71
3
 72
37
 73
33
 74
0
 42
0.0000001
 43
0.0000001
 44
0.0000000001
 40
0.0
 40
0.0
 40
0.0
 40
0.0
 40
0.035365283
 40
0.0703929534
 40
0.1050600378
 40
0.1393455456
 40
0.1732318816
 40
0.2067052555
 40
0.2723717319
 40
0.3045688988
 40
0.3363452406
 40
0.3677121101
 40
0.3986870011
 40
0.4292937385
 40
0.4595609464
 40
0.4895226804
 40
0.5192192119
 40
0.5486972737
 40
0.57800941
 40
0.6072066973
 40
0.6363404081
 40
0.6654655256
 40
0.6946406339
 40
0.7239267433
 40
0.7533779754
 40
0.7830435177
 40
0.8129722714
 40
0.8432128651
 40
0.8738102938
 40
0.9047846686
 40
0.9361425085
 40
1.0
 40
1.0
 40
1.0
 40
1.0
 10
7.614194888
 20
7.2190926247
 30
0.0
 10
7.6168609911
 20
7.2195646637
 30
0.0
 10
7.6221587151
 20
7.2205562542
 30
0.0
 10
7.6300325896
 20
7.2222019009
 30
0.0
 10
7.6377871149
 20
7.224005311
 30
0.0
 10
7.6454114759
 20
7.2259728286
 30
0.0
 10
7.6528950451
 20
7.2281108529
 30
0.0
 10
7.662607817
 20
7.2311773268
 30
0.0
 10
7.6720618251
 20
7.2346253101
 30
0.0
 10
7.6812045704
 20
7.2384922479
 30
0.0
 10
7.687823741
 20
7.2415729098
 30
0.0
 10
7.6942391036
 20
7.244857842
 30
0.0
 10
7.7004405611
 20
7.2483521183
 30
0.0
 10
7.7064175786
 20
7.2520608185
 30
0.0
 10
7.7121609364
 20
7.2559864047
 30
0.0
 10
7.7176614733
 20
7.26013108
 30
0.0
 10
7.7229099023
 20
7.264497109
 30
0.0
 10
7.7278969766
 20
7.2690866022
 30
0.0
 10
7.73261257
 20
7.2739014926
 30
0.0
 10
7.7370484382
 20
7.2789403261
 30
0.0
 10
7.741196659
 20
7.2842004009
 30
0.0
 10
7.7450488546
 20
7.2896790121
 30
0.0
 10
7.7485967869
 20
7.2953732563
 30
0.0
 10
7.7518313525
 20
7.3012796987
 30
0.0
 10
7.7547461861
 20
7.3073918935
 30
0.0
 10
7.7573355519
 20
7.3137021005
 30
0.0
 10
7.7595932166
 20
7.3202024006
 30
0.0
 10
7.761513097
 20
7.326884604
 30
0.0
 10
7.7630881601
 20
7.3337383767
 30
0.0
 10
7.76431645
 20
7.3407497016
 30
0.0
 10
7.7654963723
 20
7.3503413943
 30
0.0
 10
7.765841451
 20
7.357638307
 30
0.0
 10
7.7658417104
 20
7.3625272408
 30
0.0
  0
SPLINE
  5
286
100
AcDbEntity
  8
0
100
AcDbSpline
 62
9
  6
CONTINUOUS
 70
0
 71
3
 72
66
 73
62
 74
0
 42
0.0000001
 43
0.0000001
 44
0.0000000001
 40
0.0
 40
0.0
 40
0.0
 40
0.0
 40
0.0138204014
 40
0.0278797518
 40
0.0349946434
 40
0.0421630689
 40
0.0566537757
 40
0.0862042278
 40
0.1012418558
 40
0.1164260626
 40
0.1471531783
 40
0.1782546398
 40
0.1939103613
 40
0.20961487
 40
0.2253570368
 40
0.2411270001
 40
0.2569171576
 40
0.272721003
 40
0.2885340792
 40
0.3043526343
 40
0.3201746452
 40
0.3359981396
 40
0.3518226287
 40
0.3676473399
 40
0.3834717855
 40
0.399296794
 40
0.415121635
 40
0.4309461536
 40
0.4467717457
 40
0.462597863
 40
0.4942445889
 40
0.5258945605
 40
0.5575424377
 40
0.5733686383
 40
0.5891937973
 40
0.6050172647
 40
0.6208401925
 40
0.6366629201
 40
0.6524848377
 40
0.6683056786
 40
0.6841261487
 40
0.6999464984
 40
0.7157665132
 40
0.7315862835
 40
0.7474060495
 40
0.7632258277
 40
0.7790454733
 40
0.7948648447
 40
0.8106838109
 40
0.8265018291
 40
0.8423182355
 40
0.8739408929
 40
0.8897464158
 40
0.9055453512
 40
0.9213344423
 40
0.937111199
 40
0.9528718861
 40
0.9686104571
 40
0.9764703375
 40
0.9843229839
 40
1.0
 40
1.0
 40
1.0
 40
1.0
 10
7.7658417104
 20
7.3625272408
 30
0.0
 10
7.7658416621
 20
7.3657323743
 30
0.0
 10
7.7656422541
 20
7.3721994817
 30
0.0
 10
7.7649160666
 20
7.3802872894
 30
0.0
 10
7.7640505771
 20
7.386803842
 30
0.0
 10
7.7629863579
 20
7.3933924037
 30
0.0
 10
7.7606064558
 20
7.4050328477
 30
0.0
 10
7.7567806824
 20
7.4182197289
 30
0.0
 10
7.7519219594
 20
7.4312068815
 30
0.0
 10
7.7463146202
 20
7.44418774
 30
0.0
 10
7.7380339308
 20
7.4600455893
 30
0.0
 10
7.7282266107
 20
7.4751366303
 30
0.0
 10
7.7194996736
 20
7.486703912
 30
0.0
 10
7.7125184725
 20
7.4951110283
 30
0.0
 10
7.7051367546
 20
7.5032043203
 30
0.0
 10
7.6973735254
 20
7.5109606106
 30
0.0
 10
7.6892497325
 20
7.5183596166
 30
0.0
 10
7.6807853947
 20
7.5253821297
 30
0.0
 10
7.6720024727
 20
7.5320127616
 30
0.0
 10
7.6629217896
 20
7.5382367381
 30
0.0
 10
7.6535663753
 20
7.5440440416
 30
0.0
 10
7.6439577263
 20
7.549424672
 30
0.0
 10
7.6341192629
 20
7.5543737276
 30
0.0
 10
7.6240735907
 20
7.558887687
 30
0.0
 10
7.6138427616
 20
7.562964576
 30
0.0
 10
7.6034498213
 20
7.5666080275
 30
0.0
 10
7.5929159875
 20
7.5698211213
 30
0.0
 10
7.5822618343
 20
7.5726091349
 30
0.0
 10
7.5715072862
 20
7.574981677
 30
0.0
 10
7.5570606302
 20
7.5776032977
 30
0.0
 10
7.538837099
 20
7.5798897395
 30
0.0
 10
7.5168393222
 20
7.5811473356
 30
0.0
 10
7.4984774957
 20
7.5810416108
 30
0.0
 10
7.4838140496
 20
7.5803143317
 30
0.0
 10
7.4728357052
 20
7.5794601092
 30
0.0
 10
7.461885524
 20
7.5783085727
 30
0.0
 10
7.4509700317
 20
7.5768694332
 30
0.0
 10
7.4400952116
 20
7.5751525868
 30
0.0
 10
7.4292666001
 20
7.5731680752
 30
0.0
 10
7.4184892676
 20
7.570924512
 30
0.0
 10
7.407768024
 20
7.5684284112
 30
0.0
 10
7.3971072385
 20
7.5656865129
 30
0.0
 10
7.3865109728
 20
7.5627057118
 30
0.0
 10
7.3759835848
 20
7.559490628
 30
0.0
 10
7.3655294763
 20
7.556044956
 30
0.0
 10
7.3551527851
 20
7.5523728521
 30
0.0
 10
7.3448580944
 20
7.548477035
 30
0.0
 10
7.3346505873
 20
7.5443586717
 30
0.0
 10
7.3245353463
 20
7.5400196279
 30
0.0
 10
7.3145182443
 20
7.5354599644
 30
0.0
 10
7.3013041884
 20
7.5290859982
 30
0.0
 10
7.2883111726
 20
7.5222672657
 30
0.0
 10
7.275578057
 20
7.5149933435
 30
0.0
 10
7.2661698266
 20
7.5093084461
 30
0.0
 10
7.2569159114
 20
7.5033879915
 30
0.0
 10
7.2478304799
 20
7.4972276395
 30
0.0
 10
7.2389303198
 20
7.4908223871
 30
0.0
 10
7.2316821735
 20
7.4852715806
 30
0.0
 10
7.2259975019
 20
7.4807010064
 30
0.0
 10
7.2203987832
 20
7.476047976
 30
0.0
 10
7.2162905809
 20
7.472454112
 30
0.0
 10
7.2135982925
 20
7.4700107643
 30
0.0
  0
SPLINE
  5
287
100
AcDbEntity
  8
0
100
AcDbSpline
 62
9
  6
CONTINUOUS
 70
0
 71
3
 72
15
 73
11
 74
0
 42
0.0000001
 43
0.0000001
 44
0.0000000001
 40
0.0
 40
0.0
 40
0.0
 40
0.0
 40
0.1514758022
 40
0.2954747715
 40
0.4314522672
 40
0.5594951481
 40
0.6798806289
 40
0.7930552152
 40
0.8995783763
 40
1.0
 40
1.0
 40
1.0
 40
1.0
 10
7.2127345896
 20
6.9207638025
 30
0.0
 10
7.2127343293
 20
6.9174748781
 30
0.0
 10
7.2127616221
 20
6.9110593365
 30
0.0
 10
7.2128782779
 20
6.9016920413
 30
0.0
 10
7.2130566457
 20
6.892834634
 30
0.0
 10
7.213267936
 20
6.8844908656
 30
0.0
 10
7.2134823201
 20
6.8766424786
 30
0.0
 10
7.2136712077
 20
6.8692608066
 30
0.0
 10
7.213806114
 20
6.8623114428
 30
0.0
 10
7.2138426452
 20
6.8578181217
 30
0.0
 10
7.2138425707
 20
6.8556377132
 30
0.0
  0
SPLINE
  5
288
100
AcDbEntity
  8
0
100
AcDbSpline
 62
9
  6
CONTINUOUS
 70
0
 71
3
 72
64
 73
60
 74
0
 42
0.0000001
 43
0.0000001
 44
0.0000000001
 40
0.0
 40
0.0
 40
0.0
 40
0.0
 40
0.0000036287
 40
0.0000145658
 40
0.0000327821
 40
0.0000582481
 40
0.0000909346
 40
0.0001308121
 40
0.0002320232
 40
0.0003616465
 40
0.0005194474
 40
0.0007051911
 40
0.000918643
 40
0.0011595684
 40
0.0014277325
 40
0.0020448384
 40
0.0027680834
 40
0.0035955901
 40
0.0045254815
 40
0.0055558807
 40
0.0066849109
 40
0.0079106953
 40
0.010645021
 40
0.0137436535
 40
0.0171887224
 40
0.0209604207
 40
0.0250389034
 40
0.029404332
 40
0.0340368749
 40
0.0389167085
 40
0.0493389894
 40
0.0605239075
 40
0.0723808932
 40
0.084837407
 40
0.0978210236
 40
0.1112594428
 40
0.1250826384
 40
0.1392461033
 40
0.1537220951
 40
0.1835020547
 40
0.2142058041
 40
0.2456665431
 40
0.277787991
 40
0.3104807743
 40
0.3436739384
 40
0.3773219088
 40
0.4113827515
 40
0.4458243718
 40
0.4806234553
 40
0.5512142134
 40
0.6230508151
 40
0.6960751214
 40
0.7702657038
 40
0.8456277641
 40
0.8837610564
 40
0.9221973525
 40
0.9415316411
 40
0.9609442035
 40
1.0
 40
1.0
 40
1.0
 40
1.0
 10
7.2242935254
 20
8.773016212
 30
0.0
 10
7.2242933806
 20
8.773016428
 30
0.0
 10
7.2242941177
 20
8.7730142664
 30
0.0
 10
7.2242941801
 20
8.7730130907
 30
0.0
 10
7.2242953598
 20
8.7730086513
 30
0.0
 10
7.2242965055
 20
8.7730036072
 30
0.0
 10
7.2242981779
 20
8.7729966664
 30
0.0
 10
7.2243010366
 20
8.7729846049
 30
0.0
 10
7.2243055363
 20
8.7729657011
 30
0.0
 10
7.2243119628
 20
8.7729386238
 30
0.0
 10
7.224319789
 20
8.7729056321
 30
0.0
 10
7.2243289882
 20
8.772866801
 30
0.0
 10
7.2243395494
 20
8.7728221693
 30
0.0
 10
7.2243514561
 20
8.7727717885
 30
0.0
 10
7.2243699928
 20
8.7726932565
 30
0.0
 10
7.2243964178
 20
8.7725810796
 30
0.0
 10
7.2244319436
 20
8.7724298737
 30
0.0
 10
7.2244724914
 20
8.7722568269
 30
0.0
 10
7.2245179407
 20
8.7720623255
 30
0.0
 10
7.224568171
 20
8.7718467558
 30
0.0
 10
7.2246230617
 20
8.7716105039
 30
0.0
 10
7.2247053506
 20
8.7712552825
 30
0.0
 10
7.2248189793
 20
8.7707624657
 30
0.0
 10
7.2249674531
 20
8.7701145039
 30
0.0
 10
7.2251314412
 20
8.7693938455
 30
0.0
 10
7.2253096732
 20
8.7686044302
 30
0.0
 10
7.2255008572
 20
8.7677503385
 30
0.0
 10
7.2257036968
 20
8.7668356533
 30
0.0
 10
7.225916897
 20
8.7658644575
 30
0.0
 10
7.2262199637
 20
8.7644686968
 30
0.0
 10
7.2266157497
 20
8.7626126675
 30
0.0
 10
7.2271028155
 20
8.7602649967
 30
0.0
 10
7.2276053845
 20
8.7577717296
 30
0.0
 10
7.2281181428
 20
8.7551490951
 30
0.0
 10
7.2286360033
 20
8.7524120562
 30
0.0
 10
7.2291539584
 20
8.7495754341
 30
0.0
 10
7.2296671728
 20
8.7466520823
 30
0.0
 10
7.2301722666
 20
8.7436519005
 30
0.0
 10
7.2308380287
 20
8.739519508
 30
0.0
 10
7.2316347798
 20
8.7342079914
 30
0.0
 10
7.2325140861
 20
8.7276790196
 30
0.0
 10
7.2333103298
 20
8.7209703954
 30
0.0
 10
7.2340131506
 20
8.7141080506
 30
0.0
 10
7.2346123446
 20
8.707111264
 30
0.0
 10
7.2350986147
 20
8.6999960669
 30
0.0
 10
7.2354640358
 20
8.6927754655
 30
0.0
 10
7.2357007162
 20
8.6854599797
 30
0.0
 10
7.2358007256
 20
8.6780587978
 30
0.0
 10
7.2357410608
 20
8.6680397799
 30
0.0
 10
7.2352800423
 20
8.6553461865
 30
0.0
 10
7.2340492162
 20
8.6399534161
 30
0.0
 10
7.2320564134
 20
8.6243791392
 30
0.0
 10
7.2292039068
 20
8.608681158
 30
0.0
 10
7.2260228287
 20
8.5956052664
 30
0.0
 10
7.2229216832
 20
8.5851687667
 30
0.0
 10
7.2207269763
 20
8.5786554181
 30
0.0
 10
7.2188085397
 20
8.5734684416
 30
0.0
 10
7.2167692875
 20
8.5682801402
 30
0.0
 10
7.2151127702
 20
8.5644304593
 30
0.0
 10
7.2139480662
 20
8.5618860855
 30
0.0
  0
SPLINE
  5
289
100
AcDbEntity
  8
0
100
AcDbSpline
 62
9
  6
CONTINUOUS
 70
0
 71
3
 72
124
 73
120
 74
0
 42
0.0000001
 43
0.0000001
 44
0.0000000001
 40
0.0
 40
0.0
 40
0.0
 40
0.0
 40
0.0000013777
 40
0.0000054312
 40
0.0000121555
 40
0.0000215454
 40
0.000033596
 40
0.0000483021
 40
0.0000856604
 40
0.0001335798
 40
0.0001920195
 40
0.0002609388
 40
0.000340297
 40
0.0005301675
 40
0.0007613054
 40
0.0010333851
 40
0.0013460811
 40
0.0016990678
 40
0.0020920198
 40
0.0029965171
 40
0.0040569687
 40
0.0052707704
 40
0.0066353167
 40
0.0081474333
 40
0.0098024465
 40
0.0115954392
 40
0.0135214941
 40
0.0155756943
 40
0.0200488626
 40
0.0249756108
 40
0.0303173813
 40
0.0360412816
 40
0.0421169403
 40
0.0485140017
 40
0.0552021161
 40
0.0621534584
 40
0.0693476118
 40
0.0843881166
 40
0.100175468
 40
0.1165975397
 40
0.1335607447
 40
0.1509862597
 40
0.1688154858
 40
0.1869942905
 40
0.2054823068
 40
0.2432484189
 40
0.2818942115
 40
0.3014960747
 40
0.3212620879
 40
0.3612347756
 40
0.3814200188
 40
0.4017252082
 40
0.4221423989
 40
0.4426641272
 40
0.4632827743
 40
0.4839917774
 40
0.5047854541
 40
0.5256546915
 40
0.546589866
 40
0.567583899
 40
0.5886270432
 40
0.6096970198
 40
0.6307729411
 40
0.6518382506
 40
0.6728613846
 40
0.6937894562
 40
0.7042028691
 40
0.7145747408
 40
0.7351670509
 40
0.7554915745
 40
0.76552715
 40
0.775463726
 40
0.7852909669
 40
0.7949989467
 40
0.8045779603
 40
0.8140178621
 40
0.8233080428
 40
0.8324374762
 40
0.841394764
 40
0.8501686195
 40
0.8671369106
 40
0.8832924924
 40
0.8985764136
 40
0.9129301014
 40
0.9263175515
 40
0.9326377125
 40
0.9387017496
 40
0.9445040515
 40
0.9500401215
 40
0.960298704
 40
0.9650135132
 40
0.9694463555
 40
0.9735927912
 40
0.9774485523
 40
0.9810104672
 40
0.9842755525
 40
0.9872407512
 40
0.9899029361
 40
0.992258914
 40
0.9943054772
 40
0.9952119758
 40
0.996040415
 40
0.9967906525
 40
0.9974625455
 40
0.9980559509
 40
0.998570725
 40
0.9990067235
 40
0.9993638017
 40
0.9995127003
 40
0.9996418144
 40
0.9997511257
 40
0.9998406159
 40
0.9999102668
 40
0.9999376467
 40
0.99996006
 40
0.9999775043
 40
0.9999899772
 40
0.9999974765
 40
1.0
 40
1.0
 40
1.0
 40
1.0
 10
7.2317927114
 20
8.0600272408
 30
0.0
 10
7.2317928685
 20
8.060027076
 30
0.0
 10
7.2317937117
 20
8.0600266987
 30
0.0
 10
7.2317953359
 20
8.060025537
 30
0.0
 10
7.2317982082
 20
8.060023825
 30
0.0
 10
7.2318021381
 20
8.0600213358
 30
0.0
 10
7.2318072154
 20
8.0600181824
 30
0.0
 10
7.231816205
 20
8.0600125697
 30
0.0
 10
7.2318302335
 20
8.0600038295
 30
0.0
 10
7.2318503958
 20
8.0599912641
 30
0.0
 10
7.2318749894
 20
8.0599759444
 30
0.0
 10
7.2319039955
 20
8.0599578792
 30
0.0
 10
7.2319514469
 20
8.0599283331
 30
0.0
 10
7.2320216677
 20
8.0598846222
 30
0.0
 10
7.2321189439
 20
8.0598240903
 30
0.0
 10
7.2322334691
 20
8.0597528475
 30
0.0
 10
7.2323651086
 20
8.0596709832
 30
0.0
 10
7.2325137281
 20
8.059578587
 30
0.0
 10
7.2327454484
 20
8.0594345697
 30
0.0
 10
7.2330765384
 20
8.0592288866
 30
0.0
 10
7.2335229613
 20
8.0589517147
 30
0.0
 10
7.234034076
 20
8.0586345618
 30
0.0
 10
7.2346087255
 20
8.0582781921
 30
0.0
 10
7.2352454656
 20
8.0578835554
 30
0.0
 10
7.2359425452
 20
8.0574518325
 30
0.0
 10
7.2366979665
 20
8.0569843524
 30
0.0
 10
7.2375096978
 20
8.0564824665
 30
0.0
 10
7.2386985779
 20
8.0557480865
 30
0.0
 10
7.2403101617
 20
8.054754142
 30
0.0
 10
7.2423855797
 20
8.0534769859
 30
0.0
 10
7.2446386009
 20
8.0520939415
 30
0.0
 10
7.2470552396
 20
8.050614406
 30
0.0
 10
7.24962266
 20
8.0490470611
 30
0.0
 10
7.2523283833
 20
8.0474003701
 30
0.0
 10
7.25516029
 20
8.0456825815
 30
0.0
 10
7.25810766
 20
8.043901087
 30
0.0
 10
7.262240762
 20
8.0414121773
 30
0.0
 10
7.2676336525
 20
8.0381838862
 30
0.0
 10
7.2743506453
 20
8.0341976751
 30
0.0
 10
7.2813580961
 20
8.0300782488
 30
0.0
 10
7.2886180069
 20
8.025854081
 30
0.0
 10
7.2960999421
 20
8.021549158
 30
0.0
 10
7.3037788623
 20
8.0171838943
 30
0.0
 10
7.3116352265
 20
8.0127756329
 30
0.0
 10
7.322401678
 20
8.0068191186
 30
0.0
 10
7.3362019295
 20
7.9993579038
 30
0.0
 10
7.3502739371
 20
7.9920153443
 30
0.0
 10
7.3617820698
 20
7.9861947968
 30
0.0
 10
7.3735392419
 20
7.9803819287
 30
0.0
 10
7.3854688825
 20
7.9747011853
 30
0.0
 10
7.3975730699
 20
7.9691862356
 30
0.0
 10
7.4067861077
 20
7.9651243165
 30
0.0
 10
7.4161032877
 20
7.9611628514
 30
0.0
 10
7.4255238384
 20
7.9573145518
 30
0.0
 10
7.4350479806
 20
7.9535953435
 30
0.0
 10
7.4446755952
 20
7.9500213216
 30
0.0
 10
7.4544054698
 20
7.9466083214
 30
0.0
 10
7.4642365793
 20
7.9433767036
 30
0.0
 10
7.4741671022
 20
7.940348781
 30
0.0
 10
7.4841937418
 20
7.9375468339
 30
0.0
 10
7.4943099555
 20
7.9349943636
 30
0.0
 10
7.504506501
 20
7.9327203793
 30
0.0
 10
7.5147708894
 20
7.9307544377
 30
0.0
 10
7.5250869172
 20
7.9291274585
 30
0.0
 10
7.5354298143
 20
7.9278681139
 30
0.0
 10
7.5440582513
 20
7.9271455074
 30
0.0
 10
7.5509444486
 20
7.9267790795
 30
0.0
 10
7.5577813563
 20
7.9265590232
 30
0.0
 10
7.5662626371
 20
7.9265640732
 30
0.0
 10
7.5746799034
 20
7.9269446147
 30
0.0
 10
7.5813205551
 20
7.9274752989
 30
0.0
 10
7.5862208687
 20
7.9279827806
 30
0.0
 10
7.5910538374
 20
7.9286011559
 30
0.0
 10
7.5958117333
 20
7.9293290829
 30
0.0
 10
7.6004877123
 20
7.9301598065
 30
0.0
 10
7.605075021
 20
7.9310872136
 30
0.0
 10
7.6095669361
 20
7.9321050203
 30
0.0
 10
7.6139567097
 20
7.9332070197
 30
0.0
 10
7.6182377419
 20
7.9343868915
 30
0.0
 10
7.6237314636
 20
7.9360379757
 30
0.0
 10
7.6302965418
 20
7.9382520445
 30
0.0
 10
7.6377673622
 20
7.9411251566
 30
0.0
 10
7.6447233158
 20
7.9441160967
 30
0.0
 10
7.6511528621
 20
7.9471601298
 30
0.0
 10
7.6561598718
 20
7.9497378282
 30
0.0
 10
7.6599020322
 20
7.9517741964
 30
0.0
 10
7.662522291
 20
7.9532482985
 30
0.0
 10
7.6650109321
 20
7.954691466
 30
0.0
 10
7.6680770756
 20
7.9565204073
 30
0.0
 10
7.6709585801
 20
7.9583075063
 30
0.0
 10
7.6736571175
 20
7.9600422368
 30
0.0
 10
7.6754941523
 20
7.9612484338
 30
0.0
 10
7.6772025406
 20
7.962391664
 30
0.0
 10
7.6787831049
 20
7.9634669305
 30
0.0
 10
7.680235894
 20
7.9644709105
 30
0.0
 10
7.6815611625
 20
7.9654003981
 30
0.0
 10
7.6827591928
 20
7.9662522241
 30
0.0
 10
7.6838302804
 20
7.9670232019
 30
0.0
 10
7.684774675
 20
7.9677102204
 30
0.0
 10
7.6854824638
 20
7.968229118
 30
0.0
 10
7.6859858106
 20
7.9685997957
 30
0.0
 10
7.686316246
 20
7.9688438912
 30
0.0
 10
7.6866151673
 20
7.9690653766
 30
0.0
 10
7.686882583
 20
7.9692641201
 30
0.0
 10
7.6871185039
 20
7.9694399871
 30
0.0
 10
7.68732294
 20
7.9695928437
 30
0.0
 10
7.6874959017
 20
7.9697225559
 30
0.0
 10
7.6876203426
 20
7.9698161594
 30
0.0
 10
7.6877041699
 20
7.969879364
 30
0.0
 10
7.6877552655
 20
7.9699179479
 30
0.0
 10
7.6877985009
 20
7.9699506446
 30
0.0
 10
7.6878338751
 20
7.9699774396
 30
0.0
 10
7.6878584429
 20
7.969996071
 30
0.0
 10
7.6878741627
 20
7.970008018
 30
0.0
 10
7.6878830195
 20
7.9700147349
 30
0.0
 10
7.6878898829
 20
7.9700199969
 30
0.0
 10
7.687894852
 20
7.9700236892
 30
0.0
 10
7.6878977245
 20
7.9700260402
 30
0.0
 10
7.6878991297
 20
7.9700269452
 30
0.0
 10
7.687899424
 20
7.9700272408
 30
0.0
  0
SPLINE
  5
28A
100
AcDbEntity
  8
0
100
AcDbSpline
 62
9
  6
CONTINUOUS
 70
0
 71
3
 72
80
 73
76
 74
0
 42
0.0000001
 43
0.0000001
 44
0.0000000001
 40
0.0
 40
0.0
 40
0.0
 40
0.0
 40
0.0623891382
 40
0.0956547161
 40
0.129945734
 40
0.165078828
 40
0.2009133722
 40
0.237339341
 40
0.2742692236
 40
0.3116305779
 40
0.3493609321
 40
0.3874037726
 40
0.425705131
 40
0.4642052729
 40
0.5028442108
 40
0.5221901267
 40
0.5415381418
 40
0.5608777659
 40
0.5801962852
 40
0.5994746938
 40
0.6186934755
 40
0.6378336313
 40
0.6473685706
 40
0.6568764992
 40
0.6757965878
 40
0.6945646565
 40
0.7131509996
 40
0.7223668633
 40
0.7315261245
 40
0.7496571615
 40
0.7675067297
 40
0.7850357753
 40
0.8022044443
 40
0.8352929721
 40
0.8511256534
 40
0.8664219518
 40
0.8811344447
 40
0.8952155367
 40
0.9086170212
 40
0.9212896287
 40
0.9331832903
 40
0.9442497082
 40
0.9544419399
 40
0.9637124436
 40
0.9679870403
 40
0.9720136282
 40
0.9757876059
 40
0.9793044648
 40
0.9825596794
 40
0.9855487076
 40
0.988266992
 40
0.9907099607
 40
0.9928731088
 40
0.9947534035
 40
0.9955869387
 40
0.9963491185
 40
0.9970397325
 40
0.9976585701
 40
0.9982054204
 40
0.9986800727
 40
0.9990823158
 40
0.999256218
 40
0.9994119387
 40
0.9995494515
 40
0.99966873
 40
0.9997697478
 40
0.9998524783
 40
0.9999168953
 40
0.9999422279
 40
0.9999629722
 40
0.9999791249
 40
0.9999906826
 40
0.9999947373
 40
0.9999976421
 40
1.0
 40
1.0
 40
1.0
 40
1.0
 10
6.9341578603
 20
4.7573136027
 30
0.0
 10
6.9455430897
 20
4.7541019049
 30
0.0
 10
6.9630395585
 20
4.7493196721
 30
0.0
 10
6.9868983565
 20
4.7431673328
 30
0.0
 10
7.0058054876
 20
4.7385138478
 30
0.0
 10
7.0252429472
 20
4.7339828758
 30
0.0
 10
7.0451362721
 20
4.729632126
 30
0.0
 10
7.0654275926
 20
4.725516998
 30
0.0
 10
7.0860704022
 20
4.7216924316
 30
0.0
 10
7.1070255826
 20
4.7182153006
 30
0.0
 10
7.1282575693
 20
4.7151433712
 30
0.0
 10
7.1497319407
 20
4.7125393054
 30
0.0
 10
7.1714111948
 20
4.7104662815
 30
0.0
 10
7.1932530712
 20
4.7089917248
 30
0.0
 10
7.2115385757
 20
4.708318685
 30
0.0
 10
7.2262011593
 20
4.7081438948
 30
0.0
 10
7.2372052914
 20
4.708202786
 30
0.0
 10
7.2482014116
 20
4.7084596324
 30
0.0
 10
7.2591776642
 20
4.7089213831
 30
0.0
 10
7.2701202782
 20
4.7095909324
 30
0.0
 10
7.2810140059
 20
4.710471652
 30
0.0
 10
7.2900497408
 20
4.7113853345
 30
0.0
 10
7.2972407537
 20
4.7122258822
 30
0.0
 10
7.3043811451
 20
4.7131366401
 30
0.0
 10
7.3132399185
 20
4.7144079433
 30
0.0
 10
7.3237685559
 20
4.7161446545
 30
0.0
 10
7.3324494791
 20
4.7177651496
 30
0.0
 10
7.3393173313
 20
4.7191614383
 30
0.0
 10
7.3460853384
 20
4.7206134965
 30
0.0
 10
7.354424695
 20
4.7225428651
 30
0.0
 10
7.3642604003
 20
4.72503539
 30
0.0
 10
7.3738672769
 20
4.727679763
 30
0.0
 10
7.3861888654
 20
4.7313393795
 30
0.0
 10
7.3980943368
 20
4.7352615916
 30
0.0
 10
7.4095498823
 20
4.7393897843
 30
0.0
 10
7.4176750349
 20
4.7424785047
 30
0.0
 10
7.4254387972
 20
4.7455796592
 30
0.0
 10
7.4328209638
 20
4.7486647628
 30
0.0
 10
7.4398020796
 20
4.7517041407
 30
0.0
 10
7.4463626949
 20
4.754668513
 30
0.0
 10
7.4524839248
 20
4.7575286237
 30
0.0
 10
7.4581474098
 20
4.7602563014
 30
0.0
 10
7.4633353941
 20
4.7628241772
 30
0.0
 10
7.4673496515
 20
4.7648597844
 30
0.0
 10
7.4703113748
 20
4.7663858353
 30
0.0
 10
7.4723425931
 20
4.7674423746
 30
0.0
 10
7.4742426482
 20
4.7684396952
 30
0.0
 10
7.4760099007
 20
4.7693752967
 30
0.0
 10
7.4776427218
 20
4.7702467038
 30
0.0
 10
7.4791394818
 20
4.7710514421
 30
0.0
 10
7.4804985564
 20
4.771787028
 30
0.0
 10
7.4817183125
 20
4.7724510249
 30
0.0
 10
7.4827974389
 20
4.7730410261
 30
0.0
 10
7.4836081452
 20
4.7734858445
 30
0.0
 10
7.4841855829
 20
4.7738035818
 30
0.0
 10
7.4845652301
 20
4.774012862
 30
0.0
 10
7.4849090821
 20
4.7742027516
 30
0.0
 10
7.4852170647
 20
4.7743731367
 30
0.0
 10
7.4854891035
 20
4.7745239036
 30
0.0
 10
7.4857251242
 20
4.7746549385
 30
0.0
 10
7.4858992486
 20
4.7747517769
 30
0.0
 10
7.4860204854
 20
4.7748192924
 30
0.0
 10
7.486097853
 20
4.774862414
 30
0.0
 10
7.4861661604
 20
4.7749005172
 30
0.0
 10
7.4862253982
 20
4.7749335881
 30
0.0
 10
7.4862755573
 20
4.7749616118
 30
0.0
 10
7.4863166278
 20
4.7749845759
 30
0.0
 10
7.4863451693
 20
4.7750005416
 30
0.0
 10
7.4863634501
 20
4.7750107769
 30
0.0
 10
7.4863737487
 20
4.7750165336
 30
0.0
 10
7.486381759
 20
4.7750210383
 30
0.0
 10
7.4863870289
 20
4.7750239436
 30
0.0
 10
7.4863900748
 20
4.7750257051
 30
0.0
 10
7.4863916506
 20
4.7750264809
 30
0.0
 10
7.4863924576
 20
4.775027133
 30
0.0
 10
7.4863928915
 20
4.7750272408
 30
0.0
  0
SPLINE
  5
28B
100
AcDbEntity
  8
0
100
AcDbSpline
 62
9
  6
CONTINUOUS
 70
0
 71
3
 72
45
 73
41
 74
0
 42
0.0000001
 43
0.0000001
 44
0.0000000001
 40
0.0
 40
0.0
 40
0.0
 40
0.0
 40
0.0871543916
 40
0.168827816
 40
0.2074697764
 40
0.2445724684
 40
0.3140291668
 40
0.3774900218
 40
0.43549184
 40
0.4885502334
 40
0.5371444422
 40
0.5816970405
 40
0.6226098053
 40
0.6602696691
 40
0.6779965592
 40
0.695042897
 40
0.7271926246
 40
0.7569025278
 40
0.784347259
 40
0.8096951344
 40
0.833107134
 40
0.8547034581
 40
0.8745573541
 40
0.8927372477
 40
0.9093097444
 40
0.9243400682
 40
0.9378838047
 40
0.9499729426
 40
0.9606368873
 40
0.9699079879
 40
0.9778244628
 40
0.9844305236
 40
0.9872585465
 40
0.9897820216
 40
0.9920152523
 40
0.9939790537
 40
0.9957042469
 40
0.9972364258
 40
0.9986404973
 40
1.0
 40
1.0
 40
1.0
 40
1.0
 10
7.2242935254
 20
6.9385327552
 30
0.0
 10
7.2242935038
 20
6.9371175486
 30
0.0
 10
7.2243309231
 20
6.934375968
 30
0.0
 10
7.2244742011
 20
6.931009615
 30
0.0
 10
7.2246423111
 20
6.9284589072
 30
0.0
 10
7.2248345569
 20
6.926108908
 30
0.0
 10
7.225126876
 20
6.9233630753
 30
0.0
 10
7.2255608761
 20
6.9202928611
 30
0.0
 10
7.2260537182
 20
6.917501624
 30
0.0
 10
7.2265895892
 20
6.9149647001
 30
0.0
 10
7.2271526456
 20
6.9126579712
 30
0.0
 10
7.2277353566
 20
6.9105601891
 30
0.0
 10
7.2283298247
 20
6.9086510002
 30
0.0
 10
7.2288382074
 20
6.9071720173
 30
0.0
 10
7.2292425738
 20
6.906067524
 30
0.0
 10
7.2296282819
 20
6.9050515658
 30
0.0
 10
7.230103948
 20
6.9038617254
 30
0.0
 10
7.230673161
 20
6.9025278654
 30
0.0
 10
7.2312256011
 20
6.9013072975
 30
0.0
 10
7.2317578895
 20
6.9001901561
 30
0.0
 10
7.2322659918
 20
6.8991668827
 30
0.0
 10
7.232746814
 20
6.8982297825
 30
0.0
 10
7.2331991227
 20
6.8973736281
 30
0.0
 10
7.23362095
 20
6.8965936894
 30
0.0
 10
7.2340104178
 20
6.8958853259
 30
0.0
 10
7.2343655289
 20
6.8952439901
 30
0.0
 10
7.2346841616
 20
6.8946656716
 30
0.0
 10
7.2349651828
 20
6.8941475858
 30
0.0
 10
7.2352071836
 20
6.8936873005
 30
0.0
 10
7.2354088304
 20
6.8932824165
 30
0.0
 10
7.2355686827
 20
6.8929305801
 30
0.0
 10
7.2356708849
 20
6.892667712
 30
0.0
 10
7.2357282141
 20
6.8924821122
 30
0.0
 10
7.2357575231
 20
6.8923623953
 30
0.0
 10
7.2357752866
 20
6.892254584
 30
0.0
 10
7.2357812849
 20
6.8921583934
 30
0.0
 10
7.2357752176
 20
6.8920735039
 30
0.0
 10
7.2357565652
 20
6.8919996243
 30
0.0
 10
7.2357246628
 20
6.8919368546
 30
0.0
 10
7.2356943809
 20
6.8919029347
 30
0.0
 10
7.2356777012
 20
6.8918884739
 30
0.0
  0
SPLINE
  5
28C
100
AcDbEntity
  8
0
100
AcDbSpline
 62
9
  6
CONTINUOUS
 70
0
 71
3
 72
8
 73
4
 74
0
 42
0.0000001
 43
0.0000001
 44
0.0000000001
 40
0.0
 40
0.0
 40
0.0
 40
0.0
 40
1.0
 40
1.0
 40
1.0
 40
1.0
 10
7.6515986516
 20
7.2520868832
 30
0.0
 10
7.65160661
 20
7.2520937747
 30
0.0
 10
7.6516145685
 20
7.2521006661
 30
0.0
 10
7.651622527
 20
7.2521075576
 30
0.0
  0
SPLINE
  5
28D
100
AcDbEntity
  8
0
100
AcDbSpline
 62
9
  6
CONTINUOUS
 70
0
 71
3
 72
66
 73
62
 74
0
 42
0.0000001
 43
0.0000001
 44
0.0000000001
 40
0.0
 40
0.0
 40
0.0
 40
0.0
 40
0.01395258
 40
0.0281295874
 40
0.0425161837
 40
0.0570981252
 40
0.0718635777
 40
0.0868007355
 40
0.1018950138
 40
0.1171306359
 40
0.147958561
 40
0.1791721573
 40
0.2106626383
 40
0.2423374173
 40
0.2741246058
 40
0.3059733772
 40
0.3219165516
 40
0.3298907467
 40
0.3378656365
 40
0.3458410709
 40
0.3538168912
 40
0.3697664069
 40
0.3777409428
 40
0.3857142447
 40
0.4016549745
 40
0.4175884523
 40
0.4255517413
 40
0.4335111753
 40
0.4494179719
 40
0.4653109641
 40
0.481185472
 40
0.4970372868
 40
0.5128701879
 40
0.5286843534
 40
0.5444752586
 40
0.5602425367
 40
0.5759909965
 40
0.591722423
 40
0.6074354746
 40
0.6231300675
 40
0.6388103973
 40
0.654479404
 40
0.6701383153
 40
0.6857877689
 40
0.701430679
 40
0.7170698032
 40
0.732707028
 40
0.7483437718
 40
0.7639823311
 40
0.7796249515
 40
0.7952734549
 40
0.8109295721
 40
0.8422711413
 40
0.8736651068
 40
0.8893864248
 40
0.9051256885
 40
0.9208841024
 40
0.9366629034
 40
0.952463496
 40
0.9682864976
 40
1.0
 40
1.0
 40
1.0
 40
1.0
 10
7.687899424
 20
7.3400272408
 30
0.0
 10
7.6878994075
 20
7.3423845306
 30
0.0
 10
7.6877962597
 20
7.3471375957
 30
0.0
 10
7.6873410907
 20
7.3543081923
 30
0.0
 10
7.6865840063
 20
7.3615602176
 30
0.0
 10
7.685524653
 20
7.3688746753
 30
0.0
 10
7.6841624593
 20
7.3762334387
 30
0.0
 10
7.6824971475
 20
7.3836182955
 30
0.0
 10
7.6805276343
 20
7.3910102874
 30
0.0
 10
7.6774828374
 20
7.4008862994
 30
0.0
 10
7.672907297
 20
7.4131299625
 30
0.0
 10
7.6662000642
 20
7.4274573019
 30
0.0
 10
7.6582360157
 20
7.4412946402
 30
0.0
 10
7.6490007561
 20
7.4544406997
 30
0.0
 10
7.6384936492
 20
7.4666780773
 30
0.0
 10
7.6286985698
 20
7.4759296572
 30
0.0
 10
7.6213306894
 20
7.4818091682
 30
0.0
 10
7.6169795653
 20
7.4849884452
 30
0.0
 10
7.6136486056
 20
7.48727916
 30
0.0
 10
7.6102524994
 20
7.4894727289
 30
0.0
 10
7.6056414452
 20
7.4922642393
 30
0.0
 10
7.6009106406
 20
7.4948536709
 30
0.0
 10
7.5960745711
 20
7.4972329302
 30
0.0
 10
7.5911724547
 20
7.4994696007
 30
0.0
 10
7.5849281833
 20
7.5019964694
 30
0.0
 10
7.5785529462
 20
7.5041659051
 30
0.0
 10
7.5733896868
 20
7.5056871488
 30
0.0
 10
7.5681910241
 20
7.5070651176
 30
0.0
 10
7.5616306061
 20
7.5085241317
 30
0.0
 10
7.5536856721
 20
7.5098683388
 30
0.0
 10
7.5456938674
 20
7.5108210436
 30
0.0
 10
7.5376767269
 20
7.5113983354
 30
0.0
 10
7.5296524244
 20
7.5116211459
 30
0.0
 10
7.521636371
 20
7.5115103066
 30
0.0
 10
7.5136420924
 20
7.5110869425
 30
0.0
 10
7.5056801174
 20
7.5103701693
 30
0.0
 10
7.4977581113
 20
7.5093776689
 30
0.0
 10
7.4898821594
 20
7.5081272667
 30
0.0
 10
7.4820574899
 20
7.5066369666
 30
0.0
 10
7.4742878232
 20
7.5049224909
 30
0.0
 10
7.4665758872
 20
7.5029954953
 30
0.0
 10
7.4589231729
 20
7.5008680839
 30
0.0
 10
7.4513309368
 20
7.4985521509
 30
0.0
 10
7.4437996902
 20
7.4960591869
 30
0.0
 10
7.4363303403
 20
7.4933965584
 30
0.0
 10
7.4289231236
 20
7.4905716036
 30
0.0
 10
7.4215781116
 20
7.4875915473
 30
0.0
 10
7.4142950341
 20
7.4844635076
 30
0.0
 10
7.4070743615
 20
7.4811918313
 30
0.0
 10
7.3999163524
 20
7.4777806896
 30
0.0
 10
7.3928210321
 20
7.4742343607
 30
0.0
 10
7.38344179
 20
7.4693289388
 30
0.0
 10
7.3718750691
 20
7.4628711929
 30
0.0
 10
7.3605358708
 20
7.4560006819
 30
0.0
 10
7.351603553
 20
7.45025674
 30
0.0
 10
7.3449711322
 20
7.4458226631
 30
0.0
 10
7.3384118981
 20
7.4412639901
 30
0.0
 10
7.3319289908
 20
7.4365796962
 30
0.0
 10
7.3255254259
 20
7.4317691847
 30
0.0
 10
7.3170934511
 20
7.4251799621
 30
0.0
 10
7.3109114427
 20
7.420048586
 30
0.0
 10
7.3068607718
 20
7.4165414185
 30
0.0
  0
SPLINE
  5
28E
100
AcDbEntity
  8
0
100
AcDbSpline
 62
9
  6
CONTINUOUS
 70
0
 71
3
 72
42
 73
38
 74
0
 42
0.0000001
 43
0.0000001
 44
0.0000000001
 40
0.0
 40
0.0
 40
0.0
 40
0.0
 40
0.0277304848
 40
0.0555801986
 40
0.0835860024
 40
0.1117712436
 40
0.1401562687
 40
0.1687535476
 40
0.1975742825
 40
0.2266252315
 40
0.2559130492
 40
0.2854416328
 40
0.3152157525
 40
0.3452384173
 40
0.4060428697
 40
0.4678952373
 40
0.5308456145
 40
0.5627554492
 40
0.594968007
 40
0.6274959005
 40
0.6603552052
 40
0.6769138901
 40
0.6935609054
 40
0.7271257998
 40
0.7610604363
 40
0.7781693347
 40
0.7953724596
 40
0.8300247233
 40
0.8474520021
 40
0.8649323568
 40
0.8999415561
 40
0.9173479061
 40
0.9346005348
 40
0.9516298672
 40
0.9683116265
 40
0.9844874048
 40
1.0
 40
1.0
 40
1.0
 40
1.0
 10
7.2140314974
 20
7.1861719677
 30
0.0
 10
7.2151988391
 20
7.1841605707
 30
0.0
 10
7.2174083254
 20
7.1800523221
 30
0.0
 10
7.2203644776
 20
7.1736925389
 30
0.0
 10
7.2229928946
 20
7.1671496794
 30
0.0
 10
7.2253192084
 20
7.1604465057
 30
0.0
 10
7.2273634741
 20
7.1536006116
 30
0.0
 10
7.2291465233
 20
7.146627412
 30
0.0
 10
7.2306847363
 20
7.1395392551
 30
0.0
 10
7.2319947747
 20
7.1323467541
 30
0.0
 10
7.2330899491
 20
7.1250585572
 30
0.0
 10
7.2339837899
 20
7.1176820022
 30
0.0
 10
7.2346872203
 20
7.1102230518
 30
0.0
 10
7.2353888895
 20
7.100132441
 30
0.0
 10
7.23583631
 20
7.0873315399
 30
0.0
 10
7.235762834
 20
7.0717625768
 30
0.0
 10
7.2352490026
 20
7.0586276482
 30
0.0
 10
7.2346000519
 20
7.0479903156
 30
0.0
 10
7.2339980613
 20
7.0399069499
 30
0.0
 10
7.23329196
 20
7.031752163
 30
0.0
 10
7.2326274644
 20
7.0249119138
 30
0.0
 10
7.2320547666
 20
7.0194010841
 30
0.0
 10
7.2314528789
 20
7.0138338414
 30
0.0
 10
7.2306565293
 20
7.006821979
 30
0.0
 10
7.2298226178
 20
6.9997755141
 30
0.0
 10
7.2291399719
 20
6.9940929112
 30
0.0
 10
7.2284465572
 20
6.9883509891
 30
0.0
 10
7.2277543944
 20
6.9825820096
 30
0.0
 10
7.2270836092
 20
6.9767870943
 30
0.0
 10
7.2264322088
 20
6.9709598679
 30
0.0
 10
7.2258243269
 20
6.9651294699
 30
0.0
 10
7.2252962759
 20
6.9593106144
 30
0.0
 10
7.224952421
 20
6.954989359
 30
0.0
 10
7.224671093
 20
6.9507244422
 30
0.0
 10
7.2244601804
 20
6.9465458411
 30
0.0
 10
7.2243266875
 20
6.9424912935
 30
0.0
 10
7.2242934954
 20
6.9398337081
 30
0.0
 10
7.2242935254
 20
6.9385327552
 30
0.0
  0
LINE
  5
28F
100
AcDbEntity
  8
0
100
AcDbLine
 62
9
  6
CONTINUOUS
 10
6.9343937494
 20
3.7056058749
 11
6.934393598
 21
3.7053027226
  0
SPLINE
  5
290
100
AcDbEntity
  8
0
100
AcDbSpline
 62
9
  6
CONTINUOUS
 70
0
 71
3
 72
15
 73
11
 74
0
 42
0.0000001
 43
0.0000001
 44
0.0000000001
 40
0.0
 40
0.0
 40
0.0
 40
0.0
 40
0.1301180634
 40
0.2597606509
 40
0.3885621706
 40
0.5160790447
 40
0.6417552671
 40
0.7648574827
 40
0.8845899823
 40
1.0
 40
1.0
 40
1.0
 40
1.0
 10
6.9343937667
 20
3.8601741635
 30
0.0
 10
6.9343939165
 20
3.8562958401
 30
0.0
 10
6.9343605245
 20
3.8485533381
 30
0.0
 10
6.9342284932
 20
3.8369724717
 30
0.0
 10
6.934041364
 20
3.8254699426
 30
0.0
 10
6.9338277509
 20
3.8140861423
 30
0.0
 10
6.9336161674
 20
3.8028722105
 30
0.0
 10
6.9334361392
 20
3.7918897505
 30
0.0
 10
6.9333164709
 20
3.7812124549
 30
0.0
 10
6.9332854618
 20
3.774203735
 30
0.0
 10
6.9332857707
 20
3.7707638025
 30
0.0
  0
SPLINE
  5
291
100
AcDbEntity
  8
0
100
AcDbSpline
 62
9
  6
CONTINUOUS
 70
0
 71
3
 72
17
 73
13
 74
0
 42
0.0000001
 43
0.0000001
 44
0.0000000001
 40
0.0
 40
0.0
 40
0.0
 40
0.0
 40
0.030219862
 40
0.0575341314
 40
0.0927160516
 40
0.1354796443
 40
0.185442591
 40
0.3054200892
 40
0.4495970243
 40
0.6151656632
 40
0.7994469764
 40
1.0
 40
1.0
 40
1.0
 40
1.0
 10
6.9332918141
 20
5.6584891303
 30
0.0
 10
6.9333146657
 20
5.6582460032
 30
0.0
 10
6.9333569486
 20
5.6577830102
 30
0.0
 10
6.9334226356
 20
5.657036681
 30
0.0
 10
6.9334949329
 20
5.6561891816
 30
0.0
 10
6.9335792433
 20
5.6551590288
 30
0.0
 10
6.9337116742
 20
5.6534453279
 30
0.0
 10
6.9338863552
 20
5.650912986
 30
0.0
 10
6.934081947
 20
5.6474459187
 30
0.0
 10
6.934250285
 20
5.6434572165
 30
0.0
 10
6.9343671966
 20
5.6390108935
 30
0.0
 10
6.9343940537
 20
5.6359010629
 30
0.0
 10
6.9343937875
 20
5.6342804474
 30
0.0
  0
SPLINE
  5
292
100
AcDbEntity
  8
0
100
AcDbSpline
 62
9
  6
CONTINUOUS
 70
0
 71
3
 72
22
 73
18
 74
0
 42
0.0000001
 43
0.0000001
 44
0.0000000001
 40
0.0
 40
0.0
 40
0.0
 40
0.0
 40
0.0612949435
 40
0.12188685
 40
0.1819956827
 40
0.2418417472
 40
0.3016304934
 40
0.3615585038
 40
0.4218147728
 40
0.4825772775
 40
0.5439930996
 40
0.6061851138
 40
0.6692642202
 40
0.7333293272
 40
0.7984400108
 40
0.8646010422
 40
1.0
 40
1.0
 40
1.0
 40
1.0
 10
7.3721864558
 20
4.1021186014
 30
0.0
 10
7.3737027619
 20
4.1034324359
 30
0.0
 10
7.3766442653
 20
4.106131688
 30
0.0
 10
7.3807910765
 20
4.1104132156
 30
0.0
 10
7.3846430397
 20
4.1148998792
 30
0.0
 10
7.3882001193
 20
4.119590738
 30
0.0
 10
7.3914645355
 20
4.1244825942
 30
0.0
 10
7.3944381366
 20
4.1295719329
 30
0.0
 10
7.3971227652
 20
4.1348550944
 30
0.0
 10
7.3995199801
 20
4.1403277723
 30
0.0
 10
7.4016314424
 20
4.1459844256
 30
0.0
 10
7.4034584234
 20
4.1518185903
 30
0.0
 10
7.4050020069
 20
4.1578234738
 30
0.0
 10
7.4062630195
 20
4.1639913083
 30
0.0
 10
7.4072424404
 20
4.1703122123
 30
0.0
 10
7.4081810364
 20
4.1789925288
 30
0.0
 10
7.4084505104
 20
4.1855953174
 30
0.0
 10
7.4084506051
 20
4.1900272408
 30
0.0
  0
SPLINE
  5
293
100
AcDbEntity
  8
0
100
AcDbSpline
 62
9
  6
CONTINUOUS
 70
0
 71
3
 72
80
 73
76
 74
0
 42
0.0000001
 43
0.0000001
 44
0.0000000001
 40
0.0
 40
0.0
 40
0.0
 40
0.0
 40
0.0623891382
 40
0.0956547161
 40
0.129945734
 40
0.165078828
 40
0.2009133722
 40
0.237339341
 40
0.2742692236
 40
0.3116305779
 40
0.3493609321
 40
0.3874037726
 40
0.425705131
 40
0.4642052729
 40
0.5028442108
 40
0.5221901267
 40
0.5415381418
 40
0.5608777659
 40
0.5801962852
 40
0.5994746938
 40
0.6186934755
 40
0.6378336313
 40
0.6473685706
 40
0.6568764992
 40
0.6757965878
 40
0.6945646565
 40
0.7131509996
 40
0.7223668633
 40
0.7315261245
 40
0.7496571615
 40
0.7675067297
 40
0.7850357753
 40
0.8022044443
 40
0.8352929721
 40
0.8511256534
 40
0.8664219518
 40
0.8811344447
 40
0.8952155367
 40
0.9086170212
 40
0.9212896287
 40
0.9331832903
 40
0.9442497082
 40
0.9544419399
 40
0.9637124436
 40
0.9679870403
 40
0.9720136282
 40
0.9757876059
 40
0.9793044648
 40
0.9825596794
 40
0.9855487076
 40
0.988266992
 40
0.9907099607
 40
0.9928731088
 40
0.9947534035
 40
0.9955869387
 40
0.9963491185
 40
0.9970397325
 40
0.9976585701
 40
0.9982054204
 40
0.9986800727
 40
0.9990823158
 40
0.999256218
 40
0.9994119387
 40
0.9995494515
 40
0.99966873
 40
0.9997697478
 40
0.9998524783
 40
0.9999168953
 40
0.9999422279
 40
0.9999629722
 40
0.9999791249
 40
0.9999906826
 40
0.9999947373
 40
0.9999976421
 40
1.0
 40
1.0
 40
1.0
 40
1.0
 10
7.2136066792
 20
7.9073136027
 30
0.0
 10
7.2249919086
 20
7.9041019049
 30
0.0
 10
7.2424883774
 20
7.8993196721
 30
0.0
 10
7.2663471754
 20
7.8931673328
 30
0.0
 10
7.2852543065
 20
7.8885138478
 30
0.0
 10
7.3046917661
 20
7.8839828758
 30
0.0
 10
7.324585091
 20
7.879632126
 30
0.0
 10
7.3448764115
 20
7.875516998
 30
0.0
 10
7.3655192211
 20
7.8716924316
 30
0.0
 10
7.3864744015
 20
7.8682153006
 30
0.0
 10
7.4077063882
 20
7.8651433712
 30
0.0
 10
7.4291807596
 20
7.8625393054
 30
0.0
 10
7.4508600137
 20
7.8604662815
 30
0.0
 10
7.4727018901
 20
7.8589917248
 30
0.0
 10
7.4909873946
 20
7.858318685
 30
0.0
 10
7.5056499781
 20
7.8581438948
 30
0.0
 10
7.5166541103
 20
7.858202786
 30
0.0
 10
7.5276502305
 20
7.8584596324
 30
0.0
 10
7.5386264831
 20
7.8589213831
 30
0.0
 10
7.5495690971
 20
7.8595909324
 30
0.0
 10
7.5604628248
 20
7.860471652
 30
0.0
 10
7.5694985597
 20
7.8613853345
 30
0.0
 10
7.5766895726
 20
7.8622258822
 30
0.0
 10
7.583829964
 20
7.8631366401
 30
0.0
 10
7.5926887374
 20
7.8644079433
 30
0.0
 10
7.6032173748
 20
7.8661446545
 30
0.0
 10
7.611898298
 20
7.8677651496
 30
0.0
 10
7.6187661502
 20
7.8691614383
 30
0.0
 10
7.6255341573
 20
7.8706134965
 30
0.0
 10
7.6338735139
 20
7.8725428651
 30
0.0
 10
7.6437092192
 20
7.87503539
 30
0.0
 10
7.6533160958
 20
7.877679763
 30
0.0
 10
7.6656376843
 20
7.8813393795
 30
0.0
 10
7.6775431557
 20
7.8852615916
 30
0.0
 10
7.6889987012
 20
7.8893897843
 30
0.0
 10
7.6971238538
 20
7.8924785047
 30
0.0
 10
7.704887616
 20
7.8955796592
 30
0.0
 10
7.7122697827
 20
7.8986647628
 30
0.0
 10
7.7192508985
 20
7.9017041407
 30
0.0
 10
7.7258115137
 20
7.904668513
 30
0.0
 10
7.7319327437
 20
7.9075286237
 30
0.0
 10
7.7375962287
 20
7.9102563014
 30
0.0
 10
7.742784213
 20
7.9128241772
 30
0.0
 10
7.7467984704
 20
7.9148597844
 30
0.0
 10
7.7497601937
 20
7.9163858353
 30
0.0
 10
7.751791412
 20
7.9174423746
 30
0.0
 10
7.753691467
 20
7.9184396952
 30
0.0
 10
7.7554587196
 20
7.9193752967
 30
0.0
 10
7.7570915407
 20
7.9202467038
 30
0.0
 10
7.7585883007
 20
7.9210514421
 30
0.0
 10
7.7599473753
 20
7.921787028
 30
0.0
 10
7.7611671314
 20
7.9224510249
 30
0.0
 10
7.7622462578
 20
7.9230410261
 30
0.0
 10
7.7630569641
 20
7.9234858445
 30
0.0
 10
7.7636344018
 20
7.9238035818
 30
0.0
 10
7.764014049
 20
7.924012862
 30
0.0
 10
7.764357901
 20
7.9242027516
 30
0.0
 10
7.7646658836
 20
7.9243731367
 30
0.0
 10
7.7649379224
 20
7.9245239036
 30
0.0
 10
7.7651739431
 20
7.9246549385
 30
0.0
 10
7.7653480675
 20
7.9247517769
 30
0.0
 10
7.7654693043
 20
7.9248192924
 30
0.0
 10
7.7655466719
 20
7.924862414
 30
0.0
 10
7.7656149793
 20
7.9249005172
 30
0.0
 10
7.7656742171
 20
7.9249335881
 30
0.0
 10
7.7657243762
 20
7.9249616118
 30
0.0
 10
7.7657654467
 20
7.9249845759
 30
0.0
 10
7.7657939882
 20
7.9250005416
 30
0.0
 10
7.765812269
 20
7.9250107769
 30
0.0
 10
7.7658225676
 20
7.9250165336
 30
0.0
 10
7.7658305779
 20
7.9250210383
 30
0.0
 10
7.7658358478
 20
7.9250239436
 30
0.0
 10
7.7658388937
 20
7.9250257051
 30
0.0
 10
7.7658404695
 20
7.9250264809
 30
0.0
 10
7.7658412765
 20
7.925027133
 30
0.0
 10
7.7658417104
 20
7.9250272408
 30
0.0
  0
LINE
  5
294
100
AcDbEntity
  8
0
100
AcDbLine
 62
9
  6
CONTINUOUS
 10
7.2138425683
 20
6.8556058749
 11
7.2138424169
 21
6.8553027226
  0
SPLINE
  5
295
100
AcDbEntity
  8
0
100
AcDbSpline
 62
9
  6
CONTINUOUS
 70
0
 71
3
 72
15
 73
11
 74
0
 42
0.0000001
 43
0.0000001
 44
0.0000000001
 40
0.0
 40
0.0
 40
0.0
 40
0.0
 40
0.1301180634
 40
0.2597606509
 40
0.3885621706
 40
0.5160790447
 40
0.6417552671
 40
0.7648574827
 40
0.8845899823
 40
1.0
 40
1.0
 40
1.0
 40
1.0
 10
7.2138425856
 20
7.0101741635
 30
0.0
 10
7.2138427354
 20
7.0062958401
 30
0.0
 10
7.2138093434
 20
6.9985533381
 30
0.0
 10
7.2136773121
 20
6.9869724717
 30
0.0
 10
7.2134901829
 20
6.9754699426
 30
0.0
 10
7.2132765698
 20
6.9640861423
 30
0.0
 10
7.2130649863
 20
6.9528722105
 30
0.0
 10
7.212884958
 20
6.9418897505
 30
0.0
 10
7.2127652898
 20
6.9312124549
 30
0.0
 10
7.2127342807
 20
6.924203735
 30
0.0
 10
7.2127345896
 20
6.9207638025
 30
0.0
  0
SPLINE
  5
296
100
AcDbEntity
  8
0
100
AcDbSpline
 62
9
  6
CONTINUOUS
 70
0
 71
3
 72
17
 73
13
 74
0
 42
0.0000001
 43
0.0000001
 44
0.0000000001
 40
0.0
 40
0.0
 40
0.0
 40
0.0
 40
0.0302196868
 40
0.0575338903
 40
0.0927157586
 40
0.1354793142
 40
0.1854422379
 40
0.305419729
 40
0.4495967027
 40
0.6151654185
 40
0.799446841
 40
1.0
 40
1.0
 40
1.0
 40
1.0
 10
7.2127406328
 20
8.8084891324
 30
0.0
 10
7.2127634842
 20
8.8082460067
 30
0.0
 10
7.212805767
 20
8.8077830155
 30
0.0
 10
7.2128714538
 20
8.8070366886
 30
0.0
 10
7.2129437511
 20
8.8061891904
 30
0.0
 10
7.2130280614
 20
8.8051590384
 30
0.0
 10
7.2131604923
 20
8.803445338
 30
0.0
 10
7.2133351735
 20
8.8009129958
 30
0.0
 10
7.2135307654
 20
8.7974459273
 30
0.0
 10
7.2136991037
 20
8.793457223
 30
0.0
 10
7.2138160155
 20
8.789010897
 30
0.0
 10
7.2138428726
 20
8.7859010641
 30
0.0
 10
7.2138426064
 20
8.7842804474
 30
0.0
  0
SPLINE
  5
297
100
AcDbEntity
  8
0
100
AcDbSpline
 62
9
  6
CONTINUOUS
 70
0
 71
3
 72
22
 73
18
 74
0
 42
0.0000001
 43
0.0000001
 44
0.0000000001
 40
0.0
 40
0.0
 40
0.0
 40
0.0
 40
0.0612949435
 40
0.12188685
 40
0.1819956827
 40
0.2418417472
 40
0.3016304934
 40
0.3615585038
 40
0.4218147728
 40
0.4825772775
 40
0.5439930996
 40
0.6061851138
 40
0.6692642202
 40
0.7333293272
 40
0.7984400108
 40
0.8646010422
 40
1.0
 40
1.0
 40
1.0
 40
1.0
 10
7.6516352747
 20
7.2521186014
 30
0.0
 10
7.6531515808
 20
7.2534324359
 30
0.0
 10
7.6560930842
 20
7.256131688
 30
0.0
 10
7.6602398954
 20
7.2604132156
 30
0.0
 10
7.6640918586
 20
7.2648998792
 30
0.0
 10
7.6676489382
 20
7.269590738
 30
0.0
 10
7.6709133544
 20
7.2744825942
 30
0.0
 10
7.6738869555
 20
7.2795719329
 30
0.0
 10
7.6765715841
 20
7.2848550944
 30
0.0
 10
7.678968799
 20
7.2903277723
 30
0.0
 10
7.6810802613
 20
7.2959844256
 30
0.0
 10
7.6829072423
 20
7.3018185903
 30
0.0
 10
7.6844508258
 20
7.3078234738
 30
0.0
 10
7.6857118384
 20
7.3139913083
 30
0.0
 10
7.6866912593
 20
7.3203122123
 30
0.0
 10
7.6876298553
 20
7.3289925288
 30
0.0
 10
7.6878993293
 20
7.3355953174
 30
0.0
 10
7.687899424
 20
7.3400272408
 30
0.0
  0
ENDSEC
  0
SECTION
  2
OBJECTS
  0
DICTIONARY
  5
C
100
AcDbDictionary
280
0
281
1
  3
ACAD_GROUP
350
D
  3
ACAD_MLINESTYLE
350
17
  3
ACAD_LAYOUT
350
1A
  3
ACAD_PLOTSETTINGS
350
19
  3
ACAD_PLOTSTYLENAME
350
E
  0
DICTIONARY
  5
D
102
{ACAD_REACTORS
330
C
102
}
100
AcDbDictionary
280
0
281
1
  0
ACDBDICTIONARYWDFLT
  5
E
102
{ACAD_REACTORS
330
C
102
}
100
AcDbDictionary
281
1
  3
Normal
350
F
100
AcDbDictionaryWithDefault
340
F
  0
DICTIONARY
  5
17
102
{ACAD_REACTORS
330
C
102
}
100
AcDbDictionary
280
0
281
1
  3
Standard
350
18
  0
DICTIONARY
  5
19
102
{ACAD_REACTORS
330
C
102
}
100
AcDbDictionary
281
1
  0
DICTIONARY
  5
1A
102
{ACAD_REACTORS
330
C
102
}
100
AcDbDictionary
281
1
  3
Model
350
298
  3
Layout1
350
299
  0
ACDBPLACEHOLDER
  5
F
102
{ACAD_REACTORS
330
E
102
}
  0
MLINESTYLE
  5
18
102
{ACAD_REACTORS
330
17
102
}
100
AcDbMlineStyle
  2
STANDARD
 70
0
  3

 62
256
 51
90.0
 52
90.0
 71
2
 49
0.5
 62
256
  6
BYLAYER
 49
-0.5
 62
256
  6
BYLAYER
  0
LAYOUT
  5
298
102
{ACAD_REACTORS
330
1A
102
}
100
AcDbPlotSettings
  1

  2
none_device
  4
ISO_A3_(420.00_x_297.00_MM)
  6

 40
0.0
 41
0.0
 42
0.0
 43
0.0
 44
420.0
 45
297.0
 46
0.0
 47
0.0
 48
0.0
 49
0.0
140
0.0
141
0.0
142
1.0
143
1.0
 70
1024
 72
0
 73
0
 74
0
  7

 75
0
147
1.0
148
0.0
149
0.0
100
AcDbLayout
  1
Model
 70
0
 71
0
 10
0.0
 20
0.0
 11
16.5354330709
 21
11.6929133858
 12
0.0
 22
0.0
 32
0.0
 14
0.0
 24
0.0
 34
0.0
 15
0.0
 25
0.0
 35
0.0
146
0.0
 13
0.0
 23
0.0
 33
0.0
 16
1.0
 26
0.0
 36
0.0
 17
0.0
 27
1.0
 37
0.0
 76
0
330
202
345
0
346
0
  0
LAYOUT
  5
299
102
{ACAD_REACTORS
330
1A
102
}
100
AcDbPlotSettings
  1

  2
none_device
  4
ISO_A3_(420.00_x_297.00_MM)
  6

 40
0.0
 41
0.0
 42
0.0
 43
0.0
 44
420.0
 45
297.0
 46
0.0
 47
0.0
 48
0.0
 49
0.0
140
0.0
141
0.0
142
1.0
143
1.0
 70
0
 72
0
 73
0
 74
0
  7

 75
0
147
1.0
148
0.0
149
0.0
100
AcDbLayout
  1
Layout1
 70
0
 71
1
 10
0.0
 20
0.0
 11
16.5354330709
 21
11.6929133858
 12
0.0
 22
0.0
 32
0.0
 14
0.0
 24
0.0
 34
0.0
 15
0.0
 25
0.0
 35
0.0
146
0.0
 13
0.0
 23
0.0
 33
0.0
 16
1.0
 26
0.0
 36
0.0
 17
0.0
 27
1.0
 37
0.0
 76
0
330
203
345
0
346
0
  0
ENDSEC
  0
EOF
