999
DXF file: 3-2923TS_TOP.dxf
999
Pro/ENGINEER 2014000 by Parametric Technology Corporation
  0
SECTION
  2
HEADER
  9
$ACADVER
  1
AC1015
  9
$DWGCODEPAGE
  3
ANSI_1252
  9
$EXTMAX
 10
11.6929133858
 20
8.2677165354
 30
0.0
  9
$EXTMIN
 10
0.0
 20
0.0
 30
0.0
  9
$LIMMIN
 10
0.0
 20
0.0
  9
$LIMMAX
 10
11.6929133858
 20
8.2677165354
  9
$VIEWCTR
 10
5.8464566929
 20
4.1338582677
  9
$VIEWSIZE
 40
8.2677165354
  9
$CLAYER
  8
0
  9
$LTSCALE
 40
0.6431102362
  9
$CELTYPE
  6
BYLAYER
  9
$DIMSCALE
 40
1.0
  9
$DIMASZ
 40
0.1875
  9
$DIMEXO
 40
0.0625
  9
$DIMDLI
 40
0.4443307087
  9
$DIMEXE
 40
0.125
  9
$DIMCEN
 40
0.1052362205
  9
$DIMLFAC
 40
1.0
  9
$DIMBLK
  1
_CLOSED
  9
$DIMTXT
 40
0.15625
  9
$DIMTOL
 70
0
  9
$DIMLIM
 70
0
  9
$DIMTFAC
 40
1.0
  9
$DIMGAP
 40
0.09
  9
$DIMDSEP
 70
46
  9
$PDMODE
 70
3
  9
$PDSIZE
 40
0.3125
  9
$HANDSEED
  5
264
  9
$TILEMODE
 70
1
  9
$MEASUREMENT
 70
0
  9
$INSUNITS
 70
1
  0
ENDSEC
  0
SECTION
  2
CLASSES
  0
CLASS
  1
ACDBDICTIONARYWDFLT
  2
AcDbDictionaryWithDefault
  3
AutoCAD 2000
 90
0
280
0
281
0
  0
CLASS
  1
ACDBPLACEHOLDER
  2
AcDbPlaceHolder
  3
AutoCAD 2000
 90
0
280
0
281
0
  0
CLASS
  1
LAYOUT
  2
AcDbLayout
  3
AutoCAD 2000
 90
0
280
0
281
0
  0
ENDSEC
  0
SECTION
  2
TABLES
  0
TABLE
  2
VPORT
  5
8
100
AcDbSymbolTable
 70
2
  0
VPORT
  5
1F4
100
AcDbSymbolTableRecord
100
AcDbViewportTableRecord
  2
*ACTIVE
 70
0
 10
0.0
 20
0.0
 11
1.0
 21
1.0
 12
5.8464566929
 22
4.1338582677
 13
0.0
 23
0.0
 14
1.0
 24
1.0
 15
0.0
 25
0.0
 16
0.0
 26
0.0
 36
1.0
 17
0.0
 27
0.0
 37
0.0
 40
8.2677165354
 41
1.4142857143
 42
50.0
 43
0.0
 44
0.0
 50
0.0
 51
0.0
 71
0
 72
100
 73
1
 74
1
 75
0
 76
0
 77
0
 78
0
  0
ENDTAB
  0
TABLE
  2
LTYPE
  5
5
100
AcDbSymbolTable
 70
6
  0
LTYPE
  5
14
100
AcDbSymbolTableRecord
100
AcDbLinetypeTableRecord
  2
BYBLOCK
 70
0
  3

 72
65
 73
0
 40
0.0
  0
LTYPE
  5
15
100
AcDbSymbolTableRecord
100
AcDbLinetypeTableRecord
  2
BYLAYER
 70
0
  3

 72
65
 73
0
 40
0.0
  0
LTYPE
  5
16
100
AcDbSymbolTableRecord
100
AcDbLinetypeTableRecord
  2
CONTINUOUS
 70
64
  3
Solid line
 72
65
 73
0
 40
0.0
  0
LTYPE
  5
1F5
100
AcDbSymbolTableRecord
100
AcDbLinetypeTableRecord
  2
CENTER
 70
64
  3
____ _ ____ _ ____ _ ____ _ ____ _ ____ _ ____
 72
65
 73
4
 40
0.6
 49
0.375
 74
0
 49
-0.075
 74
0
 49
0.075
 74
0
 49
-0.075
 74
0
  0
LTYPE
  5
1F6
100
AcDbSymbolTableRecord
100
AcDbLinetypeTableRecord
  2
HIDDEN
 70
64
  3
- - - - - - - - - - - - - - - - - - - -
 72
65
 73
2
 40
0.2
 49
0.1
 74
0
 49
-0.1
 74
0
  0
LTYPE
  5
1F7
100
AcDbSymbolTableRecord
100
AcDbLinetypeTableRecord
  2
PHANTOM
 70
64
  3
_____ _ _ _____ _ _ _____ _ _ _____
 72
65
 73
6
 40
0.8
 49
0.45
 74
0
 49
-0.05
 74
0
 49
0.1
 74
0
 49
-0.05
 74
0
 49
0.1
 74
0
 49
-0.05
 74
0
  0
LTYPE
  5
1F8
100
AcDbSymbolTableRecord
100
AcDbLinetypeTableRecord
  2
DOT
 70
64
  3
. . . . . . . . . . . . . . . . . . . .
 72
65
 73
2
 40
0.2
 49
0.1
 74
0
 49
-0.1
 74
0
  0
LTYPE
  5
1F9
100
AcDbSymbolTableRecord
100
AcDbLinetypeTableRecord
  2
DASHED
 70
64
  3
- - - - - - - - - - - - - - - - - - - -
 72
65
 73
2
 40
0.2
 49
0.1
 74
0
 49
-0.1
 74
0
  0
ENDTAB
  0
TABLE
  2
LAYER
  5
2
100
AcDbSymbolTable
 70
36
  0
LAYER
  5
10
100
AcDbSymbolTableRecord
100
AcDbLayerTableRecord
  2
0
 70
0
 62
7
  6
CONTINUOUS
370
-3
390
F
  0
LAYER
  5
1FA
100
AcDbSymbolTableRecord
100
AcDbLayerTableRecord
  2
DEFAULT_1
 70
0
 62
7
  6
CENTER
370
-3
390
F
  0
LAYER
  5
1FB
100
AcDbSymbolTableRecord
100
AcDbLayerTableRecord
  2
DEFAULT_2
 70
0
 62
8
  6
HIDDEN
370
-3
390
F
  0
LAYER
  5
1FC
100
AcDbSymbolTableRecord
100
AcDbLayerTableRecord
  2
DEFAULT_3
 70
0
 62
7
  6
PHANTOM
370
-3
390
F
  0
LAYER
  5
1FD
100
AcDbSymbolTableRecord
100
AcDbLayerTableRecord
  2
DEFAULT_COORDINATE_SYSTEM
 70
0
 62
7
  6
CONTINUOUS
370
-3
390
F
  0
LAYER
  5
1FE
100
AcDbSymbolTableRecord
100
AcDbLayerTableRecord
  2
DEFAULT_DATUM_AXES
 70
0
 62
7
  6
CONTINUOUS
370
-3
390
F
  0
LAYER
  5
1FF
100
AcDbSymbolTableRecord
100
AcDbLayerTableRecord
  2
DEFAULT_DATUM_PLANES
 70
0
 62
7
  6
CONTINUOUS
370
-3
390
F
  0
ENDTAB
  0
TABLE
  2
STYLE
  5
3
100
AcDbSymbolTable
 70
1
  0
STYLE
  5
11
100
AcDbSymbolTableRecord
100
AcDbTextStyleTableRecord
  2
STANDARD
 70
0
 40
0.0
 41
0.8
 50
0.0
 71
0
 42
0.2
  3
txt
  4

  0
STYLE
  5
200
100
AcDbSymbolTableRecord
100
AcDbTextStyleTableRecord
  2
TEXTSTYLE_1
 70
0
 40
0.0
 41
0.8
 50
0.0
 71
0
 42
0.2
  3
gdt
  4

  0
ENDTAB
  0
TABLE
  2
VIEW
  5
6
100
AcDbSymbolTable
 70
0
  0
ENDTAB
  0
TABLE
  2
UCS
  5
7
100
AcDbSymbolTable
 70
0
  0
ENDTAB
  0
TABLE
  2
APPID
  5
9
100
AcDbSymbolTable
 70
1
  0
APPID
  5
201
100
AcDbSymbolTableRecord
100
AcDbRegAppTableRecord
  2
ACAD
 70
0
  0
ENDTAB
  0
TABLE
  2
BLOCK_RECORD
  5
1
100
AcDbSymbolTable
 70
0
  0
BLOCK_RECORD
  5
202
100
AcDbSymbolTableRecord
100
AcDbBlockTableRecord
  2
*Model_Space
  0
BLOCK_RECORD
  5
203
100
AcDbSymbolTableRecord
100
AcDbBlockTableRecord
  2
*Paper_Space
  0
ENDTAB
  0
TABLE
  2
DIMSTYLE
  5
A
100
AcDbSymbolTable
 70
1
100
AcDbDimStyleTable
 71
0
  0
DIMSTYLE
105
204
100
AcDbSymbolTableRecord
100
AcDbDimStyleTableRecord
  2
STANDARD
 70
0
  3

  4

 40
1.0
 41
0.1875
 42
0.0625
 43
0.38
 44
0.125
 45
0.0
 46
0.0
 47
0.001
 48
0.001
140
0.15625
141
0.09
142
0.0
143
25.4
144
1.0
145
0.0
146
1.0
147
0.09
 71
0.0
 72
0.0
 73
1
 74
1
 75
0
 76
0
 77
0
 78
4
170
0
171
2
172
0
173
0
174
0
175
0
176
0
177
0
178
0
270
2
271
3
272
3
273
2
274
2
275
0
280
0
281
0
282
0
283
1
284
4
285
0
286
0
287
3
288
0
340
11
278
46
  0
ENDTAB
  0
ENDSEC
  0
SECTION
  2
BLOCKS
  0
BLOCK
  5
20
100
AcDbEntity
  8
0
100
AcDbBlockBegin
  2
*Model_Space
 70
0
 10
0.0
 20
0.0
 30
0.0
  3
*Model_Space
  1

  0
ENDBLK
  5
21
100
AcDbEntity
  8
0
100
AcDbBlockEnd
  0
BLOCK
  5
1C
100
AcDbEntity
  8
0
100
AcDbBlockBegin
  2
*Paper_Space
 70
0
 10
0.0
 20
0.0
 30
0.0
  3
*Paper_Space
  1

  0
ENDBLK
  5
1D
100
AcDbEntity
  8
0
100
AcDbBlockEnd
  0
ENDSEC
  0
SECTION
  2
ENTITIES
  0
LINE
  5
205
100
AcDbEntity
  8
0
100
AcDbLine
 62
6
  6
CONTINUOUS
 10
3.2507136881
 20
5.7728674829
 11
3.2507136881
 21
6.1808674829
  0
LINE
  5
206
100
AcDbEntity
  8
0
100
AcDbLine
 62
9
  6
CONTINUOUS
 10
3.2807136881
 20
5.7428674829
 11
3.2807136881
 21
6.1808674829
  0
LINE
  5
207
100
AcDbEntity
  8
0
100
AcDbLine
 62
6
  6
CONTINUOUS
 10
7.2382136881
 20
2.1997271571
 11
4.7632136881
 21
2.1997271571
  0
LINE
  5
208
100
AcDbEntity
  8
0
100
AcDbLine
 62
6
  6
CONTINUOUS
 10
7.2382136881
 20
2.479175976
 11
4.7632136881
 21
2.479175976
  0
LINE
  5
209
100
AcDbEntity
  8
0
100
AcDbLine
 62
6
  6
CONTINUOUS
 10
7.2382136881
 20
2.879175976
 11
6.0899822587
 21
2.879175976
  0
LINE
  5
20A
100
AcDbEntity
  8
0
100
AcDbLine
 62
6
  6
CONTINUOUS
 10
5.9114232918
 20
2.8791759725
 11
4.7632136881
 21
2.879175976
  0
LINE
  5
20B
100
AcDbEntity
  8
0
100
AcDbLine
 62
9
  6
CONTINUOUS
 10
6.0898973986
 20
2.8791759759
 11
6.0899691451
 21
2.8791759742
  0
LINE
  5
20C
100
AcDbEntity
  8
0
100
AcDbLine
 62
9
  6
CONTINUOUS
 10
5.9114232918
 20
2.8791759725
 11
5.9114844499
 21
2.8791759757
  0
LWPOLYLINE
  5
20D
100
AcDbEntity
  8
0
100
AcDbPolyline
 62
6
  6
CONTINUOUS
 90
17
 70
0
 10
7.1140261523
 20
2.879175976
 10
7.1128638895
 20
2.8791860016
 10
7.1109740401
 20
2.8792401096
 10
7.1089765721
 20
2.8793440458
 10
7.1068001002
 20
2.8795112653
 10
7.1043636853
 20
2.8797647306
 10
7.1016517422
 20
2.8801290512
 10
7.0986974821
 20
2.8806248941
 10
7.0955435555
 20
2.8812693829
 10
7.0922114652
 20
2.8820817276
 10
7.0887100869
 20
2.8830845159
 10
7.0850506304
 20
2.8843013587
 10
7.0812478643
 20
2.8857563149
 10
7.0773188937
 20
2.8874740889
 10
7.073283541
 20
2.8894798183
 10
7.0691637167
 20
2.8917994115
 10
7.0654606947
 20
2.8941394762
  0
LWPOLYLINE
  5
20E
100
AcDbEntity
  8
0
100
AcDbPolyline
 62
6
  6
CONTINUOUS
 90
9
 70
0
 10
6.4034308181
 20
2.9091834145
 10
6.4059731968
 20
2.9091104531
 10
6.4085292647
 20
2.9088825301
 10
6.4106666828
 20
2.9085582288
 10
6.412357849
 20
2.9081999746
 10
6.413607712
 20
2.9078637146
 10
6.414451932
 20
2.9075912367
 10
6.4149173819
 20
2.9074181908
 10
6.4150148699
 20
2.9073784573
  0
LWPOLYLINE
  5
20F
100
AcDbEntity
  8
0
100
AcDbPolyline
 62
6
  6
CONTINUOUS
 90
8
 70
0
 10
5.5980273086
 20
2.9091834145
 10
5.6017804031
 20
2.9090312459
 10
5.6061657833
 20
2.9084798112
 10
5.6106399647
 20
2.9075058649
 10
5.6150145073
 20
2.9061392072
 10
5.6191117618
 20
2.9044601097
 10
5.6227749255
 20
2.9025940291
 10
5.6257136881
 20
2.9007979783
  0
LWPOLYLINE
  5
210
100
AcDbEntity
  8
0
100
AcDbPolyline
 62
6
  6
CONTINUOUS
 90
7
 70
0
 10
6.4150148699
 20
2.9073784573
 10
6.4150572379
 20
2.9073603858
 10
6.4149032101
 20
2.9074333423
 10
6.4144471218
 20
2.9076679956
 10
6.4136785481
 20
2.9080982002
 10
6.4125969399
 20
2.9087539094
 10
6.4115245105
 20
2.9094490109
  0
LINE
  5
211
100
AcDbEntity
  8
0
100
AcDbLine
 62
6
  6
CONTINUOUS
 10
5.1739436881
 20
5.7428674829
 11
5.1739420345
 21
4.0993871679
  0
LINE
  5
212
100
AcDbEntity
  8
0
100
AcDbLine
 62
6
  6
CONTINUOUS
 10
5.3457136881
 20
3.8493871679
 11
5.3457136881
 21
4.0993871679
  0
LINE
  5
213
100
AcDbEntity
  8
0
100
AcDbLine
 62
6
  6
CONTINUOUS
 10
5.6257157172
 20
3.479175976
 11
6.3757116589
 21
3.479175976
  0
LINE
  5
214
100
AcDbEntity
  8
0
100
AcDbLine
 62
6
  6
CONTINUOUS
 10
6.4569343886
 20
2.879175976
 11
6.4141797007
 21
2.9076791013
  0
LINE
  5
215
100
AcDbEntity
  8
0
100
AcDbLine
 62
6
  6
CONTINUOUS
 10
5.3532136881
 20
4.4308674829
 11
5.3532136881
 21
4.1288359868
  0
LINE
  5
216
100
AcDbEntity
  8
0
100
AcDbLine
 62
9
  6
CONTINUOUS
 10
6.3851800678
 20
3.3476598387
 11
6.3851811458
 21
3.34765912
  0
LINE
  5
217
100
AcDbEntity
  8
0
100
AcDbLine
 62
6
  6
CONTINUOUS
 10
7.0654569667
 20
2.894141906
 11
6.3851791555
 21
3.3476604468
  0
LINE
  5
218
100
AcDbEntity
  8
0
100
AcDbLine
 62
9
  6
CONTINUOUS
 10
7.065449995
 20
2.8941465538
 11
7.0654519941
 21
2.8941452204
  0
LWPOLYLINE
  5
219
100
AcDbEntity
  8
0
100
AcDbPolyline
 62
6
  6
CONTINUOUS
 90
5
 70
0
 10
6.3851773355
 20
3.3476615499
 10
6.3824270475
 20
3.3496532327
 10
6.3797731418
 20
3.3519148694
 10
6.3775228982
 20
3.3541597178
 10
6.3757136881
 20
3.3562534608
  0
LINE
  5
21A
100
AcDbEntity
  8
0
100
AcDbLine
 62
9
  6
CONTINUOUS
 10
5.6257136887
 20
3.0142574215
 11
5.6257136881
 21
3.0142995065
  0
LINE
  5
21B
100
AcDbEntity
  8
0
100
AcDbLine
 62
6
  6
CONTINUOUS
 10
5.6257136881
 20
2.879175976
 11
5.6257136881
 21
3.0142489276
  0
LINE
  5
21C
100
AcDbEntity
  8
0
100
AcDbLine
 62
6
  6
CONTINUOUS
 10
5.6257136884
 20
3.3079661135
 11
5.6257136881
 21
3.479175976
  0
LINE
  5
21D
100
AcDbEntity
  8
0
100
AcDbLine
 62
9
  6
CONTINUOUS
 10
5.6257136881
 20
3.3079205753
 11
5.6257136884
 21
3.3079661135
  0
LINE
  5
21E
100
AcDbEntity
  8
0
100
AcDbLine
 62
6
  6
CONTINUOUS
 10
5.6857136881
 20
3.479175976
 11
5.6857136881
 21
4.079175976
  0
LINE
  5
21F
100
AcDbEntity
  8
0
100
AcDbLine
 62
6
  6
CONTINUOUS
 10
5.6857136881
 20
3.8493871679
 11
5.3457190234
 21
3.8493871679
  0
LINE
  5
220
100
AcDbEntity
  8
0
100
AcDbLine
 62
6
  6
CONTINUOUS
 10
6.3157136881
 20
3.8493871679
 11
6.6557083527
 21
3.8493871679
  0
LINE
  5
221
100
AcDbEntity
  8
0
100
AcDbLine
 62
6
  6
CONTINUOUS
 10
5.8257136881
 20
3.1729711948
 11
5.8257125368
 21
3.1730509633
  0
LINE
  5
222
100
AcDbEntity
  8
0
100
AcDbLine
 62
6
  6
CONTINUOUS
 10
5.8157136881
 20
4.1288359868
 11
5.8157136881
 21
4.079175976
  0
LINE
  5
223
100
AcDbEntity
  8
0
100
AcDbLine
 62
6
  6
CONTINUOUS
 10
5.8257136881
 20
2.879175976
 11
5.8257136881
 21
3.1730474943
  0
LINE
  5
224
100
AcDbEntity
  8
0
100
AcDbLine
 62
9
  6
CONTINUOUS
 10
5.8257136893
 20
3.1730576013
 11
5.8257136889
 21
3.173052625
  0
LINE
  5
225
100
AcDbEntity
  8
0
100
AcDbLine
 62
6
  6
CONTINUOUS
 10
5.6857223398
 20
4.079175976
 11
6.3157050363
 21
4.079175976
  0
LINE
  5
226
100
AcDbEntity
  8
0
100
AcDbLine
 62
6
  6
CONTINUOUS
 10
5.8157136881
 20
4.0993871679
 11
5.1739468603
 21
4.0993871679
  0
LINE
  5
227
100
AcDbEntity
  8
0
100
AcDbLine
 62
6
  6
CONTINUOUS
 10
6.1857136881
 20
4.0993871679
 11
6.8274805159
 21
4.0993871679
  0
LINE
  5
228
100
AcDbEntity
  8
0
100
AcDbLine
 62
6
  6
CONTINUOUS
 10
5.3532136881
 20
4.1288359868
 11
6.6482136881
 21
4.1288359868
  0
LINE
  5
229
100
AcDbEntity
  8
0
100
AcDbLine
 62
9
  6
CONTINUOUS
 10
6.1757136879
 20
3.1730448486
 11
6.1757136794
 21
3.1731075145
  0
LINE
  5
22A
100
AcDbEntity
  8
0
100
AcDbLine
 62
6
  6
CONTINUOUS
 10
6.1757136881
 20
2.879175976
 11
6.1757136881
 21
3.1730427612
  0
LINE
  5
22B
100
AcDbEntity
  8
0
100
AcDbLine
 62
6
  6
CONTINUOUS
 10
6.1857136881
 20
4.1288359868
 11
6.1857136881
 21
4.079175976
  0
LINE
  5
22C
100
AcDbEntity
  8
0
100
AcDbLine
 62
6
  6
CONTINUOUS
 10
6.1757145964
 20
3.1731083604
 11
6.1757136066
 21
3.1730427624
  0
LWPOLYLINE
  5
22D
100
AcDbEntity
  8
0
100
AcDbPolyline
 62
6
  6
CONTINUOUS
 90
5
 70
0
 10
5.6257136881
 20
3.3562680518
 10
5.6240796289
 20
3.3543497474
 10
5.621799978
 20
3.3520499976
 10
5.6190925141
 20
3.3497254066
 10
5.6162527775
 20
3.3476631463
  0
LINE
  5
22E
100
AcDbEntity
  8
0
100
AcDbLine
 62
6
  6
CONTINUOUS
 10
5.1739436881
 20
4.4308674829
 11
6.8274836881
 21
4.4308674829
  0
LINE
  5
22F
100
AcDbEntity
  8
0
100
AcDbLine
 62
6
  6
CONTINUOUS
 10
6.3157136881
 20
3.479175976
 11
6.3157136881
 21
4.079175976
  0
LINE
  5
230
100
AcDbEntity
  8
0
100
AcDbLine
 62
9
  6
CONTINUOUS
 10
6.3757136864
 20
3.0143568733
 11
6.3757136877
 21
3.0143058521
  0
LINE
  5
231
100
AcDbEntity
  8
0
100
AcDbLine
 62
9
  6
CONTINUOUS
 10
6.375713686
 20
3.3080389136
 11
6.375713688
 21
3.3079755517
  0
LINE
  5
232
100
AcDbEntity
  8
0
100
AcDbLine
 62
6
  6
CONTINUOUS
 10
6.3757136881
 20
2.879175976
 11
6.3757136881
 21
3.0143120487
  0
LINE
  5
233
100
AcDbEntity
  8
0
100
AcDbLine
 62
6
  6
CONTINUOUS
 10
6.3757136881
 20
3.3080357189
 11
6.3757136881
 21
3.479175976
  0
LINE
  5
234
100
AcDbEntity
  8
0
100
AcDbLine
 62
6
  6
CONTINUOUS
 10
6.6482136881
 20
4.4308674829
 11
6.6482136881
 21
4.1288359868
  0
LINE
  5
235
100
AcDbEntity
  8
0
100
AcDbLine
 62
6
  6
CONTINUOUS
 10
6.6557136881
 20
3.8493871679
 11
6.6557136881
 21
4.0993871679
  0
LINE
  5
236
100
AcDbEntity
  8
0
100
AcDbLine
 62
9
  6
CONTINUOUS
 10
4.9359809559
 20
2.8941489352
 11
4.9359838569
 21
2.8941508707
  0
LINE
  5
237
100
AcDbEntity
  8
0
100
AcDbLine
 62
6
  6
CONTINUOUS
 10
4.9359838569
 20
2.8941508707
 11
5.6162491248
 21
3.3476610496
  0
LINE
  5
238
100
AcDbEntity
  8
0
100
AcDbLine
 62
9
  6
CONTINUOUS
 10
5.6162542731
 20
3.3476644818
 11
5.6162560008
 21
3.3476656336
  0
LWPOLYLINE
  5
239
100
AcDbEntity
  8
0
100
AcDbPolyline
 62
6
  6
CONTINUOUS
 90
17
 70
0
 10
4.9359654359
 20
2.8941387231
 10
4.9322704431
 20
2.8918035145
 10
4.9281583877
 20
2.889487522
 10
4.9241305836
 20
2.8874843657
 10
4.920208861
 20
2.8857682713
 10
4.9164132147
 20
2.8843143132
 10
4.9127608133
 20
2.8830979092
 10
4.9092654263
 20
2.8820948115
 10
4.9059384488
 20
2.8812816334
 10
4.9027886374
 20
2.8806359008
 10
4.8998364707
 20
2.880138388
 10
4.8971233606
 20
2.8797720588
 10
4.8946819701
 20
2.8795164979
 10
4.8924983833
 20
2.8793474583
 10
4.8904936908
 20
2.8792421153
 10
4.8885977046
 20
2.8791869616
 10
4.8873581422
 20
2.879175976
  0
LINE
  5
23A
100
AcDbEntity
  8
0
100
AcDbLine
 62
6
  6
CONTINUOUS
 10
6.8274853416
 20
4.0993871679
 11
6.8274836881
 21
5.7428674829
  0
LINE
  5
23B
100
AcDbEntity
  8
0
100
AcDbLine
 62
6
  6
CONTINUOUS
 10
5.5444929875
 20
2.879175976
 11
5.5872552824
 21
2.9076841725
  0
LWPOLYLINE
  5
23C
100
AcDbEntity
  8
0
100
AcDbPolyline
 62
6
  6
CONTINUOUS
 90
6
 70
0
 10
5.589900086
 20
2.9094473857
 10
5.5889026961
 20
2.9087992234
 10
5.5878747034
 20
2.9081709581
 10
5.5871175746
 20
2.9077409847
 10
5.5866267423
 20
2.907483155
 10
5.5864470175
 20
2.9073953123
  0
LWPOLYLINE
  5
23D
100
AcDbEntity
  8
0
100
AcDbPolyline
 62
6
  6
CONTINUOUS
 90
11
 70
0
 10
5.5864470175
 20
2.9073953123
 10
5.5864010166
 20
2.9073738682
 10
5.5864391339
 20
2.9073895057
 10
5.5867566255
 20
2.9075127525
 10
5.5873738228
 20
2.9077249224
 10
5.5883067819
 20
2.9080016063
 10
5.589582756
 20
2.9083169341
 10
5.5912211617
 20
2.9086370065
 10
5.5932171207
 20
2.9089185186
 10
5.5955872693
 20
2.9091174378
 10
5.5980102998
 20
2.9091834162
  0
LWPOLYLINE
  5
23E
100
AcDbEntity
  8
0
100
AcDbPolyline
 62
6
  6
CONTINUOUS
 90
8
 70
0
 10
6.3757136881
 20
2.9008014995
 10
6.3787224783
 20
2.9026333754
 10
6.382385129
 20
2.9044920477
 10
6.3864771184
 20
2.9061623519
 10
6.390838576
 20
2.9075194024
 10
6.3952915609
 20
2.908484989
 10
6.3996479519
 20
2.9090313874
 10
6.4033960157
 20
2.9091834134
  0
LINE
  5
23F
100
AcDbEntity
  8
0
100
AcDbLine
 62
6
  6
CONTINUOUS
 10
8.7207136881
 20
5.7428674829
 11
3.2807136881
 21
5.7428674829
  0
LINE
  5
240
100
AcDbEntity
  8
0
100
AcDbLine
 62
9
  6
CONTINUOUS
 10
8.7507136881
 20
5.7728674829
 11
3.2507136881
 21
5.7728674829
  0
LINE
  5
241
100
AcDbEntity
  8
0
100
AcDbLine
 62
6
  6
CONTINUOUS
 10
3.2507136881
 20
6.1808674829
 11
8.7507136881
 21
6.1808674829
  0
LINE
  5
242
100
AcDbEntity
  8
0
100
AcDbLine
 62
9
  6
CONTINUOUS
 10
8.7207136881
 20
5.7428674829
 11
8.7207136881
 21
6.1808674829
  0
LINE
  5
243
100
AcDbEntity
  8
0
100
AcDbLine
 62
6
  6
CONTINUOUS
 10
8.7507136881
 20
5.7728674829
 11
8.7507136881
 21
6.1808674829
  0
ARC
  5
244
100
AcDbEntity
  8
0
100
AcDbCircle
 62
9
  6
CONTINUOUS
 10
4.5655603258
 20
3.0671633167
 40
1.0314525581
100
AcDbArc
 50
349.4937096994
 51
350.9874637386
  0
ARC
  5
245
100
AcDbEntity
  8
0
100
AcDbCircle
 62
9
  6
CONTINUOUS
 10
7.4115986024
 20
3.0629731314
 40
1.0068276542
100
AcDbArc
 50
188.9881998572
 51
190.5233130984
  0
ARC
  5
246
100
AcDbEntity
  8
0
100
AcDbCircle
 62
6
  6
CONTINUOUS
 10
4.7632136881
 20
2.3997271571
 40
0.2
100
AcDbArc
 50
135.6805665119
 51
270.0
  0
ARC
  5
247
100
AcDbEntity
  8
0
100
AcDbCircle
 62
6
  6
CONTINUOUS
 10
7.2382136881
 20
2.3997271571
 40
0.2
100
AcDbArc
 50
270.0
 51
44.3194334881
  0
ARC
  5
248
100
AcDbEntity
  8
0
100
AcDbCircle
 62
6
  6
CONTINUOUS
 10
4.7632136881
 20
2.679175976
 40
0.2
100
AcDbArc
 50
90.0
 51
270.0
  0
ARC
  5
249
100
AcDbEntity
  8
0
100
AcDbCircle
 62
6
  6
CONTINUOUS
 10
7.2382136881
 20
2.679175976
 40
0.2
100
AcDbArc
 50
270.0
 51
90.0
  0
ARC
  5
24A
100
AcDbEntity
  8
0
100
AcDbCircle
 62
9
  6
CONTINUOUS
 10
5.5182085654
 20
3.0168287435
 40
0.1291135616
100
AcDbArc
 50
302.2074581526
 51
303.0437631369
  0
ARC
  5
24B
100
AcDbEntity
  8
0
100
AcDbCircle
 62
9
  6
CONTINUOUS
 10
6.4827635685
 20
3.0162103117
 40
0.1283472327
100
AcDbArc
 50
236.2887027324
 51
238.2334561459
  0
ARC
  5
24C
100
AcDbEntity
  8
0
100
AcDbCircle
 62
9
  6
CONTINUOUS
 10
5.521451373
 20
3.0117080911
 40
0.1230524843
100
AcDbArc
 50
301.9222560664
 51
302.2006700829
  0
ARC
  5
24D
100
AcDbEntity
  8
0
100
AcDbCircle
 62
6
  6
CONTINUOUS
 10
3.2807136881
 20
5.7728674829
 40
0.03
100
AcDbArc
 50
180.0
 51
270.0
  0
ARC
  5
24E
100
AcDbEntity
  8
0
100
AcDbCircle
 62
6
  6
CONTINUOUS
 10
8.7207136881
 20
5.7728674829
 40
0.03
100
AcDbArc
 50
270.0
 51
360.0
  0
SPLINE
  5
24F
100
AcDbEntity
  8
0
100
AcDbSpline
 62
9
  6
CONTINUOUS
 70
0
 71
3
 72
8
 73
4
 74
0
 42
0.0000001
 43
0.0000001
 44
0.0000000001
 40
0.0
 40
0.0
 40
0.0
 40
0.0
 40
1.0
 40
1.0
 40
1.0
 40
1.0
 10
5.6257131893
 20
3.0141696886
 30
0.0
 10
5.6257131896
 20
3.0141989405
 30
0.0
 10
5.62571319
 20
3.0142281925
 30
0.0
 10
5.6257131903
 20
3.0142574444
 30
0.0
  0
SPLINE
  5
250
100
AcDbEntity
  8
0
100
AcDbSpline
 62
9
  6
CONTINUOUS
 70
0
 71
3
 72
58
 73
54
 74
0
 42
0.0000001
 43
0.0000001
 44
0.0000000001
 40
0.0
 40
0.0
 40
0.0
 40
0.0
 40
0.0155537197
 40
0.0311212075
 40
0.0623006182
 40
0.1248533719
 40
0.1405399335
 40
0.1562451639
 40
0.1719689086
 40
0.1877110743
 40
0.203471638
 40
0.2192503553
 40
0.2508554861
 40
0.2825174388
 40
0.2983680679
 40
0.314228103
 40
0.3459602568
 40
0.3776919641
 40
0.409400132
 40
0.4410437606
 40
0.4725914784
 40
0.5040138988
 40
0.5196685231
 40
0.5352806894
 40
0.5508496401
 40
0.5663748414
 40
0.5818552266
 40
0.5972911112
 40
0.6126844688
 40
0.628039052
 40
0.6586449835
 40
0.6739123469
 40
0.6891625517
 40
0.7044037955
 40
0.719645084
 40
0.7348937262
 40
0.75015699
 40
0.7654428809
 40
0.7807602238
 40
0.7961173937
 40
0.8115182825
 40
0.8269657217
 40
0.8424627587
 40
0.8580127898
 40
0.8736178791
 40
0.8892764937
 40
0.9049865677
 40
0.9207461475
 40
0.9286444524
 40
0.9365541316
 40
0.9523995034
 40
0.9682676021
 40
1.0
 40
1.0
 40
1.0
 40
1.0
 10
6.1758488263
 20
2.980896268
 30
0.0
 10
6.1769814597
 20
2.9836437486
 30
0.0
 10
6.179195804
 20
2.9891627001
 30
0.0
 10
6.1834241131
 20
3.000290619
 30
0.0
 10
6.1903093931
 20
3.0200101473
 30
0.0
 10
6.1961648882
 20
3.0401008231
 30
0.0
 10
6.2004595344
 20
3.0575292667
 30
0.0
 10
6.2024661795
 20
3.0663054701
 30
0.0
 10
6.2043264082
 20
3.0751246196
 30
0.0
 10
6.2060388299
 20
3.0839844526
 30
0.0
 10
6.2076019455
 20
3.0928825294
 30
0.0
 10
6.2094859501
 20
3.1047997584
 30
0.0
 10
6.2114548758
 20
3.1197771788
 30
0.0
 10
6.212885276
 20
3.134829668
 30
0.0
 10
6.2136941915
 20
3.1469116107
 30
0.0
 10
6.2142729138
 20
3.1590201702
 30
0.0
 10
6.2145494118
 20
3.1741782112
 30
0.0
 10
6.2141218927
 20
3.1923627997
 30
0.0
 10
6.212890198
 20
3.2104946217
 30
0.0
 10
6.2107977328
 20
3.2285131055
 30
0.0
 10
6.2077884599
 20
3.2463467899
 30
0.0
 10
6.2044680688
 20
3.2610072201
 30
0.0
 10
6.2012990292
 20
3.2725598095
 30
0.0
 10
6.1986636398
 20
3.281113293
 30
0.0
 10
6.1957606157
 20
3.2895535907
 30
0.0
 10
6.1925849777
 20
3.2978683185
 30
0.0
 10
6.1891338243
 20
3.3060450497
 30
0.0
 10
6.1854040559
 20
3.3140708028
 30
0.0
 10
6.1813925235
 20
3.3219328927
 30
0.0
 10
6.1756713411
 20
3.3321669932
 30
0.0
 10
6.1693669878
 20
3.3420391334
 30
0.0
 10
6.1624924723
 20
3.3514831889
 30
0.0
 10
6.1570576372
 20
3.3583351003
 30
0.0
 10
6.1513421166
 20
3.3649479987
 30
0.0
 10
6.1453479441
 20
3.3713091581
 30
0.0
 10
6.1390812007
 20
3.3774080321
 30
0.0
 10
6.1325482566
 20
3.3832337496
 30
0.0
 10
6.1257555976
 20
3.388775309
 30
0.0
 10
6.1187098801
 20
3.3940215372
 30
0.0
 10
6.1114189901
 20
3.398960647
 30
0.0
 10
6.1038945471
 20
3.403583722
 30
0.0
 10
6.0961488645
 20
3.4078810835
 30
0.0
 10
6.0881944964
 20
3.4118430056
 30
0.0
 10
6.0800441944
 20
3.4154593723
 30
0.0
 10
6.0717122732
 20
3.4187206298
 30
0.0
 10
6.0632153642
 20
3.4216201731
 30
0.0
 10
6.0545706417
 20
3.4241505827
 30
0.0
 10
6.047263043
 20
3.4259442894
 30
0.0
 10
6.0413606776
 20
3.4271877032
 30
0.0
 10
6.0354162219
 20
3.4283035104
 30
0.0
 10
6.0279307515
 20
3.4294548191
 30
0.0
 10
6.0158780098
 20
3.4307744146
 30
0.0
 10
6.0067766669
 20
3.4311744187
 30
0.0
 10
6.0007136881
 20
3.4311747016
 30
0.0
  0
SPLINE
  5
251
100
AcDbEntity
  8
0
100
AcDbSpline
 62
9
  6
CONTINUOUS
 70
0
 71
3
 72
60
 73
56
 74
0
 42
0.0000001
 43
0.0000001
 44
0.0000000001
 40
0.0
 40
0.0
 40
0.0
 40
0.0
 40
0.0317258599
 40
0.0475905736
 40
0.063432582
 40
0.0713406041
 40
0.0792372949
 40
0.0949938631
 40
0.1107012216
 40
0.1263574434
 40
0.1419604994
 40
0.1575089241
 40
0.1730047881
 40
0.1884513693
 40
0.2038515995
 40
0.2192082004
 40
0.2345248062
 40
0.2498095638
 40
0.2650712695
 40
0.2803178875
 40
0.2955566297
 40
0.3107945368
 40
0.3260404875
 40
0.3413028853
 40
0.3718975827
 40
0.3872461942
 40
0.4026333945
 40
0.4180630556
 40
0.4335372828
 40
0.449056531
 40
0.4646198325
 40
0.4802266188
 40
0.4958762791
 40
0.5272906976
 40
0.558832981
 40
0.5904718483
 40
0.6221804236
 40
0.6380492804
 40
0.6539194115
 40
0.66978848
 40
0.6856550924
 40
0.7173712914
 40
0.7490483558
 40
0.7806633819
 40
0.8122109755
 40
0.8279593986
 40
0.8436898769
 40
0.8594017623
 40
0.875094423
 40
0.8907679831
 40
0.9064229355
 40
0.9376783905
 40
0.9532816239
 40
0.9688693858
 40
1.0
 40
1.0
 40
1.0
 40
1.0
 10
6.0007136881
 20
3.4311747016
 30
0.0
 10
5.994665981
 20
3.4311744301
 30
0.0
 10
5.9855876166
 20
3.4307764674
 30
0.0
 10
5.9735649239
 20
3.4294635182
 30
0.0
 10
5.9660979262
 20
3.428317996
 30
0.0
 10
5.9601679458
 20
3.4272077835
 30
0.0
 10
5.954279756
 20
3.4259705953
 30
0.0
 10
5.9469893327
 20
3.424185873
 30
0.0
 10
5.9383642638
 20
3.4216680646
 30
0.0
 10
5.929885879
 20
3.4187828168
 30
0.0
 10
5.9215712286
 20
3.4155374273
 30
0.0
 10
5.9134368207
 20
3.4119384092
 30
0.0
 10
5.9054968488
 20
3.4079952964
 30
0.0
 10
5.8977640243
 20
3.4037180988
 30
0.0
 10
5.8902508813
 20
3.3991164617
 30
0.0
 10
5.8829697176
 20
3.394200028
 30
0.0
 10
5.8759322399
 20
3.3889775766
 30
0.0
 10
5.8691464191
 20
3.3834607884
 30
0.0
 10
5.8626188261
 20
3.3776608853
 30
0.0
 10
5.8563558803
 20
3.3715888316
 30
0.0
 10
5.8503638309
 20
3.3652555688
 30
0.0
 10
5.8446489081
 20
3.3586714694
 30
0.0
 10
5.8392134494
 20
3.3518489644
 30
0.0
 10
5.8323363858
 20
3.3424450535
 30
0.0
 10
5.826026422
 20
3.3326137543
 30
0.0
 10
5.8202964616
 20
3.3224207791
 30
0.0
 10
5.8162770827
 20
3.314589574
 30
0.0
 10
5.812538163
 20
3.3065945776
 30
0.0
 10
5.8090766055
 20
3.2984483463
 30
0.0
 10
5.8058893468
 20
3.2901637515
 30
0.0
 10
5.802973527
 20
3.2817531412
 30
0.0
 10
5.8003244272
 20
3.2732287638
 30
0.0
 10
5.7971358281
 20
3.2617139354
 30
0.0
 10
5.7937889526
 20
3.2470988018
 30
0.0
 10
5.7907450186
 20
3.2293169188
 30
0.0
 10
5.7886161831
 20
3.2113469369
 30
0.0
 10
5.7875590749
 20
3.1962777009
 30
0.0
 10
5.7871152097
 20
3.1841904785
 30
0.0
 10
5.7869765126
 20
3.1751155956
 30
0.0
 10
5.7870269434
 20
3.1660402765
 30
0.0
 10
5.7873395693
 20
3.1539481878
 30
0.0
 10
5.7881773885
 20
3.1388585008
 30
0.0
 10
5.7898577746
 20
3.1208218734
 30
0.0
 10
5.7921733621
 20
3.1028883924
 30
0.0
 10
5.7946186609
 20
3.0880428561
 30
0.0
 10
5.7968749132
 20
3.0762417821
 30
0.0
 10
5.7987137749
 20
3.0674355834
 30
0.0
 10
5.8006980026
 20
3.0586719302
 30
0.0
 10
5.8028252852
 20
3.0499530712
 30
0.0
 10
5.8050958436
 20
3.0412815929
 30
0.0
 10
5.8083129983
 20
3.0297931231
 30
0.0
 10
5.8118204713
 20
3.0184014541
 30
0.0
 10
5.8156201893
 20
3.0071198451
 30
0.0
 10
5.8196098662
 20
2.9959293779
 30
0.0
 10
5.8228248681
 20
2.9876214903
 30
0.0
 10
5.8250708183
 20
2.982128686
 30
0.0
  0
SPLINE
  5
252
100
AcDbEntity
  8
0
100
AcDbSpline
 62
9
  6
CONTINUOUS
 70
0
 71
3
 72
15
 73
11
 74
0
 42
0.0000001
 43
0.0000001
 44
0.0000000001
 40
0.0
 40
0.0
 40
0.0
 40
0.0
 40
0.1306140307
 40
0.2605763272
 40
0.389104996
 40
0.5157757388
 40
0.6402853492
 40
0.7624951046
 40
0.8823949451
 40
1.0
 40
1.0
 40
1.0
 40
1.0
 10
6.0007136881
 20
2.8780675808
 30
0.0
 10
6.004596988
 20
2.8780672929
 30
0.0
 10
6.0123442334
 20
2.8780964903
 30
0.0
 10
6.023912216
 20
2.8782147731
 30
0.0
 10
6.0353621344
 20
2.8783940854
 30
0.0
 10
6.0466493245
 20
2.8786056849
 30
0.0
 10
6.0577485634
 20
2.8788196257
 30
0.0
 10
6.0686469622
 20
2.8790073551
 30
0.0
 10
6.0793409014
 20
2.8791409351
 30
0.0
 10
6.0864022098
 20
2.8791756567
 30
0.0
 10
6.0898987385
 20
2.8791756012
 30
0.0
  0
SPLINE
  5
253
100
AcDbEntity
  8
0
100
AcDbSpline
 62
9
  6
CONTINUOUS
 70
0
 71
3
 72
103
 73
99
 74
0
 42
0.0000001
 43
0.0000001
 44
0.0000000001
 40
0.0
 40
0.0
 40
0.0
 40
0.0
 40
0.0025246456
 40
0.0049866198
 40
0.007391654
 40
0.0097457306
 40
0.0120550657
 40
0.0143260849
 40
0.0165653902
 40
0.0187797188
 40
0.0209758948
 40
0.023160802
 40
0.0253418578
 40
0.0275266353
 40
0.031932473
 40
0.0364269346
 40
0.041044827
 40
0.0458100158
 40
0.0507373675
 40
0.0558387134
 40
0.0611217844
 40
0.0665888517
 40
0.0722377077
 40
0.078062512
 40
0.0840545386
 40
0.0902061303
 40
0.0965134947
 40
0.1029721048
 40
0.1095763885
 40
0.1163198849
 40
0.1231953767
 40
0.1301950024
 40
0.1373108214
 40
0.1445380606
 40
0.159312689
 40
0.1744893021
 40
0.190034863
 40
0.197935043
 40
0.2059146537
 40
0.2221037059
 40
0.2385863502
 40
0.255346274
 40
0.2723664502
 40
0.2896297615
 40
0.3071248555
 40
0.3248443572
 40
0.3427807559
 40
0.3609263772
 40
0.3978154444
 40
0.435468065
 40
0.4738538156
 40
0.5129390169
 40
0.5327270419
 40
0.5526686941
 40
0.5727569099
 40
0.5929809099
 40
0.6133159084
 40
0.6337343295
 40
0.6542090068
 40
0.6747090116
 40
0.6951763186
 40
0.7155419189
 40
0.7256650268
 40
0.735736783
 40
0.7457471121
 40
0.7556834548
 40
0.7752826154
 40
0.7849195637
 40
0.7944307219
 40
0.8038030617
 40
0.8130248822
 40
0.830976608
 40
0.848205519
 40
0.8565239284
 40
0.8646320724
 40
0.8725244762
 40
0.8801987357
 40
0.8876527602
 40
0.8948847756
 40
0.901893404
 40
0.9086777577
 40
0.9152377743
 40
0.9215762249
 40
0.9276977809
 40
0.9336079351
 40
0.9393131205
 40
0.9448208571
 40
0.9501399112
 40
0.9552804056
 40
0.9602535513
 40
0.965071802
 40
0.9742974671
 40
0.9787406735
 40
0.9830939133
 40
0.987376921
 40
0.99160909
 40
0.9958100698
 40
1.0
 40
1.0
 40
1.0
 40
1.0
 10
5.5590407321
 20
2.8971257026
 30
0.0
 10
5.558643015
 20
2.8971257412
 30
0.0
 10
5.557857286
 20
2.8971456764
 30
0.0
 10
5.5566959026
 20
2.8972371691
 30
0.0
 10
5.5555679101
 20
2.8973890338
 30
0.0
 10
5.5544740112
 20
2.8976004488
 30
0.0
 10
5.5534148638
 20
2.8978705898
 30
0.0
 10
5.5523911435
 20
2.8981986298
 30
0.0
 10
5.5514035247
 20
2.898583734
 30
0.0
 10
5.5504526919
 20
2.8990250711
 30
0.0
 10
5.5495393
 20
2.8995217691
 30
0.0
 10
5.5486640247
 20
2.900073131
 30
0.0
 10
5.5478270013
 20
2.9006779341
 30
0.0
 10
5.546758476
 20
2.9015552895
 30
0.0
 10
5.5455110191
 20
2.9027834021
 30
0.0
 10
5.5441647395
 20
2.9044382898
 30
0.0
 10
5.542958305
 20
2.9062653297
 30
0.0
 10
5.5418860114
 20
2.9082513019
 30
0.0
 10
5.5409417632
 20
2.9103842809
 30
0.0
 10
5.5401195746
 20
2.9126537479
 30
0.0
 10
5.5394129525
 20
2.9150502354
 30
0.0
 10
5.5388153753
 20
2.9175646706
 30
0.0
 10
5.5383204066
 20
2.920187975
 30
0.0
 10
5.537921733
 20
2.9229110594
 30
0.0
 10
5.5376128169
 20
2.925725328
 30
0.0
 10
5.5373880208
 20
2.9286237221
 30
0.0
 10
5.5372434661
 20
2.9316007449
 30
0.0
 10
5.5371748045
 20
2.9346517532
 30
0.0
 10
5.5371777904
 20
2.937772186
 30
0.0
 10
5.5372481565
 20
2.9409574715
 30
0.0
 10
5.537381635
 20
2.9442030337
 30
0.0
 10
5.5375740063
 20
2.9475043593
 30
0.0
 10
5.5378209336
 20
2.9508575974
 30
0.0
 10
5.5382221633
 20
2.955427163
 30
0.0
 10
5.5388488843
 20
2.9612510402
 30
0.0
 10
5.5397724402
 20
2.9683590329
 30
0.0
 10
5.5406681913
 20
2.9743773789
 30
0.0
 10
5.5414533525
 20
2.9792653069
 30
0.0
 10
5.5422896795
 20
2.9842475676
 30
0.0
 10
5.5434121759
 20
2.9905525591
 30
0.0
 10
5.5448633293
 20
2.9982034406
 30
0.0
 10
5.5464131185
 20
3.0059684789
 30
0.0
 10
5.5480497318
 20
3.0138413004
 30
0.0
 10
5.5497612841
 20
3.0218166377
 30
0.0
 10
5.5515380787
 20
3.0298905189
 30
0.0
 10
5.553371686
 20
3.0380603826
 30
0.0
 10
5.5552535771
 20
3.0463243874
 30
0.0
 10
5.5578300055
 20
3.0575273668
 30
0.0
 10
5.5611277727
 20
3.0717514755
 30
0.0
 10
5.5651240324
 20
3.0890867298
 30
0.0
 10
5.5691165852
 20
3.1067777585
 30
0.0
 10
5.5723732029
 20
3.1217495096
 30
0.0
 10
5.5749111765
 20
3.1339034289
 30
0.0
 10
5.576778455
 20
3.143139989
 30
0.0
 10
5.5785922878
 20
3.1524571916
 30
0.0
 10
5.5803429211
 20
3.1618495342
 30
0.0
 10
5.5820215426
 20
3.1713078684
 30
0.0
 10
5.5836186626
 20
3.1808203704
 30
0.0
 10
5.585124841
 20
3.190374039
 30
0.0
 10
5.586529098
 20
3.1999510188
 30
0.0
 10
5.5878283962
 20
3.2095254475
 30
0.0
 10
5.58882343
 20
3.2174910018
 30
0.0
 10
5.589564696
 20
3.2238375304
 30
0.0
 10
5.5900912525
 20
3.2285666709
 30
0.0
 10
5.590589636
 20
3.2332692745
 30
0.0
 10
5.5912163799
 20
3.2394674941
 30
0.0
 10
5.5917969062
 20
3.2456111931
 30
0.0
 10
5.5923385397
 20
3.2516911272
 30
0.0
 10
5.5927232321
 20
3.2561675712
 30
0.0
 10
5.5930902137
 20
3.2605798793
 30
0.0
 10
5.5935552738
 20
3.2663182828
 30
0.0
 10
5.5941083315
 20
3.2732912706
 30
0.0
 10
5.5946614106
 20
3.2801215087
 30
0.0
 10
5.5951144559
 20
3.285404005
 30
0.0
 10
5.5954588234
 20
3.2892195719
 30
0.0
 10
5.5958158619
 20
3.2929320534
 30
0.0
 10
5.5961898489
 20
3.2965392968
 30
0.0
 10
5.5965850823
 20
3.3000396167
 30
0.0
 10
5.5970058634
 20
3.3034313413
 30
0.0
 10
5.5974565072
 20
3.3067128006
 30
0.0
 10
5.5979412855
 20
3.3098823743
 30
0.0
 10
5.5984647191
 20
3.3129387753
 30
0.0
 10
5.5990303611
 20
3.3158814325
 30
0.0
 10
5.5996414319
 20
3.3187103914
 30
0.0
 10
5.6003012881
 20
3.3214258725
 30
0.0
 10
5.6010132691
 20
3.3240281067
 30
0.0
 10
5.6017807397
 20
3.3265173155
 30
0.0
 10
5.6026070476
 20
3.3288937399
 30
0.0
 10
5.6034956155
 20
3.3311574201
 30
0.0
 10
5.6044486979
 20
3.3333089324
 30
0.0
 10
5.6057883409
 20
3.3359893199
 30
0.0
 10
5.6072833728
 20
3.3384965154
 30
0.0
 10
5.6089448855
 20
3.3408003783
 30
0.0
 10
5.6102499704
 20
3.342396592
 30
0.0
 10
5.6116311194
 20
3.3438824126
 30
0.0
 10
5.6130891645
 20
3.3452582681
 30
0.0
 10
5.6146245317
 20
3.3465242511
 30
0.0
 10
5.6156998877
 20
3.3472950061
 30
0.0
 10
5.6162490709
 20
3.3476611638
 30
0.0
  0
SPLINE
  5
254
100
AcDbEntity
  8
0
100
AcDbSpline
 62
9
  6
CONTINUOUS
 70
0
 71
3
 72
48
 73
44
 74
0
 42
0.0000001
 43
0.0000001
 44
0.0000000001
 40
0.0
 40
0.0
 40
0.0
 40
0.0
 40
0.0256535312
 40
0.0511911693
 40
0.1011798414
 40
0.1253303964
 40
0.148872166
 40
0.171806977
 40
0.1941345831
 40
0.2370045473
 40
0.257609843
 40
0.2777079943
 40
0.297332915
 40
0.3165175777
 40
0.3352878683
 40
0.3536650881
 40
0.389325233
 40
0.406650806
 40
0.4236679777
 40
0.456831344
 40
0.4889077221
 40
0.5199884712
 40
0.5501505385
 40
0.5794491059
 40
0.6079410169
 40
0.6356745432
 40
0.6626919061
 40
0.6890384406
 40
0.7147554386
 40
0.7398891159
 40
0.764488359
 40
0.8122971634
 40
0.8356652311
 40
0.858784858
 40
0.8817642796
 40
0.8932429003
 40
0.9047366974
 40
0.9278468892
 40
0.9395134472
 40
0.951285758
 40
0.9752526277
 40
0.9875133506
 40
1.0
 40
1.0
 40
1.0
 40
1.0
 10
6.0007136881
 20
2.8896265166
 30
0.0
 10
6.002180042
 20
2.8896264925
 30
0.0
 10
6.0051062168
 20
2.8896575872
 30
0.0
 10
6.0108872514
 20
2.8898325978
 30
0.0
 10
6.0165767536
 20
2.8901606994
 30
0.0
 10
6.0221410803
 20
2.8906242282
 30
0.0
 10
6.0261588377
 20
2.8910198636
 30
0.0
 10
6.0300674063
 20
2.8914570152
 30
0.0
 10
6.0350672973
 20
2.8920732014
 30
0.0
 10
6.0399267055
 20
2.8927383881
 30
0.0
 10
6.0446528519
 20
2.8934339889
 30
0.0
 10
6.0480618195
 20
2.8939538546
 30
0.0
 10
6.051388593
 20
2.8944738356
 30
0.0
 10
6.0546393795
 20
2.8949884168
 30
0.0
 10
6.0578193038
 20
2.8954944955
 30
0.0
 10
6.0619292349
 20
2.89614874
 30
0.0
 10
6.0659584542
 20
2.8967847795
 30
0.0
 10
6.0699135436
 20
2.8973915949
 30
0.0
 10
6.0737298777
 20
2.8979614982
 30
0.0
 10
6.0783850106
 20
2.8986229826
 30
0.0
 10
6.0838452589
 20
2.8993301164
 30
0.0
 10
6.0891454503
 20
2.8999330677
 30
0.0
 10
6.0942979395
 20
2.9004224841
 30
0.0
 10
6.099312214
 20
2.9007909737
 30
0.0
 10
6.1041954335
 20
2.9010304738
 30
0.0
 10
6.1089531444
 20
2.9011331924
 30
0.0
 10
6.113589275
 20
2.9010912447
 30
0.0
 10
6.1181063288
 20
2.9008967808
 30
0.0
 10
6.1225056339
 20
2.9005408423
 30
0.0
 10
6.1267877025
 20
2.9000146414
 30
0.0
 10
6.1322857556
 20
2.8990816348
 30
0.0
 10
6.1376126717
 20
2.8977618749
 30
0.0
 10
6.1427075747
 20
2.8959933596
 30
0.0
 10
6.1463677327
 20
2.8944458801
 30
0.0
 10
6.149302902
 20
2.8929499085
 30
0.0
 10
6.1515710395
 20
2.8916240573
 30
0.0
 10
6.1537909073
 20
2.8902051229
 30
0.0
 10
6.1559305602
 20
2.888644162
 30
0.0
 10
6.1579747091
 20
2.8869397996
 30
0.0
 10
6.1599776292
 20
2.8851136873
 30
0.0
 10
6.1618779805
 20
2.8831283659
 30
0.0
 10
6.1636606491
 20
2.8809883867
 30
0.0
 10
6.1645147504
 20
2.879859969
 30
0.0
 10
6.1649322194
 20
2.8792810574
 30
0.0
  0
SPLINE
  5
255
100
AcDbEntity
  8
0
100
AcDbSpline
 62
9
  6
CONTINUOUS
 70
0
 71
3
 72
44
 73
40
 74
0
 42
0.0000001
 43
0.0000001
 44
0.0000000001
 40
0.0
 40
0.0
 40
0.0
 40
0.0
 40
0.0317994383
 40
0.0635986791
 40
0.0953523472
 40
0.1270166413
 40
0.18994777
 40
0.2212065544
 40
0.2523144777
 40
0.283272409
 40
0.3140880132
 40
0.3447759123
 40
0.375358168
 40
0.4058628857
 40
0.4363247996
 40
0.4667868909
 40
0.4820353788
 40
0.4973015922
 40
0.5278994528
 40
0.5586171584
 40
0.5740339755
 40
0.5894946476
 40
0.6050029597
 40
0.6205592717
 40
0.6518090442
 40
0.6675026347
 40
0.6832379661
 40
0.699012269
 40
0.7148224487
 40
0.7306654664
 40
0.7465376586
 40
0.7783476494
 40
0.8102069924
 40
0.8420554558
 40
0.8738490267
 40
0.9055698349
 40
0.9371922805
 40
0.9686814535
 40
1.0
 40
1.0
 40
1.0
 40
1.0
 10
6.0007136881
 20
3.3532324152
 30
0.0
 10
5.9977011595
 20
3.3532323598
 30
0.0
 10
5.9916753585
 20
3.3531067933
 30
0.0
 10
5.982657326
 20
3.3525424869
 30
0.0
 10
5.9736831519
 20
3.3516016212
 30
0.0
 10
5.9618399443
 20
3.3498482908
 30
0.0
 10
5.9501652138
 20
3.3473376487
 30
0.0
 10
5.9387546773
 20
3.344054703
 30
0.0
 10
5.930378373
 20
3.3412148027
 30
0.0
 10
5.9221877925
 20
3.337989788
 30
0.0
 10
5.9142043285
 20
3.3343763588
 30
0.0
 10
5.9064496239
 20
3.3303714908
 30
0.0
 10
5.898945615
 20
3.3259719924
 30
0.0
 10
5.8917138143
 20
3.3211761607
 30
0.0
 10
5.8847758097
 20
3.3159831387
 30
0.0
 10
5.879258385
 20
3.3113249316
 30
0.0
 10
5.8750166443
 20
3.3074024034
 30
0.0
 10
5.8708864152
 20
3.303344241
 30
0.0
 10
5.8659449921
 20
3.2980257662
 30
0.0
 10
5.861327937
 20
3.292404794
 30
0.0
 10
5.8578346081
 20
3.2877297955
 30
0.0
 10
5.8553132838
 20
3.284129834
 30
0.0
 10
5.8528965772
 20
3.2804430131
 30
0.0
 10
5.8498100564
 20
3.275410002
 30
0.0
 10
5.8469401827
 20
3.2702264926
 30
0.0
 10
5.8442892355
 20
3.264912571
 30
0.0
 10
5.8424065019
 20
3.2608557199
 30
0.0
 10
5.8406330883
 20
3.2567379468
 30
0.0
 10
5.8389700737
 20
3.2525633891
 30
0.0
 10
5.8374163886
 20
3.2483370543
 30
0.0
 10
5.8354866483
 20
3.242636176
 30
0.0
 10
5.8333397334
 20
3.2354096941
 30
0.0
 10
5.8311722424
 20
3.22662109
 30
0.0
 10
5.8293964159
 20
3.2177468559
 30
0.0
 10
5.8279946738
 20
3.2088195633
 30
0.0
 10
5.826944115
 20
3.199866055
 30
0.0
 10
5.8262215936
 20
3.1909093171
 30
0.0
 10
5.8258039489
 20
3.1819716934
 30
0.0
 10
5.8257127493
 20
3.1760212034
 30
0.0
 10
5.8257116564
 20
3.1730542324
 30
0.0
  0
SPLINE
  5
256
100
AcDbEntity
  8
0
100
AcDbSpline
 62
9
  6
CONTINUOUS
 70
0
 71
3
 72
20
 73
16
 74
0
 42
0.0000001
 43
0.0000001
 44
0.0000000001
 40
0.0
 40
0.0
 40
0.0
 40
0.0
 40
0.1005889537
 40
0.1535226505
 40
0.2082523175
 40
0.2647935784
 40
0.3231480549
 40
0.3833055656
 40
0.4452459971
 40
0.5089413509
 40
0.574357236
 40
0.6414502015
 40
0.7101682426
 40
0.8522271172
 40
1.0
 40
1.0
 40
1.0
 40
1.0
 10
6.442386644
 20
2.8971257026
 30
0.0
 10
6.4414041713
 20
2.8971257956
 30
0.0
 10
6.4399035438
 20
2.8972191355
 30
0.0
 10
6.4378882555
 20
2.8974974234
 30
0.0
 10
6.4363109722
 20
2.8977914941
 30
0.0
 10
6.4346965956
 20
2.8981659001
 30
0.0
 10
6.4330475669
 20
2.8986192869
 30
0.0
 10
6.4313665337
 20
2.8991502738
 30
0.0
 10
6.4296560837
 20
2.8997574859
 30
0.0
 10
6.4279188414
 20
2.9004395898
 30
0.0
 10
6.4261569085
 20
2.9011939678
 30
0.0
 10
6.4243722889
 20
2.9020179683
 30
0.0
 10
6.4219383458
 20
2.9032192889
 30
0.0
 10
6.4188552848
 20
2.9048829665
 30
0.0
 10
6.4164212377
 20
2.9063298731
 30
0.0
 10
6.4151939568
 20
2.9070894626
 30
0.0
  0
SPLINE
  5
257
100
AcDbEntity
  8
0
100
AcDbSpline
 62
9
  6
CONTINUOUS
 70
0
 71
3
 72
36
 73
32
 74
0
 42
0.0000001
 43
0.0000001
 44
0.0000000001
 40
0.0
 40
0.0
 40
0.0
 40
0.0
 40
0.0457004273
 40
0.0901379036
 40
0.1333823048
 40
0.1754995565
 40
0.2165488324
 40
0.2565861201
 40
0.3338095231
 40
0.477916816
 40
0.5453176474
 40
0.6097766182
 40
0.6409222218
 40
0.6713444711
 40
0.7299699939
 40
0.7581494967
 40
0.7855375409
 40
0.8120909016
 40
0.8377651433
 40
0.862511328
 40
0.8862415346
 40
0.908848476
 40
0.9302271982
 40
0.9404229423
 40
0.9502574541
 40
0.9596992195
 40
0.9687176491
 40
0.9772834339
 40
0.9853690239
 40
0.992949315
 40
1.0
 40
1.0
 40
1.0
 40
1.0
 10
6.9592461836
 20
2.8793644886
 30
0.0
 10
6.9606696311
 20
2.8802916753
 30
0.0
 10
6.9635121775
 20
2.8820673386
 30
0.0
 10
6.9678127229
 20
2.8845368798
 30
0.0
 10
6.972081933
 20
2.8867871644
 30
0.0
 10
6.9763141143
 20
2.8888311273
 30
0.0
 10
6.9805043788
 20
2.8906814999
 30
0.0
 10
6.985965035
 20
2.8928778224
 30
0.0
 10
6.9951479951
 20
2.8960669621
 30
0.0
 10
7.0055961913
 20
2.898654814
 30
0.0
 10
7.0157388529
 20
2.9002185692
 30
0.0
 10
7.0217743042
 20
2.900796923
 30
0.0
 10
7.026453144
 20
2.9010417903
 30
0.0
 10
7.0309201871
 20
2.9011483892
 30
0.0
 10
7.0352799206
 20
2.9010684095
 30
0.0
 10
7.0395169618
 20
2.9008040026
 30
0.0
 10
7.0425572285
 20
2.900524479
 30
0.0
 10
7.04549529
 20
2.9001652552
 30
0.0
 10
7.0483238333
 20
2.8997305013
 30
0.0
 10
7.0510338789
 20
2.8992247548
 30
0.0
 10
7.0536141855
 20
2.898653162
 30
0.0
 10
7.0560512604
 20
2.8980210996
 30
0.0
 10
7.0579802625
 20
2.8974398232
 30
0.0
 10
7.0594386802
 20
2.8969471698
 30
0.0
 10
7.0604682354
 20
2.8965723792
 30
0.0
 10
7.0614472346
 20
2.8961876006
 30
0.0
 10
7.0623717339
 20
2.8957940937
 30
0.0
 10
7.0632377903
 20
2.895393122
 30
0.0
 10
7.0640415045
 20
2.8949859529
 30
0.0
 10
7.0647788301
 20
2.8945738693
 30
0.0
 10
7.0652407183
 20
2.8942861514
 30
0.0
 10
7.0654588957
 20
2.8941409288
 30
0.0
  0
LINE
  5
258
100
AcDbEntity
  8
0
100
AcDbLine
 62
9
  6
CONTINUOUS
 10
6.3757137405
 20
3.0143129153
 11
6.3757136283
 21
3.0135508951
  0
SPLINE
  5
259
100
AcDbEntity
  8
0
100
AcDbSpline
 62
9
  6
CONTINUOUS
 70
0
 71
3
 72
33
 73
29
 74
0
 42
0.0000001
 43
0.0000001
 44
0.0000000001
 40
0.0
 40
0.0
 40
0.0
 40
0.0
 40
0.0287858889
 40
0.0580928871
 40
0.0878726174
 40
0.1180776305
 40
0.1486605015
 40
0.1795740983
 40
0.210775183
 40
0.2422227388
 40
0.2738758073
 40
0.3056946907
 40
0.3376463505
 40
0.3697000288
 40
0.401824996
 40
0.4339909376
 40
0.4661732578
 40
0.4983516958
 40
0.5626161729
 40
0.6266319835
 40
0.6902864044
 40
0.7219461486
 40
0.7534783366
 40
0.8161213465
 40
0.8472131021
 40
0.8781390507
 40
0.939456503
 40
1.0
 40
1.0
 40
1.0
 40
1.0
 10
6.3757138183
 20
3.307977652
 30
0.0
 10
6.3757138485
 20
3.3051602099
 30
0.0
 10
6.3756962932
 20
3.2994743151
 30
0.0
 10
6.375629916
 20
3.2908739493
 30
0.0
 10
6.375533908
 20
3.2821349641
 30
0.0
 10
6.3754163554
 20
3.2732713609
 30
0.0
 10
6.375285452
 20
3.2642969583
 30
0.0
 10
6.3751497557
 20
3.2552251255
 30
0.0
 10
6.3750149335
 20
3.2460686383
 30
0.0
 10
6.3748856148
 20
3.2368396872
 30
0.0
 10
6.3747666274
 20
3.2275501224
 30
0.0
 10
6.37466295
 20
3.2182110298
 30
0.0
 10
6.3745762944
 20
3.2088325514
 30
0.0
 10
6.3745080582
 20
3.1994239611
 30
0.0
 10
6.3744596302
 20
3.1899942736
 30
0.0
 10
6.3744327234
 20
3.1805519085
 30
0.0
 10
6.3744271967
 20
3.1711042737
 30
0.0
 10
6.3744465631
 20
3.1585149824
 30
0.0
 10
6.3745180549
 20
3.1428100744
 30
0.0
 10
6.3746710066
 20
3.1240249037
 30
0.0
 10
6.3748376023
 20
3.1084312336
 30
0.0
 10
6.3749840112
 20
3.0960169076
 30
0.0
 10
6.3751347516
 20
3.0837016336
 30
0.0
 10
6.3752863227
 20
3.0714419655
 30
0.0
 10
6.3754252959
 20
3.0592414873
 30
0.0
 10
6.3755504155
 20
3.0471706059
 30
0.0
 10
6.3756725835
 20
3.0322169351
 30
0.0
 10
6.3757136151
 20
3.0202896857
 30
0.0
 10
6.3757137399
 20
3.0143639421
 30
0.0
  0
LINE
  5
25A
100
AcDbEntity
  8
0
100
AcDbLine
 62
9
  6
CONTINUOUS
 10
6.0899705578
 20
2.8791755976
 11
6.0901696835
 21
2.8791755622
  0
SPLINE
  5
25B
100
AcDbEntity
  8
0
100
AcDbSpline
 62
9
  6
CONTINUOUS
 70
0
 71
3
 72
15
 73
11
 74
0
 42
0.0000001
 43
0.0000001
 44
0.0000000001
 40
0.0
 40
0.0
 40
0.0
 40
0.0
 40
0.1175976821
 40
0.2374893389
 40
0.3596963742
 40
0.4842005205
 40
0.6108722171
 40
0.7394057453
 40
0.8693754304
 40
1.0
 40
1.0
 40
1.0
 40
1.0
 10
5.9114851363
 20
2.8791755913
 30
0.0
 10
5.914983151
 20
2.8791757128
 30
0.0
 10
5.9220474408
 20
2.879141194
 30
0.0
 10
5.9327460606
 20
2.8790081734
 30
0.0
 10
5.9436492855
 20
2.8788201777
 30
0.0
 10
5.9547537207
 20
2.8786060433
 30
0.0
 10
5.9660464274
 20
2.8783943911
 30
0.0
 10
5.9775023217
 20
2.8782149263
 30
0.0
 10
5.9890766232
 20
2.8780964818
 30
0.0
 10
5.9968281807
 20
2.8780672762
 30
0.0
 10
6.0007136881
 20
2.8780675808
 30
0.0
  0
SPLINE
  5
25C
100
AcDbEntity
  8
0
100
AcDbSpline
 62
9
  6
CONTINUOUS
 70
0
 71
3
 72
42
 73
38
 74
0
 42
0.0000001
 43
0.0000001
 44
0.0000000001
 40
0.0
 40
0.0
 40
0.0
 40
0.0
 40
0.0070531568
 40
0.014634622
 40
0.0227174777
 40
0.0312779245
 40
0.0402897577
 40
0.0497250358
 40
0.0595545481
 40
0.0697481493
 40
0.080277053
 40
0.0911244285
 40
0.1022777839
 40
0.1137243756
 40
0.1374444379
 40
0.1621805751
 40
0.1878459187
 40
0.2143906584
 40
0.2417693247
 40
0.2699385946
 40
0.3285462564
 40
0.3900891407
 40
0.4219503294
 40
0.4545385486
 40
0.4878617587
 40
0.5219335941
 40
0.5923867077
 40
0.628823866
 40
0.6661046018
 40
0.7042640468
 40
0.7433426762
 40
0.7833857319
 40
0.8244426716
 40
0.8665694795
 40
0.9098275755
 40
0.9542804295
 40
1.0
 40
1.0
 40
1.0
 40
1.0
 10
4.935967822
 20
2.8941407634
 30
0.0
 10
4.9361864963
 20
2.8942862443
 30
0.0
 10
4.9366494305
 20
2.8945743656
 30
0.0
 10
4.93738818
 20
2.8949870348
 30
0.0
 10
4.9381931365
 20
2.8953947167
 30
0.0
 10
4.9390602712
 20
2.8957960861
 30
0.0
 10
4.9399858218
 20
2.8961899197
 30
0.0
 10
4.9409659857
 20
2.8965749944
 30
0.0
 10
4.9419969556
 20
2.896950086
 30
0.0
 10
4.9430749861
 20
2.8973139961
 30
0.0
 10
4.944196845
 20
2.8976656809
 30
0.0
 10
4.9453600126
 20
2.8980041892
 30
0.0
 10
4.9465625677
 20
2.8983287909
 30
0.0
 10
4.9482360335
 20
2.8987470963
 30
0.0
 10
4.9504145123
 20
2.8992290914
 30
0.0
 10
4.9531284229
 20
2.8997347822
 30
0.0
 10
4.9559611021
 20
2.9001692934
 30
0.0
 10
4.9589034956
 20
2.9005280818
 30
0.0
 10
4.9619481935
 20
2.9008069552
 30
0.0
 10
4.9661914996
 20
2.9010701608
 30
0.0
 10
4.9717170271
 20
2.9011691768
 30
0.0
 10
4.9773765759
 20
2.900948127
 30
0.0
 10
4.9820533097
 20
2.9005669139
 30
0.0
 10
4.9856727134
 20
2.9001674275
 30
0.0
 10
4.9893606851
 20
2.8996525493
 30
0.0
 10
4.9944223287
 20
2.8987951136
 30
0.0
 10
4.9995573518
 20
2.8976886265
 30
0.0
 10
5.004750194
 20
2.896323518
 30
0.0
 10
5.0087458071
 20
2.8951414105
 30
0.0
 10
5.0127958971
 20
2.8938040906
 30
0.0
 10
5.0168978256
 20
2.8923026328
 30
0.0
 10
5.021048953
 20
2.8906284085
 30
0.0
 10
5.0252456136
 20
2.8887702791
 30
0.0
 10
5.0294838204
 20
2.8867169874
 30
0.0
 10
5.0337593979
 20
2.8844573658
 30
0.0
 10
5.0380660838
 20
2.8819772285
 30
0.0
 10
5.0409121503
 20
2.8801935637
 30
0.0
 10
5.042337466
 20
2.8792624242
 30
0.0
  0
SPLINE
  5
25D
100
AcDbEntity
  8
0
100
AcDbSpline
 62
9
  6
CONTINUOUS
 70
0
 71
3
 72
19
 73
15
 74
0
 42
0.0000001
 43
0.0000001
 44
0.0000000001
 40
0.0
 40
0.0
 40
0.0
 40
0.0
 40
0.1478538238
 40
0.2899824011
 40
0.3587416366
 40
0.4258759079
 40
0.4913254475
 40
0.5550383505
 40
0.6169739117
 40
0.6771046705
 40
0.791875102
 40
0.8465480499
 40
0.8994358224
 40
1.0
 40
1.0
 40
1.0
 40
1.0
 10
5.5865175977
 20
2.9072652824
 30
0.0
 10
5.5852778808
 20
2.9064929811
 30
0.0
 10
5.582818946
 20
2.9050217973
 30
0.0
 10
5.5797034721
 20
2.9033300071
 30
0.0
 10
5.577243412
 20
2.9021082343
 30
0.0
 10
5.5754394607
 20
2.9012698738
 30
0.0
 10
5.5736585852
 20
2.9005018611
 30
0.0
 10
5.5719030982
 20
2.8998067743
 30
0.0
 10
5.5701752494
 20
2.8991869803
 30
0.0
 10
5.5679463324
 20
2.8984748153
 30
0.0
 10
5.5657478251
 20
2.897905804
 30
0.0
 10
5.5635883049
 20
2.8975010115
 30
0.0
 10
5.5615512683
 20
2.8972193098
 30
0.0
 10
5.5600341719
 20
2.8971257155
 30
0.0
 10
5.5590407321
 20
2.8971257026
 30
0.0
  0
SPLINE
  5
25E
100
AcDbEntity
  8
0
100
AcDbSpline
 62
9
  6
CONTINUOUS
 70
0
 71
3
 72
99
 73
95
 74
0
 42
0.0000001
 43
0.0000001
 44
0.0000000001
 40
0.0
 40
0.0
 40
0.0
 40
0.0
 40
0.0041883106
 40
0.00838725
 40
0.0126169014
 40
0.016897564
 40
0.0212493098
 40
0.0256910988
 40
0.0349119994
 40
0.0446938639
 40
0.0498305639
 40
0.0551458974
 40
0.0606498812
 40
0.0663512179
 40
0.0722572335
 40
0.0783740929
 40
0.0847069839
 40
0.0912596882
 40
0.0980345072
 40
0.105033036
 40
0.112255963
 40
0.1197018546
 40
0.1273683987
 40
0.1352528922
 40
0.1433507213
 40
0.1516553874
 40
0.1601601724
 40
0.168857898
 40
0.1867921918
 40
0.1960071673
 40
0.2053728699
 40
0.2245070166
 40
0.2440922615
 40
0.264028294
 40
0.2842238635
 40
0.294391302
 40
0.304590592
 40
0.3250521868
 40
0.3455527515
 40
0.3660381304
 40
0.3864629956
 40
0.4068015642
 40
0.4270302802
 40
0.447126249
 40
0.4868717022
 40
0.5259676169
 40
0.5452560181
 40
0.5643657958
 40
0.5832927232
 40
0.6020324938
 40
0.6389329871
 40
0.6750257083
 40
0.6927529056
 40
0.7102559176
 40
0.7275250345
 40
0.7445490151
 40
0.7613135272
 40
0.777804089
 40
0.7940020504
 40
0.8098857194
 40
0.8254330068
 40
0.8406137458
 40
0.8553962135
 40
0.8697457086
 40
0.8767438894
 40
0.8836167752
 40
0.8903593362
 40
0.8969660817
 40
0.9034291216
 40
0.90974091
 40
0.9158950365
 40
0.9218864433
 40
0.9277109038
 40
0.933361246
 40
0.9388311973
 40
0.944118121
 40
0.9492238766
 40
0.9541558057
 40
0.9589253552
 40
0.9635472885
 40
0.9680454692
 40
0.9724547395
 40
0.9746411516
 40
0.976823805
 40
0.9790102853
 40
0.9812079968
 40
0.9834238295
 40
0.9856646198
 40
0.987937118
 40
0.99024794
 40
0.9926035263
 40
0.9950101083
 40
0.9974736838
 40
1.0
 40
1.0
 40
1.0
 40
1.0
 10
6.3851791239
 20
3.3476603732
 30
0.0
 10
6.385728101
 20
3.3472943721
 30
0.0
 10
6.3868030162
 20
3.3465240063
 30
0.0
 10
6.388337699
 20
3.3452587374
 30
0.0
 10
6.3897949508
 20
3.3438836397
 30
0.0
 10
6.3911754708
 20
3.3423986231
 30
0.0
 10
6.3924805394
 20
3.3408035126
 30
0.0
 10
6.3941422901
 20
3.338501225
 30
0.0
 10
6.3960384149
 20
3.3353225707
 30
0.0
 10
6.397650959
 20
3.3318725294
 30
0.0
 10
6.3988159582
 20
3.3289048558
 30
0.0
 10
6.3996426011
 20
3.3265304026
 30
0.0
 10
6.4004106298
 20
3.3240432563
 30
0.0
 10
6.4011228102
 20
3.3214429997
 30
0.0
 10
6.4017825572
 20
3.3187295619
 30
0.0
 10
6.4023933141
 20
3.315902868
 30
0.0
 10
6.4029584135
 20
3.3129629402
 30
0.0
 10
6.4034814927
 20
3.3099100797
 30
0.0
 10
6.4039666134
 20
3.3067448721
 30
0.0
 10
6.4044177062
 20
3.3034680574
 30
0.0
 10
6.4048386803
 20
3.3000807095
 30
0.0
 10
6.405233874
 20
3.2965843554
 30
0.0
 10
6.4056075895
 20
3.2929808641
 30
0.0
 10
6.4059640765
 20
3.2892724532
 30
0.0
 10
6.4063076141
 20
3.2854618871
 30
0.0
 10
6.4066424937
 20
3.2815524745
 30
0.0
 10
6.4069729566
 20
3.2775478589
 30
0.0
 10
6.4074178568
 20
3.2720305579
 30
0.0
 10
6.4078650163
 20
3.266401202
 30
0.0
 10
6.408329802
 20
3.260667692
 30
0.0
 10
6.4088215134
 20
3.2547467394
 30
0.0
 10
6.4094780411
 20
3.2472002029
 30
0.0
 10
6.4103456517
 20
3.2380007464
 30
0.0
 10
6.4113162682
 20
3.2286434291
 30
0.0
 10
6.4122118457
 20
3.2207702893
 30
0.0
 10
6.4129842895
 20
3.2144272185
 30
0.0
 10
6.4137970383
 20
3.2080469363
 30
0.0
 10
6.4148817932
 20
3.200060475
 30
0.0
 10
6.4162867267
 20
3.1904827778
 30
0.0
 10
6.4177905242
 20
3.1809259616
 30
0.0
 10
6.4193869808
 20
3.1714100822
 30
0.0
 10
6.4210653807
 20
3.1619494009
 30
0.0
 10
6.4228161307
 20
3.1525545565
 30
0.0
 10
6.4252257409
 20
3.1401730438
 30
0.0
 10
6.4283678035
 20
3.1249066521
 30
0.0
 10
6.4316524894
 20
3.1098007437
 30
0.0
 10
6.4343170806
 20
3.0978871917
 30
0.0
 10
6.4363156486
 20
3.0890805079
 30
0.0
 10
6.4383149047
 20
3.0803626376
 30
0.0
 10
6.4409570979
 20
3.068916846
 30
0.0
 10
6.444220349
 20
3.054839142
 30
0.0
 10
6.4474154689
 20
3.0409093672
 30
0.0
 10
6.4498766969
 20
3.0299465068
 30
0.0
 10
6.4516547806
 20
3.0218694966
 30
0.0
 10
6.4533669559
 20
3.0138915095
 30
0.0
 10
6.4550036
 20
3.00601645
 30
0.0
 10
6.4565537265
 20
2.9982489036
 30
0.0
 10
6.4580065281
 20
2.9905949392
 30
0.0
 10
6.4593493637
 20
2.9830617724
 30
0.0
 10
6.4605679631
 20
2.9756580038
 30
0.0
 10
6.4616484106
 20
2.9683946999
 30
0.0
 10
6.4625725365
 20
2.9612846064
 30
0.0
 10
6.463321155
 20
2.95434354
 30
0.0
 10
6.4637859657
 20
2.9486699918
 30
0.0
 10
6.4640440835
 20
2.9442316377
 30
0.0
 10
6.4641767854
 20
2.940986843
 30
0.0
 10
6.4642468611
 20
2.9378017447
 30
0.0
 10
6.4642508552
 20
2.934680399
 30
0.0
 10
6.4641839446
 20
2.931627588
 30
0.0
 10
6.4640413307
 20
2.9286486919
 30
0.0
 10
6.4638182121
 20
2.9257491713
 30
0.0
 10
6.4635097264
 20
2.922934611
 30
0.0
 10
6.4631113838
 20
2.9202114129
 30
0.0
 10
6.4626169852
 20
2.9175873737
 30
0.0
 10
6.4620200009
 20
2.9150714831
 30
0.0
 10
6.4613139678
 20
2.9126730082
 30
0.0
 10
6.4604923011
 20
2.9104012163
 30
0.0
 10
6.4595484529
 20
2.9082657738
 30
0.0
 10
6.4584763771
 20
2.9062773713
 30
0.0
 10
6.4572699787
 20
2.9044480286
 30
0.0
 10
6.4559235297
 20
2.9027910126
 30
0.0
 10
6.4546757203
 20
2.9015612858
 30
0.0
 10
6.4536067865
 20
2.900682782
 30
0.0
 10
6.4527693994
 20
2.9000771957
 30
0.0
 10
6.4518936951
 20
2.8995251313
 30
0.0
 10
6.450979835
 20
2.8990277825
 30
0.0
 10
6.4500284943
 20
2.8985858564
 30
0.0
 10
6.4490403291
 20
2.8982002273
 30
0.0
 10
6.4480160235
 20
2.8978717302
 30
0.0
 10
6.4469562513
 20
2.8976012032
 30
0.0
 10
6.4458616879
 20
2.8973894765
 30
0.0
 10
6.4447329909
 20
2.8972373775
 30
0.0
 10
6.4435708626
 20
2.8971457312
 30
0.0
 10
6.4427846223
 20
2.8971257503
 30
0.0
 10
6.442386644
 20
2.8971257026
 30
0.0
  0
SPLINE
  5
25F
100
AcDbEntity
  8
0
100
AcDbSpline
 62
9
  6
CONTINUOUS
 70
0
 71
3
 72
52
 73
48
 74
0
 42
0.0000001
 43
0.0000001
 44
0.0000000001
 40
0.0
 40
0.0
 40
0.0
 40
0.0
 40
0.0247284651
 40
0.0367909626
 40
0.048692154
 40
0.0604612217
 40
0.0721252019
 40
0.0837090739
 40
0.0952363918
 40
0.1067290336
 40
0.1182070417
 40
0.1296885723
 40
0.1411900868
 40
0.1643106142
 40
0.187681081
 40
0.2113899344
 40
0.235514129
 40
0.2477532057
 40
0.2601187759
 40
0.2852557425
 40
0.3109775056
 40
0.3373266702
 40
0.3643486082
 40
0.3920868496
 40
0.4205811542
 40
0.4498841422
 40
0.4800517261
 40
0.5111368014
 40
0.5432147802
 40
0.5763821143
 40
0.5934038693
 40
0.6107334622
 40
0.6463926494
 40
0.6647676427
 40
0.6835364556
 40
0.7027217506
 40
0.7223474245
 40
0.7424444605
 40
0.7630467232
 40
0.7841885983
 40
0.8059051148
 40
0.8282266352
 40
0.8511577024
 40
0.8988409331
 40
0.9488177854
 40
0.9743507812
 40
1.0
 40
1.0
 40
1.0
 40
1.0
 10
5.8365371331
 20
2.8793391503
 30
0.0
 10
5.8373654917
 20
2.8804837824
 30
0.0
 10
5.8386770117
 20
2.8821317552
 30
0.0
 10
5.8405579593
 20
2.884182639
 30
0.0
 10
5.8420059537
 20
2.885623098
 30
0.0
 10
5.8435005094
 20
2.8869813935
 30
0.0
 10
5.8450395654
 20
2.888260842
 30
0.0
 10
5.8466211412
 20
2.8894646059
 30
0.0
 10
5.848243922
 20
2.8905951291
 30
0.0
 10
5.849906543
 20
2.8916549266
 30
0.0
 10
5.8516076562
 20
2.8926465034
 30
0.0
 10
5.8533459536
 20
2.8935723875
 30
0.0
 10
5.8557154057
 20
2.8947245861
 30
0.0
 10
5.8587712306
 20
2.8960132506
 30
0.0
 10
5.8625641551
 20
2.8973258296
 30
0.0
 10
5.8664840212
 20
2.8984234312
 30
0.0
 10
5.8698370006
 20
2.8991653381
 30
0.0
 10
5.8725763763
 20
2.8996644341
 30
0.0
 10
5.8753840922
 20
2.9001068655
 30
0.0
 10
5.8789710704
 20
2.900545969
 30
0.0
 10
5.8833694613
 20
2.9008995799
 30
0.0
 10
5.8878854919
 20
2.9010924782
 30
0.0
 10
5.8925205124
 20
2.9011328755
 30
0.0
 10
5.8972770024
 20
2.9010287698
 30
0.0
 10
5.9021589153
 20
2.9007881322
 30
0.0
 10
5.9071718662
 20
2.9004187885
 30
0.0
 10
5.9123230854
 20
2.8999287299
 30
0.0
 10
5.9176217814
 20
2.8993252428
 30
0.0
 10
5.9230803565
 20
2.8986175003
 30
0.0
 10
5.9277342
 20
2.8979558686
 30
0.0
 10
5.9315498069
 20
2.8973864195
 30
0.0
 10
5.9355038284
 20
2.8967800437
 30
0.0
 10
5.9395314171
 20
2.8961435596
 30
0.0
 10
5.9436394159
 20
2.895489192
 30
0.0
 10
5.9468179172
 20
2.8949832738
 30
0.0
 10
5.9500675445
 20
2.8944696091
 30
0.0
 10
5.9533931175
 20
2.8939503467
 30
0.0
 10
5.95680055
 20
2.8934306409
 30
0.0
 10
5.9602963383
 20
2.8929159185
 30
0.0
 10
5.9638871036
 20
2.8924114748
 30
0.0
 10
5.9675791618
 20
2.891922718
 30
0.0
 10
5.9713770081
 20
2.8914550797
 30
0.0
 10
5.9766543601
 20
2.8908651286
 30
0.0
 10
5.983517073
 20
2.8902373436
 30
0.0
 10
5.990546015
 20
2.8898322301
 30
0.0
 10
5.9963236326
 20
2.8896575142
 30
0.0
 10
5.9992481521
 20
2.8896264879
 30
0.0
 10
6.0007136881
 20
2.8896265166
 30
0.0
  0
SPLINE
  5
260
100
AcDbEntity
  8
0
100
AcDbSpline
 62
9
  6
CONTINUOUS
 70
0
 71
3
 72
30
 73
26
 74
0
 42
0.0000001
 43
0.0000001
 44
0.0000000001
 40
0.0
 40
0.0
 40
0.0
 40
0.0
 40
0.0301714764
 40
0.0605450102
 40
0.1218596672
 40
0.1838722146
 40
0.2465112012
 40
0.3097002879
 40
0.3733456264
 40
0.4373493858
 40
0.4694545623
 40
0.5016056016
 40
0.5659584774
 40
0.6302345703
 40
0.6942402208
 40
0.7260598538
 40
0.7577105538
 40
0.7891571741
 40
0.8203631358
 40
0.851284515
 40
0.8818749959
 40
0.9120883036
 40
0.9418782679
 40
0.9711983482
 40
1.0
 40
1.0
 40
1.0
 40
1.0
 10
5.6257131919
 20
3.0142995507
 30
0.0
 10
5.6257133271
 20
3.0172527528
 30
0.0
 10
5.6257237805
 20
3.0231789369
 30
0.0
 10
5.6257785377
 20
3.0351065195
 30
0.0
 10
5.6259006729
 20
3.050150387
 30
0.0
 10
5.6261025369
 20
3.0683517589
 30
0.0
 10
5.6263305759
 20
3.0867362966
 30
0.0
 10
5.6265553135
 20
3.105280707
 30
0.0
 10
5.6267552902
 20
3.1239590016
 30
0.0
 10
5.6268833326
 20
3.1395953494
 30
0.0
 10
5.6269518229
 20
3.1521493329
 30
0.0
 10
5.6269960274
 20
3.1647375963
 30
0.0
 10
5.6270039921
 20
3.1804748854
 30
0.0
 10
5.6269316884
 20
3.199330004
 30
0.0
 10
5.6267987478
 20
3.2150003075
 30
0.0
 10
5.6266598582
 20
3.2274769625
 30
0.0
 10
5.6265424567
 20
3.2367667519
 30
0.0
 10
5.6264144505
 20
3.2459963275
 30
0.0
 10
5.6262783659
 20
3.2551543922
 30
0.0
 10
5.6261412711
 20
3.264228632
 30
0.0
 10
5.6260106306
 20
3.2732057968
 30
0.0
 10
5.6258938034
 20
3.2820724021
 30
0.0
 10
5.6257982015
 20
3.2908149129
 30
0.0
 10
5.6257311301
 20
3.2994195181
 30
0.0
 10
5.6257129262
 20
3.3051085126
 30
0.0
 10
5.6257126861
 20
3.3079276354
 30
0.0
  0
SPLINE
  5
261
100
AcDbEntity
  8
0
100
AcDbSpline
 62
9
  6
CONTINUOUS
 70
0
 71
3
 72
45
 73
41
 74
0
 42
0.0000001
 43
0.0000001
 44
0.0000000001
 40
0.0
 40
0.0
 40
0.0
 40
0.0
 40
0.0313031295
 40
0.0470175286
 40
0.0627730083
 40
0.0943861241
 40
0.1261037733
 40
0.1578944697
 40
0.1738110917
 40
0.1897380478
 40
0.221591945
 40
0.2533988146
 40
0.269270288
 40
0.2851131173
 40
0.3009236058
 40
0.3166986585
 40
0.3324351123
 40
0.3481301348
 40
0.3793834756
 40
0.3949418235
 40
0.4104522836
 40
0.425915165
 40
0.4413342103
 40
0.4720564054
 40
0.5026586912
 40
0.5331740042
 40
0.5636388549
 40
0.5941022529
 40
0.6246078663
 40
0.6551910443
 40
0.6858802338
 40
0.7166975564
 40
0.7476577001
 40
0.7787684047
 40
0.8100304864
 40
0.8729692648
 40
0.9046375306
 40
0.9363948393
 40
0.9681974339
 40
1.0
 40
1.0
 40
1.0
 40
1.0
 10
6.1757155722
 20
3.1731057336
 30
0.0
 10
6.1757146402
 20
3.1760707054
 30
0.0
 10
6.1756461941
 20
3.1805245199
 30
0.0
 10
6.1754137207
 20
3.1864659072
 30
0.0
 10
6.1750830138
 20
3.192432077
 30
0.0
 10
6.1744790539
 20
3.1999002432
 30
0.0
 10
6.1734277678
 20
3.2088504466
 30
0.0
 10
6.1722599681
 20
3.2162845065
 30
0.0
 10
6.1711389395
 20
3.2222070669
 30
0.0
 10
6.1698891618
 20
3.2281099227
 30
0.0
 10
6.1680826627
 20
3.2354314751
 30
0.0
 10
6.1659352993
 20
3.2426554214
 30
0.0
 10
6.164005132
 20
3.2483546055
 30
0.0
 10
6.1624510904
 20
3.2525798755
 30
0.0
 10
6.1607877333
 20
3.2567535065
 30
0.0
 10
6.1590140334
 20
3.2608704935
 30
0.0
 10
6.1571310552
 20
3.2649266799
 30
0.0
 10
6.1544798031
 20
3.2702398912
 30
0.0
 10
6.1516096859
 20
3.2754227959
 30
0.0
 10
6.1485229258
 20
3.2804552641
 30
0.0
 10
6.1461060152
 20
3.2841417173
 30
0.0
 10
6.14358445
 20
3.287741301
 30
0.0
 10
6.1400907609
 20
3.2924157455
 30
0.0
 10
6.1354731368
 20
3.2980360495
 30
0.0
 10
6.1295479772
 20
3.3044121065
 30
0.0
 10
6.1232646842
 20
3.310400445
 30
0.0
 10
6.1166422689
 20
3.3159907363
 30
0.0
 10
6.1097046459
 20
3.321182659
 30
0.0
 10
6.1024735292
 20
3.3259771766
 30
0.0
 10
6.0949703196
 20
3.3303755075
 30
0.0
 10
6.0872164982
 20
3.3343794314
 30
0.0
 10
6.0792339034
 20
3.337992118
 30
0.0
 10
6.0710441347
 20
3.3412165618
 30
0.0
 10
6.0626685494
 20
3.344056025
 30
0.0
 10
6.051258765
 20
3.3473384885
 30
0.0
 10
6.0395847289
 20
3.3498487592
 30
0.0
 10
6.0277422231
 20
3.3516018484
 30
0.0
 10
6.0187686393
 20
3.3525425841
 30
0.0
 10
6.0097512859
 20
3.3531068092
 30
0.0
 10
6.0037259657
 20
3.3532323586
 30
0.0
 10
6.0007136881
 20
3.3532324152
 30
0.0
  0
ENDSEC
  0
SECTION
  2
OBJECTS
  0
DICTIONARY
  5
C
100
AcDbDictionary
280
0
281
1
  3
ACAD_GROUP
350
D
  3
ACAD_MLINESTYLE
350
17
  3
ACAD_LAYOUT
350
1A
  3
ACAD_PLOTSETTINGS
350
19
  3
ACAD_PLOTSTYLENAME
350
E
  0
DICTIONARY
  5
D
102
{ACAD_REACTORS
330
C
102
}
100
AcDbDictionary
280
0
281
1
  0
ACDBDICTIONARYWDFLT
  5
E
102
{ACAD_REACTORS
330
C
102
}
100
AcDbDictionary
281
1
  3
Normal
350
F
100
AcDbDictionaryWithDefault
340
F
  0
DICTIONARY
  5
17
102
{ACAD_REACTORS
330
C
102
}
100
AcDbDictionary
280
0
281
1
  3
Standard
350
18
  0
DICTIONARY
  5
19
102
{ACAD_REACTORS
330
C
102
}
100
AcDbDictionary
281
1
  0
DICTIONARY
  5
1A
102
{ACAD_REACTORS
330
C
102
}
100
AcDbDictionary
281
1
  3
Model
350
262
  3
Layout1
350
263
  0
ACDBPLACEHOLDER
  5
F
102
{ACAD_REACTORS
330
E
102
}
  0
MLINESTYLE
  5
18
102
{ACAD_REACTORS
330
17
102
}
100
AcDbMlineStyle
  2
STANDARD
 70
0
  3

 62
256
 51
90.0
 52
90.0
 71
2
 49
0.5
 62
256
  6
BYLAYER
 49
-0.5
 62
256
  6
BYLAYER
  0
LAYOUT
  5
262
102
{ACAD_REACTORS
330
1A
102
}
100
AcDbPlotSettings
  1

  2
none_device
  4
ISO_A4_(297.00_x_210.00_MM)
  6

 40
0.0
 41
0.0
 42
0.0
 43
0.0
 44
297.0
 45
210.0
 46
0.0
 47
0.0
 48
0.0
 49
0.0
140
0.0
141
0.0
142
1.0
143
1.0
 70
1024
 72
0
 73
0
 74
0
  7

 75
0
147
1.0
148
0.0
149
0.0
100
AcDbLayout
  1
Model
 70
0
 71
0
 10
0.0
 20
0.0
 11
11.6929133858
 21
8.2677165354
 12
0.0
 22
0.0
 32
0.0
 14
0.0
 24
0.0
 34
0.0
 15
0.0
 25
0.0
 35
0.0
146
0.0
 13
0.0
 23
0.0
 33
0.0
 16
1.0
 26
0.0
 36
0.0
 17
0.0
 27
1.0
 37
0.0
 76
0
330
202
345
0
346
0
  0
LAYOUT
  5
263
102
{ACAD_REACTORS
330
1A
102
}
100
AcDbPlotSettings
  1

  2
none_device
  4
ISO_A4_(297.00_x_210.00_MM)
  6

 40
0.0
 41
0.0
 42
0.0
 43
0.0
 44
297.0
 45
210.0
 46
0.0
 47
0.0
 48
0.0
 49
0.0
140
0.0
141
0.0
142
1.0
143
1.0
 70
0
 72
0
 73
0
 74
0
  7

 75
0
147
1.0
148
0.0
149
0.0
100
AcDbLayout
  1
Layout1
 70
0
 71
1
 10
0.0
 20
0.0
 11
11.6929133858
 21
8.2677165354
 12
0.0
 22
0.0
 32
0.0
 14
0.0
 24
0.0
 34
0.0
 15
0.0
 25
0.0
 35
0.0
146
0.0
 13
0.0
 23
0.0
 33
0.0
 16
1.0
 26
0.0
 36
0.0
 17
0.0
 27
1.0
 37
0.0
 76
0
330
203
345
0
346
0
  0
ENDSEC
  0
EOF
