999
DXF file: 3-2924tr_FRONT.dxf
999
Pro/ENGINEER 2018400 by Parametric Technology Corporation
  0
SECTION
  2
HEADER
  9
$ACADVER
  1
AC1027
  9
$DWGCODEPAGE
  3
ANSI_1252
  9
$EXTMAX
 10
11.0
 20
8.5
 30
0.0
  9
$EXTMIN
 10
0.0
 20
0.0
 30
0.0
  9
$LIMMIN
 10
0.0
 20
0.0
  9
$LIMMAX
 10
11.0
 20
8.5
  9
$VIEWCTR
 10
5.5
 20
4.25
  9
$VIEWSIZE
 40
8.5
  9
$CLAYER
  8
0
  9
$LTSCALE
 40
0.605
  9
$CELTYPE
  6
BYLAYER
  9
$DIMSCALE
 40
1.0
  9
$DIMASZ
 40
0.1
  9
$DIMEXO
 40
0.0625
  9
$DIMDLI
 40
0.418
  9
$DIMEXE
 40
0.125
  9
$DIMCEN
 40
0.099
  9
$DIMLFAC
 40
1.0
  9
$DIMBLK
  1
_FILLED
  9
$DIMALT
 70
1
  9
$DIMALTD
 70
2
  9
$DIMALTTD
 70
2
  9
$DIMALTF
 40
25.4
  9
$DIMTXT
 40
0.08
  9
$DIMTOL
 70
1
  9
$DIMLIM
 70
0
  9
$DIMTFAC
 40
1.0
  9
$DIMTP
 40
0.001
  9
$DIMTM
 40
0.001
  9
$DIMGAP
 40
0.09
  9
$DIMDSEP
 70
46
  9
$AUNITS
 70
0
  9
$PDMODE
 70
3
  9
$PDSIZE
 40
0.3125
  9
$HANDSEED
  5
287
  9
$TILEMODE
 70
1
  9
$MEASUREMENT
 70
0
  9
$INSUNITS
 70
1
  0
ENDSEC
  0
SECTION
  2
CLASSES
  0
CLASS
  1
ACDBDICTIONARYWDFLT
  2
AcDbDictionaryWithDefault
  3
AutoCAD 2000
 90
0
 91
1
280
0
281
0
  0
CLASS
  1
ACDBPLACEHOLDER
  2
AcDbPlaceHolder
  3
AutoCAD 2000
 90
0
 91
1
280
0
281
0
  0
CLASS
  1
LAYOUT
  2
AcDbLayout
  3
AutoCAD 2000
 90
0
 91
0
280
0
281
0
  0
ENDSEC
  0
SECTION
  2
TABLES
  0
TABLE
  2
VPORT
  5
8
100
AcDbSymbolTable
 70
2
  0
VPORT
  5
1F4
100
AcDbSymbolTableRecord
100
AcDbViewportTableRecord
  2
*ACTIVE
 70
0
 10
0.0
 20
0.0
 11
1.0
 21
1.0
 12
5.5
 22
4.25
 13
0.0
 23
0.0
 14
1.0
 24
1.0
 15
0.0
 25
0.0
 16
0.0
 26
0.0
 36
1.0
 17
0.0
 27
0.0
 37
0.0
 40
8.5
 41
1.2941176471
 42
50.0
 43
0.0
 44
0.0
 50
0.0
 51
0.0
 71
0
 72
100
 73
1
 74
1
 75
0
 76
0
 77
0
 78
0
  0
ENDTAB
  0
TABLE
  2
LTYPE
  5
5
100
AcDbSymbolTable
 70
6
  0
LTYPE
  5
14
100
AcDbSymbolTableRecord
100
AcDbLinetypeTableRecord
  2
BYBLOCK
 70
0
  3

 72
65
 73
0
 40
0.0
  0
LTYPE
  5
15
100
AcDbSymbolTableRecord
100
AcDbLinetypeTableRecord
  2
BYLAYER
 70
0
  3

 72
65
 73
0
 40
0.0
  0
LTYPE
  5
16
100
AcDbSymbolTableRecord
100
AcDbLinetypeTableRecord
  2
CONTINUOUS
 70
64
  3
Solid line
 72
65
 73
0
 40
0.0
  0
LTYPE
  5
1F5
100
AcDbSymbolTableRecord
100
AcDbLinetypeTableRecord
  2
CENTER
 70
64
  3
____ _ ____ _ ____ _ ____ _ ____ _ ____ _ ____
 72
65
 73
4
 40
0.6
 49
0.375
 74
0
 49
-0.075
 74
0
 49
0.075
 74
0
 49
-0.075
 74
0
  0
LTYPE
  5
1F6
100
AcDbSymbolTableRecord
100
AcDbLinetypeTableRecord
  2
HIDDEN
 70
64
  3
- - - - - - - - - - - - - - - - - - - -
 72
65
 73
2
 40
0.2
 49
0.1
 74
0
 49
-0.1
 74
0
  0
LTYPE
  5
1F7
100
AcDbSymbolTableRecord
100
AcDbLinetypeTableRecord
  2
PHANTOM
 70
64
  3
_____ _ _ _____ _ _ _____ _ _ _____
 72
65
 73
6
 40
0.8
 49
0.45
 74
0
 49
-0.05
 74
0
 49
0.1
 74
0
 49
-0.05
 74
0
 49
0.1
 74
0
 49
-0.05
 74
0
  0
LTYPE
  5
1F8
100
AcDbSymbolTableRecord
100
AcDbLinetypeTableRecord
  2
DOT
 70
64
  3
. . . . . . . . . . . . . . . . . . . .
 72
65
 73
2
 40
0.2
 49
0.1
 74
0
 49
-0.1
 74
0
  0
LTYPE
  5
1F9
100
AcDbSymbolTableRecord
100
AcDbLinetypeTableRecord
  2
DASHED
 70
64
  3
- - - - - - - - - - - - - - - - - - - -
 72
65
 73
2
 40
0.2
 49
0.1
 74
0
 49
-0.1
 74
0
  0
ENDTAB
  0
TABLE
  2
LAYER
  5
2
100
AcDbSymbolTable
 70
36
  0
LAYER
  5
10
100
AcDbSymbolTableRecord
100
AcDbLayerTableRecord
  2
0
 70
0
 62
7
  6
CONTINUOUS
370
-3
390
F
  0
LAYER
  5
1FA
100
AcDbSymbolTableRecord
100
AcDbLayerTableRecord
  2
DEFAULT_1
 70
0
 62
7
  6
CENTER
370
-3
390
F
  0
LAYER
  5
1FB
100
AcDbSymbolTableRecord
100
AcDbLayerTableRecord
  2
DEFAULT_2
 70
0
 62
8
  6
HIDDEN
370
-3
390
F
  0
LAYER
  5
1FC
100
AcDbSymbolTableRecord
100
AcDbLayerTableRecord
  2
DEFAULT_3
 70
0
 62
7
  6
PHANTOM
370
-3
390
F
  0
LAYER
  5
1FD
100
AcDbSymbolTableRecord
100
AcDbLayerTableRecord
  2
2-110_ASSY_DATUMS
 70
0
 62
7
  6
CONTINUOUS
370
-3
390
F
  0
LAYER
  5
1FE
100
AcDbSymbolTableRecord
100
AcDbLayerTableRecord
  2
2-266_ASSY_PLANES
 70
0
 62
7
  6
CONTINUOUS
370
-3
390
F
  0
LAYER
  5
1FF
100
AcDbSymbolTableRecord
100
AcDbLayerTableRecord
  2
ALL_ASSEMBLY_MEMBERS
 70
0
 62
7
  6
CONTINUOUS
370
-3
390
F
  0
LAYER
  5
200
100
AcDbSymbolTableRecord
100
AcDbLayerTableRecord
  2
ALL_FEATURES
 70
0
 62
7
  6
CONTINUOUS
370
-3
390
F
  0
LAYER
  5
201
100
AcDbSymbolTableRecord
100
AcDbLayerTableRecord
  2
AXES_FEATURES
 70
0
 62
7
  6
CONTINUOUS
370
-3
390
F
  0
LAYER
  5
202
100
AcDbSymbolTableRecord
100
AcDbLayerTableRecord
  2
CHAMFER_FEATURES
 70
0
 62
7
  6
CONTINUOUS
370
-3
390
F
  0
LAYER
  5
203
100
AcDbSymbolTableRecord
100
AcDbLayerTableRecord
  2
COORDINATE_SYSTEMS
 70
0
 62
7
  6
CONTINUOUS
370
-3
390
F
  0
LAYER
  5
204
100
AcDbSymbolTableRecord
100
AcDbLayerTableRecord
  2
CUT_FEATURES
 70
0
 62
7
  6
CONTINUOUS
370
-3
390
F
  0
LAYER
  5
205
100
AcDbSymbolTableRecord
100
AcDbLayerTableRecord
  2
DATUM_CURVES
 70
0
 62
7
  6
CONTINUOUS
370
-3
390
F
  0
LAYER
  5
206
100
AcDbSymbolTableRecord
100
AcDbLayerTableRecord
  2
DATUM_PLANES
 70
0
 62
7
  6
CONTINUOUS
370
-3
390
F
  0
LAYER
  5
207
100
AcDbSymbolTableRecord
100
AcDbLayerTableRecord
  2
DEFAULT_COORDINATE_SYSTEM
 70
0
 62
7
  6
CONTINUOUS
370
-3
390
F
  0
LAYER
  5
208
100
AcDbSymbolTableRecord
100
AcDbLayerTableRecord
  2
DEFAULT_DATUM_AXES
 70
0
 62
7
  6
CONTINUOUS
370
-3
390
F
  0
LAYER
  5
209
100
AcDbSymbolTableRecord
100
AcDbLayerTableRecord
  2
DEFAULT_DATUM_CURVES
 70
0
 62
7
  6
CONTINUOUS
370
-3
390
F
  0
LAYER
  5
20A
100
AcDbSymbolTableRecord
100
AcDbLayerTableRecord
  2
DEFAULT_DATUM_PLANES
 70
0
 62
7
  6
CONTINUOUS
370
-3
390
F
  0
LAYER
  5
20B
100
AcDbSymbolTableRecord
100
AcDbLayerTableRecord
  2
DEFAULT_SURFACES
 70
0
 62
7
  6
CONTINUOUS
370
-3
390
F
  0
LAYER
  5
20C
100
AcDbSymbolTableRecord
100
AcDbLayerTableRecord
  2
DIMENSIONS
 70
0
 62
7
  6
CONTINUOUS
370
-3
390
F
  0
LAYER
  5
20D
100
AcDbSymbolTableRecord
100
AcDbLayerTableRecord
  2
HOLE_FEATURES
 70
0
 62
7
  6
CONTINUOUS
370
-3
390
F
  0
LAYER
  5
20E
100
AcDbSymbolTableRecord
100
AcDbLayerTableRecord
  2
NOTES
 70
0
 62
7
  6
CONTINUOUS
370
-3
390
F
  0
LAYER
  5
20F
100
AcDbSymbolTableRecord
100
AcDbLayerTableRecord
  2
PART_REFERENCE_DIMENSIONS
 70
0
 62
7
  6
CONTINUOUS
370
-3
390
F
  0
LAYER
  5
210
100
AcDbSymbolTableRecord
100
AcDbLayerTableRecord
  2
PLATED_SURFACE_AREA
 70
0
 62
7
  6
CONTINUOUS
370
-3
390
F
  0
LAYER
  5
211
100
AcDbSymbolTableRecord
100
AcDbLayerTableRecord
  2
PROTRUSION
 70
0
 62
7
  6
CONTINUOUS
370
-3
390
F
  0
LAYER
  5
212
100
AcDbSymbolTableRecord
100
AcDbLayerTableRecord
  2
PROTRUSION_FEATURES
 70
0
 62
7
  6
CONTINUOUS
370
-3
390
F
  0
LAYER
  5
213
100
AcDbSymbolTableRecord
100
AcDbLayerTableRecord
  2
QUILT
 70
0
 62
7
  6
CONTINUOUS
370
-3
390
F
  0
LAYER
  5
214
100
AcDbSymbolTableRecord
100
AcDbLayerTableRecord
  2
QUILTS
 70
0
 62
7
  6
CONTINUOUS
370
-3
390
F
  0
LAYER
  5
215
100
AcDbSymbolTableRecord
100
AcDbLayerTableRecord
  2
REFERENCE_DIMENSIONS
 70
0
 62
7
  6
CONTINUOUS
370
-3
390
F
  0
LAYER
  5
216
100
AcDbSymbolTableRecord
100
AcDbLayerTableRecord
  2
ROUND_FEATURES
 70
0
 62
7
  6
CONTINUOUS
370
-3
390
F
  0
LAYER
  5
217
100
AcDbSymbolTableRecord
100
AcDbLayerTableRecord
  2
SHELL_FEATURES
 70
0
 62
7
  6
CONTINUOUS
370
-3
390
F
  0
LAYER
  5
218
100
AcDbSymbolTableRecord
100
AcDbLayerTableRecord
  2
SURFACE_FEATURES
 70
0
 62
7
  6
CONTINUOUS
370
-3
390
F
  0
LAYER
  5
219
100
AcDbSymbolTableRecord
100
AcDbLayerTableRecord
  2
WETTED_SURFACES
 70
0
 62
7
  6
CONTINUOUS
370
-3
390
F
  0
LAYER
  5
21A
100
AcDbSymbolTableRecord
100
AcDbLayerTableRecord
  2
XSEC_DATUMS
 70
0
 62
7
  6
CONTINUOUS
370
-3
390
F
  0
ENDTAB
  0
TABLE
  2
STYLE
  5
3
100
AcDbSymbolTable
 70
1
  0
STYLE
  5
11
100
AcDbSymbolTableRecord
100
AcDbTextStyleTableRecord
  2
STANDARD
 70
0
 40
0.0
 41
0.8
 50
0.0
 71
0
 42
0.2
  3
txt
  4

  0
STYLE
  5
21B
100
AcDbSymbolTableRecord
100
AcDbTextStyleTableRecord
  2
TEXTSTYLE_1
 70
0
 40
0.0
 41
0.8
 50
0.0
 71
0
 42
0.2
  3
gdt
  4

  0
ENDTAB
  0
TABLE
  2
VIEW
  5
6
100
AcDbSymbolTable
 70
0
  0
ENDTAB
  0
TABLE
  2
UCS
  5
7
100
AcDbSymbolTable
 70
0
  0
ENDTAB
  0
TABLE
  2
APPID
  5
9
100
AcDbSymbolTable
 70
1
  0
APPID
  5
21C
100
AcDbSymbolTableRecord
100
AcDbRegAppTableRecord
  2
ACAD
 70
0
  0
ENDTAB
  0
TABLE
  2
BLOCK_RECORD
  5
1
100
AcDbSymbolTable
 70
0
  0
BLOCK_RECORD
  5
21D
100
AcDbSymbolTableRecord
100
AcDbBlockTableRecord
  2
*Model_Space
  0
BLOCK_RECORD
  5
21E
100
AcDbSymbolTableRecord
100
AcDbBlockTableRecord
  2
*Paper_Space
  0
BLOCK_RECORD
  5
21F
100
AcDbSymbolTableRecord
100
AcDbBlockTableRecord
  2
_FILLED
  0
ENDTAB
  0
TABLE
  2
DIMSTYLE
  5
A
100
AcDbSymbolTable
 70
1
100
AcDbDimStyleTable
 71
0
  0
DIMSTYLE
105
220
100
AcDbSymbolTableRecord
100
AcDbDimStyleTableRecord
  2
STANDARD
 70
0
  3

  4

 40
1.0
 41
0.1
 42
0.0625
 43
0.38
 44
0.125
 45
0.0
 46
0.0
 47
0.001
 48
0.001
140
0.08
141
0.09
142
0.0
143
25.4
144
1.0
145
0.0
146
1.0
147
0.09
 71
1.0
 72
0.0
 73
1
 74
1
 75
0
 76
0
 77
0
 78
4
 79
1
170
1
171
2
172
0
173
0
174
0
175
0
176
0
177
0
178
0
270
2
179
3
271
3
272
3
273
2
274
2
275
0
280
0
281
0
282
0
283
1
284
4
285
0
286
0
287
3
288
0
340
11
278
46
341
21F
342
21F
343
21F
344
21F
  0
ENDTAB
  0
ENDSEC
  0
SECTION
  2
BLOCKS
  0
BLOCK
  5
20
100
AcDbEntity
  8
0
100
AcDbBlockBegin
  2
*Model_Space
 70
0
 10
0.0
 20
0.0
 30
0.0
  3
*Model_Space
  1

  0
ENDBLK
  5
21
100
AcDbEntity
  8
0
100
AcDbBlockEnd
  0
BLOCK
  5
1C
100
AcDbEntity
  8
0
100
AcDbBlockBegin
  2
*Paper_Space
 70
0
 10
0.0
 20
0.0
 30
0.0
  3
*Paper_Space
  1

  0
ENDBLK
  5
1D
100
AcDbEntity
  8
0
100
AcDbBlockEnd
  0
BLOCK
  5
221
100
AcDbEntity
  8
0
100
AcDbBlockBegin
  2
_FILLED
 70
64
 10
0.0
 20
0.0
  3
_FILLED
  1

  0
SOLID
  5
222
100
AcDbEntity
  8
0
  6
BYBLOCK
 62
0
100
AcDbTrace
 10
0.0
 20
0.0
 11
-1.0
 21
0.2
 12
-1.0
 22
-0.2
 13
-1.0
 23
-0.2
  0
ENDBLK
  5
223
100
AcDbEntity
  8
0
  6
BYBLOCK
 62
0
100
AcDbBlockEnd
  0
ENDSEC
  0
SECTION
  2
ENTITIES
  0
MTEXT
  5
224
100
AcDbEntity
  8
0
100
AcDbMText
 62
2
  6
CONTINUOUS
  7
STANDARD
 71
3
 72
1
 10
4.1741071429
 20
2.5588237578
 30
0.0
 11
1.0
 21
0.0
 31
0.0
 73
2
 44
0.9
  1
SCALE  .500
 40
0.08
 41
0.704
  0
LINE
  5
225
100
AcDbEntity
  8
0
100
AcDbLine
 62
7
  6
CONTINUOUS
 10
0.0
 20
0.0
 11
0.0
 21
8.5
  0
LINE
  5
226
100
AcDbEntity
  8
0
100
AcDbLine
 62
7
  6
CONTINUOUS
 10
0.0
 20
0.0
 11
11.0
 21
0.0
  0
LINE
  5
227
100
AcDbEntity
  8
0
100
AcDbLine
 62
7
  6
CONTINUOUS
 10
0.0
 20
8.5
 11
11.0
 21
8.5
  0
LINE
  5
228
100
AcDbEntity
  8
0
100
AcDbLine
 62
7
  6
CONTINUOUS
 10
11.0
 20
0.0
 11
11.0
 21
8.5
  0
LINE
  5
229
100
AcDbEntity
  8
ALL_ASSEMBLY_MEMBERS
100
AcDbLine
 62
7
  6
CONTINUOUS
 10
3.7948020435
 20
3.924946372
 11
3.7949074177
 21
3.9248332679
  0
LWPOLYLINE
  5
22A
100
AcDbEntity
  8
ALL_ASSEMBLY_MEMBERS
100
AcDbPolyline
 62
7
  6
CONTINUOUS
 90
4
 70
0
 10
3.7950124531
 20
3.9247308995
 10
3.7949358562
 20
3.9248340051
 10
3.7945650057
 20
3.9253939271
 10
3.7939885244
 20
3.9263929656
  0
LWPOLYLINE
  5
22B
100
AcDbEntity
  8
ALL_ASSEMBLY_MEMBERS
100
AcDbPolyline
 62
7
  6
CONTINUOUS
 90
4
 70
0
 10
3.6784479933
 20
4.1264969606
 10
3.6782588182
 20
4.1268418476
 10
3.6779614056
 20
4.1274379745
 10
3.6779062384
 20
4.1275650861
  0
LWPOLYLINE
  5
22C
100
AcDbEntity
  8
ALL_ASSEMBLY_MEMBERS
100
AcDbPolyline
 62
7
  6
CONTINUOUS
 90
21
 70
0
 10
3.7939885244
 20
3.9263929656
 10
3.793247357
 20
3.9279266872
 10
3.7924725033
 20
3.929941614
 10
3.7918013094
 20
3.9322780791
 10
3.7912933588
 20
3.9349185032
 10
3.791010549
 20
3.9378180059
 10
3.790999259
 20
3.9407372075
 10
3.791246819
 20
3.9435819781
 10
3.791741052
 20
3.946371428
 10
3.7924568388
 20
3.9490361737
 10
3.7933680958
 20
3.9515505547
 10
3.7944456097
 20
3.9538903497
 10
3.7956327409
 20
3.9559938875
 10
3.7968884431
 20
3.95785308
 10
3.7981622045
 20
3.9594527341
 10
3.7993555746
 20
3.9607394332
 10
3.800395558
 20
3.9617135406
 10
3.8012436998
 20
3.9624088124
 10
3.8018507185
 20
3.9628461252
 10
3.8021824905
 20
3.9630568985
 10
4.0524043609
 20
4.1075223267
  0
LINE
  5
22D
100
AcDbEntity
  8
ALL_ASSEMBLY_MEMBERS
100
AcDbLine
 62
7
  6
CONTINUOUS
 10
3.6779463694
 20
4.1274098858
 11
3.6779877873
 21
4.1272745988
  0
LWPOLYLINE
  5
22E
100
AcDbEntity
  8
ALL_ASSEMBLY_MEMBERS
100
AcDbPolyline
 62
7
  6
CONTINUOUS
 90
13
 70
0
 10
3.9872492912
 20
4.2943275388
 10
3.9867632573
 20
4.2904852262
 10
3.9859476668
 20
4.2866951829
 10
3.9848082876
 20
4.2829876915
 10
3.9833531377
 20
4.2793904314
 10
3.9815926046
 20
4.2759303254
 10
3.9795393764
 20
4.2726333385
 10
3.9772083538
 20
4.2695242791
 10
3.9746165442
 20
4.2666266087
 10
3.9717829431
 20
4.2639622641
 10
3.9687283981
 20
4.2615514887
 10
3.9654754593
 20
4.2594126751
 10
3.9649031355
 20
4.2590765803
  0
LINE
  5
22F
100
AcDbEntity
  8
ALL_ASSEMBLY_MEMBERS
100
AcDbLine
 62
7
  6
CONTINUOUS
 10
4.0866071433
 20
4.4698812735
 11
4.0866071435
 21
4.4698862168
  0
LINE
  5
230
100
AcDbEntity
  8
ALL_ASSEMBLY_MEMBERS
100
AcDbLine
 62
7
  6
CONTINUOUS
 10
4.0866074795
 20
4.7588148498
 11
4.0866071429
 21
4.4698684767
  0
LWPOLYLINE
  5
231
100
AcDbEntity
  8
ALL_ASSEMBLY_MEMBERS
100
AcDbPolyline
 62
7
  6
CONTINUOUS
 90
13
 70
0
 10
4.0866065646
 20
4.4698773287
 10
4.0866012779
 20
4.4691833437
 10
4.0863710094
 20
4.4652746533
 10
4.0858037484
 20
4.4614106076
 10
4.0849063387
 20
4.4576199282
 10
4.0836880289
 20
4.4539304251
 10
4.0821603623
 20
4.4503688013
 10
4.0803370469
 20
4.44696046
 10
4.078233806
 20
4.4437293275
 10
4.0758682201
 20
4.4406977055
 10
4.073259576
 20
4.4378861476
 10
4.0704287023
 20
4.4353133455
 10
4.0673977777
 20
4.43299601
  0
LWPOLYLINE
  5
232
100
AcDbEntity
  8
ALL_ASSEMBLY_MEMBERS
100
AcDbPolyline
 62
7
  6
CONTINUOUS
 90
22
 70
0
 10
3.714716913
 20
4.1146305143
 10
3.7146870458
 20
4.1146132658
 10
3.714371286
 20
4.1144475122
 10
3.7137527634
 20
4.1141650233
 10
3.7128287749
 20
4.1138064281
 10
3.7116014042
 20
4.1134149785
 10
3.7100756083
 20
4.1130365419
 10
3.7082620209
 20
4.1127192442
 10
3.7061728921
 20
4.1125112649
 10
3.7038054079
 20
4.1124619688
 10
3.7012078143
 20
4.1126234511
 10
3.6984706562
 20
4.1130332371
 10
3.6956018105
 20
4.1137318607
 10
3.69267768
 20
4.1147439176
 10
3.6898827527
 20
4.1160230168
 10
3.6872427096
 20
4.1175530435
 10
3.6848079185
 20
4.1192984833
 10
3.6827505437
 20
4.1210919363
 10
3.681078562
 20
4.1228393938
 10
3.6797582162
 20
4.124483071
 10
3.6788264485
 20
4.1258586492
 10
3.6784479933
 20
4.1264969606
  0
LINE
  5
233
100
AcDbEntity
  8
ALL_ASSEMBLY_MEMBERS
100
AcDbLine
 62
7
  6
CONTINUOUS
 10
3.7147065326
 20
4.1146249889
 11
3.9649020755
 21
4.2590754529
  0
LWPOLYLINE
  5
234
100
AcDbEntity
  8
ALL_ASSEMBLY_MEMBERS
100
AcDbPolyline
 62
7
  6
CONTINUOUS
 90
22
 70
0
 10
4.2958115378
 20
4.1075213955
 10
4.5460288577
 20
3.9630587498
 10
4.5463296963
 20
3.9628685518
 10
4.5468816894
 20
3.9624756028
 10
4.5476515811
 20
3.961857061
 10
4.5486021958
 20
3.9609921555
 10
4.5496922016
 20
3.9598615191
 10
4.550873715
 20
3.9584509006
 10
4.5520979739
 20
3.9567479159
 10
4.5533233307
 20
3.9547264115
 10
4.5544815027
 20
3.9524012054
 10
4.5554957026
 20
3.9498302093
 10
4.5563268598
 20
3.9469993654
 10
4.5569149873
 20
3.9439627722
 10
4.5572075769
 20
3.9409027467
 10
4.5572052237
 20
3.937848821
 10
4.5569129254
 20
3.9348630256
 10
4.5563894249
 20
3.9321798568
 10
4.5557123229
 20
3.9298538323
 10
4.5549485857
 20
3.9278844697
 10
4.5542222465
 20
3.9263863829
 10
4.5538579405
 20
3.925737769
  0
LINE
  5
235
100
AcDbEntity
  8
ALL_ASSEMBLY_MEMBERS
100
AcDbLine
 62
7
  6
CONTINUOUS
 10
4.2616066771
 20
4.7587991834
 11
4.2616071429
 21
4.4698725757
  0
LWPOLYLINE
  5
236
100
AcDbEntity
  8
ALL_ASSEMBLY_MEMBERS
100
AcDbPolyline
 62
7
  6
CONTINUOUS
 90
21
 70
0
 10
4.2616066771
 20
4.7587991834
 10
4.2616210169
 20
4.7591555835
 10
4.2616856787
 20
4.7598324375
 10
4.2618372158
 20
4.7608118828
 10
4.2621121221
 20
4.7620709393
 10
4.262547749
 20
4.7635828152
 10
4.2631805212
 20
4.7653137079
 10
4.2640458692
 20
4.7672281543
 10
4.265187826
 20
4.7693036689
 10
4.2666274912
 20
4.7714727329
 10
4.2683519332
 20
4.7736383306
 10
4.2703922141
 20
4.7757733468
 10
4.272731327
 20
4.7777992118
 10
4.2752367129
 20
4.7795793224
 10
4.277881732
 20
4.7810996462
 10
4.2806104282
 20
4.7823344482
 10
4.283191138
 20
4.7832184489
 10
4.2855373952
 20
4.7837917012
 10
4.2876169407
 20
4.7841127666
 10
4.2892715773
 20
4.7842318994
 10
4.2900138519
 20
4.7842405347
  0
LINE
  5
237
100
AcDbEntity
  8
ALL_ASSEMBLY_MEMBERS
100
AcDbLine
 62
7
  6
CONTINUOUS
 10
4.0524109823
 20
4.1075261498
 11
4.0524099058
 21
4.1075255288
  0
LWPOLYLINE
  5
238
100
AcDbEntity
  8
ALL_ASSEMBLY_MEMBERS
100
AcDbPolyline
 62
7
  6
CONTINUOUS
 90
13
 70
0
 10
4.0524023403
 20
4.1075211263
 10
4.0529838298
 20
4.1078511332
 10
4.0564656129
 20
4.1095999211
 10
4.0600819249
 20
4.1110396818
 10
4.0638053374
 20
4.112160585
 10
4.0676077542
 20
4.1129552289
 10
4.0714606255
 20
4.113418681
 10
4.0753351706
 20
4.1135484994
 10
4.0792026056
 20
4.1133447324
 10
4.083034351
 20
4.1128098955
 10
4.086802228
 20
4.1119489378
 10
4.0904786598
 20
4.1107691924
 10
4.0940368837
 20
4.1092803029
  0
LINE
  5
239
100
AcDbEntity
  8
ALL_ASSEMBLY_MEMBERS
100
AcDbLine
 62
7
  6
CONTINUOUS
 10
4.6335412387
 20
4.114605527
 11
4.3833103995
 21
4.2590764983
  0
LWPOLYLINE
  5
23A
100
AcDbEntity
  8
ALL_ASSEMBLY_MEMBERS
100
AcDbPolyline
 62
7
  6
CONTINUOUS
 90
13
 70
0
 10
4.2541403786
 20
4.1092630635
 10
4.2577130367
 20
4.1107609015
 10
4.2614026931
 20
4.111946305
 10
4.265182097
 20
4.1128101248
 10
4.2690232828
 20
4.1133455836
 10
4.2728977701
 20
4.1135483323
 10
4.2767767731
 20
4.1134164897
 10
4.2806314208
 20
4.1129506636
 10
4.2844329769
 20
4.1121539508
 10
4.2881530474
 20
4.1110319195
 10
4.2917637911
 20
4.1095925752
 10
4.2952381285
 20
4.1078463087
 10
4.2958110413
 20
4.1075211075
  0
LINE
  5
23B
100
AcDbEntity
  8
ALL_ASSEMBLY_MEMBERS
100
AcDbLine
 62
7
  6
CONTINUOUS
 10
4.6702264984
 20
4.1272745988
 11
4.6702663403
 21
4.1274047412
  0
LWPOLYLINE
  5
23C
100
AcDbEntity
  8
ALL_ASSEMBLY_MEMBERS
100
AcDbPolyline
 62
7
  6
CONTINUOUS
 90
4
 70
0
 10
4.6703102839
 20
4.1275693633
 10
4.6702645789
 20
4.1274633686
 10
4.6699833056
 20
4.1268943675
 10
4.6694375579
 20
4.1259392456
  0
LWPOLYLINE
  5
23D
100
AcDbEntity
  8
ALL_ASSEMBLY_MEMBERS
100
AcDbPolyline
 62
7
  6
CONTINUOUS
 90
4
 70
0
 10
4.5538579405
 20
3.925737769
 10
4.5536533005
 20
3.9254004284
 10
4.5532844272
 20
3.924842614
 10
4.5532010978
 20
3.924730147
  0
LWPOLYLINE
  5
23E
100
AcDbEntity
  8
ALL_ASSEMBLY_MEMBERS
100
AcDbPolyline
 62
7
  6
CONTINUOUS
 90
20
 70
0
 10
4.6694375579
 20
4.1259392456
 10
4.6685359056
 20
4.1245926929
 10
4.6672535788
 20
4.1229754024
 10
4.6656214952
 20
4.1212445011
 10
4.6636050084
 20
4.1194576917
 10
4.6612092673
 20
4.1177081345
 10
4.6585934705
 20
4.1161599538
 10
4.6557967711
 20
4.1148496243
 10
4.6528509895
 20
4.1138029533
 10
4.649955169
 20
4.1130754288
 10
4.6471901544
 20
4.1126432674
 10
4.6445625908
 20
4.1124651012
 10
4.6421699359
 20
4.1125034327
 10
4.6400639029
 20
4.1127040215
 10
4.6382367267
 20
4.1130160742
 10
4.6366953668
 20
4.1133918113
 10
4.6354510144
 20
4.1137831522
 10
4.6345096843
 20
4.1141444592
 10
4.6338730902
 20
4.1144326492
 10
4.6335412387
 20
4.114605527
  0
LINE
  5
23F
100
AcDbEntity
  8
ALL_ASSEMBLY_MEMBERS
100
AcDbLine
 62
7
  6
CONTINUOUS
 10
4.553315279
 20
3.9248423116
 11
4.5534122422
 21
3.924946372
  0
LINE
  5
240
100
AcDbEntity
  8
ALL_ASSEMBLY_MEMBERS
100
AcDbLine
 62
7
  6
CONTINUOUS
 10
4.0572928867
 20
4.7842503024
 11
4.0571605667
 21
4.7842198061
  0
LWPOLYLINE
  5
241
100
AcDbEntity
  8
ALL_ASSEMBLY_MEMBERS
100
AcDbPolyline
 62
7
  6
CONTINUOUS
 90
4
 70
0
 10
4.0570032034
 20
4.7841763614
 10
4.0571100481
 20
4.7841888664
 10
4.0577427898
 20
4.7842297694
 10
4.058841669
 20
4.7842347937
  0
LWPOLYLINE
  5
242
100
AcDbEntity
  8
ALL_ASSEMBLY_MEMBERS
100
AcDbPolyline
 62
7
  6
CONTINUOUS
 90
4
 70
0
 10
4.2900138519
 20
4.7842405347
 10
4.290407971
 20
4.7842319332
 10
4.2910760398
 20
4.7841912796
 10
4.2912224999
 20
4.7841744899
  0
LWPOLYLINE
  5
243
100
AcDbEntity
  8
ALL_ASSEMBLY_MEMBERS
100
AcDbPolyline
 62
7
  6
CONTINUOUS
 90
20
 70
0
 10
4.058841669
 20
4.7842347937
 10
4.0604568531
 20
4.7841275671
 10
4.0624964591
 20
4.7838264365
 10
4.0648095004
 20
4.7832795917
 10
4.0673634136
 20
4.7824281732
 10
4.0700750669
 20
4.7812300117
 10
4.0727232291
 20
4.7797405028
 10
4.0752568743
 20
4.7779749525
 10
4.0776373859
 20
4.7759479584
 10
4.0797168213
 20
4.7738041422
 10
4.0814751805
 20
4.7716254041
 10
4.0829448766
 20
4.7694381608
 10
4.0841095292
 20
4.7673456034
 10
4.0849903632
 20
4.7654192835
 10
4.085635044
 20
4.7636781711
 10
4.0860811337
 20
4.7621533599
 10
4.086364672
 20
4.7608795369
 10
4.0865225014
 20
4.7598840923
 10
4.0865912765
 20
4.7591889701
 10
4.0866074795
 20
4.7588148498
  0
LINE
  5
244
100
AcDbEntity
  8
ALL_ASSEMBLY_MEMBERS
100
AcDbLine
 62
7
  6
CONTINUOUS
 10
4.2910596554
 20
4.7842184378
 11
4.2909213991
 21
4.7842503024
  0
LINE
  5
245
100
AcDbEntity
  8
ALL_ASSEMBLY_MEMBERS
100
AcDbLine
 62
7
  6
CONTINUOUS
 10
3.6053718502
 20
4.9538237578
 11
3.7583424356
 21
4.9538237578
  0
LINE
  5
246
100
AcDbEntity
  8
ALL_ASSEMBLY_MEMBERS
100
AcDbLine
 62
7
  6
CONTINUOUS
 10
4.5898718502
 20
4.9538237578
 11
4.7428424356
 21
4.9538237578
  0
LINE
  5
247
100
AcDbEntity
  8
ALL_ASSEMBLY_MEMBERS
100
AcDbLine
 62
7
  6
CONTINUOUS
 10
4.7428424356
 20
4.9788237578
 11
4.5898718502
 21
4.9788237578
  0
LINE
  5
248
100
AcDbEntity
  8
ALL_ASSEMBLY_MEMBERS
100
AcDbLine
 62
7
  6
CONTINUOUS
 10
3.7583424356
 20
4.9788237578
 11
3.6053718502
 21
4.9788237578
  0
ARC
  5
249
100
AcDbEntity
  8
ALL_ASSEMBLY_MEMBERS
100
AcDbCircle
 62
7
  6
CONTINUOUS
 10
3.5675391687
 20
4.0935378846
 40
0.1154862037
100
AcDbArc
 50
16.559423279
 51
16.9853788178
  0
CIRCLE
  5
24A
100
AcDbEntity
  8
ALL_ASSEMBLY_MEMBERS
100
AcDbCircle
 62
7
  6
CONTINUOUS
 10
3.6818571429
 20
4.9663237578
 40
0.07825
  0
ARC
  5
24B
100
AcDbEntity
  8
ALL_ASSEMBLY_MEMBERS
100
AcDbCircle
 62
7
  6
CONTINUOUS
 10
3.6818571429
 20
4.9663237578
 40
0.0775
100
AcDbArc
 50
189.2817990867
 51
350.7182009133
  0
ARC
  5
24C
100
AcDbEntity
  8
ALL_ASSEMBLY_MEMBERS
100
AcDbCircle
 62
7
  6
CONTINUOUS
 10
3.6818571429
 20
4.9663237578
 40
0.0775
100
AcDbArc
 50
9.2817990867
 51
170.7182009133
  0
ARC
  5
24D
100
AcDbEntity
  8
ALL_ASSEMBLY_MEMBERS
100
AcDbCircle
 62
7
  6
CONTINUOUS
 10
3.6818571429
 20
4.9663237578
 40
0.0709803495
100
AcDbArc
 50
349.8570267564
 51
10.1429732436
  0
ARC
  5
24E
100
AcDbEntity
  8
ALL_ASSEMBLY_MEMBERS
100
AcDbCircle
 62
7
  6
CONTINUOUS
 10
3.6818571429
 20
4.9663237578
 40
0.0709803495
100
AcDbArc
 50
169.8570267564
 51
190.1429732436
  0
CIRCLE
  5
24F
100
AcDbEntity
  8
ALL_ASSEMBLY_MEMBERS
100
AcDbCircle
 62
7
  6
CONTINUOUS
 10
4.1741071429
 20
4.2788237578
 40
1.625
  0
CIRCLE
  5
250
100
AcDbEntity
  8
ALL_ASSEMBLY_MEMBERS
100
AcDbCircle
 62
7
  6
CONTINUOUS
 10
4.1741071429
 20
4.2788237578
 40
1.6057758339
  0
CIRCLE
  5
251
100
AcDbEntity
  8
ALL_ASSEMBLY_MEMBERS
100
AcDbCircle
 62
7
  6
CONTINUOUS
 10
4.1741071429
 20
4.2788237578
 40
1.5711090757
  0
CIRCLE
  5
252
100
AcDbEntity
  8
ALL_ASSEMBLY_MEMBERS
100
AcDbCircle
 62
7
  6
CONTINUOUS
 10
4.1741071429
 20
4.2788237578
 40
1.5414217454
  0
CIRCLE
  5
253
100
AcDbEntity
  8
ALL_ASSEMBLY_MEMBERS
100
AcDbCircle
 62
7
  6
CONTINUOUS
 10
4.1741071429
 20
4.2788237578
 40
0.71875
  0
ARC
  5
254
100
AcDbEntity
  8
ALL_ASSEMBLY_MEMBERS
100
AcDbCircle
 62
7
  6
CONTINUOUS
 10
4.1741071429
 20
4.2788237578
 40
0.51875
100
AcDbArc
 50
103.013704627
 51
196.986295373
  0
ARC
  5
255
100
AcDbEntity
  8
ALL_ASSEMBLY_MEMBERS
100
AcDbCircle
 62
7
  6
CONTINUOUS
 10
4.1741071429
 20
4.2788237578
 40
0.51875
100
AcDbArc
 50
223.013704627
 51
316.986295373
  0
ARC
  5
256
100
AcDbEntity
  8
ALL_ASSEMBLY_MEMBERS
100
AcDbCircle
 62
7
  6
CONTINUOUS
 10
4.1741071429
 20
4.2788237578
 40
0.51875
100
AcDbArc
 50
343.013704627
 51
76.986295373
  0
ARC
  5
257
100
AcDbEntity
  8
ALL_ASSEMBLY_MEMBERS
100
AcDbCircle
 62
7
  6
CONTINUOUS
 10
4.1741071429
 20
4.2788237578
 40
0.5
100
AcDbArc
 50
220.5701996913
 51
319.4275083531
  0
ARC
  5
258
100
AcDbEntity
  8
ALL_ASSEMBLY_MEMBERS
100
AcDbCircle
 62
7
  6
CONTINUOUS
 10
4.1741071429
 20
4.2788237578
 40
0.5
100
AcDbArc
 50
100.572412158
 51
199.4275012085
  0
ARC
  5
259
100
AcDbEntity
  8
ALL_ASSEMBLY_MEMBERS
100
AcDbCircle
 62
7
  6
CONTINUOUS
 10
4.1741071429
 20
4.2788237578
 40
0.5
100
AcDbArc
 50
340.5724184514
 51
79.4275095779
  0
ARC
  5
25A
100
AcDbEntity
  8
ALL_ASSEMBLY_MEMBERS
100
AcDbCircle
 62
7
  6
CONTINUOUS
 10
4.1741071429
 20
4.2788237578
 40
0.4925
100
AcDbArc
 50
340.3249195962
 51
79.6759362811
  0
ARC
  5
25B
100
AcDbEntity
  8
ALL_ASSEMBLY_MEMBERS
100
AcDbCircle
 62
7
  6
CONTINUOUS
 10
4.1741071429
 20
4.2788237578
 40
0.4925
100
AcDbArc
 50
220.326061193
 51
319.6740232899
  0
ARC
  5
25C
100
AcDbEntity
  8
ALL_ASSEMBLY_MEMBERS
100
AcDbCircle
 62
7
  6
CONTINUOUS
 10
4.1741071429
 20
4.2788237578
 40
0.4925
100
AcDbArc
 50
100.3239296392
 51
199.6749555653
  0
ARC
  5
25D
100
AcDbEntity
  8
ALL_ASSEMBLY_MEMBERS
100
AcDbCircle
 62
7
  6
CONTINUOUS
 10
4.1741071429
 20
4.2788237578
 40
0.485
100
AcDbArc
 50
340.3940303308
 51
79.5672788745
  0
ARC
  5
25E
100
AcDbEntity
  8
ALL_ASSEMBLY_MEMBERS
100
AcDbCircle
 62
7
  6
CONTINUOUS
 10
4.1741071429
 20
4.2788237578
 40
0.485
100
AcDbArc
 50
100.393927038
 51
199.56549364
  0
ARC
  5
25F
100
AcDbEntity
  8
ALL_ASSEMBLY_MEMBERS
100
AcDbCircle
 62
7
  6
CONTINUOUS
 10
4.1741071429
 20
4.2788237578
 40
0.485
100
AcDbArc
 50
220.3940248997
 51
319.5629341078
  0
ARC
  5
260
100
AcDbEntity
  8
ALL_ASSEMBLY_MEMBERS
100
AcDbCircle
 62
7
  6
CONTINUOUS
 10
4.1741071429
 20
4.2788237578
 40
0.40375
100
AcDbArc
 50
102.5199472498
 51
197.4786367361
  0
ARC
  5
261
100
AcDbEntity
  8
ALL_ASSEMBLY_MEMBERS
100
AcDbCircle
 62
7
  6
CONTINUOUS
 10
4.1741071429
 20
4.2788237578
 40
0.40375
100
AcDbArc
 50
222.5184011528
 51
317.4815988472
  0
ARC
  5
262
100
AcDbEntity
  8
ALL_ASSEMBLY_MEMBERS
100
AcDbCircle
 62
7
  6
CONTINUOUS
 10
4.1741071429
 20
4.2788237578
 40
0.40375
100
AcDbArc
 50
342.5213632639
 51
77.4800527502
  0
CIRCLE
  5
263
100
AcDbEntity
  8
ALL_ASSEMBLY_MEMBERS
100
AcDbCircle
 62
7
  6
CONTINUOUS
 10
4.1741071429
 20
4.2788237578
 40
0.1875
  0
ARC
  5
264
100
AcDbEntity
  8
ALL_ASSEMBLY_MEMBERS
100
AcDbCircle
 62
7
  6
CONTINUOUS
 10
4.4058112761
 20
4.2980474905
 40
0.0450001045
100
AcDbArc
 50
184.801342646
 51
240.0009353754
  0
ARC
  5
265
100
AcDbEntity
  8
ALL_ASSEMBLY_MEMBERS
100
AcDbCircle
 62
7
  6
CONTINUOUS
 10
4.6443942464
 20
3.8400134128
 40
0.1244641822
100
AcDbArc
 50
135.2829879429
 51
136.969407469
  0
ARC
  5
266
100
AcDbEntity
  8
ALL_ASSEMBLY_MEMBERS
100
AcDbCircle
 62
7
  6
CONTINUOUS
 10
4.3181207895
 20
4.9018485509
 40
0.1207027543
100
AcDbArc
 50
255.7265316184
 51
256.9770148794
  0
CIRCLE
  5
267
100
AcDbEntity
  8
ALL_ASSEMBLY_MEMBERS
100
AcDbCircle
 62
7
  6
CONTINUOUS
 10
4.6663571429
 20
4.9663237578
 40
0.07825
  0
ARC
  5
268
100
AcDbEntity
  8
ALL_ASSEMBLY_MEMBERS
100
AcDbCircle
 62
7
  6
CONTINUOUS
 10
4.6663571429
 20
4.9663237578
 40
0.0775
100
AcDbArc
 50
189.2817990867
 51
350.7182009133
  0
ARC
  5
269
100
AcDbEntity
  8
ALL_ASSEMBLY_MEMBERS
100
AcDbCircle
 62
7
  6
CONTINUOUS
 10
4.6663571429
 20
4.9663237578
 40
0.0775
100
AcDbArc
 50
9.2817990867
 51
170.7182009133
  0
ARC
  5
26A
100
AcDbEntity
  8
ALL_ASSEMBLY_MEMBERS
100
AcDbCircle
 62
7
  6
CONTINUOUS
 10
4.6663571429
 20
4.9663237578
 40
0.0709803495
100
AcDbArc
 50
349.8570267564
 51
10.1429732436
  0
ARC
  5
26B
100
AcDbEntity
  8
ALL_ASSEMBLY_MEMBERS
100
AcDbCircle
 62
7
  6
CONTINUOUS
 10
4.6663571429
 20
4.9663237578
 40
0.0709803495
100
AcDbArc
 50
169.8570267564
 51
190.1429732436
  0
ARC
  5
26C
100
AcDbEntity
  8
ALL_ASSEMBLY_MEMBERS
100
AcDbCircle
 62
7
  6
CONTINUOUS
 10
4.3066078387
 20
4.4698735246
 40
0.0450002365
100
AcDbArc
 50
179.9989425667
 51
235.1594883624
  0
SPLINE
  5
26D
100
AcDbEntity
  8
ALL_ASSEMBLY_MEMBERS
100
AcDbSpline
 62
7
  6
CONTINUOUS
 70
0
 71
3
 72
24
 73
20
 74
0
 42
0.0000001
 43
0.0000001
 44
0.0000000001
 40
0.0
 40
0.0
 40
0.0
 40
0.0
 40
0.0448611743
 40
0.0928676309
 40
0.1436468672
 40
0.1969066064
 40
0.3099786259
 40
0.4308044369
 40
0.4939320074
 40
0.5588687293
 40
0.6257003261
 40
0.6598847197
 40
0.6946269942
 40
0.7659923985
 40
0.8027789884
 40
0.8404113644
 40
0.9185022834
 40
0.9590265178
 40
1.0
 40
1.0
 40
1.0
 40
1.0
 10
4.2445568409
 20
4.7537504982
 30
0.0
 10
4.2434867569
 20
4.7544989897
 30
0.0
 10
4.2413161921
 20
4.7561124795
 30
0.0
 10
4.2380609989
 20
4.7587380519
 30
0.0
 10
4.2346952471
 20
4.7616128533
 30
0.0
 10
4.2299705199
 20
4.7658107284
 30
0.0
 10
4.2238289501
 20
4.7714816154
 30
0.0
 10
4.2174928248
 20
4.7773647393
 30
0.0
 10
4.2121113975
 20
4.7822159672
 30
0.0
 10
4.2078311484
 20
4.785940181
 30
0.0
 10
4.2041026004
 20
4.7890133377
 30
0.0
 10
4.2009765492
 20
4.7914315659
 30
0.0
 10
4.1976866296
 20
4.7938513788
 30
0.0
 10
4.1942188697
 20
4.7961568073
 30
0.0
 10
4.1905314857
 20
4.7982620873
 30
0.0
 10
4.1865500765
 20
4.8002277814
 30
0.0
 10
4.1822487538
 20
4.8017976562
 30
0.0
 10
4.1776744891
 20
4.8026588808
 30
0.0
 10
4.1752998535
 20
4.8028182553
 30
0.0
 10
4.1741071429
 20
4.8028182434
 30
0.0
  0
SPLINE
  5
26E
100
AcDbEntity
  8
ALL_ASSEMBLY_MEMBERS
100
AcDbSpline
 62
7
  6
CONTINUOUS
 70
0
 71
3
 72
22
 73
18
 74
0
 42
0.0000001
 43
0.0000001
 44
0.0000000001
 40
0.0
 40
0.0
 40
0.0
 40
0.0
 40
0.0708792893
 40
0.1061716729
 40
0.141273378
 40
0.2107741594
 40
0.2792006989
 40
0.3464805437
 40
0.4126050109
 40
0.5413939465
 40
0.665430179
 40
0.7255127208
 40
0.7841459945
 40
0.8411706788
 40
0.8963980614
 40
0.9495101087
 40
1.0
 40
1.0
 40
1.0
 40
1.0
 10
3.7082858237
 20
4.0098816938
 30
0.0
 10
3.7097237256
 20
4.0073899139
 30
0.0
 10
3.7120319401
 20
4.003743844
 30
0.0
 10
3.7153708413
 20
3.9990811143
 30
0.0
 10
3.7188416667
 20
3.9945858263
 30
0.0
 10
3.7234034169
 20
3.9892399759
 30
0.0
 10
3.7291430326
 20
3.9832002529
 30
0.0
 10
3.7350235794
 20
3.977494431
 30
0.0
 10
3.7428836682
 20
3.9703182884
 30
0.0
 10
3.7527137058
 20
3.9618910415
 30
0.0
 10
3.7624916073
 20
3.9537861042
 30
0.0
 10
3.7700621796
 20
3.9474798752
 30
0.0
 10
3.7755140589
 20
3.9428799877
 30
0.0
 10
3.7807626469
 20
3.9383452627
 30
0.0
 10
3.7857625849
 20
3.9338666954
 30
0.0
 10
3.7904532504
 20
3.929443112
 30
0.0
 10
3.7934040634
 20
3.9264448222
 30
0.0
 10
3.7948020435
 20
3.924946372
 30
0.0
  0
SPLINE
  5
26F
100
AcDbEntity
  8
ALL_ASSEMBLY_MEMBERS
100
AcDbSpline
 62
7
  6
CONTINUOUS
 70
0
 71
3
 72
31
 73
27
 74
0
 42
0.0000001
 43
0.0000001
 44
0.0000000001
 40
0.0
 40
0.0
 40
0.0
 40
0.0
 40
0.0514515821
 40
0.102276883
 40
0.1994673639
 40
0.2454154522
 40
0.2895408506
 40
0.3319285875
 40
0.3726613216
 40
0.4496899876
 40
0.521550109
 40
0.5557614017
 40
0.5889105961
 40
0.621039929
 40
0.6521793757
 40
0.711569667
 40
0.7671256733
 40
0.818706218
 40
0.8660244853
 40
0.908550143
 40
0.9278351923
 40
0.9456498648
 40
0.9618694514
 40
0.9763879993
 40
0.9891193021
 40
1.0
 40
1.0
 40
1.0
 40
1.0
 10
4.3949436208
 20
4.1513237578
 30
0.0
 10
4.3939571396
 20
4.1496153207
 30
0.0
 10
4.3918634492
 20
4.1462939668
 30
0.0
 10
4.3873190677
 20
4.1401359197
 30
0.0
 10
4.3822632693
 20
4.1346432036
 30
0.0
 10
4.3769086549
 20
4.1298550413
 30
0.0
 10
4.3729244455
 20
4.1267002443
 30
0.0
 10
4.3689371342
 20
4.1238847662
 30
0.0
 10
4.3637480741
 20
4.1205974132
 30
0.0
 10
4.3573398593
 20
4.1171416053
 30
0.0
 10
4.3509075429
 20
4.1143115073
 30
0.0
 10
4.3459098813
 20
4.1124332044
 30
0.0
 10
4.3422960949
 20
4.1112094133
 30
0.0
 10
4.3387583518
 20
4.1101341882
 30
0.0
 10
4.3342183417
 20
4.1089042582
 30
0.0
 10
4.3287512039
 20
4.1076712417
 30
0.0
 10
4.3224534789
 20
4.1066012817
 30
0.0
 10
4.3165679104
 20
4.1059189937
 30
0.0
 10
4.3111534692
 20
4.105578862
 30
0.0
 10
4.3069659234
 20
4.1055619359
 30
0.0
 10
4.3039160612
 20
4.1057155173
 30
0.0
 10
4.3018796231
 20
4.1059041055
 30
0.0
 10
4.3000362064
 20
4.1061707456
 30
0.0
 10
4.2984040467
 20
4.1065166829
 30
0.0
 10
4.2970032048
 20
4.1069415169
 30
0.0
 10
4.2961718523
 20
4.1073118745
 30
0.0
 10
4.2958105848
 20
4.1075205307
 30
0.0
  0
SPLINE
  5
270
100
AcDbEntity
  8
ALL_ASSEMBLY_MEMBERS
100
AcDbSpline
 62
7
  6
CONTINUOUS
 70
0
 71
3
 72
26
 73
22
 74
0
 42
0.0000001
 43
0.0000001
 44
0.0000000001
 40
0.0
 40
0.0
 40
0.0
 40
0.0
 40
0.0448575302
 40
0.0928788216
 40
0.1436608342
 40
0.1969232393
 40
0.3099949428
 40
0.4308185345
 40
0.4939431534
 40
0.5588792107
 40
0.5920484258
 40
0.6257103793
 40
0.6598933079
 40
0.6946330473
 40
0.7299798907
 40
0.7660074179
 40
0.8027905294
 40
0.8404212563
 40
0.9185079936
 40
0.9590306149
 40
1.0
 40
1.0
 40
1.0
 40
1.0
 10
4.550180916
 20
3.9803491594
 30
0.0
 10
4.5513642331
 20
3.9809012965
 30
0.0
 10
4.5538471563
 20
3.9819744756
 30
0.0
 10
4.5577489795
 20
3.9834810072
 30
0.0
 10
4.5619219213
 20
3.9849592355
 30
0.0
 10
4.5679201768
 20
3.9869515516
 30
0.0
 10
4.5759021884
 20
3.9894349639
 30
0.0
 10
4.5841650565
 20
3.9919810379
 30
0.0
 10
4.5910571998
 20
3.9942151008
 30
0.0
 10
4.5954958225
 20
3.9957416428
 30
0.0
 10
4.5990978777
 20
3.9970603422
 30
0.0
 10
4.6018414289
 20
3.9981188822
 30
0.0
 10
4.6046050914
 20
3.999250722
 30
0.0
 10
4.6073855589
 20
4.0004689726
 30
0.0
 10
4.6101746505
 20
4.0017981357
 30
0.0
 10
4.612964532
 20
4.0032589286
 30
0.0
 10
4.6157424797
 20
4.0048811004
 30
0.0
 10
4.6194351715
 20
4.0073462914
 30
0.0
 10
4.6229453741
 20
4.0102862453
 30
0.0
 10
4.6259780343
 20
4.0138170386
 30
0.0
 10
4.6273033846
 20
4.0157936785
 30
0.0
 10
4.6278996788
 20
4.016826515
 30
0.0
  0
SPLINE
  5
271
100
AcDbEntity
  8
ALL_ASSEMBLY_MEMBERS
100
AcDbSpline
 62
7
  6
CONTINUOUS
 70
0
 71
3
 72
22
 73
18
 74
0
 42
0.0000001
 43
0.0000001
 44
0.0000000001
 40
0.0
 40
0.0
 40
0.0
 40
0.0
 40
0.0878682204
 40
0.1659782374
 40
0.2343093822
 40
0.2937985439
 40
0.3461065813
 40
0.39352364
 40
0.4389890842
 40
0.4852217659
 40
0.5341837983
 40
0.587115143
 40
0.6446461393
 40
0.7069167068
 40
0.7737852301
 40
0.8450930818
 40
1.0
 40
1.0
 40
1.0
 40
1.0
 10
4.5459923391
 20
3.9630800236
 30
0.0
 10
4.545350606
 20
3.9634514033
 30
0.0
 10
4.5441618128
 20
3.9641951616
 30
0.0
 10
4.5425847738
 20
3.9653933529
 30
0.0
 10
4.5413334092
 20
3.9666068332
 30
0.0
 10
4.5404142537
 20
3.9678267751
 30
0.0
 10
4.5398249284
 20
3.9690462201
 30
0.0
 10
4.5395719539
 20
3.9702590648
 30
0.0
 10
4.5396434726
 20
3.9714441071
 30
0.0
 10
4.540006803
 20
3.9725849046
 30
0.0
 10
4.5406267856
 20
3.9736783371
 30
0.0
 10
4.5414748128
 20
3.9747284726
 30
0.0
 10
4.5425271463
 20
3.9757410957
 30
0.0
 10
4.5437627653
 20
3.9767209139
 30
0.0
 10
4.5451627776
 20
3.9776722043
 30
0.0
 10
4.5472878971
 20
3.9789391487
 30
0.0
 10
4.5489963068
 20
3.979796625
 30
0.0
 10
4.550180916
 20
3.9803491594
 30
0.0
  0
SPLINE
  5
272
100
AcDbEntity
  8
ALL_ASSEMBLY_MEMBERS
100
AcDbSpline
 62
7
  6
CONTINUOUS
 70
0
 71
3
 72
27
 73
23
 74
0
 42
0.0000001
 43
0.0000001
 44
0.0000000001
 40
0.0
 40
0.0
 40
0.0
 40
0.0
 40
0.01087919
 40
0.0236221811
 40
0.0381760556
 40
0.0544144225
 40
0.0722212929
 40
0.0915038243
 40
0.1340809438
 40
0.1813959215
 40
0.233000592
 40
0.2885622344
 40
0.3479648789
 40
0.4785256316
 40
0.6272966728
 40
0.6680271494
 40
0.7104091686
 40
0.7545339251
 40
0.8004887536
 40
0.8976962147
 40
0.9485380854
 40
1.0
 40
1.0
 40
1.0
 40
1.0
 10
4.0866061195
 20
4.4698775794
 30
0.0
 10
4.086605727
 20
4.470294617
 30
0.0
 10
4.0866995957
 20
4.4712000591
 30
0.0
 10
4.0870325534
 20
4.4726270937
 30
0.0
 10
4.0875529464
 20
4.4742145269
 30
0.0
 10
4.0882450186
 20
4.4759451367
 30
0.0
 10
4.0890987982
 20
4.4778033687
 30
0.0
 10
4.0904907086
 20
4.4805224293
 30
0.0
 10
4.0926027887
 20
4.4841392032
 30
0.0
 10
4.0956028961
 20
4.4886610508
 30
0.0
 10
4.0991395457
 20
4.4934142252
 30
0.0
 10
4.1032131219
 20
4.4983351634
 30
0.0
 10
4.1096033788
 20
4.5052507223
 30
0.0
 10
4.1192500398
 20
4.5139921824
 30
0.0
 10
4.1294686716
 20
4.5208960502
 30
0.0
 10
4.1373441991
 20
4.5250230267
 30
0.0
 10
4.1417751067
 20
4.5270673627
 30
0.0
 10
4.1464982896
 20
4.5289396977
 30
0.0
 10
4.1533214874
 20
4.5311826103
 30
0.0
 10
4.1606060175
 20
4.5328146179
 30
0.0
 10
4.1682111178
 20
4.5336708589
 30
0.0
 10
4.1721344255
 20
4.5338236506
 30
0.0
 10
4.1741071429
 20
4.5338237578
 30
0.0
  0
SPLINE
  5
273
100
AcDbEntity
  8
ALL_ASSEMBLY_MEMBERS
100
AcDbSpline
 62
7
  6
CONTINUOUS
 70
0
 71
3
 72
25
 73
21
 74
0
 42
0.0000001
 43
0.0000001
 44
0.0000000001
 40
0.0
 40
0.0
 40
0.0
 40
0.0
 40
0.0409708777
 40
0.0815319735
 40
0.1211048729
 40
0.1597199168
 40
0.2341247392
 40
0.2701516664
 40
0.3054998433
 40
0.3402340403
 40
0.3744096865
 40
0.4412272942
 40
0.5061503116
 40
0.5692647111
 40
0.6900673531
 40
0.8031171
 40
0.8563667285
 40
0.9071376531
 40
0.9551464251
 40
1.0
 40
1.0
 40
1.0
 40
1.0
 10
4.6278996788
 20
4.016826515
 30
0.0
 10
4.6284960663
 20
4.0178594098
 30
0.0
 10
4.6295444257
 20
4.0199972741
 30
0.0
 10
4.6307142427
 20
4.0233305859
 30
0.0
 10
4.6314960107
 20
4.0267043807
 30
0.0
 10
4.6320969639
 20
4.0311100485
 30
0.0
 10
4.6322313385
 20
4.0354590199
 30
0.0
 10
4.6320507586
 20
4.0396993453
 30
0.0
 10
4.6318069476
 20
4.0427793868
 30
0.0
 10
4.6314739264
 20
4.0457965005
 30
0.0
 10
4.6309396763
 20
4.0497117189
 30
0.0
 10
4.6301447545
 20
4.0544768927
 30
0.0
 10
4.6290585877
 20
4.0600447658
 30
0.0
 10
4.6275483264
 20
4.0671298427
 30
0.0
 10
4.6256217108
 20
4.0755575029
 30
0.0
 10
4.6237817727
 20
4.0837106479
 30
0.0
 10
4.6225085225
 20
4.0899004715
 30
0.0
 10
4.6217020355
 20
4.0942525478
 30
0.0
 10
4.6210559533
 20
4.0983842923
 30
0.0
 10
4.6207439707
 20
4.1010708091
 30
0.0
 10
4.620630614
 20
4.1023716157
 30
0.0
  0
SPLINE
  5
274
100
AcDbEntity
  8
ALL_ASSEMBLY_MEMBERS
100
AcDbSpline
 62
7
  6
CONTINUOUS
 70
0
 71
3
 72
20
 73
16
 74
0
 42
0.0000001
 43
0.0000001
 44
0.0000000001
 40
0.0
 40
0.0
 40
0.0
 40
0.0
 40
0.0516756531
 40
0.1055346153
 40
0.1612576203
 40
0.218619541
 40
0.3375917225
 40
0.461493481
 40
0.5898917539
 40
0.655742238
 40
0.7226930746
 40
0.7907353847
 40
0.8597870762
 40
0.9296633624
 40
1.0
 40
1.0
 40
1.0
 40
1.0
 10
4.5559511693
 20
3.9275871233
 30
0.0
 10
4.5573813106
 20
3.9290339141
 30
0.0
 10
4.5603644979
 20
3.9319270237
 30
0.0
 10
4.5650475217
 20
3.9362137973
 30
0.0
 10
4.5699864988
 20
3.9405501559
 30
0.0
 10
4.5769359277
 20
3.9464802153
 30
0.0
 10
4.5860282654
 20
3.9540324032
 30
0.0
 10
4.5972660947
 20
3.9633775534
 30
0.0
 10
4.6067436983
 20
3.9715693257
 30
0.0
 10
4.6142994028
 20
3.9785457123
 30
0.0
 10
4.619941237
 20
3.984087486
 30
0.0
 10
4.6254393887
 20
3.9899475608
 30
0.0
 10
4.6306962557
 20
3.9961789852
 30
0.0
 10
4.6355965098
 20
4.002809096
 30
0.0
 10
4.6385444105
 20
4.0074834506
 30
0.0
 10
4.639928462
 20
4.0098816938
 30
0.0
  0
SPLINE
  5
275
100
AcDbEntity
  8
ALL_ASSEMBLY_MEMBERS
100
AcDbSpline
 62
7
  6
CONTINUOUS
 70
0
 71
3
 72
22
 73
18
 74
0
 42
0.0000001
 43
0.0000001
 44
0.0000000001
 40
0.0
 40
0.0
 40
0.0
 40
0.0
 40
0.1549109404
 40
0.2262181371
 40
0.2930767516
 40
0.3553316987
 40
0.4128491838
 40
0.4657700695
 40
0.5147242341
 40
0.5609444969
 40
0.6064018107
 40
0.6538333362
 40
0.7061481182
 40
0.7656344959
 40
0.8339967479
 40
0.912128884
 40
1.0
 40
1.0
 40
1.0
 40
1.0
 10
4.620630614
 20
4.1023716157
 30
0.0
 10
4.6205167682
 20
4.1036740954
 30
0.0
 10
4.6204051167
 20
4.1055827978
 30
0.0
 10
4.6204398264
 20
4.1080571533
 30
0.0
 10
4.6205638373
 20
4.1097453772
 30
0.0
 10
4.6207948136
 20
4.1113053358
 30
0.0
 10
4.6211457466
 20
4.1127229359
 30
0.0
 10
4.6216312893
 20
4.1139823897
 30
0.0
 10
4.6222682323
 20
4.115066035
 30
0.0
 10
4.6230745545
 20
4.1159510923
 30
0.0
 10
4.6240655677
 20
4.1166053194
 30
0.0
 10
4.6252431885
 20
4.1169914315
 30
0.0
 10
4.626594261
 20
4.117090837
 30
0.0
 10
4.6281110366
 20
4.1169047802
 30
0.0
 10
4.6297880668
 20
4.1164264099
 30
0.0
 10
4.6316149694
 20
4.1156592572
 30
0.0
 10
4.6328539135
 20
4.1150013088
 30
0.0
 10
4.6334965084
 20
4.1146310551
 30
0.0
  0
SPLINE
  5
276
100
AcDbEntity
  8
ALL_ASSEMBLY_MEMBERS
100
AcDbSpline
 62
7
  6
CONTINUOUS
 70
0
 71
3
 72
27
 73
23
 74
0
 42
0.0000001
 43
0.0000001
 44
0.0000000001
 40
0.0
 40
0.0
 40
0.0
 40
0.0
 40
0.0409635212
 40
0.0815013877
 40
0.1210616008
 40
0.1596704692
 40
0.1973110669
 40
0.2340857924
 40
0.27011246
 40
0.3054578573
 40
0.3401910591
 40
0.3743672679
 40
0.4411865487
 40
0.506107728
 40
0.5692230408
 40
0.6305406046
 40
0.6900260474
 40
0.8030749124
 40
0.8563271857
 40
0.9071298429
 40
0.9551536699
 40
1.0
 40
1.0
 40
1.0
 40
1.0
 10
4.1741071429
 20
4.8028182434
 30
0.0
 10
4.1729146109
 20
4.8028182668
 30
0.0
 10
4.1705397819
 20
4.8026579723
 30
0.0
 10
4.1670691435
 20
4.8020047276
 30
0.0
 10
4.1637580008
 20
4.8009940217
 30
0.0
 10
4.1606335196
 20
4.7997180298
 30
0.0
 10
4.1576809106
 20
4.7982608427
 30
0.0
 10
4.1548861462
 20
4.7966681062
 30
0.0
 10
4.1522278973
 20
4.7949794535
 30
0.0
 10
4.149681755
 20
4.7932295427
 30
0.0
 10
4.1472355174
 20
4.7914322714
 30
0.0
 10
4.1441121893
 20
4.7890114708
 30
0.0
 10
4.1403816301
 20
4.7859417025
 30
0.0
 10
4.1361038609
 20
4.7822155562
 30
0.0
 10
4.1320080758
 20
4.7785258769
 30
0.0
 10
4.1280680844
 20
4.7749002876
 30
0.0
 10
4.1230749593
 20
4.7702726013
 30
0.0
 10
4.1182463569
 20
4.7658122653
 30
0.0
 10
4.1135212056
 20
4.7616142969
 30
0.0
 10
4.1101539827
 20
4.7587390878
 30
0.0
 10
4.1068975805
 20
4.7561131781
 30
0.0
 10
4.1047268148
 20
4.7544994687
 30
0.0
 10
4.1036574448
 20
4.7537504982
 30
0.0
  0
SPLINE
  5
277
100
AcDbEntity
  8
ALL_ASSEMBLY_MEMBERS
100
AcDbSpline
 62
7
  6
CONTINUOUS
 70
0
 71
3
 72
21
 73
17
 74
0
 42
0.0000001
 43
0.0000001
 44
0.0000000001
 40
0.0
 40
0.0
 40
0.0
 40
0.0
 40
0.0708903132
 40
0.1061896893
 40
0.141296894
 40
0.2108101409
 40
0.2792455547
 40
0.4126445034
 40
0.5414364021
 40
0.6654740176
 40
0.7255551214
 40
0.7841952335
 40
0.841223295
 40
0.8964135471
 40
0.9494888517
 40
1.0
 40
1.0
 40
1.0
 40
1.0
 10
4.639928462
 20
4.0098816938
 30
0.0
 10
4.6413677262
 20
4.012373151
 30
0.0
 10
4.64337128
 20
4.016195874
 30
0.0
 10
4.6457402847
 20
4.0214195703
 30
0.0
 10
4.6478980555
 20
4.0266739767
 30
0.0
 10
4.6502470619
 20
4.0332984372
 30
0.0
 10
4.6533688168
 20
4.0438641738
 30
0.0
 10
4.65639081
 20
4.056948981
 30
0.0
 10
4.6592764594
 20
4.072358231
 30
0.0
 10
4.6614068551
 20
4.0848788888
 30
0.0
 10
4.6630826588
 20
4.0945884273
 30
0.0
 10
4.664340786
 20
4.1016100149
 30
0.0
 10
4.6656435258
 20
4.1084215858
 30
0.0
 10
4.667021649
 20
4.1149880216
 30
0.0
 10
4.6685077827
 20
4.1212595977
 30
0.0
 10
4.6696275589
 20
4.1253138907
 30
0.0
 10
4.6702264984
 20
4.1272745988
 30
0.0
  0
SPLINE
  5
278
100
AcDbEntity
  8
ALL_ASSEMBLY_MEMBERS
100
AcDbSpline
 62
7
  6
CONTINUOUS
 70
0
 71
3
 72
22
 73
18
 74
0
 42
0.0000001
 43
0.0000001
 44
0.0000000001
 40
0.0
 40
0.0
 40
0.0
 40
0.0
 40
0.1549071269
 40
0.2262133003
 40
0.2930716051
 40
0.3553271329
 40
0.4128458334
 40
0.4657678291
 40
0.514722115
 40
0.5609412732
 40
0.6063952842
 40
0.6538185127
 40
0.706117651
 40
0.7655910412
 40
0.8339585325
 40
0.9121088359
 40
1.0
 40
1.0
 40
1.0
 40
1.0
 10
4.1036574448
 20
4.7537504982
 30
0.0
 10
4.1025864858
 20
4.7530007375
 30
0.0
 10
4.1009894765
 20
4.7519497816
 30
0.0
 10
4.0988294721
 20
4.7507427353
 30
0.0
 10
4.0973055491
 20
4.7500060402
 30
0.0
 10
4.0958392056
 20
4.7494260811
 30
0.0
 10
4.0944361574
 20
4.7490211451
 30
0.0
 10
4.0931027581
 20
4.74881181
 30
0.0
 10
4.0918459093
 20
4.7488214484
 30
0.0
 10
4.0906763464
 20
4.7490769949
 30
0.0
 10
4.0896143025
 20
4.7496077507
 30
0.0
 10
4.0886910283
 20
4.7504339576
 30
0.0
 10
4.0879291192
 20
4.7515536399
 30
0.0
 10
4.0873316559
 20
4.7529598492
 30
0.0
 10
4.0869075335
 20
4.7546513903
 30
0.0
 10
4.0866584326
 20
4.75661733
 30
0.0
 10
4.0866085866
 20
4.7580194764
 30
0.0
 10
4.0866078014
 20
4.7587612247
 30
0.0
  0
SPLINE
  5
279
100
AcDbEntity
  8
ALL_ASSEMBLY_MEMBERS
100
AcDbSpline
 62
7
  6
CONTINUOUS
 70
0
 71
3
 72
26
 73
22
 74
0
 42
0.0000001
 43
0.0000001
 44
0.0000000001
 40
0.0
 40
0.0
 40
0.0
 40
0.0
 40
0.040965115
 40
0.0815090044
 40
0.1210722163
 40
0.1596826631
 40
0.2340693554
 40
0.2700952079
 40
0.3054407822
 40
0.3401743357
 40
0.3743509294
 40
0.4411711465
 40
0.5060938473
 40
0.5692106422
 40
0.6305299116
 40
0.6900169025
 40
0.8030687721
 40
0.8563226104
 40
0.907127352
 40
0.9551525522
 40
1.0
 40
1.0
 40
1.0
 40
1.0
 10
3.7203146069
 20
4.016826515
 30
0.0
 10
3.7209108515
 20
4.0157937314
 30
0.0
 10
3.7222373274
 20
4.0138171942
 30
0.0
 10
3.724538456
 20
4.0111380256
 30
0.0
 10
3.7270693079
 20
4.0087754233
 30
0.0
 10
3.7305827139
 20
4.0060517393
 30
0.0
 10
3.7342815494
 20
4.0037616186
 30
0.0
 10
3.7380432547
 20
4.0017977224
 30
0.0
 10
3.740831912
 20
4.0004677767
 30
0.0
 10
3.7436113858
 20
3.9992479108
 30
0.0
 10
3.7472694196
 20
3.9977533482
 30
0.0
 10
3.7517931611
 20
3.9960576113
 30
0.0
 10
3.7571588908
 20
3.9942159783
 30
0.0
 10
3.7624020972
 20
3.9925137763
 30
0.0
 10
3.7675119152
 20
3.9909144696
 30
0.0
 10
3.7740161255
 20
3.9889041317
 30
0.0
 10
3.7802931628
 20
3.9869526437
 30
0.0
 10
3.7862912664
 20
3.9849595131
 30
0.0
 10
3.7904648828
 20
3.9834810173
 30
0.0
 10
3.7943671806
 20
3.9819738366
 30
0.0
 10
3.7968500627
 20
3.9809007627
 30
0.0
 10
3.7980333697
 20
3.9803491594
 30
0.0
  0
SPLINE
  5
27A
100
AcDbEntity
  8
ALL_ASSEMBLY_MEMBERS
100
AcDbSpline
 62
7
  6
CONTINUOUS
 70
0
 71
3
 72
21
 73
17
 74
0
 42
0.0000001
 43
0.0000001
 44
0.0000000001
 40
0.0
 40
0.0
 40
0.0
 40
0.0
 40
0.0513612679
 40
0.1049950651
 40
0.1605759768
 40
0.2178510379
 40
0.3367512422
 40
0.460688306
 40
0.5243833333
 40
0.5891960242
 40
0.6551233048
 40
0.7221660669
 40
0.7903167158
 40
0.8594929756
 40
0.9295104628
 40
1.0
 40
1.0
 40
1.0
 40
1.0
 10
4.2883614929
 20
4.7848718902
 30
0.0
 10
4.286384641
 20
4.7853738198
 30
0.0
 10
4.2823664537
 20
4.78649097
 30
0.0
 10
4.2762780728
 20
4.7883881556
 30
0.0
 10
4.2700104209
 20
4.7904933981
 30
0.0
 10
4.2613315251
 20
4.7935558719
 30
0.0
 10
4.2501509904
 20
4.7976825432
 30
0.0
 10
4.2387330927
 20
4.801902211
 30
0.0
 10
4.2292828375
 20
4.8052476989
 30
0.0
 10
4.221965975
 20
4.8077145274
 30
0.0
 10
4.2144692437
 20
4.810059441
 30
0.0
 10
4.2067758619
 20
4.8122097331
 30
0.0
 10
4.1988743817
 20
4.8140743105
 30
0.0
 10
4.1907671408
 20
4.8155395805
 30
0.0
 10
4.182488228
 20
4.8164878904
 30
0.0
 10
4.176906312
 20
4.8167083714
 30
0.0
 10
4.1741071429
 20
4.8167078858
 30
0.0
  0
SPLINE
  5
27B
100
AcDbEntity
  8
ALL_ASSEMBLY_MEMBERS
100
AcDbSpline
 62
7
  6
CONTINUOUS
 70
0
 71
3
 72
25
 73
21
 74
0
 42
0.0000001
 43
0.0000001
 44
0.0000000001
 40
0.0
 40
0.0
 40
0.0
 40
0.0
 40
0.0108836741
 40
0.0236242565
 40
0.0381693928
 40
0.0544082273
 40
0.0722337902
 40
0.0915276325
 40
0.134104686
 40
0.1814549837
 40
0.2330859827
 40
0.2886905359
 40
0.3481338262
 40
0.411450463
 40
0.4788554832
 40
0.627712803
 40
0.7108037008
 40
0.800810412
 40
0.8979021759
 40
1.0
 40
1.0
 40
1.0
 40
1.0
 10
4.0524022259
 20
4.1075210804
 30
0.0
 10
4.0520409314
 20
4.1073124833
 30
0.0
 10
4.0512098269
 20
4.1069411937
 30
0.0
 10
4.0498080222
 20
4.1065154967
 30
0.0
 10
4.0481738732
 20
4.1061710527
 30
0.0
 10
4.046328841
 20
4.1059043849
 30
0.0
 10
4.0442915127
 20
4.1057156027
 30
0.0
 10
4.0412398243
 20
4.1055613508
 30
0.0
 10
4.0370499519
 20
4.105580499
 30
0.0
 10
4.0316318853
 20
4.1059196366
 30
0.0
 10
4.0257433347
 20
4.1066049737
 30
0.0
 10
4.0194414914
 20
4.1076750807
 30
0.0
 10
4.0127693157
 20
4.1091826758
 30
0.0
 10
4.0057589876
 20
4.1111982103
 30
0.0
 10
3.995663173
 20
4.114806578
 30
0.0
 10
3.9852933176
 20
4.119859914
 30
0.0
 10
3.9750202219
 20
4.1267308132
 30
0.0
 10
3.967075864
 20
4.1334150034
 30
0.0
 10
3.9595519508
 20
4.1416004574
 30
0.0
 10
3.955227475
 20
4.1479345167
 30
0.0
 10
3.9532706649
 20
4.1513237578
 30
0.0
  0
SPLINE
  5
27C
100
AcDbEntity
  8
ALL_ASSEMBLY_MEMBERS
100
AcDbSpline
 62
7
  6
CONTINUOUS
 70
0
 71
3
 72
22
 73
18
 74
0
 42
0.0000001
 43
0.0000001
 44
0.0000000001
 40
0.0
 40
0.0
 40
0.0
 40
0.0
 40
0.1549301196
 40
0.2262475487
 40
0.293120921
 40
0.3553870842
 40
0.4129108336
 40
0.4658431967
 40
0.5148159895
 40
0.561039846
 40
0.6064937358
 40
0.6539290354
 40
0.7062053523
 40
0.7656504944
 40
0.8340379565
 40
0.9121572139
 40
1.0
 40
1.0
 40
1.0
 40
1.0
 10
3.7980333697
 20
3.9803491594
 30
0.0
 10
3.7992179113
 20
3.9797966338
 30
0.0
 10
3.8009262067
 20
3.9789391634
 30
0.0
 10
3.8030511758
 20
3.9776723142
 30
0.0
 10
3.8044510237
 20
3.976721233
 30
0.0
 10
3.8056863837
 20
3.9757416865
 30
0.0
 10
3.8067384649
 20
3.9747293478
 30
0.0
 10
3.8075864408
 20
3.9736794936
 30
0.0
 10
3.808206939
 20
3.9725866565
 30
0.0
 10
3.8085712101
 20
3.9714465037
 30
0.0
 10
3.8086431028
 20
3.9702615879
 30
0.0
 10
3.8083891944
 20
3.9690495058
 30
0.0
 10
3.8078025865
 20
3.9678298002
 30
0.0
 10
3.8068846595
 20
3.9666092113
 30
0.0
 10
3.8056319902
 20
3.9653973229
 30
0.0
 10
3.804056001
 20
3.9641980437
 30
0.0
 10
3.8028679293
 20
3.9634538222
 30
0.0
 10
3.8022266023
 20
3.9630824645
 30
0.0
  0
SPLINE
  5
27D
100
AcDbEntity
  8
ALL_ASSEMBLY_MEMBERS
100
AcDbSpline
 62
7
  6
CONTINUOUS
 70
0
 71
3
 72
27
 73
23
 74
0
 42
0.0000001
 43
0.0000001
 44
0.0000000001
 40
0.0
 40
0.0
 40
0.0
 40
0.0
 40
0.0108796351
 40
0.0236119288
 40
0.038138614
 40
0.0543676451
 40
0.0721824353
 40
0.0914587156
 40
0.1340054482
 40
0.1813192913
 40
0.2329097949
 40
0.2884708265
 40
0.3478683536
 40
0.411137666
 40
0.4784936742
 40
0.6272529402
 40
0.7103250311
 40
0.7544518052
 40
0.8004188042
 40
0.8976640502
 40
0.9485196917
 40
1.0
 40
1.0
 40
1.0
 40
1.0
 10
4.3833119426
 20
4.2590761153
 30
0.0
 10
4.3836732015
 20
4.258867672
 30
0.0
 10
4.3844096969
 20
4.2583332884
 30
0.0
 10
4.3854782971
 20
4.2573326976
 30
0.0
 10
4.3865938321
 20
4.2560914718
 30
0.0
 10
4.3877462207
 20
4.2546277234
 30
0.0
 10
4.388927704
 20
4.2529587926
 30
0.0
 10
4.3905867258
 20
4.2503950764
 30
0.0
 10
4.3926638269
 20
4.2467594197
 30
0.0
 10
4.3950782827
 20
4.2419011551
 30
0.0
 10
4.3974282206
 20
4.2364627985
 30
0.0
 10
4.3996519342
 20
4.2304745596
 30
0.0
 10
4.4016824002
 20
4.2239471641
 30
0.0
 10
4.4034426768
 20
4.2168732168
 30
0.0
 10
4.4053675306
 20
4.2063324137
 30
0.0
 10
4.4061807234
 20
4.1948313621
 30
0.0
 10
4.405487093
 20
4.1842579719
 30
0.0
 10
4.4045202713
 20
4.1776864371
 30
0.0
 10
4.4030512813
 20
4.1706533358
 30
0.0
 10
4.4008223136
 20
4.1635257171
 30
0.0
 10
4.3977604491
 20
4.1565082791
 30
0.0
 10
4.3959302852
 20
4.1530329617
 30
0.0
 10
4.3949436208
 20
4.1513237578
 30
0.0
  0
SPLINE
  5
27E
100
AcDbEntity
  8
ALL_ASSEMBLY_MEMBERS
100
AcDbSpline
 62
7
  6
CONTINUOUS
 70
0
 71
3
 72
22
 73
18
 74
0
 42
0.0000001
 43
0.0000001
 44
0.0000000001
 40
0.0
 40
0.0
 40
0.0
 40
0.0
 40
0.0708787383
 40
0.1061702423
 40
0.1412715837
 40
0.2107712978
 40
0.2791986777
 40
0.346479226
 40
0.4126048853
 40
0.5413943855
 40
0.6654306315
 40
0.7255133996
 40
0.7841468137
 40
0.8411714747
 40
0.8963979116
 40
0.9495097216
 40
1.0
 40
1.0
 40
1.0
 40
1.0
 10
4.1741071429
 20
4.8167078858
 30
0.0
 10
4.1712302695
 20
4.8167084821
 30
0.0
 10
4.1669186278
 20
4.8165326489
 30
0.0
 10
4.1612112113
 20
4.8159723919
 30
0.0
 10
4.1555828545
 20
4.8152142579
 30
0.0
 10
4.1486723602
 20
4.8139365824
 30
0.0
 10
4.1405720004
 20
4.8119857125
 30
0.0
 10
4.1326901834
 20
4.8097460676
 30
0.0
 10
4.1225453323
 20
4.806527031
 30
0.0
 10
4.1103320615
 20
4.8022274987
 30
0.0
 10
4.0984239862
 20
4.7978120772
 30
0.0
 10
4.0891773345
 20
4.7944088684
 30
0.0
 10
4.0824677552
 20
4.7919873608
 30
0.0
 10
4.0759163143
 20
4.7897092988
 30
0.0
 10
4.0695378264
 20
4.7876185611
 30
0.0
 10
4.0633615916
 20
4.7857681192
 30
0.0
 10
4.0592895879
 20
4.7847117673
 30
0.0
 10
4.0572928867
 20
4.7842503024
 30
0.0
  0
SPLINE
  5
27F
100
AcDbEntity
  8
ALL_ASSEMBLY_MEMBERS
100
AcDbSpline
 62
7
  6
CONTINUOUS
 70
0
 71
3
 72
30
 73
26
 74
0
 42
0.0000001
 43
0.0000001
 44
0.0000000001
 40
0.0
 40
0.0
 40
0.0
 40
0.0
 40
0.0514514754
 40
0.1022776145
 40
0.1994712086
 40
0.2454217849
 40
0.2895472412
 40
0.3319368236
 40
0.3726710554
 40
0.4496994559
 40
0.5215601515
 40
0.5889104608
 40
0.6210400905
 40
0.652179843
 40
0.711568791
 40
0.7671264535
 40
0.8187048748
 40
0.8660258572
 40
0.9085505374
 40
0.9278330266
 40
0.9456501349
 40
0.9618724946
 40
0.9763897819
 40
0.9891184565
 40
1.0
 40
1.0
 40
1.0
 40
1.0
 10
3.9532706649
 20
4.1513237578
 30
0.0
 10
3.9522843713
 20
4.1530322718
 30
0.0
 10
3.9504548661
 20
4.1565061301
 30
0.0
 10
3.9473939611
 20
4.1635207385
 30
0.0
 10
3.9451651156
 20
4.1706457417
 30
0.0
 10
3.9436956389
 20
4.1776771612
 30
0.0
 10
3.9429554814
 20
4.1827050824
 30
0.0
 10
3.9425111566
 20
4.18756604
 30
0.0
 10
3.9422585782
 20
4.1937035818
 30
0.0
 10
3.942469956
 20
4.200981341
 30
0.0
 10
3.943373955
 20
4.2092304404
 30
0.0
 10
3.9445576897
 20
4.2156979277
 30
0.0
 10
3.9456921939
 20
4.2205766227
 30
0.0
 10
3.9468968356
 20
4.2251233743
 30
0.0
 10
3.9485629159
 20
4.2304743908
 30
0.0
 10
3.9507848189
 20
4.2364633382
 30
0.0
 10
3.9531369103
 20
4.2419014773
 30
0.0
 10
3.9555494609
 20
4.2467605405
 30
0.0
 10
3.9576284035
 20
4.2503955458
 30
0.0
 10
3.9592865907
 20
4.2529597561
 30
0.0
 10
3.9604680132
 20
4.2546292409
 30
0.0
 10
3.9616205134
 20
4.2560926328
 30
0.0
 10
3.9627362526
 20
4.2573330327
 30
0.0
 10
3.9638047663
 20
4.2583333781
 30
0.0
 10
3.9645409739
 20
4.2588682904
 30
0.0
 10
3.9649022744
 20
4.2590769444
 30
0.0
  0
SPLINE
  5
280
100
AcDbEntity
  8
ALL_ASSEMBLY_MEMBERS
100
AcDbSpline
 62
7
  6
CONTINUOUS
 70
0
 71
3
 72
27
 73
23
 74
0
 42
0.0000001
 43
0.0000001
 44
0.0000000001
 40
0.0
 40
0.0
 40
0.0
 40
0.0
 40
0.0448525867
 40
0.0928682228
 40
0.1436442567
 40
0.1969005805
 40
0.3099592699
 40
0.4307687259
 40
0.4938857777
 40
0.5588135779
 40
0.5919785752
 40
0.625636174
 40
0.6598141314
 40
0.6945482243
 40
0.7298899519
 40
0.7659117644
 40
0.8026856052
 40
0.8403186589
 40
0.8789201663
 40
0.9184839267
 40
0.9590312491
 40
1.0
 40
1.0
 40
1.0
 40
1.0
 10
3.7275836717
 20
4.1023716157
 30
0.0
 10
3.7274701879
 20
4.1010708043
 30
0.0
 10
3.7271581392
 20
4.0983840334
 30
0.0
 10
3.7265119497
 20
4.0942518386
 30
0.0
 10
3.725705696
 20
4.0898990124
 30
0.0
 10
3.7244320181
 20
4.0837084358
 30
0.0
 10
3.7225918073
 20
4.0755543962
 30
0.0
 10
3.7206653443
 20
4.0671258365
 30
0.0
 10
3.7191542097
 20
4.0600403017
 30
0.0
 10
3.7182567412
 20
4.0554333212
 30
0.0
 10
3.7175978898
 20
4.0516546612
 30
0.0
 10
3.7171429852
 20
4.0487495489
 30
0.0
 10
3.7167408916
 20
4.0457904939
 30
0.0
 10
3.7164059945
 20
4.0427735798
 30
0.0
 10
3.7161628881
 20
4.0396938345
 30
0.0
 10
3.7160315839
 20
4.0365475944
 30
0.0
 10
3.7160485219
 20
4.033331299
 30
0.0
 10
3.7162623497
 20
4.0300460681
 30
0.0
 10
3.7167195278
 20
4.0267025146
 30
0.0
 10
3.7174999188
 20
4.023329482
 30
0.0
 10
3.7186696103
 20
4.0199966775
 30
0.0
 10
3.7197182284
 20
4.0178593905
 30
0.0
 10
3.7203146069
 20
4.016826515
 30
0.0
  0
SPLINE
  5
281
100
AcDbEntity
  8
ALL_ASSEMBLY_MEMBERS
100
AcDbSpline
 62
7
  6
CONTINUOUS
 70
0
 71
3
 72
22
 73
18
 74
0
 42
0.0000001
 43
0.0000001
 44
0.0000000001
 40
0.0
 40
0.0
 40
0.0
 40
0.0
 40
0.0878756865
 40
0.1659901563
 40
0.2343148491
 40
0.2938018615
 40
0.3461128063
 40
0.3935315565
 40
0.4389962598
 40
0.4852333866
 40
0.5342037404
 40
0.5871346407
 40
0.6446614429
 40
0.7069326751
 40
0.7738038911
 40
0.8451067148
 40
1.0
 40
1.0
 40
1.0
 40
1.0
 10
4.2616064787
 20
4.758756521
 30
0.0
 10
4.261605674
 20
4.7580150471
 30
0.0
 10
4.2615559634
 20
4.7566136171
 30
0.0
 10
4.2613068952
 20
4.7546487941
 30
0.0
 10
4.2608813638
 20
4.752958532
 30
0.0
 10
4.2602842403
 20
4.7515527728
 30
0.0
 10
4.2595227652
 20
4.7504327992
 30
0.0
 10
4.2585989125
 20
4.7496072984
 30
0.0
 10
4.2575367115
 20
4.7490770161
 30
0.0
 10
4.2563669726
 20
4.7488216508
 30
0.0
 10
4.2551100137
 20
4.7488119711
 30
0.0
 10
4.2537765847
 20
4.7490212672
 30
0.0
 10
4.2523735621
 20
4.749426299
 30
0.0
 10
4.2509073581
 20
4.7500066354
 30
0.0
 10
4.2493836956
 20
4.7507435898
 30
0.0
 10
4.2472241644
 20
4.7519504141
 30
0.0
 10
4.2456275359
 20
4.7530010061
 30
0.0
 10
4.2445568409
 20
4.7537504982
 30
0.0
  0
SPLINE
  5
282
100
AcDbEntity
  8
ALL_ASSEMBLY_MEMBERS
100
AcDbSpline
 62
7
  6
CONTINUOUS
 70
0
 71
3
 72
22
 73
18
 74
0
 42
0.0000001
 43
0.0000001
 44
0.0000000001
 40
0.0
 40
0.0
 40
0.0
 40
0.0
 40
0.0507996592
 40
0.1040799613
 40
0.1594047568
 40
0.2165147713
 40
0.3352993635
 40
0.4593014385
 40
0.5230787907
 40
0.5879987195
 40
0.6540555385
 40
0.7212521109
 40
0.7895832518
 40
0.8589736774
 40
0.8940164074
 40
0.9292480116
 40
1.0
 40
1.0
 40
1.0
 40
1.0
 10
3.6782355426
 20
4.126452563
 30
0.0
 10
3.678819162
 20
4.1244901477
 30
0.0
 10
3.6799126225
 20
4.1204388894
 30
0.0
 10
3.681369793
 20
4.1141811411
 30
0.0
 10
3.6827255368
 20
4.1076409339
 30
0.0
 10
3.6844608582
 20
4.0984848761
 30
0.0
 10
3.686517327
 20
4.0865741453
 30
0.0
 10
3.688593605
 20
4.0743944355
 30
0.0
 10
3.6904342919
 20
4.0643774539
 30
0.0
 10
3.691964788
 20
4.0566786055
 30
0.0
 10
3.6936905972
 20
4.0488795074
 30
0.0
 10
3.695685762
 20
4.0410021807
 30
0.0
 10
3.6980382347
 20
4.0330825989
 30
0.0
 10
3.7003755369
 20
4.026518932
 30
0.0
 10
3.7025202507
 20
4.0213134742
 30
0.0
 10
3.7048724468
 20
4.0161384277
 30
0.0
 10
3.7068595167
 20
4.0123508346
 30
0.0
 10
3.7082858237
 20
4.0098816938
 30
0.0
  0
SPLINE
  5
283
100
AcDbEntity
  8
ALL_ASSEMBLY_MEMBERS
100
AcDbSpline
 62
7
  6
CONTINUOUS
 70
0
 71
3
 72
27
 73
23
 74
0
 42
0.0000001
 43
0.0000001
 44
0.0000000001
 40
0.0
 40
0.0
 40
0.0
 40
0.0
 40
0.0514819193
 40
0.1023378082
 40
0.1995545182
 40
0.2455030706
 40
0.2896251256
 40
0.3726891128
 40
0.5214558884
 40
0.5888143006
 40
0.6520861815
 40
0.7114870565
 40
0.7670524117
 40
0.8186481668
 40
0.8659665354
 40
0.9085169497
 40
0.9277986106
 40
0.9456174627
 40
0.961847316
 40
0.9763779115
 40
0.9891164183
 40
1.0
 40
1.0
 40
1.0
 40
1.0
 10
4.1741071429
 20
4.5338237578
 30
0.0
 10
4.1760807541
 20
4.5338236726
 30
0.0
 10
4.1800056321
 20
4.5336708633
 30
0.0
 10
4.1876127917
 20
4.532813784
 30
0.0
 10
4.1948985215
 20
4.531181864
 30
0.0
 10
4.2017217692
 20
4.5289374137
 30
0.0
 10
4.2078953273
 20
4.5264897627
 30
0.0
 10
4.2173990653
 20
4.5218043842
 30
0.0
 10
4.2269532498
 20
4.5153503031
 30
0.0
 10
4.2351201396
 20
4.5084129958
 30
0.0
 10
4.2403667125
 20
4.5033516125
 30
0.0
 10
4.2450048567
 20
4.4983293779
 30
0.0
 10
4.2490794857
 20
4.4934092377
 30
0.0
 10
4.252614784
 20
4.4886546499
 30
0.0
 10
4.2556153813
 20
4.4841341945
 30
0.0
 10
4.257725613
 20
4.4805170625
 30
0.0
 10
4.2591168694
 20
4.4777981514
 30
0.0
 10
4.2599718233
 20
4.4759402129
 30
0.0
 10
4.2606632042
 20
4.4742099455
 30
0.0
 10
4.2611806415
 20
4.4726229088
 30
0.0
 10
4.2615134974
 20
4.4711967723
 30
0.0
 10
4.2616082376
 20
4.4702913614
 30
0.0
 10
4.2616080919
 20
4.4698741284
 30
0.0
  0
SPLINE
  5
284
100
AcDbEntity
  8
ALL_ASSEMBLY_MEMBERS
100
AcDbSpline
 62
7
  6
CONTINUOUS
 70
0
 71
3
 72
22
 73
18
 74
0
 42
0.0000001
 43
0.0000001
 44
0.0000000001
 40
0.0
 40
0.0
 40
0.0
 40
0.0
 40
0.0878711234
 40
0.1659734758
 40
0.234293805
 40
0.2937894395
 40
0.3460956071
 40
0.39350758
 40
0.438976169
 40
0.4852097144
 40
0.5341691726
 40
0.5871037648
 40
0.644640151
 40
0.706912563
 40
0.773780692
 40
0.8450902625
 40
1.0
 40
1.0
 40
1.0
 40
1.0
 10
3.7147233826
 20
4.1146340366
 30
0.0
 10
3.7153658722
 20
4.1150040935
 30
0.0
 10
3.7166042467
 20
4.1156617704
 30
0.0
 10
3.7184302551
 20
4.1164283662
 30
0.0
 10
3.7201068093
 20
4.1169047757
 30
0.0
 10
3.721622711
 20
4.1170910428
 30
0.0
 10
3.7229734424
 20
4.1169917786
 30
0.0
 10
3.724150041
 20
4.1166039717
 30
0.0
 10
3.7251404793
 20
4.1159495742
 30
0.0
 10
3.7259468637
 20
4.115064643
 30
0.0
 10
3.7265837737
 20
4.1139810171
 30
0.0
 10
3.7270690937
 20
4.1127214986
 30
0.0
 10
3.727419827
 20
4.1113038007
 30
0.0
 10
3.727650621
 20
4.1097438323
 30
0.0
 10
3.727774516
 20
4.1080557872
 30
0.0
 10
3.727809139
 20
4.1055819734
 30
0.0
 10
3.72769749
 20
4.1036737521
 30
0.0
 10
3.7275836717
 20
4.1023716157
 30
0.0
  0
ENDSEC
  0
SECTION
  2
OBJECTS
  0
DICTIONARY
  5
C
100
AcDbDictionary
280
0
281
1
  3
ACAD_GROUP
350
D
  3
ACAD_MLINESTYLE
350
17
  3
ACAD_LAYOUT
350
1A
  3
ACAD_PLOTSETTINGS
350
19
  3
ACAD_PLOTSTYLENAME
350
E
  0
DICTIONARY
  5
D
102
{ACAD_REACTORS
330
C
102
}
100
AcDbDictionary
280
0
281
1
  0
ACDBDICTIONARYWDFLT
  5
E
102
{ACAD_REACTORS
330
C
102
}
100
AcDbDictionary
281
1
  3
Normal
350
F
100
AcDbDictionaryWithDefault
340
F
  0
DICTIONARY
  5
17
102
{ACAD_REACTORS
330
C
102
}
100
AcDbDictionary
280
0
281
1
  3
Standard
350
18
  0
DICTIONARY
  5
19
102
{ACAD_REACTORS
330
C
102
}
100
AcDbDictionary
281
1
  0
DICTIONARY
  5
1A
102
{ACAD_REACTORS
330
C
102
}
100
AcDbDictionary
281
1
  3
Model
350
285
  3
Layout1
350
286
  0
ACDBPLACEHOLDER
  5
F
102
{ACAD_REACTORS
330
E
102
}
  0
MLINESTYLE
  5
18
102
{ACAD_REACTORS
330
17
102
}
100
AcDbMlineStyle
  2
STANDARD
 70
0
  3

 62
256
 51
90.0
 52
90.0
 71
2
 49
0.5
 62
256
  6
BYLAYER
 49
-0.5
 62
256
  6
BYLAYER
  0
LAYOUT
  5
285
102
{ACAD_REACTORS
330
1A
102
}
100
AcDbPlotSettings
  1

  2
none_device
  4
ANSI_A_(11.00_x_8.50_Inches)
  6

 40
0.0
 41
0.0
 42
0.0
 43
0.0
 44
279.4
 45
215.9
 46
0.0
 47
0.0
 48
0.0
 49
0.0
140
0.0
141
0.0
142
1.0
143
1.0
 70
1024
 72
0
 73
0
 74
0
  7

 75
0
147
1.0
148
0.0
149
0.0
100
AcDbLayout
  1
Model
 70
0
 71
0
 10
0.0
 20
0.0
 11
11.0
 21
8.5
 12
0.0
 22
0.0
 32
0.0
 14
0.0
 24
0.0
 34
0.0
 15
0.0
 25
0.0
 35
0.0
146
0.0
 13
0.0
 23
0.0
 33
0.0
 16
1.0
 26
0.0
 36
0.0
 17
0.0
 27
1.0
 37
0.0
 76
0
330
21D
345
0
346
0
  0
LAYOUT
  5
286
102
{ACAD_REACTORS
330
1A
102
}
100
AcDbPlotSettings
  1

  2
none_device
  4
ANSI_A_(11.00_x_8.50_Inches)
  6

 40
0.0
 41
0.0
 42
0.0
 43
0.0
 44
279.4
 45
215.9
 46
0.0
 47
0.0
 48
0.0
 49
0.0
140
0.0
141
0.0
142
1.0
143
1.0
 70
0
 72
0
 73
0
 74
0
  7

 75
0
147
1.0
148
0.0
149
0.0
100
AcDbLayout
  1
Layout1
 70
0
 71
1
 10
0.0
 20
0.0
 11
11.0
 21
8.5
 12
0.0
 22
0.0
 32
0.0
 14
0.0
 24
0.0
 34
0.0
 15
0.0
 25
0.0
 35
0.0
146
0.0
 13
0.0
 23
0.0
 33
0.0
 16
1.0
 26
0.0
 36
0.0
 17
0.0
 27
1.0
 37
0.0
 76
0
330
21E
345
0
346
0
  0
ENDSEC
  0
EOF
