999
DXF file: 3-2924tr_RIGHT.dxf
999
Pro/ENGINEER 2018400 by Parametric Technology Corporation
  0
SECTION
  2
HEADER
  9
$ACADVER
  1
AC1027
  9
$DWGCODEPAGE
  3
ANSI_1252
  9
$EXTMAX
 10
11.0
 20
8.5
 30
0.0
  9
$EXTMIN
 10
0.0
 20
0.0
 30
0.0
  9
$LIMMIN
 10
0.0
 20
0.0
  9
$LIMMAX
 10
11.0
 20
8.5
  9
$VIEWCTR
 10
5.5
 20
4.25
  9
$VIEWSIZE
 40
8.5
  9
$CLAYER
  8
0
  9
$LTSCALE
 40
0.605
  9
$CELTYPE
  6
BYLAYER
  9
$DIMSCALE
 40
1.0
  9
$DIMASZ
 40
0.1
  9
$DIMEXO
 40
0.0625
  9
$DIMDLI
 40
0.418
  9
$DIMEXE
 40
0.125
  9
$DIMCEN
 40
0.099
  9
$DIMLFAC
 40
1.0
  9
$DIMBLK
  1
_FILLED
  9
$DIMALT
 70
1
  9
$DIMALTD
 70
2
  9
$DIMALTTD
 70
2
  9
$DIMALTF
 40
25.4
  9
$DIMTXT
 40
0.08
  9
$DIMTOL
 70
1
  9
$DIMLIM
 70
0
  9
$DIMTFAC
 40
1.0
  9
$DIMTP
 40
0.001
  9
$DIMTM
 40
0.001
  9
$DIMGAP
 40
0.09
  9
$DIMDSEP
 70
46
  9
$AUNITS
 70
0
  9
$PDMODE
 70
3
  9
$PDSIZE
 40
0.3125
  9
$HANDSEED
  5
40F
  9
$TILEMODE
 70
1
  9
$MEASUREMENT
 70
0
  9
$INSUNITS
 70
1
  0
ENDSEC
  0
SECTION
  2
CLASSES
  0
CLASS
  1
ACDBDICTIONARYWDFLT
  2
AcDbDictionaryWithDefault
  3
AutoCAD 2000
 90
0
 91
1
280
0
281
0
  0
CLASS
  1
ACDBPLACEHOLDER
  2
AcDbPlaceHolder
  3
AutoCAD 2000
 90
0
 91
1
280
0
281
0
  0
CLASS
  1
LAYOUT
  2
AcDbLayout
  3
AutoCAD 2000
 90
0
 91
0
280
0
281
0
  0
ENDSEC
  0
SECTION
  2
TABLES
  0
TABLE
  2
VPORT
  5
8
100
AcDbSymbolTable
 70
2
  0
VPORT
  5
1F4
100
AcDbSymbolTableRecord
100
AcDbViewportTableRecord
  2
*ACTIVE
 70
0
 10
0.0
 20
0.0
 11
1.0
 21
1.0
 12
5.5
 22
4.25
 13
0.0
 23
0.0
 14
1.0
 24
1.0
 15
0.0
 25
0.0
 16
0.0
 26
0.0
 36
1.0
 17
0.0
 27
0.0
 37
0.0
 40
8.5
 41
1.2941176471
 42
50.0
 43
0.0
 44
0.0
 50
0.0
 51
0.0
 71
0
 72
100
 73
1
 74
1
 75
0
 76
0
 77
0
 78
0
  0
ENDTAB
  0
TABLE
  2
LTYPE
  5
5
100
AcDbSymbolTable
 70
6
  0
LTYPE
  5
14
100
AcDbSymbolTableRecord
100
AcDbLinetypeTableRecord
  2
BYBLOCK
 70
0
  3

 72
65
 73
0
 40
0.0
  0
LTYPE
  5
15
100
AcDbSymbolTableRecord
100
AcDbLinetypeTableRecord
  2
BYLAYER
 70
0
  3

 72
65
 73
0
 40
0.0
  0
LTYPE
  5
16
100
AcDbSymbolTableRecord
100
AcDbLinetypeTableRecord
  2
CONTINUOUS
 70
64
  3
Solid line
 72
65
 73
0
 40
0.0
  0
LTYPE
  5
1F5
100
AcDbSymbolTableRecord
100
AcDbLinetypeTableRecord
  2
CENTER
 70
64
  3
____ _ ____ _ ____ _ ____ _ ____ _ ____ _ ____
 72
65
 73
4
 40
0.6
 49
0.375
 74
0
 49
-0.075
 74
0
 49
0.075
 74
0
 49
-0.075
 74
0
  0
LTYPE
  5
1F6
100
AcDbSymbolTableRecord
100
AcDbLinetypeTableRecord
  2
HIDDEN
 70
64
  3
- - - - - - - - - - - - - - - - - - - -
 72
65
 73
2
 40
0.2
 49
0.1
 74
0
 49
-0.1
 74
0
  0
LTYPE
  5
1F7
100
AcDbSymbolTableRecord
100
AcDbLinetypeTableRecord
  2
PHANTOM
 70
64
  3
_____ _ _ _____ _ _ _____ _ _ _____
 72
65
 73
6
 40
0.8
 49
0.45
 74
0
 49
-0.05
 74
0
 49
0.1
 74
0
 49
-0.05
 74
0
 49
0.1
 74
0
 49
-0.05
 74
0
  0
LTYPE
  5
1F8
100
AcDbSymbolTableRecord
100
AcDbLinetypeTableRecord
  2
DOT
 70
64
  3
. . . . . . . . . . . . . . . . . . . .
 72
65
 73
2
 40
0.2
 49
0.1
 74
0
 49
-0.1
 74
0
  0
LTYPE
  5
1F9
100
AcDbSymbolTableRecord
100
AcDbLinetypeTableRecord
  2
DASHED
 70
64
  3
- - - - - - - - - - - - - - - - - - - -
 72
65
 73
2
 40
0.2
 49
0.1
 74
0
 49
-0.1
 74
0
  0
ENDTAB
  0
TABLE
  2
LAYER
  5
2
100
AcDbSymbolTable
 70
36
  0
LAYER
  5
10
100
AcDbSymbolTableRecord
100
AcDbLayerTableRecord
  2
0
 70
0
 62
7
  6
CONTINUOUS
370
-3
390
F
  0
LAYER
  5
1FA
100
AcDbSymbolTableRecord
100
AcDbLayerTableRecord
  2
DEFAULT_1
 70
0
 62
7
  6
CENTER
370
-3
390
F
  0
LAYER
  5
1FB
100
AcDbSymbolTableRecord
100
AcDbLayerTableRecord
  2
DEFAULT_2
 70
0
 62
8
  6
HIDDEN
370
-3
390
F
  0
LAYER
  5
1FC
100
AcDbSymbolTableRecord
100
AcDbLayerTableRecord
  2
DEFAULT_3
 70
0
 62
7
  6
PHANTOM
370
-3
390
F
  0
LAYER
  5
1FD
100
AcDbSymbolTableRecord
100
AcDbLayerTableRecord
  2
2-110_ASSY_DATUMS
 70
0
 62
7
  6
CONTINUOUS
370
-3
390
F
  0
LAYER
  5
1FE
100
AcDbSymbolTableRecord
100
AcDbLayerTableRecord
  2
2-266_ASSY_PLANES
 70
0
 62
7
  6
CONTINUOUS
370
-3
390
F
  0
LAYER
  5
1FF
100
AcDbSymbolTableRecord
100
AcDbLayerTableRecord
  2
ALL_ASSEMBLY_MEMBERS
 70
0
 62
7
  6
CONTINUOUS
370
-3
390
F
  0
LAYER
  5
200
100
AcDbSymbolTableRecord
100
AcDbLayerTableRecord
  2
ALL_FEATURES
 70
0
 62
7
  6
CONTINUOUS
370
-3
390
F
  0
LAYER
  5
201
100
AcDbSymbolTableRecord
100
AcDbLayerTableRecord
  2
AXES_FEATURES
 70
0
 62
7
  6
CONTINUOUS
370
-3
390
F
  0
LAYER
  5
202
100
AcDbSymbolTableRecord
100
AcDbLayerTableRecord
  2
CHAMFER_FEATURES
 70
0
 62
7
  6
CONTINUOUS
370
-3
390
F
  0
LAYER
  5
203
100
AcDbSymbolTableRecord
100
AcDbLayerTableRecord
  2
COORDINATE_SYSTEMS
 70
0
 62
7
  6
CONTINUOUS
370
-3
390
F
  0
LAYER
  5
204
100
AcDbSymbolTableRecord
100
AcDbLayerTableRecord
  2
CUT_FEATURES
 70
0
 62
7
  6
CONTINUOUS
370
-3
390
F
  0
LAYER
  5
205
100
AcDbSymbolTableRecord
100
AcDbLayerTableRecord
  2
DATUM_CURVES
 70
0
 62
7
  6
CONTINUOUS
370
-3
390
F
  0
LAYER
  5
206
100
AcDbSymbolTableRecord
100
AcDbLayerTableRecord
  2
DATUM_PLANES
 70
0
 62
7
  6
CONTINUOUS
370
-3
390
F
  0
LAYER
  5
207
100
AcDbSymbolTableRecord
100
AcDbLayerTableRecord
  2
DEFAULT_COORDINATE_SYSTEM
 70
0
 62
7
  6
CONTINUOUS
370
-3
390
F
  0
LAYER
  5
208
100
AcDbSymbolTableRecord
100
AcDbLayerTableRecord
  2
DEFAULT_DATUM_AXES
 70
0
 62
7
  6
CONTINUOUS
370
-3
390
F
  0
LAYER
  5
209
100
AcDbSymbolTableRecord
100
AcDbLayerTableRecord
  2
DEFAULT_DATUM_CURVES
 70
0
 62
7
  6
CONTINUOUS
370
-3
390
F
  0
LAYER
  5
20A
100
AcDbSymbolTableRecord
100
AcDbLayerTableRecord
  2
DEFAULT_DATUM_PLANES
 70
0
 62
7
  6
CONTINUOUS
370
-3
390
F
  0
LAYER
  5
20B
100
AcDbSymbolTableRecord
100
AcDbLayerTableRecord
  2
DEFAULT_SURFACES
 70
0
 62
7
  6
CONTINUOUS
370
-3
390
F
  0
LAYER
  5
20C
100
AcDbSymbolTableRecord
100
AcDbLayerTableRecord
  2
DIMENSIONS
 70
0
 62
7
  6
CONTINUOUS
370
-3
390
F
  0
LAYER
  5
20D
100
AcDbSymbolTableRecord
100
AcDbLayerTableRecord
  2
HOLE_FEATURES
 70
0
 62
7
  6
CONTINUOUS
370
-3
390
F
  0
LAYER
  5
20E
100
AcDbSymbolTableRecord
100
AcDbLayerTableRecord
  2
NOTES
 70
0
 62
7
  6
CONTINUOUS
370
-3
390
F
  0
LAYER
  5
20F
100
AcDbSymbolTableRecord
100
AcDbLayerTableRecord
  2
PART_REFERENCE_DIMENSIONS
 70
0
 62
7
  6
CONTINUOUS
370
-3
390
F
  0
LAYER
  5
210
100
AcDbSymbolTableRecord
100
AcDbLayerTableRecord
  2
PLATED_SURFACE_AREA
 70
0
 62
7
  6
CONTINUOUS
370
-3
390
F
  0
LAYER
  5
211
100
AcDbSymbolTableRecord
100
AcDbLayerTableRecord
  2
PROTRUSION
 70
0
 62
7
  6
CONTINUOUS
370
-3
390
F
  0
LAYER
  5
212
100
AcDbSymbolTableRecord
100
AcDbLayerTableRecord
  2
PROTRUSION_FEATURES
 70
0
 62
7
  6
CONTINUOUS
370
-3
390
F
  0
LAYER
  5
213
100
AcDbSymbolTableRecord
100
AcDbLayerTableRecord
  2
QUILT
 70
0
 62
7
  6
CONTINUOUS
370
-3
390
F
  0
LAYER
  5
214
100
AcDbSymbolTableRecord
100
AcDbLayerTableRecord
  2
QUILTS
 70
0
 62
7
  6
CONTINUOUS
370
-3
390
F
  0
LAYER
  5
215
100
AcDbSymbolTableRecord
100
AcDbLayerTableRecord
  2
REFERENCE_DIMENSIONS
 70
0
 62
7
  6
CONTINUOUS
370
-3
390
F
  0
LAYER
  5
216
100
AcDbSymbolTableRecord
100
AcDbLayerTableRecord
  2
ROUND_FEATURES
 70
0
 62
7
  6
CONTINUOUS
370
-3
390
F
  0
LAYER
  5
217
100
AcDbSymbolTableRecord
100
AcDbLayerTableRecord
  2
SHELL_FEATURES
 70
0
 62
7
  6
CONTINUOUS
370
-3
390
F
  0
LAYER
  5
218
100
AcDbSymbolTableRecord
100
AcDbLayerTableRecord
  2
SURFACE_FEATURES
 70
0
 62
7
  6
CONTINUOUS
370
-3
390
F
  0
LAYER
  5
219
100
AcDbSymbolTableRecord
100
AcDbLayerTableRecord
  2
WETTED_SURFACES
 70
0
 62
7
  6
CONTINUOUS
370
-3
390
F
  0
LAYER
  5
21A
100
AcDbSymbolTableRecord
100
AcDbLayerTableRecord
  2
XSEC_DATUMS
 70
0
 62
7
  6
CONTINUOUS
370
-3
390
F
  0
ENDTAB
  0
TABLE
  2
STYLE
  5
3
100
AcDbSymbolTable
 70
1
  0
STYLE
  5
11
100
AcDbSymbolTableRecord
100
AcDbTextStyleTableRecord
  2
STANDARD
 70
0
 40
0.0
 41
0.8
 50
0.0
 71
0
 42
0.2
  3
txt
  4

  0
STYLE
  5
21B
100
AcDbSymbolTableRecord
100
AcDbTextStyleTableRecord
  2
TEXTSTYLE_1
 70
0
 40
0.0
 41
0.8
 50
0.0
 71
0
 42
0.2
  3
gdt
  4

  0
ENDTAB
  0
TABLE
  2
VIEW
  5
6
100
AcDbSymbolTable
 70
0
  0
ENDTAB
  0
TABLE
  2
UCS
  5
7
100
AcDbSymbolTable
 70
0
  0
ENDTAB
  0
TABLE
  2
APPID
  5
9
100
AcDbSymbolTable
 70
1
  0
APPID
  5
21C
100
AcDbSymbolTableRecord
100
AcDbRegAppTableRecord
  2
ACAD
 70
0
  0
ENDTAB
  0
TABLE
  2
BLOCK_RECORD
  5
1
100
AcDbSymbolTable
 70
0
  0
BLOCK_RECORD
  5
21D
100
AcDbSymbolTableRecord
100
AcDbBlockTableRecord
  2
*Model_Space
  0
BLOCK_RECORD
  5
21E
100
AcDbSymbolTableRecord
100
AcDbBlockTableRecord
  2
*Paper_Space
  0
BLOCK_RECORD
  5
21F
100
AcDbSymbolTableRecord
100
AcDbBlockTableRecord
  2
_FILLED
  0
ENDTAB
  0
TABLE
  2
DIMSTYLE
  5
A
100
AcDbSymbolTable
 70
1
100
AcDbDimStyleTable
 71
0
  0
DIMSTYLE
105
220
100
AcDbSymbolTableRecord
100
AcDbDimStyleTableRecord
  2
STANDARD
 70
0
  3

  4

 40
1.0
 41
0.1
 42
0.0625
 43
0.38
 44
0.125
 45
0.0
 46
0.0
 47
0.001
 48
0.001
140
0.08
141
0.09
142
0.0
143
25.4
144
1.0
145
0.0
146
1.0
147
0.09
 71
1.0
 72
0.0
 73
1
 74
1
 75
0
 76
0
 77
0
 78
4
 79
1
170
1
171
2
172
0
173
0
174
0
175
0
176
0
177
0
178
0
270
2
179
3
271
3
272
3
273
2
274
2
275
0
280
0
281
0
282
0
283
1
284
4
285
0
286
0
287
3
288
0
340
11
278
46
341
21F
342
21F
343
21F
344
21F
  0
ENDTAB
  0
ENDSEC
  0
SECTION
  2
BLOCKS
  0
BLOCK
  5
20
100
AcDbEntity
  8
0
100
AcDbBlockBegin
  2
*Model_Space
 70
0
 10
0.0
 20
0.0
 30
0.0
  3
*Model_Space
  1

  0
ENDBLK
  5
21
100
AcDbEntity
  8
0
100
AcDbBlockEnd
  0
BLOCK
  5
1C
100
AcDbEntity
  8
0
100
AcDbBlockBegin
  2
*Paper_Space
 70
0
 10
0.0
 20
0.0
 30
0.0
  3
*Paper_Space
  1

  0
ENDBLK
  5
1D
100
AcDbEntity
  8
0
100
AcDbBlockEnd
  0
BLOCK
  5
221
100
AcDbEntity
  8
0
100
AcDbBlockBegin
  2
_FILLED
 70
64
 10
0.0
 20
0.0
  3
_FILLED
  1

  0
SOLID
  5
222
100
AcDbEntity
  8
0
  6
BYBLOCK
 62
0
100
AcDbTrace
 10
0.0
 20
0.0
 11
-1.0
 21
0.2
 12
-1.0
 22
-0.2
 13
-1.0
 23
-0.2
  0
ENDBLK
  5
223
100
AcDbEntity
  8
0
  6
BYBLOCK
 62
0
100
AcDbBlockEnd
  0
ENDSEC
  0
SECTION
  2
ENTITIES
  0
MTEXT
  5
224
100
AcDbEntity
  8
0
100
AcDbMText
 62
2
  6
CONTINUOUS
  7
STANDARD
 71
3
 72
1
 10
4.1741071429
 20
2.5588237578
 30
0.0
 11
1.0
 21
0.0
 31
0.0
 73
2
 44
0.9
  1
SCALE  .500
 40
0.08
 41
0.704
  0
LINE
  5
225
100
AcDbEntity
  8
0
100
AcDbLine
 62
7
  6
CONTINUOUS
 10
0.0
 20
0.0
 11
0.0
 21
8.5
  0
LINE
  5
226
100
AcDbEntity
  8
0
100
AcDbLine
 62
7
  6
CONTINUOUS
 10
0.0
 20
0.0
 11
11.0
 21
0.0
  0
LINE
  5
227
100
AcDbEntity
  8
0
100
AcDbLine
 62
7
  6
CONTINUOUS
 10
0.0
 20
8.5
 11
11.0
 21
8.5
  0
LINE
  5
228
100
AcDbEntity
  8
0
100
AcDbLine
 62
7
  6
CONTINUOUS
 10
11.0
 20
0.0
 11
11.0
 21
8.5
  0
LINE
  5
229
100
AcDbEntity
  8
ALL_ASSEMBLY_MEMBERS
100
AcDbLine
 62
7
  6
CONTINUOUS
 10
5.1121573397
 20
2.6538237578
 11
5.0424257095
 21
2.6538237578
  0
LINE
  5
22A
100
AcDbEntity
  8
ALL_ASSEMBLY_MEMBERS
100
AcDbLine
 62
7
  6
CONTINUOUS
 10
3.011931946
 20
3.6607745916
 11
3.011931946
 21
4.8975737578
  0
LINE
  5
22B
100
AcDbEntity
  8
ALL_ASSEMBLY_MEMBERS
100
AcDbLine
 62
7
  6
CONTINUOUS
 10
3.211931946
 20
3.6607745916
 11
3.211931946
 21
3.9316035735
  0
LINE
  5
22C
100
AcDbEntity
  8
ALL_ASSEMBLY_MEMBERS
100
AcDbLine
 62
7
  6
CONTINUOUS
 10
3.211931946
 20
4.8950101791
 11
3.2119317858
 21
4.8961733945
  0
LINE
  5
22D
100
AcDbEntity
  8
ALL_ASSEMBLY_MEMBERS
100
AcDbLine
 62
7
  6
CONTINUOUS
 10
3.2119319456
 20
4.0088973576
 11
3.211931946
 21
4.8950101791
  0
LINE
  5
22E
100
AcDbEntity
  8
ALL_ASSEMBLY_MEMBERS
100
AcDbLine
 62
7
  6
CONTINUOUS
 10
3.211931946
 20
3.9306883371
 11
3.2119654778
 21
3.9309836345
  0
LINE
  5
22F
100
AcDbEntity
  8
ALL_ASSEMBLY_MEMBERS
100
AcDbLine
 62
7
  6
CONTINUOUS
 10
3.2113777484
 20
4.9080871961
 11
3.2114625228
 21
4.907136196
  0
LINE
  5
230
100
AcDbEntity
  8
ALL_ASSEMBLY_MEMBERS
100
AcDbLine
 62
7
  6
CONTINUOUS
 10
3.2113777484
 20
4.9080871961
 11
3.2113803353
 21
4.9080570781
  0
LINE
  5
231
100
AcDbEntity
  8
ALL_ASSEMBLY_MEMBERS
100
AcDbLine
 62
7
  6
CONTINUOUS
 10
3.2113821037
 20
4.9080405036
 11
3.2115278587
 21
4.9063419714
  0
LINE
  5
232
100
AcDbEntity
  8
ALL_ASSEMBLY_MEMBERS
100
AcDbLine
 62
7
  6
CONTINUOUS
 10
3.2119652916
 20
3.9309839689
 11
3.2120897176
 21
3.9317737684
  0
LINE
  5
233
100
AcDbEntity
  8
ALL_ASSEMBLY_MEMBERS
100
AcDbLine
 62
7
  6
CONTINUOUS
 10
3.2120847453
 20
3.9317469783
 11
3.2123290939
 21
3.93292311
  0
LINE
  5
234
100
AcDbEntity
  8
ALL_ASSEMBLY_MEMBERS
100
AcDbLine
 62
7
  6
CONTINUOUS
 10
3.2123174476
 20
3.9328734185
 11
3.2127342074
 21
3.9344342784
  0
LINE
  5
235
100
AcDbEntity
  8
ALL_ASSEMBLY_MEMBERS
100
AcDbLine
 62
7
  6
CONTINUOUS
 10
3.2127155187
 20
3.9343716454
 11
3.2133470737
 21
3.9362503188
  0
LINE
  5
236
100
AcDbEntity
  8
ALL_ASSEMBLY_MEMBERS
100
AcDbLine
 62
7
  6
CONTINUOUS
 10
3.2114251567
 20
4.9076584314
 11
3.211394769
 21
4.9079266612
  0
LINE
  5
237
100
AcDbEntity
  8
ALL_ASSEMBLY_MEMBERS
100
AcDbLine
 62
7
  6
CONTINUOUS
 10
3.2113777484
 20
4.9080871961
 11
3.2114237143
 21
4.907670943
  0
LINE
  5
238
100
AcDbEntity
  8
ALL_ASSEMBLY_MEMBERS
100
AcDbLine
 62
7
  6
CONTINUOUS
 10
3.511931946
 20
4.0913263492
 11
3.511931946
 21
4.4663211664
  0
LINE
  5
239
100
AcDbEntity
  8
ALL_ASSEMBLY_MEMBERS
100
AcDbLine
 62
7
  6
CONTINUOUS
 10
3.2133216458
 20
3.9361821933
 11
3.2141926197
 21
3.9382813513
  0
LINE
  5
23A
100
AcDbEntity
  8
ALL_ASSEMBLY_MEMBERS
100
AcDbLine
 62
7
  6
CONTINUOUS
 10
3.2141642129
 20
3.9382192185
 11
3.2153148089
 21
3.9404984654
  0
LINE
  5
23B
100
AcDbEntity
  8
ALL_ASSEMBLY_MEMBERS
100
AcDbLine
 62
7
  6
CONTINUOUS
 10
3.211931946
 20
4.549368677
 11
3.2209068093
 21
4.5338237578
  0
LINE
  5
23C
100
AcDbEntity
  8
ALL_ASSEMBLY_MEMBERS
100
AcDbLine
 62
7
  6
CONTINUOUS
 10
3.2152937169
 20
3.9404604219
 11
3.2167448458
 21
3.9428417052
  0
LINE
  5
23D
100
AcDbEntity
  8
ALL_ASSEMBLY_MEMBERS
100
AcDbLine
 62
7
  6
CONTINUOUS
 10
3.216740975
 20
3.942835875
 11
3.2184665775
 21
3.9451951802
  0
LINE
  5
23E
100
AcDbEntity
  8
ALL_ASSEMBLY_MEMBERS
100
AcDbLine
 62
7
  6
CONTINUOUS
 10
3.258436447
 20
4.2120769971
 11
3.211931946
 21
4.171802918
  0
LINE
  5
23F
100
AcDbEntity
  8
ALL_ASSEMBLY_MEMBERS
100
AcDbLine
 62
7
  6
CONTINUOUS
 10
3.2171572163
 20
4.8903182434
 11
3.4489601656
 21
4.4888237578
  0
LWPOLYLINE
  5
240
100
AcDbEntity
  8
ALL_ASSEMBLY_MEMBERS
100
AcDbPolyline
 62
7
  6
CONTINUOUS
 90
3
 70
0
 10
3.2184551112
 20
3.9451808673
 10
3.2204485981
 20
3.9474652352
 10
3.2228465437
 20
3.9497520393
  0
LINE
  5
241
100
AcDbEntity
  8
ALL_ASSEMBLY_MEMBERS
100
AcDbLine
 62
7
  6
CONTINUOUS
 10
3.2204318675
 20
3.9474476634
 11
3.2204401927
 21
3.9474556082
  0
LINE
  5
242
100
AcDbEntity
  8
ALL_ASSEMBLY_MEMBERS
100
AcDbLine
 62
7
  6
CONTINUOUS
 10
4.7062823397
 20
3.7863237578
 11
4.8761573397
 21
3.7863237578
  0
LINE
  5
243
100
AcDbEntity
  8
ALL_ASSEMBLY_MEMBERS
100
AcDbLine
 62
7
  6
CONTINUOUS
 10
4.509431946
 20
3.7938237578
 11
3.977931946
 21
3.7938237578
  0
LINE
  5
244
100
AcDbEntity
  8
ALL_ASSEMBLY_MEMBERS
100
AcDbLine
 62
7
  6
CONTINUOUS
 10
4.6542154106
 20
3.7940737578
 11
4.6432713676
 21
3.7940737578
  0
LINE
  5
245
100
AcDbEntity
  8
ALL_ASSEMBLY_MEMBERS
100
AcDbLine
 62
7
  6
CONTINUOUS
 10
4.6195592695
 20
3.794101707
 11
4.6086152266
 21
3.794101707
  0
LINE
  5
246
100
AcDbEntity
  8
ALL_ASSEMBLY_MEMBERS
100
AcDbLine
 62
7
  6
CONTINUOUS
 10
4.6432713676
 20
3.7958074652
 11
4.6195592695
 21
3.7958074652
  0
LINE
  5
247
100
AcDbEntity
  8
ALL_ASSEMBLY_MEMBERS
100
AcDbLine
 62
7
  6
CONTINUOUS
 10
4.6086152266
 20
3.7958074652
 11
4.5684870641
 21
3.7958074652
  0
LINE
  5
248
100
AcDbEntity
  8
ALL_ASSEMBLY_MEMBERS
100
AcDbLine
 62
7
  6
CONTINUOUS
 10
4.509431946
 20
3.7965402932
 11
4.5684870641
 21
3.7965402932
  0
LINE
  5
249
100
AcDbEntity
  8
ALL_ASSEMBLY_MEMBERS
100
AcDbLine
 62
7
  6
CONTINUOUS
 10
4.6542154106
 20
3.7965402932
 11
4.7062823397
 21
3.7965402932
  0
LINE
  5
24A
100
AcDbEntity
  8
ALL_ASSEMBLY_MEMBERS
100
AcDbLine
 62
7
  6
CONTINUOUS
 10
4.6542154106
 20
3.7965782988
 11
4.5684870641
 21
3.7965782988
  0
LINE
  5
24B
100
AcDbEntity
  8
ALL_ASSEMBLY_MEMBERS
100
AcDbLine
 62
7
  6
CONTINUOUS
 10
4.6265181106
 20
3.7990577102
 11
4.5684870641
 21
3.7990577102
  0
LINE
  5
24C
100
AcDbEntity
  8
ALL_ASSEMBLY_MEMBERS
100
AcDbLine
 62
7
  6
CONTINUOUS
 10
3.977931946
 20
3.8750737578
 11
3.821931946
 21
3.8750737578
  0
LINE
  5
24D
100
AcDbEntity
  8
ALL_ASSEMBLY_MEMBERS
100
AcDbLine
 62
7
  6
CONTINUOUS
 10
3.811931946
 20
4.4363194319
 11
3.811931946
 21
4.1213280837
  0
LINE
  5
24E
100
AcDbEntity
  8
ALL_ASSEMBLY_MEMBERS
100
AcDbLine
 62
7
  6
CONTINUOUS
 10
3.821931946
 20
3.8750737578
 11
3.821931946
 21
4.6825737578
  0
LINE
  5
24F
100
AcDbEntity
  8
ALL_ASSEMBLY_MEMBERS
100
AcDbLine
 62
7
  6
CONTINUOUS
 10
3.4308282081
 20
4.129869402
 11
3.4309065402
 21
4.1299373737
  0
LINE
  5
250
100
AcDbEntity
  8
ALL_ASSEMBLY_MEMBERS
100
AcDbLine
 62
7
  6
CONTINUOUS
 10
3.2228490875
 20
3.9497542002
 11
3.4308216871
 21
4.1298637547
  0
LINE
  5
251
100
AcDbEntity
  8
ALL_ASSEMBLY_MEMBERS
100
AcDbLine
 62
7
  6
CONTINUOUS
 10
3.2228481338
 20
3.9497533742
 11
3.2228455914
 21
3.9497512274
  0
LINE
  5
252
100
AcDbEntity
  8
ALL_ASSEMBLY_MEMBERS
100
AcDbLine
 62
7
  6
CONTINUOUS
 10
3.977931946
 20
3.7938237578
 11
3.977931946
 21
4.7638237578
  0
LINE
  5
253
100
AcDbEntity
  8
ALL_ASSEMBLY_MEMBERS
100
AcDbLine
 62
7
  6
CONTINUOUS
 10
4.8761573397
 20
4.8088237578
 11
4.9556573397
 21
4.8388237578
  0
LINE
  5
254
100
AcDbEntity
  8
ALL_ASSEMBLY_MEMBERS
100
AcDbLine
 62
7
  6
CONTINUOUS
 10
4.6195592695
 20
4.050212952
 11
4.6031432052
 21
4.050212952
  0
LINE
  5
255
100
AcDbEntity
  8
ALL_ASSEMBLY_MEMBERS
100
AcDbLine
 62
7
  6
CONTINUOUS
 10
4.6177352624
 20
4.0563552337
 11
4.6049672123
 21
4.0563552337
  0
LINE
  5
256
100
AcDbEntity
  8
ALL_ASSEMBLY_MEMBERS
100
AcDbLine
 62
7
  6
CONTINUOUS
 10
4.6177352624
 20
4.0572058031
 11
4.6049672123
 21
4.0572058031
  0
LINE
  5
257
100
AcDbEntity
  8
ALL_ASSEMBLY_MEMBERS
100
AcDbLine
 62
7
  6
CONTINUOUS
 10
4.6177352624
 20
4.0888426539
 11
4.6049672123
 21
4.0888426539
  0
LINE
  5
258
100
AcDbEntity
  8
ALL_ASSEMBLY_MEMBERS
100
AcDbLine
 62
7
  6
CONTINUOUS
 10
3.3863195319
 20
4.0913237578
 11
3.511931946
 21
4.0913237578
  0
LINE
  5
259
100
AcDbEntity
  8
ALL_ASSEMBLY_MEMBERS
100
AcDbLine
 62
7
  6
CONTINUOUS
 10
4.6195592695
 20
4.0951945512
 11
4.6031432052
 21
4.0951945512
  0
LINE
  5
25A
100
AcDbEntity
  8
ALL_ASSEMBLY_MEMBERS
100
AcDbLine
 62
7
  6
CONTINUOUS
 10
4.6195592695
 20
4.0960388162
 11
4.6031432052
 21
4.0960388162
  0
LINE
  5
25B
100
AcDbEntity
  8
ALL_ASSEMBLY_MEMBERS
100
AcDbLine
 62
7
  6
CONTINUOUS
 10
4.6341513319
 20
4.1054271296
 11
4.6305033125
 21
4.1054271296
  0
LINE
  5
25C
100
AcDbEntity
  8
ALL_ASSEMBLY_MEMBERS
100
AcDbLine
 62
7
  6
CONTINUOUS
 10
4.5776071012
 20
4.1054271296
 11
4.5684870641
 21
4.1054271296
  0
LINE
  5
25D
100
AcDbEntity
  8
ALL_ASSEMBLY_MEMBERS
100
AcDbLine
 62
7
  6
CONTINUOUS
 10
4.6341513319
 20
4.1131576387
 11
4.6305033125
 21
4.1131576387
  0
LINE
  5
25E
100
AcDbEntity
  8
ALL_ASSEMBLY_MEMBERS
100
AcDbLine
 62
7
  6
CONTINUOUS
 10
4.6341513319
 20
4.1140012435
 11
4.6305033125
 21
4.1140012435
  0
LINE
  5
25F
100
AcDbEntity
  8
ALL_ASSEMBLY_MEMBERS
100
AcDbLine
 62
7
  6
CONTINUOUS
 10
3.511931946
 20
4.1213237578
 11
3.811931946
 21
4.1213237578
  0
LINE
  5
260
100
AcDbEntity
  8
ALL_ASSEMBLY_MEMBERS
100
AcDbLine
 62
7
  6
CONTINUOUS
 10
4.5776071012
 20
4.1525318654
 11
4.5684870641
 21
4.1525318654
  0
LINE
  5
261
100
AcDbEntity
  8
ALL_ASSEMBLY_MEMBERS
100
AcDbLine
 62
7
  6
CONTINUOUS
 10
4.5776071012
 20
4.1533785786
 11
4.5684870641
 21
4.1533785786
  0
LINE
  5
262
100
AcDbEntity
  8
ALL_ASSEMBLY_MEMBERS
100
AcDbLine
 62
7
  6
CONTINUOUS
 10
4.6542154106
 20
4.1632359302
 11
4.5684870641
 21
4.1632359302
  0
LINE
  5
263
100
AcDbEntity
  8
ALL_ASSEMBLY_MEMBERS
100
AcDbLine
 62
7
  6
CONTINUOUS
 10
4.8761573397
 20
3.7488237578
 11
4.9556573397
 21
3.7188237578
  0
LINE
  5
264
100
AcDbEntity
  8
ALL_ASSEMBLY_MEMBERS
100
AcDbLine
 62
7
  6
CONTINUOUS
 10
4.116431946
 20
4.7608125499
 11
4.116431946
 21
4.8751070258
  0
LINE
  5
265
100
AcDbEntity
  8
ALL_ASSEMBLY_MEMBERS
100
AcDbLine
 62
7
  6
CONTINUOUS
 10
4.6396233533
 20
4.1713209912
 11
4.5684870641
 21
4.1713209912
  0
LINE
  5
266
100
AcDbEntity
  8
ALL_ASSEMBLY_MEMBERS
100
AcDbLine
 62
7
  6
CONTINUOUS
 10
4.638285257
 20
4.1721713112
 11
4.5684870641
 21
4.1721713112
  0
LINE
  5
267
100
AcDbEntity
  8
ALL_ASSEMBLY_MEMBERS
100
AcDbLine
 62
7
  6
CONTINUOUS
 10
4.6414473605
 20
4.1794552444
 11
4.6268552982
 21
4.1794552444
  0
LINE
  5
268
100
AcDbEntity
  8
ALL_ASSEMBLY_MEMBERS
100
AcDbLine
 62
7
  6
CONTINUOUS
 10
4.6414473605
 20
4.1803075463
 11
4.6268552982
 21
4.1803075463
  0
LINE
  5
269
100
AcDbEntity
  8
ALL_ASSEMBLY_MEMBERS
100
AcDbLine
 62
7
  6
CONTINUOUS
 10
3.811931946
 20
4.1998237578
 11
3.821931946
 21
4.1998237578
  0
LINE
  5
26A
100
AcDbEntity
  8
ALL_ASSEMBLY_MEMBERS
100
AcDbLine
 62
7
  6
CONTINUOUS
 10
4.6570697413
 20
4.2660284822
 11
4.5684870641
 21
4.2660284822
  0
LINE
  5
26B
100
AcDbEntity
  8
ALL_ASSEMBLY_MEMBERS
100
AcDbLine
 62
7
  6
CONTINUOUS
 10
4.6570697413
 20
4.2916190334
 11
4.5684870641
 21
4.2916190334
  0
LINE
  5
26C
100
AcDbEntity
  8
ALL_ASSEMBLY_MEMBERS
100
AcDbLine
 62
7
  6
CONTINUOUS
 10
4.246431946
 20
4.7608128845
 11
4.246431946
 21
4.8751070258
  0
LINE
  5
26D
100
AcDbEntity
  8
ALL_ASSEMBLY_MEMBERS
100
AcDbLine
 62
7
  6
CONTINUOUS
 10
3.811931946
 20
4.3578237578
 11
3.821931946
 21
4.3578237578
  0
LINE
  5
26E
100
AcDbEntity
  8
ALL_ASSEMBLY_MEMBERS
100
AcDbLine
 62
7
  6
CONTINUOUS
 10
4.5994951883
 20
4.3793746192
 11
4.5921991597
 21
4.3793746192
  0
LINE
  5
26F
100
AcDbEntity
  8
ALL_ASSEMBLY_MEMBERS
100
AcDbLine
 62
7
  6
CONTINUOUS
 10
4.5994951883
 20
4.3802264017
 11
4.5921991597
 21
4.3802264017
  0
LINE
  5
270
100
AcDbEntity
  8
ALL_ASSEMBLY_MEMBERS
100
AcDbLine
 62
7
  6
CONTINUOUS
 10
4.6542154106
 20
4.382897532
 11
4.6450953748
 21
4.382897532
  0
LINE
  5
271
100
AcDbEntity
  8
ALL_ASSEMBLY_MEMBERS
100
AcDbLine
 62
7
  6
CONTINUOUS
 10
4.6542154106
 20
4.3837484526
 11
4.6450953748
 21
4.3837484526
  0
LINE
  5
272
100
AcDbEntity
  8
ALL_ASSEMBLY_MEMBERS
100
AcDbLine
 62
7
  6
CONTINUOUS
 10
4.5976711811
 20
4.3890142067
 11
4.5940231668
 21
4.3890142067
  0
LINE
  5
273
100
AcDbEntity
  8
ALL_ASSEMBLY_MEMBERS
100
AcDbLine
 62
7
  6
CONTINUOUS
 10
4.6450953748
 20
4.4329469402
 11
4.6164565147
 21
4.4329469402
  0
LINE
  5
274
100
AcDbEntity
  8
ALL_ASSEMBLY_MEMBERS
100
AcDbLine
 62
7
  6
CONTINUOUS
 10
4.6450953748
 20
4.4337907826
 11
4.6159112552
 21
4.4337907826
  0
LINE
  5
275
100
AcDbEntity
  8
ALL_ASSEMBLY_MEMBERS
100
AcDbLine
 62
7
  6
CONTINUOUS
 10
3.511931946
 20
4.4363237578
 11
3.811931946
 21
4.4363237578
  0
LINE
  5
276
100
AcDbEntity
  8
ALL_ASSEMBLY_MEMBERS
100
AcDbLine
 62
7
  6
CONTINUOUS
 10
4.6542154106
 20
4.4422264328
 11
4.6067912195
 21
4.4422264328
  0
LINE
  5
277
100
AcDbEntity
  8
ALL_ASSEMBLY_MEMBERS
100
AcDbLine
 62
7
  6
CONTINUOUS
 10
4.6542154106
 20
4.4547625642
 11
4.5684870641
 21
4.4547625642
  0
LINE
  5
278
100
AcDbEntity
  8
ALL_ASSEMBLY_MEMBERS
100
AcDbLine
 62
7
  6
CONTINUOUS
 10
4.6542154106
 20
4.455606418
 11
4.5684870641
 21
4.455606418
  0
LINE
  5
279
100
AcDbEntity
  8
ALL_ASSEMBLY_MEMBERS
100
AcDbLine
 62
7
  6
CONTINUOUS
 10
4.6396233533
 20
4.4655468006
 11
4.5684870641
 21
4.4655468006
  0
LINE
  5
27A
100
AcDbEntity
  8
ALL_ASSEMBLY_MEMBERS
100
AcDbLine
 62
7
  6
CONTINUOUS
 10
3.4879313088
 20
4.4663237578
 11
3.511931946
 21
4.4663237578
  0
LINE
  5
27B
100
AcDbEntity
  8
ALL_ASSEMBLY_MEMBERS
100
AcDbLine
 62
7
  6
CONTINUOUS
 10
4.6414473605
 20
4.4754058918
 11
4.6268552982
 21
4.4754058918
  0
LINE
  5
27C
100
AcDbEntity
  8
ALL_ASSEMBLY_MEMBERS
100
AcDbLine
 62
7
  6
CONTINUOUS
 10
4.6542154106
 20
4.4875766312
 11
4.5684870641
 21
4.4875766312
  0
LINE
  5
27D
100
AcDbEntity
  8
ALL_ASSEMBLY_MEMBERS
100
AcDbLine
 62
7
  6
CONTINUOUS
 10
4.6542154106
 20
4.4884243305
 11
4.5684870641
 21
4.4884243305
  0
LINE
  5
27E
100
AcDbEntity
  8
ALL_ASSEMBLY_MEMBERS
100
AcDbLine
 62
7
  6
CONTINUOUS
 10
4.6396233533
 20
4.4980923106
 11
4.5684870641
 21
4.4980923106
  0
LINE
  5
27F
100
AcDbEntity
  8
ALL_ASSEMBLY_MEMBERS
100
AcDbLine
 62
7
  6
CONTINUOUS
 10
4.6414473605
 20
4.5076774748
 11
4.6268552982
 21
4.5076774748
  0
LINE
  5
280
100
AcDbEntity
  8
ALL_ASSEMBLY_MEMBERS
100
AcDbLine
 62
7
  6
CONTINUOUS
 10
4.509431946
 20
4.7638237578
 11
4.509431946
 21
3.7938237578
  0
LINE
  5
281
100
AcDbEntity
  8
ALL_ASSEMBLY_MEMBERS
100
AcDbLine
 62
7
  6
CONTINUOUS
 10
4.5684870641
 20
4.7632881053
 11
4.5684870641
 21
4.7591077235
  0
LINE
  5
282
100
AcDbEntity
  8
ALL_ASSEMBLY_MEMBERS
100
AcDbLine
 62
7
  6
CONTINUOUS
 10
4.5684870641
 20
3.7958074652
 11
4.5684870641
 21
3.7990577102
  0
LINE
  5
283
100
AcDbEntity
  8
ALL_ASSEMBLY_MEMBERS
100
AcDbLine
 62
7
  6
CONTINUOUS
 10
4.5684870641
 20
4.1054271296
 11
4.5684870641
 21
4.1533785786
  0
LINE
  5
284
100
AcDbEntity
  8
ALL_ASSEMBLY_MEMBERS
100
AcDbLine
 62
7
  6
CONTINUOUS
 10
4.5684870641
 20
4.1632359302
 11
4.5684870641
 21
4.1721713112
  0
LINE
  5
285
100
AcDbEntity
  8
ALL_ASSEMBLY_MEMBERS
100
AcDbLine
 62
7
  6
CONTINUOUS
 10
4.5684870641
 20
4.2660284822
 11
4.5684870641
 21
4.2916190334
  0
LINE
  5
286
100
AcDbEntity
  8
ALL_ASSEMBLY_MEMBERS
100
AcDbLine
 62
7
  6
CONTINUOUS
 10
4.5684870641
 20
4.4064176599
 11
4.5684870641
 21
4.4167504276
  0
LINE
  5
287
100
AcDbEntity
  8
ALL_ASSEMBLY_MEMBERS
100
AcDbLine
 62
7
  6
CONTINUOUS
 10
4.5684870641
 20
4.4547625642
 11
4.5684870641
 21
4.4655468006
  0
LINE
  5
288
100
AcDbEntity
  8
ALL_ASSEMBLY_MEMBERS
100
AcDbLine
 62
7
  6
CONTINUOUS
 10
4.5684870641
 20
4.4875766312
 11
4.5684870641
 21
4.4980923106
  0
LINE
  5
289
100
AcDbEntity
  8
ALL_ASSEMBLY_MEMBERS
100
AcDbLine
 62
7
  6
CONTINUOUS
 10
4.5684870641
 20
4.6664091133
 11
4.5684870641
 21
4.6831084258
  0
LINE
  5
28A
100
AcDbEntity
  8
ALL_ASSEMBLY_MEMBERS
100
AcDbLine
 62
7
  6
CONTINUOUS
 10
4.5703110714
 20
4.7607634193
 11
4.5703110714
 21
4.7582824265
  0
LINE
  5
28B
100
AcDbEntity
  8
ALL_ASSEMBLY_MEMBERS
100
AcDbLine
 62
7
  6
CONTINUOUS
 10
4.5703110714
 20
4.7635011853
 11
4.5703110714
 21
4.762263323
  0
LINE
  5
28C
100
AcDbEntity
  8
ALL_ASSEMBLY_MEMBERS
100
AcDbLine
 62
7
  6
CONTINUOUS
 10
4.5703110714
 20
4.3977445048
 11
4.5703110714
 21
4.3968965383
  0
LINE
  5
28D
100
AcDbEntity
  8
ALL_ASSEMBLY_MEMBERS
100
AcDbLine
 62
7
  6
CONTINUOUS
 10
4.5703110714
 20
4.0800063003
 11
4.5703110714
 21
4.0808522036
  0
LINE
  5
28E
100
AcDbEntity
  8
ALL_ASSEMBLY_MEMBERS
100
AcDbLine
 62
7
  6
CONTINUOUS
 10
4.5757830934
 20
4.7599700541
 11
4.5757830934
 21
4.7574849492
  0
LINE
  5
28F
100
AcDbEntity
  8
ALL_ASSEMBLY_MEMBERS
100
AcDbLine
 62
7
  6
CONTINUOUS
 10
4.5757830934
 20
4.763571401
 11
4.5757830934
 21
4.7627208346
  0
LINE
  5
290
100
AcDbEntity
  8
ALL_ASSEMBLY_MEMBERS
100
AcDbLine
 62
7
  6
CONTINUOUS
 10
4.5757830934
 20
4.3890142067
 11
4.5757830934
 21
4.3881644857
  0
LINE
  5
291
100
AcDbEntity
  8
ALL_ASSEMBLY_MEMBERS
100
AcDbLine
 62
7
  6
CONTINUOUS
 10
4.5757830934
 20
4.0863112736
 11
4.5757830934
 21
4.087156373
  0
LINE
  5
292
100
AcDbEntity
  8
ALL_ASSEMBLY_MEMBERS
100
AcDbLine
 62
7
  6
CONTINUOUS
 10
4.5776071012
 20
4.1054271296
 11
4.5776071012
 21
4.1419141556
  0
LINE
  5
293
100
AcDbEntity
  8
ALL_ASSEMBLY_MEMBERS
100
AcDbLine
 62
7
  6
CONTINUOUS
 10
4.5776071012
 20
4.1525318654
 11
4.5776071012
 21
4.1533785786
  0
LINE
  5
294
100
AcDbEntity
  8
ALL_ASSEMBLY_MEMBERS
100
AcDbLine
 62
7
  6
CONTINUOUS
 10
4.5776071012
 20
4.4064176599
 11
4.5776071012
 21
4.4167504276
  0
LINE
  5
295
100
AcDbEntity
  8
ALL_ASSEMBLY_MEMBERS
100
AcDbLine
 62
7
  6
CONTINUOUS
 10
4.5794311083
 20
4.7621600306
 11
4.5794311083
 21
4.760910167
  0
LINE
  5
296
100
AcDbEntity
  8
ALL_ASSEMBLY_MEMBERS
100
AcDbLine
 62
7
  6
CONTINUOUS
 10
4.5794311083
 20
4.4235936574
 11
4.5794311083
 21
4.4227491629
  0
LINE
  5
297
100
AcDbEntity
  8
ALL_ASSEMBLY_MEMBERS
100
AcDbLine
 62
7
  6
CONTINUOUS
 10
4.5794311083
 20
4.066253927
 11
4.5794311083
 21
4.0671022168
  0
LINE
  5
298
100
AcDbEntity
  8
ALL_ASSEMBLY_MEMBERS
100
AcDbLine
 62
7
  6
CONTINUOUS
 10
4.5812551155
 20
4.7635667092
 11
4.5812551155
 21
4.7629482577
  0
LINE
  5
299
100
AcDbEntity
  8
ALL_ASSEMBLY_MEMBERS
100
AcDbLine
 62
7
  6
CONTINUOUS
 10
4.5812551155
 20
4.7594461887
 11
4.5812551155
 21
4.756958361
  0
LINE
  5
29A
100
AcDbEntity
  8
ALL_ASSEMBLY_MEMBERS
100
AcDbLine
 62
7
  6
CONTINUOUS
 10
4.5812551155
 20
4.0901103582
 11
4.5812551155
 21
4.0909550586
  0
LINE
  5
29B
100
AcDbEntity
  8
ALL_ASSEMBLY_MEMBERS
100
AcDbLine
 62
7
  6
CONTINUOUS
 10
4.5830791226
 20
4.7624581114
 11
4.5830791226
 21
4.7604580105
  0
LINE
  5
29C
100
AcDbEntity
  8
ALL_ASSEMBLY_MEMBERS
100
AcDbLine
 62
7
  6
CONTINUOUS
 10
4.5830791226
 20
4.4287023664
 11
4.5830791226
 21
4.4278582501
  0
LINE
  5
29D
100
AcDbEntity
  8
ALL_ASSEMBLY_MEMBERS
100
AcDbLine
 62
7
  6
CONTINUOUS
 10
4.5830791226
 20
4.3837484526
 11
4.5830791226
 21
4.382897532
  0
LINE
  5
29E
100
AcDbEntity
  8
ALL_ASSEMBLY_MEMBERS
100
AcDbLine
 62
7
  6
CONTINUOUS
 10
4.5830791226
 20
4.0625317057
 11
4.5830791226
 21
4.063380796
  0
LINE
  5
29F
100
AcDbEntity
  8
ALL_ASSEMBLY_MEMBERS
100
AcDbLine
 62
7
  6
CONTINUOUS
 10
4.5885511454
 20
4.7635440732
 11
4.5885511454
 21
4.7630802868
  0
LINE
  5
2A0
100
AcDbEntity
  8
ALL_ASSEMBLY_MEMBERS
100
AcDbLine
 62
7
  6
CONTINUOUS
 10
4.5885511454
 20
4.7590769373
 11
4.5885511454
 21
4.7565871868
  0
LINE
  5
2A1
100
AcDbEntity
  8
ALL_ASSEMBLY_MEMBERS
100
AcDbLine
 62
7
  6
CONTINUOUS
 10
4.5885511454
 20
4.0926497778
 11
4.5885511454
 21
4.0934942466
  0
LINE
  5
2A2
100
AcDbEntity
  8
ALL_ASSEMBLY_MEMBERS
100
AcDbLine
 62
7
  6
CONTINUOUS
 10
4.5903751525
 20
4.4312529767
 11
4.5903751525
 21
4.4422264328
  0
LINE
  5
2A3
100
AcDbEntity
  8
ALL_ASSEMBLY_MEMBERS
100
AcDbLine
 62
7
  6
CONTINUOUS
 10
4.6570697413
 20
4.6664091133
 11
4.5684870641
 21
4.6664091133
  0
LINE
  5
2A4
100
AcDbEntity
  8
ALL_ASSEMBLY_MEMBERS
100
AcDbLine
 62
7
  6
CONTINUOUS
 10
4.6570697413
 20
4.6684302887
 11
4.5684870641
 21
4.6684302887
  0
LINE
  5
2A5
100
AcDbEntity
  8
ALL_ASSEMBLY_MEMBERS
100
AcDbLine
 62
7
  6
CONTINUOUS
 10
3.977931946
 20
4.6825737578
 11
3.821931946
 21
4.6825737578
  0
LINE
  5
2A6
100
AcDbEntity
  8
ALL_ASSEMBLY_MEMBERS
100
AcDbLine
 62
7
  6
CONTINUOUS
 10
4.6570697413
 20
4.6831084258
 11
4.5684870641
 21
4.6831084258
  0
LINE
  5
2A7
100
AcDbEntity
  8
ALL_ASSEMBLY_MEMBERS
100
AcDbLine
 62
7
  6
CONTINUOUS
 10
4.5921991597
 20
4.3802264017
 11
4.5921991597
 21
4.3793746192
  0
LINE
  5
2A8
100
AcDbEntity
  8
ALL_ASSEMBLY_MEMBERS
100
AcDbLine
 62
7
  6
CONTINUOUS
 10
4.5940231668
 20
4.763526902
 11
4.5940231668
 21
4.7631404306
  0
LINE
  5
2A9
100
AcDbEntity
  8
ALL_ASSEMBLY_MEMBERS
100
AcDbLine
 62
7
  6
CONTINUOUS
 10
4.5940231668
 20
4.7628005616
 11
4.5940231668
 21
4.7603300655
  0
LINE
  5
2AA
100
AcDbEntity
  8
ALL_ASSEMBLY_MEMBERS
100
AcDbLine
 62
7
  6
CONTINUOUS
 10
4.5940231668
 20
4.7588862968
 11
4.5940231668
 21
4.7563955524
  0
LINE
  5
2AB
100
AcDbEntity
  8
ALL_ASSEMBLY_MEMBERS
100
AcDbLine
 62
7
  6
CONTINUOUS
 10
4.5940231668
 20
4.0575877946
 11
4.5940231668
 21
4.0584380537
  0
LINE
  5
2AC
100
AcDbEntity
  8
ALL_ASSEMBLY_MEMBERS
100
AcDbLine
 62
7
  6
CONTINUOUS
 10
4.5940231668
 20
4.0939214991
 11
4.5940231668
 21
4.0947658626
  0
LINE
  5
2AD
100
AcDbEntity
  8
ALL_ASSEMBLY_MEMBERS
100
AcDbLine
 62
7
  6
CONTINUOUS
 10
4.5994951883
 20
4.3802264017
 11
4.5994951883
 21
4.3793746192
  0
LINE
  5
2AE
100
AcDbEntity
  8
ALL_ASSEMBLY_MEMBERS
100
AcDbLine
 62
7
  6
CONTINUOUS
 10
4.6031432052
 20
4.7635058282
 11
4.6031432052
 21
4.7631966621
  0
LINE
  5
2AF
100
AcDbEntity
  8
ALL_ASSEMBLY_MEMBERS
100
AcDbLine
 62
7
  6
CONTINUOUS
 10
4.6031432052
 20
4.7586916394
 11
4.6031432052
 21
4.7561998794
  0
LINE
  5
2B0
100
AcDbEntity
  8
ALL_ASSEMBLY_MEMBERS
100
AcDbLine
 62
7
  6
CONTINUOUS
 10
4.6031432052
 20
4.0951945512
 11
4.6031432052
 21
4.0960388162
  0
LINE
  5
2B1
100
AcDbEntity
  8
ALL_ASSEMBLY_MEMBERS
100
AcDbLine
 62
7
  6
CONTINUOUS
 10
4.6049672123
 20
4.7628763689
 11
4.6049672123
 21
4.7604062616
  0
LINE
  5
2B2
100
AcDbEntity
  8
ALL_ASSEMBLY_MEMBERS
100
AcDbLine
 62
7
  6
CONTINUOUS
 10
4.6049672123
 20
4.0563552337
 11
4.6049672123
 21
4.0572058031
  0
LINE
  5
2B3
100
AcDbEntity
  8
ALL_ASSEMBLY_MEMBERS
100
AcDbLine
 62
7
  6
CONTINUOUS
 10
4.6067912195
 20
4.4295567437
 11
4.6067912195
 21
4.4422264328
  0
LINE
  5
2B4
100
AcDbEntity
  8
ALL_ASSEMBLY_MEMBERS
100
AcDbLine
 62
7
  6
CONTINUOUS
 10
4.6086152266
 20
4.3837484526
 11
4.6086152266
 21
4.382897532
  0
LINE
  5
2B5
100
AcDbEntity
  8
ALL_ASSEMBLY_MEMBERS
100
AcDbLine
 62
7
  6
CONTINUOUS
 10
4.6086152266
 20
3.794101707
 11
4.6086152266
 21
3.7958074652
  0
LINE
  5
2B6
100
AcDbEntity
  8
ALL_ASSEMBLY_MEMBERS
100
AcDbLine
 62
7
  6
CONTINUOUS
 10
4.6122632409
 20
4.4235936574
 11
4.6122632409
 21
4.4227491629
  0
LINE
  5
2B7
100
AcDbEntity
  8
ALL_ASSEMBLY_MEMBERS
100
AcDbLine
 62
7
  6
CONTINUOUS
 10
4.6140872481
 20
4.4064176599
 11
4.6140872481
 21
4.4167504276
  0
LINE
  5
2B8
100
AcDbEntity
  8
ALL_ASSEMBLY_MEMBERS
100
AcDbLine
 62
7
  6
CONTINUOUS
 10
4.6159112552
 20
4.3890142067
 11
4.6159112552
 21
4.3881644857
  0
LINE
  5
2B9
100
AcDbEntity
  8
ALL_ASSEMBLY_MEMBERS
100
AcDbLine
 62
7
  6
CONTINUOUS
 10
4.6177352624
 20
4.7628763689
 11
4.6177352624
 21
4.7604062616
  0
LINE
  5
2BA
100
AcDbEntity
  8
ALL_ASSEMBLY_MEMBERS
100
AcDbLine
 62
7
  6
CONTINUOUS
 10
4.6177352624
 20
4.0563552337
 11
4.6177352624
 21
4.0572058031
  0
LINE
  5
2BB
100
AcDbEntity
  8
ALL_ASSEMBLY_MEMBERS
100
AcDbLine
 62
7
  6
CONTINUOUS
 10
4.6195592695
 20
4.7635058282
 11
4.6195592695
 21
4.7631966621
  0
LINE
  5
2BC
100
AcDbEntity
  8
ALL_ASSEMBLY_MEMBERS
100
AcDbLine
 62
7
  6
CONTINUOUS
 10
4.6195592695
 20
4.7586916394
 11
4.6195592695
 21
4.7561998794
  0
LINE
  5
2BD
100
AcDbEntity
  8
ALL_ASSEMBLY_MEMBERS
100
AcDbLine
 62
7
  6
CONTINUOUS
 10
4.6195592695
 20
3.794101707
 11
4.6195592695
 21
3.7958074652
  0
LINE
  5
2BE
100
AcDbEntity
  8
ALL_ASSEMBLY_MEMBERS
100
AcDbLine
 62
7
  6
CONTINUOUS
 10
4.6195592695
 20
4.0951945512
 11
4.6195592695
 21
4.0960388162
  0
LINE
  5
2BF
100
AcDbEntity
  8
ALL_ASSEMBLY_MEMBERS
100
AcDbLine
 62
7
  6
CONTINUOUS
 10
4.6213832767
 20
4.3977445048
 11
4.6213832767
 21
4.3968965383
  0
LINE
  5
2C0
100
AcDbEntity
  8
ALL_ASSEMBLY_MEMBERS
100
AcDbLine
 62
7
  6
CONTINUOUS
 10
4.6232072838
 20
4.1157451483
 11
4.6232072838
 21
4.1165887681
  0
LINE
  5
2C1
100
AcDbEntity
  8
ALL_ASSEMBLY_MEMBERS
100
AcDbLine
 62
7
  6
CONTINUOUS
 10
4.6232072838
 20
4.4064176599
 11
4.6232072838
 21
4.4167504276
  0
LINE
  5
2C2
100
AcDbEntity
  8
ALL_ASSEMBLY_MEMBERS
100
AcDbLine
 62
7
  6
CONTINUOUS
 10
4.6236051744
 20
3.8030114757
 11
4.6236051744
 21
3.8005115688
  0
LINE
  5
2C3
100
AcDbEntity
  8
ALL_ASSEMBLY_MEMBERS
100
AcDbLine
 62
7
  6
CONTINUOUS
 10
4.6268552982
 20
4.5076774748
 11
4.6268552982
 21
4.5068251729
  0
LINE
  5
2C4
100
AcDbEntity
  8
ALL_ASSEMBLY_MEMBERS
100
AcDbLine
 62
7
  6
CONTINUOUS
 10
4.6268552982
 20
4.4754058918
 11
4.6268552982
 21
4.474560294
  0
LINE
  5
2C5
100
AcDbEntity
  8
ALL_ASSEMBLY_MEMBERS
100
AcDbLine
 62
7
  6
CONTINUOUS
 10
4.6268552982
 20
4.1794552444
 11
4.6268552982
 21
4.1803075463
  0
LINE
  5
2C6
100
AcDbEntity
  8
ALL_ASSEMBLY_MEMBERS
100
AcDbLine
 62
7
  6
CONTINUOUS
 10
4.6286793053
 20
4.763526902
 11
4.6286793053
 21
4.7631404306
  0
LINE
  5
2C7
100
AcDbEntity
  8
ALL_ASSEMBLY_MEMBERS
100
AcDbLine
 62
7
  6
CONTINUOUS
 10
4.6286793053
 20
4.7588862968
 11
4.6286793053
 21
4.7563955524
  0
LINE
  5
2C8
100
AcDbEntity
  8
ALL_ASSEMBLY_MEMBERS
100
AcDbLine
 62
7
  6
CONTINUOUS
 10
4.6286793053
 20
4.7628005616
 11
4.6286793053
 21
4.7603300655
  0
LINE
  5
2C9
100
AcDbEntity
  8
ALL_ASSEMBLY_MEMBERS
100
AcDbLine
 62
7
  6
CONTINUOUS
 10
4.6286793053
 20
4.0575877946
 11
4.6286793053
 21
4.0584380537
  0
LINE
  5
2CA
100
AcDbEntity
  8
ALL_ASSEMBLY_MEMBERS
100
AcDbLine
 62
7
  6
CONTINUOUS
 10
4.6286793053
 20
4.0939214991
 11
4.6286793053
 21
4.0947658626
  0
LINE
  5
2CB
100
AcDbEntity
  8
ALL_ASSEMBLY_MEMBERS
100
AcDbLine
 62
7
  6
CONTINUOUS
 10
4.6305033125
 20
4.1131576387
 11
4.6305033125
 21
4.1140012435
  0
LINE
  5
2CC
100
AcDbEntity
  8
ALL_ASSEMBLY_MEMBERS
100
AcDbLine
 62
7
  6
CONTINUOUS
 10
4.6341513319
 20
4.7635440732
 11
4.6341513319
 21
4.7630802868
  0
LINE
  5
2CD
100
AcDbEntity
  8
ALL_ASSEMBLY_MEMBERS
100
AcDbLine
 62
7
  6
CONTINUOUS
 10
4.6341513319
 20
4.7590769373
 11
4.6341513319
 21
4.7565871868
  0
LINE
  5
2CE
100
AcDbEntity
  8
ALL_ASSEMBLY_MEMBERS
100
AcDbLine
 62
7
  6
CONTINUOUS
 10
4.6341513319
 20
4.0926497778
 11
4.6341513319
 21
4.0934942466
  0
LINE
  5
2CF
100
AcDbEntity
  8
ALL_ASSEMBLY_MEMBERS
100
AcDbLine
 62
7
  6
CONTINUOUS
 10
4.6341513319
 20
4.1131576387
 11
4.6341513319
 21
4.1140012435
  0
LINE
  5
2D0
100
AcDbEntity
  8
ALL_ASSEMBLY_MEMBERS
100
AcDbLine
 62
7
  6
CONTINUOUS
 10
4.6341513319
 20
4.1445605111
 11
4.6341513319
 21
4.1520464478
  0
LINE
  5
2D1
100
AcDbEntity
  8
ALL_ASSEMBLY_MEMBERS
100
AcDbLine
 62
7
  6
CONTINUOUS
 10
4.6396233533
 20
4.7624581114
 11
4.6396233533
 21
4.7604580105
  0
LINE
  5
2D2
100
AcDbEntity
  8
ALL_ASSEMBLY_MEMBERS
100
AcDbLine
 62
7
  6
CONTINUOUS
 10
4.6396233533
 20
4.0625317057
 11
4.6396233533
 21
4.063380796
  0
LINE
  5
2D3
100
AcDbEntity
  8
ALL_ASSEMBLY_MEMBERS
100
AcDbLine
 62
7
  6
CONTINUOUS
 10
4.6396233533
 20
4.1157451483
 11
4.6396233533
 21
4.1165887681
  0
LINE
  5
2D4
100
AcDbEntity
  8
ALL_ASSEMBLY_MEMBERS
100
AcDbLine
 62
7
  6
CONTINUOUS
 10
4.6414473605
 20
4.7635667092
 11
4.6414473605
 21
4.7629482577
  0
LINE
  5
2D5
100
AcDbEntity
  8
ALL_ASSEMBLY_MEMBERS
100
AcDbLine
 62
7
  6
CONTINUOUS
 10
4.6414473605
 20
4.7594461887
 11
4.6414473605
 21
4.756958361
  0
LINE
  5
2D6
100
AcDbEntity
  8
ALL_ASSEMBLY_MEMBERS
100
AcDbLine
 62
7
  6
CONTINUOUS
 10
4.6414473605
 20
4.0901103582
 11
4.6414473605
 21
4.0909550586
  0
LINE
  5
2D7
100
AcDbEntity
  8
ALL_ASSEMBLY_MEMBERS
100
AcDbLine
 62
7
  6
CONTINUOUS
 10
4.6414473605
 20
4.1498693601
 11
4.6414473605
 21
4.1507156721
  0
LINE
  5
2D8
100
AcDbEntity
  8
ALL_ASSEMBLY_MEMBERS
100
AcDbLine
 62
7
  6
CONTINUOUS
 10
4.6414473605
 20
4.1794552444
 11
4.6414473605
 21
4.1803075463
  0
LINE
  5
2D9
100
AcDbEntity
  8
ALL_ASSEMBLY_MEMBERS
100
AcDbLine
 62
7
  6
CONTINUOUS
 10
4.6432713676
 20
4.7621600306
 11
4.6432713676
 21
4.760910167
  0
LINE
  5
2DA
100
AcDbEntity
  8
ALL_ASSEMBLY_MEMBERS
100
AcDbLine
 62
7
  6
CONTINUOUS
 10
4.6432713676
 20
3.7940737632
 11
4.6432713676
 21
3.7958074652
  0
LINE
  5
2DB
100
AcDbEntity
  8
ALL_ASSEMBLY_MEMBERS
100
AcDbLine
 62
7
  6
CONTINUOUS
 10
4.6432713676
 20
4.066253927
 11
4.6432713676
 21
4.0671022168
  0
LINE
  5
2DC
100
AcDbEntity
  8
ALL_ASSEMBLY_MEMBERS
100
AcDbLine
 62
7
  6
CONTINUOUS
 10
4.6432713676
 20
4.1196364251
 11
4.6432713676
 21
4.1204801186
  0
LINE
  5
2DD
100
AcDbEntity
  8
ALL_ASSEMBLY_MEMBERS
100
AcDbLine
 62
7
  6
CONTINUOUS
 10
4.6450953748
 20
4.126148587
 11
4.6450953748
 21
4.1313823619
  0
LINE
  5
2DE
100
AcDbEntity
  8
ALL_ASSEMBLY_MEMBERS
100
AcDbLine
 62
7
  6
CONTINUOUS
 10
4.6450953748
 20
4.382897532
 11
4.6450953748
 21
4.4337907826
  0
LINE
  5
2DF
100
AcDbEntity
  8
ALL_ASSEMBLY_MEMBERS
100
AcDbLine
 62
7
  6
CONTINUOUS
 10
4.646919382
 20
4.763571401
 11
4.646919382
 21
4.7627208346
  0
LINE
  5
2E0
100
AcDbEntity
  8
ALL_ASSEMBLY_MEMBERS
100
AcDbLine
 62
7
  6
CONTINUOUS
 10
4.646919382
 20
4.7599700541
 11
4.646919382
 21
4.7574849492
  0
LINE
  5
2E1
100
AcDbEntity
  8
ALL_ASSEMBLY_MEMBERS
100
AcDbLine
 62
7
  6
CONTINUOUS
 10
4.646919382
 20
4.0863112736
 11
4.646919382
 21
4.087156373
  0
LINE
  5
2E2
100
AcDbEntity
  8
ALL_ASSEMBLY_MEMBERS
100
AcDbLine
 62
7
  6
CONTINUOUS
 10
4.6487433891
 20
4.1445605111
 11
4.6487433891
 21
4.1454061046
  0
LINE
  5
2E3
100
AcDbEntity
  8
ALL_ASSEMBLY_MEMBERS
100
AcDbLine
 62
7
  6
CONTINUOUS
 10
4.6523914034
 20
4.7635011853
 11
4.6523914034
 21
4.762263323
  0
LINE
  5
2E4
100
AcDbEntity
  8
ALL_ASSEMBLY_MEMBERS
100
AcDbLine
 62
7
  6
CONTINUOUS
 10
4.6523914034
 20
4.7607634193
 11
4.6523914034
 21
4.7582824265
  0
LINE
  5
2E5
100
AcDbEntity
  8
ALL_ASSEMBLY_MEMBERS
100
AcDbLine
 62
7
  6
CONTINUOUS
 10
4.6523914034
 20
4.0800063003
 11
4.6523914034
 21
4.0808522036
  0
LINE
  5
2E6
100
AcDbEntity
  8
ALL_ASSEMBLY_MEMBERS
100
AcDbLine
 62
7
  6
CONTINUOUS
 10
4.6523914034
 20
4.1392731654
 11
4.6523914034
 21
4.1401181521
  0
LINE
  5
2E7
100
AcDbEntity
  8
ALL_ASSEMBLY_MEMBERS
100
AcDbLine
 62
7
  6
CONTINUOUS
 10
4.6542154106
 20
4.7632881053
 11
4.6542154106
 21
4.7591077235
  0
LINE
  5
2E8
100
AcDbEntity
  8
ALL_ASSEMBLY_MEMBERS
100
AcDbLine
 62
7
  6
CONTINUOUS
 10
4.6542154106
 20
3.7940737673
 11
4.6542154106
 21
3.7990577102
  0
LINE
  5
2E9
100
AcDbEntity
  8
ALL_ASSEMBLY_MEMBERS
100
AcDbLine
 62
7
  6
CONTINUOUS
 10
4.6542154106
 20
4.1248434814
 11
4.6542154106
 21
4.1300719138
  0
LINE
  5
2EA
100
AcDbEntity
  8
ALL_ASSEMBLY_MEMBERS
100
AcDbLine
 62
7
  6
CONTINUOUS
 10
4.6542154106
 20
4.1632359302
 11
4.6542154106
 21
4.1721713112
  0
LINE
  5
2EB
100
AcDbEntity
  8
ALL_ASSEMBLY_MEMBERS
100
AcDbLine
 62
7
  6
CONTINUOUS
 10
4.6542154106
 20
4.382897532
 11
4.6542154106
 21
4.4422264328
  0
LINE
  5
2EC
100
AcDbEntity
  8
ALL_ASSEMBLY_MEMBERS
100
AcDbLine
 62
7
  6
CONTINUOUS
 10
4.6542154106
 20
4.4547625642
 11
4.6542154106
 21
4.4655468006
  0
LINE
  5
2ED
100
AcDbEntity
  8
ALL_ASSEMBLY_MEMBERS
100
AcDbLine
 62
7
  6
CONTINUOUS
 10
4.6542154106
 20
4.4875766312
 11
4.6542154106
 21
4.4980923106
  0
LINE
  5
2EE
100
AcDbEntity
  8
ALL_ASSEMBLY_MEMBERS
100
AcDbLine
 62
7
  6
CONTINUOUS
 10
4.6570697413
 20
3.8030114757
 11
4.6570697413
 21
3.8005115688
  0
LINE
  5
2EF
100
AcDbEntity
  8
ALL_ASSEMBLY_MEMBERS
100
AcDbLine
 62
7
  6
CONTINUOUS
 10
4.6570697413
 20
4.2660284822
 11
4.6570697413
 21
4.2916190334
  0
LINE
  5
2F0
100
AcDbEntity
  8
ALL_ASSEMBLY_MEMBERS
100
AcDbLine
 62
7
  6
CONTINUOUS
 10
4.6570697413
 20
4.6664091133
 11
4.6570697413
 21
4.6831084258
  0
LINE
  5
2F1
100
AcDbEntity
  8
ALL_ASSEMBLY_MEMBERS
100
AcDbLine
 62
7
  6
CONTINUOUS
 10
4.7062823397
 20
4.7713237578
 11
4.7062823397
 21
3.7863237578
  0
LINE
  5
2F2
100
AcDbEntity
  8
ALL_ASSEMBLY_MEMBERS
100
AcDbLine
 62
7
  6
CONTINUOUS
 10
4.8512920605
 20
4.7713237577
 11
4.8509160591
 21
4.7713164563
  0
LINE
  5
2F3
100
AcDbEntity
  8
ALL_ASSEMBLY_MEMBERS
100
AcDbLine
 62
7
  6
CONTINUOUS
 10
4.8509211995
 20
4.7713165739
 11
4.8512920605
 21
4.7713237577
  0
LINE
  5
2F4
100
AcDbEntity
  8
ALL_ASSEMBLY_MEMBERS
100
AcDbLine
 62
7
  6
CONTINUOUS
 10
4.6195592695
 20
4.7561998794
 11
4.6031432052
 21
4.7561998794
  0
LINE
  5
2F5
100
AcDbEntity
  8
ALL_ASSEMBLY_MEMBERS
100
AcDbLine
 62
7
  6
CONTINUOUS
 10
4.6195592695
 20
4.7586916394
 11
4.6031432052
 21
4.7586916394
  0
LINE
  5
2F6
100
AcDbEntity
  8
ALL_ASSEMBLY_MEMBERS
100
AcDbLine
 62
7
  6
CONTINUOUS
 10
4.6177352624
 20
4.7596248078
 11
4.6049672123
 21
4.7596248078
  0
LINE
  5
2F7
100
AcDbEntity
  8
ALL_ASSEMBLY_MEMBERS
100
AcDbLine
 62
7
  6
CONTINUOUS
 10
4.6177352624
 20
4.7604062616
 11
4.6049672123
 21
4.7604062616
  0
LINE
  5
2F8
100
AcDbEntity
  8
ALL_ASSEMBLY_MEMBERS
100
AcDbLine
 62
7
  6
CONTINUOUS
 10
4.509431946
 20
4.7611072223
 11
4.5684870641
 21
4.7611072223
  0
LINE
  5
2F9
100
AcDbEntity
  8
ALL_ASSEMBLY_MEMBERS
100
AcDbLine
 62
7
  6
CONTINUOUS
 10
4.6542154106
 20
4.7611072223
 11
4.7062823397
 21
4.7611072223
  0
LINE
  5
2FA
100
AcDbEntity
  8
ALL_ASSEMBLY_MEMBERS
100
AcDbLine
 62
7
  6
CONTINUOUS
 10
4.6177352624
 20
4.7628763689
 11
4.6049672123
 21
4.7628763689
  0
LINE
  5
2FB
100
AcDbEntity
  8
ALL_ASSEMBLY_MEMBERS
100
AcDbLine
 62
7
  6
CONTINUOUS
 10
4.6195592695
 20
4.7631966621
 11
4.6031432052
 21
4.7631966621
  0
LINE
  5
2FC
100
AcDbEntity
  8
ALL_ASSEMBLY_MEMBERS
100
AcDbLine
 62
7
  6
CONTINUOUS
 10
4.6195592695
 20
4.7635058282
 11
4.6031432052
 21
4.7635058282
  0
LINE
  5
2FD
100
AcDbEntity
  8
ALL_ASSEMBLY_MEMBERS
100
AcDbLine
 62
7
  6
CONTINUOUS
 10
4.509431946
 20
4.7638237578
 11
4.268931946
 21
4.7638237578
  0
LINE
  5
2FE
100
AcDbEntity
  8
ALL_ASSEMBLY_MEMBERS
100
AcDbLine
 62
7
  6
CONTINUOUS
 10
4.093931946
 20
4.7638237578
 11
3.977931946
 21
4.7638237578
  0
LINE
  5
2FF
100
AcDbEntity
  8
ALL_ASSEMBLY_MEMBERS
100
AcDbLine
 62
7
  6
CONTINUOUS
 10
4.8412823397
 20
4.7712222349
 11
4.7612823397
 21
4.7712222349
  0
LINE
  5
300
100
AcDbEntity
  8
ALL_ASSEMBLY_MEMBERS
100
AcDbLine
 62
7
  6
CONTINUOUS
 10
4.7062823397
 20
4.7713237578
 11
4.7512823397
 21
4.7713237578
  0
LINE
  5
301
100
AcDbEntity
  8
ALL_ASSEMBLY_MEMBERS
100
AcDbLine
 62
7
  6
CONTINUOUS
 10
4.8512823397
 20
4.7713237578
 11
4.8761573397
 21
4.7713237578
  0
LINE
  5
302
100
AcDbEntity
  8
ALL_ASSEMBLY_MEMBERS
100
AcDbLine
 62
7
  6
CONTINUOUS
 10
4.751272624
 20
4.7713237578
 11
4.7516422862
 21
4.7713165971
  0
LINE
  5
303
100
AcDbEntity
  8
ALL_ASSEMBLY_MEMBERS
100
AcDbLine
 62
7
  6
CONTINUOUS
 10
4.751647909
 20
4.7713164735
 11
4.7512726218
 21
4.7713237577
  0
LINE
  5
304
100
AcDbEntity
  8
ALL_ASSEMBLY_MEMBERS
100
AcDbLine
 62
7
  6
CONTINUOUS
 10
4.116431946
 20
4.8751070258
 11
4.246431946
 21
4.8751070258
  0
LINE
  5
305
100
AcDbEntity
  8
ALL_ASSEMBLY_MEMBERS
100
AcDbLine
 62
7
  6
CONTINUOUS
 10
4.949020116
 20
4.8888237578
 11
4.9556573397
 21
4.8888237578
  0
LINE
  5
306
100
AcDbEntity
  8
ALL_ASSEMBLY_MEMBERS
100
AcDbLine
 62
7
  6
CONTINUOUS
 10
4.2259774006
 20
4.9035479171
 11
4.1368864915
 21
4.9035479171
  0
LINE
  5
307
100
AcDbEntity
  8
ALL_ASSEMBLY_MEMBERS
100
AcDbLine
 62
7
  6
CONTINUOUS
 10
4.949020116
 20
4.9538237578
 11
4.9556573397
 21
4.9538237578
  0
LINE
  5
308
100
AcDbEntity
  8
ALL_ASSEMBLY_MEMBERS
100
AcDbLine
 62
7
  6
CONTINUOUS
 10
4.8761573397
 20
3.7488247773
 11
4.8761573397
 21
4.8088227382
  0
LINE
  5
309
100
AcDbEntity
  8
ALL_ASSEMBLY_MEMBERS
100
AcDbLine
 62
7
  6
CONTINUOUS
 10
4.949020116
 20
5.0438237578
 11
4.949020116
 21
4.9788237578
  0
LINE
  5
30A
100
AcDbEntity
  8
ALL_ASSEMBLY_MEMBERS
100
AcDbLine
 62
7
  6
CONTINUOUS
 10
4.949020116
 20
4.8888237578
 11
4.949020116
 21
4.9538237578
  0
LINE
  5
30B
100
AcDbEntity
  8
ALL_ASSEMBLY_MEMBERS
100
AcDbLine
 62
7
  6
CONTINUOUS
 10
4.9556573397
 20
2.7374020129
 11
4.9556573397
 21
5.8202455026
  0
LINE
  5
30C
100
AcDbEntity
  8
ALL_ASSEMBLY_MEMBERS
100
AcDbLine
 62
7
  6
CONTINUOUS
 10
4.9766258446
 20
2.7077146821
 11
4.9766258446
 21
5.8499328334
  0
LINE
  5
30D
100
AcDbEntity
  8
ALL_ASSEMBLY_MEMBERS
100
AcDbLine
 62
7
  6
CONTINUOUS
 10
4.949020116
 20
4.9788237578
 11
4.9556573397
 21
4.9788237578
  0
LINE
  5
30E
100
AcDbEntity
  8
ALL_ASSEMBLY_MEMBERS
100
AcDbLine
 62
7
  6
CONTINUOUS
 10
4.949020116
 20
5.0438237578
 11
4.9556573397
 21
5.0438237578
  0
LINE
  5
30F
100
AcDbEntity
  8
ALL_ASSEMBLY_MEMBERS
100
AcDbLine
 62
7
  6
CONTINUOUS
 10
5.0134161646
 20
2.6730479156
 11
5.0134161646
 21
5.8845995999
  0
LINE
  5
310
100
AcDbEntity
  8
ALL_ASSEMBLY_MEMBERS
100
AcDbLine
 62
7
  6
CONTINUOUS
 10
5.0424257095
 20
2.6538237578
 11
5.0424257095
 21
5.9038237578
  0
LINE
  5
311
100
AcDbEntity
  8
ALL_ASSEMBLY_MEMBERS
100
AcDbLine
 62
7
  6
CONTINUOUS
 10
5.1121573397
 20
5.9038237578
 11
5.1121573397
 21
2.6538237578
  0
LINE
  5
312
100
AcDbEntity
  8
ALL_ASSEMBLY_MEMBERS
100
AcDbLine
 62
7
  6
CONTINUOUS
 10
5.1121573397
 20
5.9038237578
 11
5.0424257095
 21
5.9038237578
  0
ARC
  5
313
100
AcDbEntity
  8
ALL_ASSEMBLY_MEMBERS
100
AcDbCircle
 62
7
  6
CONTINUOUS
 10
4.8412818524
 20
5.2637331424
 40
0.4925109075
100
AcDbArc
 50
270.000056693
 51
271.1214557203
  0
ARC
  5
314
100
AcDbEntity
  8
ALL_ASSEMBLY_MEMBERS
100
AcDbCircle
 62
7
  6
CONTINUOUS
 10
4.761275671
 20
5.2630027928
 40
0.4917805579
100
AcDbArc
 50
268.8775733666
 51
270.0007769503
  0
ARC
  5
315
100
AcDbEntity
  8
ALL_ASSEMBLY_MEMBERS
100
AcDbCircle
 62
7
  6
CONTINUOUS
 10
4.181431946
 20
4.7708237578
 40
0.14
100
AcDbArc
 50
71.446995465
 51
108.553004535
  0
ARC
  5
316
100
AcDbEntity
  8
ALL_ASSEMBLY_MEMBERS
100
AcDbCircle
 62
7
  6
CONTINUOUS
 10
3.0788160225
 20
4.8960016261
 40
0.1331157006
100
AcDbArc
 50
0.0741610847
 51
2.7778303586
  0
ARC
  5
317
100
AcDbEntity
  8
ALL_ASSEMBLY_MEMBERS
100
AcDbCircle
 62
7
  6
CONTINUOUS
 10
3.0848940604
 20
4.8963316724
 40
0.1270288144
100
AcDbArc
 50
2.7620001251
 51
4.5234362571
  0
ARC
  5
318
100
AcDbEntity
  8
ALL_ASSEMBLY_MEMBERS
100
AcDbCircle
 62
7
  6
CONTINUOUS
 10
3.111931946
 20
3.6600737578
 40
0.1
100
AcDbArc
 50
180.0
 51
360.0
  0
ARC
  5
319
100
AcDbEntity
  8
ALL_ASSEMBLY_MEMBERS
100
AcDbCircle
 62
7
  6
CONTINUOUS
 10
3.111931946
 20
4.8975737578
 40
0.1
100
AcDbArc
 50
6.034909015
 51
180.0
  0
ARC
  5
31A
100
AcDbEntity
  8
ALL_ASSEMBLY_MEMBERS
100
AcDbCircle
 62
7
  6
CONTINUOUS
 10
4.9556573397
 20
2.6486063665
 40
0.0627173913
100
AcDbArc
 50
22.9364108859
 51
70.4680059554
  0
ARC
  5
31B
100
AcDbEntity
  8
ALL_ASSEMBLY_MEMBERS
100
AcDbCircle
 62
7
  6
CONTINUOUS
 10
4.9556573397
 20
5.9090411491
 40
0.0627173913
100
AcDbArc
 50
289.5319940446
 51
337.0635891141
  0
ARC
  5
31C
100
AcDbEntity
  8
ALL_ASSEMBLY_MEMBERS
100
AcDbCircle
 62
7
  6
CONTINUOUS
 10
4.6403373474
 20
3.8448523955
 40
0.0454241773
100
AcDbArc
 50
270.0001392818
 51
270.9972673083
  0
ARC
  5
31D
100
AcDbEntity
  8
ALL_ASSEMBLY_MEMBERS
100
AcDbCircle
 62
7
  6
CONTINUOUS
 10
3.2561283595
 20
4.9128182434
 40
0.045
100
AcDbArc
 50
186.5841582047
 51
210.0000000005
  0
ARC
  5
31E
100
AcDbEntity
  8
ALL_ASSEMBLY_MEMBERS
100
AcDbCircle
 62
7
  6
CONTINUOUS
 10
3.4879313088
 20
4.5113237578
 40
0.045
100
AcDbArc
 50
210.0
 51
270.0000000005
  0
ARC
  5
31F
100
AcDbEntity
  8
ALL_ASSEMBLY_MEMBERS
100
AcDbCircle
 62
7
  6
CONTINUOUS
 10
3.1819356661
 20
4.5113237578
 40
0.045
100
AcDbArc
 50
311.8606916209
 51
29.9999999917
  0
ARC
  5
320
100
AcDbEntity
  8
ALL_ASSEMBLY_MEMBERS
100
AcDbCircle
 62
7
  6
CONTINUOUS
 10
4.9871573397
 20
2.7374020129
 40
0.0315
100
AcDbArc
 50
180.0
 51
250.4680059544
  0
ARC
  5
321
100
AcDbEntity
  8
ALL_ASSEMBLY_MEMBERS
100
AcDbCircle
 62
7
  6
CONTINUOUS
 10
4.9871573397
 20
5.8202455026
 40
0.0315
100
AcDbArc
 50
109.5319940456
 51
180.0
  0
ARC
  5
322
100
AcDbEntity
  8
ALL_ASSEMBLY_MEMBERS
100
AcDbCircle
 62
7
  6
CONTINUOUS
 10
5.0424257095
 20
2.6853237578
 40
0.0315
100
AcDbArc
 50
202.9364108859
 51
270.0
  0
ARC
  5
323
100
AcDbEntity
  8
ALL_ASSEMBLY_MEMBERS
100
AcDbCircle
 62
7
  6
CONTINUOUS
 10
5.0424257095
 20
5.8723237578
 40
0.0315
100
AcDbArc
 50
90.0
 51
157.0635891141
  0
ARC
  5
324
100
AcDbEntity
  8
ALL_ASSEMBLY_MEMBERS
100
AcDbCircle
 62
7
  6
CONTINUOUS
 10
4.146431946
 20
4.8751070258
 40
0.03
100
AcDbArc
 50
108.553004535
 51
180.0
  0
ARC
  5
325
100
AcDbEntity
  8
ALL_ASSEMBLY_MEMBERS
100
AcDbCircle
 62
7
  6
CONTINUOUS
 10
4.216431946
 20
4.8751070258
 40
0.03
100
AcDbArc
 50
0.0
 51
71.446995465
  0
SPLINE
  5
326
100
AcDbEntity
  8
ALL_ASSEMBLY_MEMBERS
100
AcDbSpline
 62
7
  6
CONTINUOUS
 70
0
 71
3
 72
20
 73
16
 74
0
 42
0.0000001
 43
0.0000001
 44
0.0000000001
 40
0.0
 40
0.0
 40
0.0
 40
0.0
 40
0.0161728331
 40
0.0258036186
 40
0.0369209756
 40
0.0643334836
 40
0.0992315881
 40
0.1417947005
 40
0.1919721843
 40
0.2494665808
 40
0.313814204
 40
0.4610154349
 40
0.6286948361
 40
0.8109417894
 40
1.0
 40
1.0
 40
1.0
 40
1.0
 10
4.6472269513
 20
3.8005115861
 30
0.0
 10
4.6472269497
 20
3.8005501384
 30
0.0
 10
4.6472060641
 20
3.8006119137
 30
0.0
 10
4.647152688
 20
3.8006819775
 30
0.0
 10
4.6470691148
 20
3.8007614302
 30
0.0
 10
4.6469205845
 20
3.8008562388
 30
0.0
 10
4.6466934413
 20
3.8009614066
 30
0.0
 10
4.6464064988
 20
3.8010636441
 30
0.0
 10
4.6460618999
 20
3.8011617315
 30
0.0
 10
4.6456623674
 20
3.8012546197
 30
0.0
 10
4.6450324281
 20
3.80137564
 30
0.0
 10
4.6441367891
 20
3.8015021111
 30
0.0
 10
4.642956604
 20
3.8016127403
 30
0.0
 10
4.6416733082
 20
3.8016811515
 30
0.0
 10
4.6407881289
 20
3.8016968574
 30
0.0
 10
4.6403374578
 20
3.8016968574
 30
0.0
  0
SPLINE
  5
327
100
AcDbEntity
  8
ALL_ASSEMBLY_MEMBERS
100
AcDbSpline
 62
7
  6
CONTINUOUS
 70
0
 71
3
 72
23
 73
19
 74
0
 42
0.0000001
 43
0.0000001
 44
0.0000000001
 40
0.0
 40
0.0
 40
0.0
 40
0.0
 40
0.0078034152
 40
0.0161641464
 40
0.0256081261
 40
0.0365034451
 40
0.0490751587
 40
0.0634558353
 40
0.0979038589
 40
0.1401458142
 40
0.1900907423
 40
0.247437934
 40
0.3118120388
 40
0.3826710245
 40
0.459367591
 40
0.6275128975
 40
0.8101911166
 40
1.0
 40
1.0
 40
1.0
 40
1.0
 10
4.6570695181
 20
3.8005116096
 30
0.0
 10
4.65706952
 20
3.8004666526
 30
0.0
 10
4.6570551825
 20
3.8003730158
 30
0.0
 10
4.656992046
 20
3.8002379527
 30
0.0
 10
4.6568892314
 20
3.8001070584
 30
0.0
 10
4.6567477301
 20
3.7999798411
 30
0.0
 10
4.656568003
 20
3.7998556054
 30
0.0
 10
4.6562585612
 20
3.799683361
 30
0.0
 10
4.6557724363
 20
3.7994820777
 30
0.0
 10
4.65507516
 20
3.7992656963
 30
0.0
 10
4.654237195
 20
3.7990636742
 30
0.0
 10
4.653265683
 20
3.7988771476
 30
0.0
 10
4.6521689709
 20
3.7987079123
 30
0.0
 10
4.6509572624
 20
3.7985567166
 30
0.0
 10
4.6491474516
 20
3.7983745953
 30
0.0
 10
4.6466897625
 20
3.7982037812
 30
0.0
 10
4.6435770712
 20
3.7980829399
 30
0.0
 10
4.641430984
 20
3.7980560529
 30
0.0
 10
4.6403374578
 20
3.7980560529
 30
0.0
  0
SPLINE
  5
328
100
AcDbEntity
  8
ALL_ASSEMBLY_MEMBERS
100
AcDbSpline
 62
7
  6
CONTINUOUS
 70
0
 71
3
 72
20
 73
16
 74
0
 42
0.0000001
 43
0.0000001
 44
0.0000000001
 40
0.0
 40
0.0
 40
0.0
 40
0.0
 40
0.189057575
 40
0.3713042276
 40
0.5389848736
 40
0.6861864316
 40
0.7505333508
 40
0.8080268943
 40
0.8582038084
 40
0.9007670648
 40
0.9356657355
 40
0.9630788201
 40
0.9741963456
 40
0.9838271894
 40
1.0
 40
1.0
 40
1.0
 40
1.0
 10
4.6403374578
 20
3.8016968574
 30
0.0
 10
4.6398867882
 20
3.8016968574
 30
0.0
 10
4.6390016112
 20
3.8016811524
 30
0.0
 10
4.6377183146
 20
3.8016127404
 30
0.0
 10
4.6365381266
 20
3.8015021097
 30
0.0
 10
4.6356424853
 20
3.8013756405
 30
0.0
 10
4.6350125488
 20
3.8012546213
 30
0.0
 10
4.6346130213
 20
3.801161734
 30
0.0
 10
4.6342684256
 20
3.8010636463
 30
0.0
 10
4.633981483
 20
3.8009614084
 30
0.0
 10
4.6337543367
 20
3.80085624
 30
0.0
 10
4.6336058029
 20
3.8007614311
 30
0.0
 10
4.6335222274
 20
3.800681978
 30
0.0
 10
4.6334688507
 20
3.800611914
 30
0.0
 10
4.6334479655
 20
3.8005501384
 30
0.0
 10
4.6334479642
 20
3.8005115861
 30
0.0
  0
SPLINE
  5
329
100
AcDbEntity
  8
ALL_ASSEMBLY_MEMBERS
100
AcDbSpline
 62
7
  6
CONTINUOUS
 70
0
 71
3
 72
23
 73
19
 74
0
 42
0.0000001
 43
0.0000001
 44
0.0000000001
 40
0.0
 40
0.0
 40
0.0
 40
0.0
 40
0.1898090382
 40
0.3724871401
 40
0.5406320978
 40
0.6173287805
 40
0.6881879839
 40
0.752562232
 40
0.8099093563
 40
0.859854115
 40
0.9020959549
 40
0.9365440101
 40
0.9509247321
 40
0.9634964936
 40
0.9743918508
 40
0.9838358491
 40
0.9921965845
 40
1.0
 40
1.0
 40
1.0
 40
1.0
 10
4.6403374578
 20
3.7980560529
 30
0.0
 10
4.6392439308
 20
3.7980560529
 30
0.0
 10
4.6370978434
 20
3.7980829403
 30
0.0
 10
4.6339851538
 20
3.7982037807
 30
0.0
 10
4.6315274667
 20
3.7983745951
 30
0.0
 10
4.6297176561
 20
3.7985567168
 30
0.0
 10
4.6285059449
 20
3.7987079127
 30
0.0
 10
4.627409231
 20
3.7988771477
 30
0.0
 10
4.6264377194
 20
3.7990636737
 30
0.0
 10
4.6255997564
 20
3.7992656956
 30
0.0
 10
4.6249024818
 20
3.7994820772
 30
0.0
 10
4.6244163571
 20
3.7996833605
 30
0.0
 10
4.6241069146
 20
3.7998556049
 30
0.0
 10
4.6239271866
 20
3.7999798407
 30
0.0
 10
4.6237856845
 20
3.8001070581
 30
0.0
 10
4.6236828694
 20
3.8002379525
 30
0.0
 10
4.623619733
 20
3.8003730157
 30
0.0
 10
4.6236053956
 20
3.8004666526
 30
0.0
 10
4.6236053975
 20
3.8005116096
 30
0.0
  0
LINE
  5
32A
100
AcDbEntity
  8
ALL_ASSEMBLY_MEMBERS
100
AcDbLine
 62
7
  6
CONTINUOUS
 10
4.6403374578
 20
3.8035684837
 11
4.6479477292
 21
3.8032043346
  0
SPLINE
  5
32B
100
AcDbEntity
  8
ALL_ASSEMBLY_MEMBERS
100
AcDbSpline
 62
7
  6
CONTINUOUS
 70
0
 71
3
 72
19
 73
15
 74
0
 42
0.0000001
 43
0.0000001
 44
0.0000000001
 40
0.0
 40
0.0
 40
0.0
 40
0.0
 40
0.20355588
 40
0.388916636
 40
0.5529760947
 40
0.6930837406
 40
0.7535900277
 40
0.8074763989
 40
0.8546516999
 40
0.8951680966
 40
0.9292150896
 40
0.95723513
 40
0.9801956094
 40
1.0
 40
1.0
 40
1.0
 40
1.0
 10
4.6479477292
 20
3.8032043346
 30
0.0
 10
4.6486085794
 20
3.8031378972
 30
0.0
 10
4.6498693535
 20
3.8029911924
 30
0.0
 10
4.6516531746
 20
3.802716926
 30
0.0
 10
4.6532204394
 20
3.8024060184
 30
0.0
 10
4.6543741548
 20
3.8021108264
 30
0.0
 10
4.6551651612
 20
3.8018572786
 30
0.0
 10
4.6556591729
 20
3.8016725297
 30
0.0
 10
4.6560816644
 20
3.8014848309
 30
0.0
 10
4.6564313368
 20
3.8012952512
 30
0.0
 10
4.6567075096
 20
3.8011045661
 30
0.0
 10
4.6569098647
 20
3.8009124596
 30
0.0
 10
4.6570378454
 20
3.8007165412
 30
0.0
 10
4.6570695155
 20
3.8005762292
 30
0.0
 10
4.6570695181
 20
3.8005116096
 30
0.0
  0
SPLINE
  5
32C
100
AcDbEntity
  8
ALL_ASSEMBLY_MEMBERS
100
AcDbSpline
 62
7
  6
CONTINUOUS
 70
0
 71
3
 72
18
 73
14
 74
0
 42
0.0000001
 43
0.0000001
 44
0.0000000001
 40
0.0
 40
0.0
 40
0.0
 40
0.0
 40
0.0196331412
 40
0.0421488034
 40
0.0696179638
 40
0.1031481057
 40
0.143227933
 40
0.1900563012
 40
0.3040558468
 40
0.4444578624
 40
0.6090795544
 40
0.7953332078
 40
1.0
 40
1.0
 40
1.0
 40
1.0
 10
4.6334479642
 20
3.8005115861
 30
0.0
 10
4.6334479634
 20
3.8004850641
 30
0.0
 10
4.6334609122
 20
3.8004277224
 30
0.0
 10
4.6335144452
 20
3.800348696
 30
0.0
 10
4.6335991283
 20
3.8002730734
 30
0.0
 10
4.6337147306
 20
3.8001996665
 30
0.0
 10
4.6338610815
 20
3.8001280644
 30
0.0
 10
4.6341138707
 20
3.8000287076
 30
0.0
 10
4.6345055613
 20
3.7999157141
 30
0.0
 10
4.6350595404
 20
3.7997983175
 30
0.0
 10
4.6357151694
 20
3.799693842
 30
0.0
 10
4.636460451
 20
3.7996046149
 30
0.0
 10
4.6369865767
 20
3.7995581701
 30
0.0
 10
4.6372622712
 20
3.7995373406
 30
0.0
  0
LINE
  5
32D
100
AcDbEntity
  8
ALL_ASSEMBLY_MEMBERS
100
AcDbLine
 62
7
  6
CONTINUOUS
 10
4.6372622712
 20
3.7995373406
 11
4.6403374578
 21
3.7994282181
  0
SPLINE
  5
32E
100
AcDbEntity
  8
ALL_ASSEMBLY_MEMBERS
100
AcDbSpline
 62
7
  6
CONTINUOUS
 70
0
 71
3
 72
23
 73
19
 74
0
 42
0.0000001
 43
0.0000001
 44
0.0000000001
 40
0.0
 40
0.0
 40
0.0
 40
0.0
 40
0.0078812127
 40
0.0164536615
 40
0.0261985843
 40
0.0374419714
 40
0.0503770288
 40
0.0651150352
 40
0.1002079959
 40
0.1429471231
 40
0.1932146859
 40
0.2507048315
 40
0.3150490248
 40
0.385731092
 40
0.4621336633
 40
0.6294611839
 40
0.8111746924
 40
1.0
 40
1.0
 40
1.0
 40
1.0
 10
4.6570695159
 20
3.8030115171
 30
0.0
 10
4.6570695135
 20
3.8030572739
 30
0.0
 10
4.6570547433
 20
3.8031532364
 30
0.0
 10
4.6569914441
 20
3.8032930902
 30
0.0
 10
4.6568886412
 20
3.8034317464
 30
0.0
 10
4.6567471349
 20
3.8035696093
 30
0.0
 10
4.6565673637
 20
3.8037071382
 30
0.0
 10
4.6562585693
 20
3.803901348
 30
0.0
 10
4.6557736107
 20
3.8041362412
 30
0.0
 10
4.6550773136
 20
3.8043991005
 30
0.0
 10
4.6542409984
 20
3.8046538931
 30
0.0
 10
4.6532716462
 20
3.8048975076
 30
0.0
 10
4.6521773234
 20
3.8051262155
 30
0.0
 10
4.6509678533
 20
3.805337071
 30
0.0
 10
4.6491610214
 20
3.8055983528
 30
0.0
 10
4.6467032086
 20
3.8058544124
 30
0.0
 10
4.6435852893
 20
3.8060419454
 30
0.0
 10
4.6414337421
 20
3.8060845557
 30
0.0
 10
4.6403374578
 20
3.8060845557
 30
0.0
  0
SPLINE
  5
32F
100
AcDbEntity
  8
ALL_ASSEMBLY_MEMBERS
100
AcDbSpline
 62
7
  6
CONTINUOUS
 70
0
 71
3
 72
19
 73
15
 74
0
 42
0.0000001
 43
0.0000001
 44
0.0000000001
 40
0.0
 40
0.0
 40
0.0
 40
0.0
 40
0.0198049523
 40
0.0427658196
 40
0.0707860016
 40
0.1048329554
 40
0.1453492186
 40
0.1925243779
 40
0.2464106673
 40
0.3069168988
 40
0.4470242174
 40
0.6110828505
 40
0.7964431978
 40
1.0
 40
1.0
 40
1.0
 40
1.0
 10
4.6236053975
 20
3.8005116096
 30
0.0
 10
4.6236054003
 20
3.8005762263
 30
0.0
 10
4.6236370673
 20
3.8007165312
 30
0.0
 10
4.6237650363
 20
3.800912441
 30
0.0
 10
4.6239673733
 20
3.8011045396
 30
0.0
 10
4.6242435218
 20
3.8012952166
 30
0.0
 10
4.6245931644
 20
3.8014847885
 30
0.0
 10
4.625015621
 20
3.80167248
 30
0.0
 10
4.6255095933
 20
3.8018572221
 30
0.0
 10
4.6263005372
 20
3.8021107616
 30
0.0
 10
4.627454161
 20
3.802405946
 30
0.0
 10
4.6290213029
 20
3.8027168491
 30
0.0
 10
4.6308049901
 20
3.8029911147
 30
0.0
 10
4.6320656725
 20
3.8031378227
 30
0.0
 10
4.6327264768
 20
3.8032042629
 30
0.0
  0
LINE
  5
330
100
AcDbEntity
  8
ALL_ASSEMBLY_MEMBERS
100
AcDbLine
 62
7
  6
CONTINUOUS
 10
4.6327264768
 20
3.8032042629
 11
4.6403374578
 21
3.8035684837
  0
LINE
  5
331
100
AcDbEntity
  8
ALL_ASSEMBLY_MEMBERS
100
AcDbLine
 62
7
  6
CONTINUOUS
 10
4.6411279424
 20
3.7994350987
 11
4.6434125702
 21
3.7995373357
  0
SPLINE
  5
332
100
AcDbEntity
  8
ALL_ASSEMBLY_MEMBERS
100
AcDbSpline
 62
7
  6
CONTINUOUS
 70
0
 71
3
 72
18
 73
14
 74
0
 42
0.0000001
 43
0.0000001
 44
0.0000000001
 40
0.0
 40
0.0
 40
0.0
 40
0.0
 40
0.2046682898
 40
0.3909226323
 40
0.5555427642
 40
0.6959425846
 40
0.8099416072
 40
0.856770528
 40
0.8968510988
 40
0.9303819048
 40
0.9578513979
 40
0.9803670226
 40
1.0
 40
1.0
 40
1.0
 40
1.0
 10
4.6434125702
 20
3.7995373357
 30
0.0
 10
4.6436882718
 20
3.7995581652
 30
0.0
 10
4.6442144101
 20
3.7996046102
 30
0.0
 10
4.6449597066
 20
3.7996938358
 30
0.0
 10
4.6456153439
 20
3.7997983099
 30
0.0
 10
4.6461693278
 20
3.7999157067
 30
0.0
 10
4.6465610226
 20
3.8000287016
 30
0.0
 10
4.646813818
 20
3.8001280591
 30
0.0
 10
4.6469601747
 20
3.8001996623
 30
0.0
 10
4.6470757821
 20
3.80027307
 30
0.0
 10
4.6471604691
 20
3.8003486935
 30
0.0
 10
4.6472140038
 20
3.8004277211
 30
0.0
 10
4.6472269524
 20
3.8004850639
 30
0.0
 10
4.6472269513
 20
3.8005115861
 30
0.0
  0
SPLINE
  5
333
100
AcDbEntity
  8
ALL_ASSEMBLY_MEMBERS
100
AcDbSpline
 62
7
  6
CONTINUOUS
 70
0
 71
3
 72
23
 73
19
 74
0
 42
0.0000001
 43
0.0000001
 44
0.0000000001
 40
0.0
 40
0.0
 40
0.0
 40
0.0
 40
0.1888229036
 40
0.3705327349
 40
0.5378605567
 40
0.6142646738
 40
0.6849485675
 40
0.7492938873
 40
0.8067841067
 40
0.8570512933
 40
0.899790283
 40
0.9348837029
 40
0.9496220702
 40
0.9625575115
 40
0.9738012536
 40
0.9835463683
 40
0.9921188286
 40
1.0
 40
1.0
 40
1.0
 40
1.0
 10
4.6403374578
 20
3.8060845557
 30
0.0
 10
4.6392411875
 20
3.8060845557
 30
0.0
 10
4.6370896755
 20
3.8060419501
 30
0.0
 10
4.63397179
 20
3.8058544175
 30
0.0
 10
4.6315139872
 20
3.8055983645
 30
0.0
 10
4.6297071343
 20
3.8053370791
 30
0.0
 10
4.628497638
 20
3.8051262223
 30
0.0
 10
4.6274032971
 20
3.8048975151
 30
0.0
 10
4.6264339395
 20
3.8046539024
 30
0.0
 10
4.6255976265
 20
3.8043991111
 30
0.0
 10
4.6249013302
 20
3.8041362504
 30
0.0
 10
4.6244163682
 20
3.8039013553
 30
0.0
 10
4.624107567
 20
3.8037071435
 30
0.0
 10
4.6239277894
 20
3.8035696125
 30
0.0
 10
4.6237862767
 20
3.8034317485
 30
0.0
 10
4.6236834693
 20
3.8032930915
 30
0.0
 10
4.62362017
 20
3.8031532363
 30
0.0
 10
4.6236054015
 20
3.8030572737
 30
0.0
 10
4.6236053999
 20
3.8030115171
 30
0.0
  0
SPLINE
  5
334
100
AcDbEntity
  8
ALL_ASSEMBLY_MEMBERS
100
AcDbSpline
 62
7
  6
CONTINUOUS
 70
0
 71
3
 72
15
 73
11
 74
0
 42
0.0000001
 43
0.0000001
 44
0.0000000001
 40
0.0
 40
0.0
 40
0.0
 40
0.0
 40
0.0414435246
 40
0.1545446594
 40
0.3155773785
 40
0.499997749
 40
0.6844188229
 40
0.8454517666
 40
0.9585542087
 40
1.0
 40
1.0
 40
1.0
 40
1.0
 10
4.268931946
 20
4.7638237578
 30
0.0
 10
4.2665329605
 20
4.763457084
 30
0.0
 10
4.2575788624
 20
4.762142199
 30
0.0
 10
4.2392367753
 20
4.7598633078
 30
0.0
 10
4.2124653583
 20
4.7576452748
 30
0.0
 10
4.1814323004
 20
4.756743111
 30
0.0
 10
4.150399228
 20
4.7576452318
 30
0.0
 10
4.1236276777
 20
4.7598632443
 30
0.0
 10
4.1052853682
 20
4.7621421503
 30
0.0
 10
4.0963310627
 20
4.7634570637
 30
0.0
 10
4.093931946
 20
4.7638237578
 30
0.0
  0
LINE
  5
335
100
AcDbEntity
  8
ALL_ASSEMBLY_MEMBERS
100
AcDbLine
 62
7
  6
CONTINUOUS
 10
3.2113777484
 20
3.9641920386
 11
3.2119317378
 21
3.9316130748
  0
SPLINE
  5
336
100
AcDbEntity
  8
ALL_ASSEMBLY_MEMBERS
100
AcDbSpline
 62
7
  6
CONTINUOUS
 70
0
 71
3
 72
22
 73
18
 74
0
 42
0.0000001
 43
0.0000001
 44
0.0000000001
 40
0.0
 40
0.0
 40
0.0
 40
0.0
 40
0.0704427022
 40
0.1394477757
 40
0.2725239463
 40
0.3365373501
 40
0.3989081851
 40
0.4597981938
 40
0.5194585608
 40
0.5782363852
 40
0.6365433142
 40
0.6948099295
 40
0.7535074083
 40
0.8130599474
 40
0.8738570743
 40
0.9361535329
 40
1.0
 40
1.0
 40
1.0
 40
1.0
 10
3.4117189678
 20
4.1132879701
 30
0.0
 10
3.414383495
 20
4.1137545132
 30
0.0
 10
3.4196414576
 20
4.1147805468
 30
0.0
 10
3.4298144906
 20
4.1172423346
 30
0.0
 10
3.4395634799
 20
4.1203976111
 30
0.0
 10
3.4486922043
 20
4.1244084682
 30
0.0
 10
3.4550474155
 20
4.127790921
 30
0.0
 10
3.4609553991
 20
4.1316073839
 30
0.0
 10
3.4663785573
 20
4.1358686801
 30
0.0
 10
3.4712765312
 20
4.1405848333
 30
0.0
 10
3.4756097966
 20
4.1457562734
 30
0.0
 10
3.4793462379
 20
4.1513713534
 30
0.0
 10
3.4824476117
 20
4.1574148028
 30
0.0
 10
3.4848901136
 20
4.1638569343
 30
0.0
 10
3.486646694
 20
4.1706614175
 30
0.0
 10
3.4877011791
 20
4.1777743974
 30
0.0
 10
3.4879311788
 20
4.1826219959
 30
0.0
 10
3.4879313088
 20
4.1850737578
 30
0.0
  0
SPLINE
  5
337
100
AcDbEntity
  8
ALL_ASSEMBLY_MEMBERS
100
AcDbSpline
 62
7
  6
CONTINUOUS
 70
0
 71
3
 72
15
 73
11
 74
0
 42
0.0000001
 43
0.0000001
 44
0.0000000001
 40
0.0
 40
0.0
 40
0.0
 40
0.0
 40
0.1218295975
 40
0.2417525318
 40
0.3614584705
 40
0.4824822472
 40
0.6061042815
 40
0.7332667722
 40
0.8645559183
 40
1.0
 40
1.0
 40
1.0
 40
1.0
 10
3.4309001691
 20
4.1299320058
 30
0.0
 10
3.432401293
 20
4.1312374437
 30
0.0
 10
3.4352362416
 20
4.1339999723
 30
0.0
 10
3.4389462259
 20
4.1386083317
 30
0.0
 10
3.44206575
 20
4.1436200872
 30
0.0
 10
3.4446019074
 20
4.1490162785
 30
0.0
 10
3.4465625121
 20
4.1547745875
 30
0.0
 10
3.4479541417
 20
4.1608669393
 30
0.0
 10
3.448782569
 20
4.1672540243
 30
0.0
 10
3.4489601183
 20
4.1716120898
 30
0.0
 10
3.4489601656
 20
4.1738237578
 30
0.0
  0
SPLINE
  5
338
100
AcDbEntity
  8
ALL_ASSEMBLY_MEMBERS
100
AcDbSpline
 62
7
  6
CONTINUOUS
 70
0
 71
3
 72
44
 73
40
 74
0
 42
0.0000001
 43
0.0000001
 44
0.0000000001
 40
0.0
 40
0.0
 40
0.0
 40
0.0
 40
0.000058285
 40
0.0002321688
 40
0.0005197709
 40
0.000919211
 40
0.0014286087
 40
0.0020460839
 40
0.0035977467
 40
0.0055591604
 40
0.0079152886
 40
0.0106510969
 40
0.0137513536
 40
0.0171981415
 40
0.0209716232
 40
0.0294191768
 40
0.03893511
 40
0.0493606434
 40
0.0605485294
 40
0.072408385
 40
0.0848675692
 40
0.0978535534
 40
0.1251185369
 40
0.1537605734
 40
0.1835426155
 40
0.2142475352
 40
0.2457090056
 40
0.2778308086
 40
0.3105234849
 40
0.3437163135
 40
0.4114210404
 40
0.4806567411
 40
0.5512456377
 40
0.6230805331
 40
0.6961035577
 40
0.7702935353
 40
0.8456558937
 40
0.9222143043
 40
1.0
 40
1.0
 40
1.0
 40
1.0
 10
3.2171572163
 20
4.8903182434
 30
0.0
 10
3.2171560526
 20
4.8903199795
 30
0.0
 10
3.2171619743
 20
4.890302731
 30
0.0
 10
3.2171624493
 20
4.8902933862
 30
0.0
 10
3.217171745
 20
4.8902583817
 30
0.0
 10
3.2171806803
 20
4.8902188055
 30
0.0
 10
3.2171936232
 20
4.8901647068
 30
0.0
 10
3.2172154754
 20
4.8900716075
 30
0.0
 10
3.2172494113
 20
4.8899271533
 30
0.0
 10
3.2172971797
 20
4.8897223025
 30
0.0
 10
3.2173543464
 20
4.8894758815
 30
0.0
 10
3.2174203399
 20
4.8891896426
 30
0.0
 10
3.2174946862
 20
4.8888651754
 30
0.0
 10
3.2175767957
 20
4.8885043194
 30
0.0
 10
3.217700522
 20
4.8879562833
 30
0.0
 10
3.2178699962
 20
4.8871954683
 30
0.0
 10
3.2180871004
 20
4.8862008906
 30
0.0
 10
3.2183198679
 20
4.885109165
 30
0.0
 10
3.2185636564
 20
4.8839338674
 30
0.0
 10
3.2188151905
 20
4.8826857205
 30
0.0
 10
3.219071802
 20
4.8813728447
 30
0.0
 10
3.2194231038
 20
4.8795156498
 30
0.0
 10
3.2198583979
 20
4.8770838031
 30
0.0
 10
3.2203573214
 20
4.8740517761
 30
0.0
 10
3.2208311687
 20
4.8708909298
 30
0.0
 10
3.2212708732
 20
4.8676230943
 30
0.0
 10
3.2216689429
 20
4.8642654102
 30
0.0
 10
3.2220201788
 20
4.8608308389
 30
0.0
 10
3.2223194738
 20
4.8573290103
 30
0.0
 10
3.2226452023
 20
4.8525495282
 30
0.0
 10
3.2228975024
 20
4.8464525202
 30
0.0
 10
3.2229249966
 20
4.8390089925
 30
0.0
 10
3.2226470354
 20
4.8314220203
 30
0.0
 10
3.2220281055
 20
4.8237185489
 30
0.0
 10
3.2210271963
 20
4.8159245137
 30
0.0
 10
3.2195951961
 20
4.8080686392
 30
0.0
 10
3.2176719344
 20
4.8001863707
 30
0.0
 10
3.2151836451
 20
4.7923273471
 30
0.0
 10
3.2131034535
 20
4.7871898798
 30
0.0
 10
3.2119394958
 20
4.7846550475
 30
0.0
  0
LINE
  5
339
100
AcDbEntity
  8
ALL_ASSEMBLY_MEMBERS
100
AcDbLine
 62
7
  6
CONTINUOUS
 10
3.2119317464
 20
4.0088972191
 11
3.2113777484
 21
3.9641920386
  0
SPLINE
  5
33A
100
AcDbEntity
  8
ALL_ASSEMBLY_MEMBERS
100
AcDbSpline
 62
7
  6
CONTINUOUS
 70
0
 71
3
 72
74
 73
70
 74
0
 42
0.0000001
 43
0.0000001
 44
0.0000000001
 40
0.0
 40
0.0
 40
0.0
 40
0.0
 40
0.0000215465
 40
0.0000856646
 40
0.0001920288
 40
0.0003403136
 40
0.0005301933
 40
0.0007613424
 40
0.0013461466
 40
0.0020921217
 40
0.0029966631
 40
0.0040571664
 40
0.0052710273
 40
0.0081478303
 40
0.0115960043
 40
0.0155764532
 40
0.0200498396
 40
0.0249768279
 40
0.0303188588
 40
0.0421189905
 40
0.0552048006
 40
0.0693509809
 40
0.0843922187
 40
0.1001803396
 40
0.1166032117
 40
0.1335672436
 40
0.1688235835
 40
0.2054920267
 40
0.2432599795
 40
0.2819076557
 40
0.3212770426
 40
0.3612516786
 40
0.4017433229
 40
0.4426831961
 40
0.4840113981
 40
0.5256742997
 40
0.5676026643
 40
0.6097137848
 40
0.6518514056
 40
0.6728755644
 40
0.693804656
 40
0.7145898061
 40
0.7351831198
 40
0.755508634
 40
0.7754803833
 40
0.7950151036
 40
0.8140336144
 40
0.8501741638
 40
0.8832923851
 40
0.912926613
 40
0.9263147156
 40
0.9386992109
 40
0.9500379187
 40
0.9602970012
 40
0.969444992
 40
0.9774475186
 40
0.9842748107
 40
0.9899024452
 40
0.9922585379
 40
0.9943052008
 40
0.9960402227
 40
0.9974624222
 40
0.9985706554
 40
0.9990066751
 40
0.9993637707
 40
0.999641797
 40
0.9998406082
 40
0.9999600581
 40
1.0
 40
1.0
 40
1.0
 40
1.0
 10
3.2209068093
 20
4.5338237578
 30
0.0
 10
3.2209080382
 20
4.5338224689
 30
0.0
 10
3.2209147211
 20
4.5338195485
 30
0.0
 10
3.2209275396
 20
4.5338103569
 30
0.0
 10
3.2209502695
 20
4.533796877
 30
0.0
 10
3.2209812951
 20
4.5337772579
 30
0.0
 10
3.2210213039
 20
4.5337524686
 30
0.0
 10
3.2210918562
 20
4.5337085116
 30
0.0
 10
3.2212014954
 20
4.5336403566
 30
0.0
 10
3.2213583929
 20
4.5335428153
 30
0.0
 10
3.2215487236
 20
4.5334245816
 30
0.0
 10
3.221771934
 20
4.5332859943
 30
0.0
 10
3.22213369
 20
4.533061522
 30
0.0
 10
3.2226632574
 20
4.5327332124
 30
0.0
 10
3.223387449
 20
4.5322848797
 30
0.0
 10
3.2242242456
 20
4.5317677486
 30
0.0
 10
3.2251655344
 20
4.5311872083
 30
0.0
 10
3.2262032434
 20
4.5305486302
 30
0.0
 10
3.2277577252
 20
4.5295943934
 30
0.0
 10
3.2298892883
 20
4.5282912935
 30
0.0
 10
3.2326462711
 20
4.526616175
 30
0.0
 10
3.2356378605
 20
4.5248113311
 30
0.0
 10
3.2388272796
 20
4.5229020802
 30
0.0
 10
3.2421857764
 20
4.5209089753
 30
0.0
 10
3.2456895017
 20
4.5188492603
 30
0.0
 10
3.2505931795
 20
4.5159960722
 30
0.0
 10
3.2569702449
 20
4.5123480999
 30
0.0
 10
3.2648895438
 20
4.5079343108
 30
0.0
 10
3.2731114183
 20
4.5034890783
 30
0.0
 10
3.281595858
 20
4.4990620833
 30
0.0
 10
3.2903172799
 20
4.4946977343
 30
0.0
 10
3.299260128
 20
4.4904391142
 30
0.0
 10
3.308415762
 20
4.4863308094
 30
0.0
 10
3.3177800377
 20
4.4824218703
 30
0.0
 10
3.3273517806
 20
4.4787700519
 30
0.0
 10
3.3371274142
 20
4.4754402537
 30
0.0
 10
3.3471008906
 20
4.4725170575
 30
0.0
 10
3.3572488478
 20
4.4700928843
 30
0.0
 10
3.3658248998
 20
4.4685843358
 30
0.0
 10
3.3727253646
 20
4.4677441951
 30
0.0
 10
3.3778938999
 20
4.4673113829
 30
0.0
 10
3.38304031
 20
4.4670891891
 30
0.0
 10
3.3881417872
 20
4.4670921332
 30
0.0
 10
3.3931709075
 20
4.4673196543
 30
0.0
 10
3.3980973459
 20
4.4677689267
 30
0.0
 10
3.4028895372
 20
4.4684409581
 30
0.0
 10
3.4089563902
 20
4.4695927445
 30
0.0
 10
3.4160253434
 20
4.4714447155
 30
0.0
 10
3.4237225656
 20
4.4742216335
 30
0.0
 10
3.4294640209
 20
4.4768121275
 30
0.0
 10
3.433536042
 20
4.478908443
 30
0.0
 10
3.4362200907
 20
4.480393835
 30
0.0
 10
3.4386413956
 20
4.4818176149
 30
0.0
 10
3.4408011519
 20
4.4831569575
 30
0.0
 10
3.4427008704
 20
4.4843913307
 30
0.0
 10
3.4443437785
 20
4.4854997092
 30
0.0
 10
3.4457317324
 20
4.4864653962
 30
0.0
 10
3.4467274081
 20
4.4871775594
 30
0.0
 10
3.4473977905
 20
4.4876652483
 30
0.0
 10
3.447806909
 20
4.4879651804
 30
0.0
 10
3.4481530749
 20
4.4882204332
 30
0.0
 10
3.4484361921
 20
4.4884304966
 30
0.0
 10
3.4486326991
 20
4.4885771165
 30
0.0
 10
3.4487583868
 20
4.4886714355
 30
0.0
 10
3.4488292027
 20
4.4887245758
 30
0.0
 10
3.448884051
 20
4.4887662842
 30
0.0
 10
3.4489237441
 20
4.4887955731
 30
0.0
 10
3.4489466367
 20
4.4888142577
 30
0.0
 10
3.4489578365
 20
4.4888214183
 30
0.0
 10
3.4489601656
 20
4.4888237578
 30
0.0
  0
SPLINE
  5
33B
100
AcDbEntity
  8
ALL_ASSEMBLY_MEMBERS
100
AcDbSpline
 62
7
  6
CONTINUOUS
 70
0
 71
3
 72
26
 73
22
 74
0
 42
0.0000001
 43
0.0000001
 44
0.0000000001
 40
0.0
 40
0.0
 40
0.0
 40
0.0
 40
0.168853637
 40
0.3140704679
 40
0.5370919656
 40
0.6225693677
 40
0.6950145139
 40
0.7568860832
 40
0.8096898676
 40
0.8547088095
 40
0.8927519939
 40
0.9243629565
 40
0.9500023014
 40
0.9606690033
 40
0.969942501
 40
0.9778610228
 40
0.9844687916
 40
0.9898192432
 40
0.9940118075
 40
0.9972573264
 40
1.0
 40
1.0
 40
1.0
 40
1.0
 10
3.2171572163
 20
3.973076515
 30
0.0
 10
3.2171571955
 20
3.9717059529
 30
0.0
 10
3.2172235876
 20
3.9691556635
 30
0.0
 10
3.2175991515
 20
3.9648105399
 30
0.0
 10
3.2182678022
 20
3.9611757542
 30
0.0
 10
3.2191371615
 20
3.9582066747
 30
0.0
 10
3.2197390935
 20
3.9565263398
 30
0.0
 10
3.220317642
 20
3.9551214589
 30
0.0
 10
3.2208643151
 20
3.9539457867
 30
0.0
 10
3.2213616191
 20
3.9529613298
 30
0.0
 10
3.2218007895
 20
3.9521405929
 30
0.0
 10
3.2221757476
 20
3.9514640749
 30
0.0
 10
3.2224418264
 20
3.9509812402
 30
0.0
 10
3.222614054
 20
3.9506537898
 30
0.0
 10
3.2227148603
 20
3.950451348
 30
0.0
 10
3.2227948164
 20
3.9502754185
 30
0.0
 10
3.2228532613
 20
3.9501249214
 30
0.0
 10
3.2228898246
 20
3.9499987161
 30
0.0
 10
3.2229039097
 20
3.9498953882
 30
0.0
 10
3.2228941309
 20
3.9498116286
 30
0.0
 10
3.2228661248
 20
3.9497689572
 30
0.0
 10
3.2228493042
 20
3.9497543743
 30
0.0
  0
SPLINE
  5
33C
100
AcDbEntity
  8
ALL_ASSEMBLY_MEMBERS
100
AcDbSpline
 62
7
  6
CONTINUOUS
 70
0
 71
3
 72
34
 73
30
 74
0
 42
0.0000001
 43
0.0000001
 44
0.0000000001
 40
0.0
 40
0.0
 40
0.0
 40
0.0
 40
0.0278768713
 40
0.056647634
 40
0.0862072045
 40
0.1164289127
 40
0.1782065301
 40
0.2410142031
 40
0.272610218
 40
0.3042441261
 40
0.3358922403
 40
0.367544512
 40
0.3991976095
 40
0.4308512674
 40
0.4625080132
 40
0.4941653676
 40
0.5574531731
 40
0.5891120842
 40
0.6207664076
 40
0.652419314
 40
0.6840691009
 40
0.7473507617
 40
0.8106312028
 40
0.8422743865
 40
0.8739078681
 40
0.905520931
 40
0.9370952536
 40
0.9686028583
 40
1.0
 40
1.0
 40
1.0
 40
1.0
 10
3.4879313088
 20
4.1850737578
 30
0.0
 10
3.4879312601
 20
4.1883037017
 30
0.0
 10
3.4875243053
 20
4.1948726668
 30
0.0
 10
3.4857774049
 20
4.2047261703
 30
0.0
 10
3.4829143524
 20
4.2145988557
 30
0.0
 10
3.4776361336
 20
4.2276782253
 30
0.0
 10
3.468506005
 20
4.243252622
 30
0.0
 10
3.4565463907
 20
4.2569787313
 30
0.0
 10
3.4455148239
 20
4.2665738476
 30
0.0
 10
3.436580672
 20
4.2730065623
 30
0.0
 10
3.4270952633
 20
4.2786047773
 30
0.0
 10
3.4171488345
 20
4.2833395684
 30
0.0
 10
3.4068325387
 20
4.2872014733
 30
0.0
 10
3.3962346246
 20
4.2902023066
 30
0.0
 10
3.3854360563
 20
4.2923710818
 30
0.0
 10
3.3708723558
 20
4.294205978
 30
0.0
 10
3.3561610241
 20
4.2945567301
 30
0.0
 10
3.3415174269
 20
4.2936231709
 30
0.0
 10
3.3305849794
 20
4.2923286232
 30
0.0
 10
3.3197348487
 20
4.2904792195
 30
0.0
 10
3.3054069711
 20
4.2873232491
 30
0.0
 10
3.2877931675
 20
4.2821532253
 30
0.0
 10
3.2706942065
 20
4.2754811999
 30
0.0
 10
3.2574085495
 20
4.2692659713
 30
0.0
 10
3.2476669689
 20
4.2641604019
 30
0.0
 10
3.2381851995
 20
4.2586023781
 30
0.0
 10
3.2290101428
 20
4.2525761813
 30
0.0
 10
3.2202053616
 20
4.2460619425
 30
0.0
 10
3.2146240433
 20
4.2413643814
 30
0.0
 10
3.2119275891
 20
4.2389224844
 30
0.0
  0
SPLINE
  5
33D
100
AcDbEntity
  8
ALL_ASSEMBLY_MEMBERS
100
AcDbSpline
 62
7
  6
CONTINUOUS
 70
0
 71
3
 72
35
 73
31
 74
0
 42
0.0000001
 43
0.0000001
 44
0.0000000001
 40
0.0
 40
0.0
 40
0.0
 40
0.0
 40
0.0281285137
 40
0.0570965199
 40
0.0867989012
 40
0.1171286033
 40
0.1479621006
 40
0.1791813341
 40
0.2106774948
 40
0.2423579781
 40
0.274150883
 40
0.3060053751
 40
0.3378889185
 40
0.3697802529
 40
0.3857292574
 40
0.4016728432
 40
0.4335210654
 40
0.4653160934
 40
0.4970394318
 40
0.5286853038
 40
0.5602437401
 40
0.5917250089
 40
0.6231349424
 40
0.6544871726
 40
0.6857989427
 40
0.7483487479
 40
0.8109319246
 40
0.8736687717
 40
0.9366650785
 40
1.0
 40
1.0
 40
1.0
 40
1.0
 10
3.4489601656
 20
4.1738237578
 30
0.0
 10
3.448960149
 20
4.1761995403
 30
0.0
 10
3.4487495391
 20
4.1810240742
 30
0.0
 10
3.4478368367
 20
4.188305531
 30
0.0
 10
3.4463204761
 20
4.1956758848
 30
0.0
 10
3.4441981588
 20
4.2030591435
 30
0.0
 10
3.4414638331
 20
4.2103757585
 30
0.0
 10
3.4381100055
 20
4.2175397372
 30
0.0
 10
3.4341278075
 20
4.2244584822
 30
0.0
 10
3.4295100424
 20
4.2310315355
 30
0.0
 10
3.4242559923
 20
4.2371505111
 30
0.0
 10
3.4183785441
 20
4.2427016039
 30
0.0
 10
3.411914303
 20
4.2475727965
 30
0.0
 10
3.4060899081
 20
4.2509848125
 30
0.0
 10
3.4012192687
 20
4.2532930707
 30
0.0
 10
3.3962263017
 20
4.255313537
 30
0.0
 10
3.3897893338
 20
4.2573021007
 30
0.0
 10
3.3818688843
 20
4.2588416586
 30
0.0
 10
3.3738550463
 20
4.2595980389
 30
0.0
 10
3.3658282207
 20
4.2596434439
 30
0.0
 10
3.357844648
 20
4.259064654
 30
0.0
 10
3.3499420375
 20
4.2579341475
 30
0.0
 10
3.3421419308
 20
4.2563248468
 30
0.0
 10
3.3344570886
 20
4.2542912132
 30
0.0
 10
3.3243770722
 20
4.25107967
 30
0.0
 10
3.312072143
 20
4.2462167727
 30
0.0
 10
3.2978054822
 20
4.2392387473
 30
0.0
 10
3.2840479943
 20
4.2312291319
 30
0.0
 10
3.2708401498
 20
4.2222310178
 30
0.0
 10
3.2624807034
 20
4.2155788611
 30
0.0
 10
3.2584366527
 20
4.2120772215
 30
0.0
  0
SPLINE
  5
33E
100
AcDbEntity
  8
ALL_ASSEMBLY_MEMBERS
100
AcDbSpline
 62
7
  6
CONTINUOUS
 70
0
 71
3
 72
25
 73
21
 74
0
 42
0.0000001
 43
0.0000001
 44
0.0000000001
 40
0.0
 40
0.0
 40
0.0
 40
0.0
 40
0.0555596497
 40
0.1117333337
 40
0.1687018252
 40
0.2265630927
 40
0.285372157
 40
0.345164335
 40
0.4059700321
 40
0.4678249242
 40
0.5948913317
 40
0.6602838478
 40
0.7270617719
 40
0.7953184355
 40
0.8299773209
 40
0.8648926153
 40
0.8999113925
 40
0.9345811958
 40
0.9683031457
 40
1.0
 40
1.0
 40
1.0
 40
1.0
 10
3.2119416086
 20
4.0970413573
 30
0.0
 10
3.2131187949
 20
4.0950275499
 30
0.0
 10
3.2152237496
 20
4.0908205684
 30
0.0
 10
3.2177059746
 20
4.0841763917
 30
0.0
 10
3.2196221878
 20
4.0772492135
 30
0.0
 10
3.2210471925
 20
4.0700942363
 30
0.0
 10
3.2220417543
 20
4.0627485459
 30
0.0
 10
3.2226548651
 20
4.0552382229
 30
0.0
 10
3.2229272664
 20
4.047580554
 30
0.0
 10
3.222882661
 20
4.0370937968
 30
0.0
 10
3.2222800905
 20
4.0264261571
 30
0.0
 10
3.2212775754
 20
4.0155883498
 30
0.0
 10
3.2203499677
 20
4.0072244175
 30
0.0
 10
3.2194940969
 20
4.0001515665
 30
0.0
 10
3.218804087
 20
3.9944061051
 30
0.0
 10
3.2183051949
 20
3.9900432295
 30
0.0
 10
3.2178495518
 20
3.9856750925
 30
0.0
 10
3.2174754423
 20
3.9813492271
 30
0.0
 10
3.2172259317
 20
3.9771539451
 30
0.0
 10
3.2171571857
 20
3.9744072866
 30
0.0
 10
3.2171572163
 20
3.973076515
 30
0.0
  0
SPLINE
  5
33F
100
AcDbEntity
  8
ALL_ASSEMBLY_MEMBERS
100
AcDbSpline
 62
7
  6
CONTINUOUS
 70
0
 71
3
 72
48
 73
44
 74
0
 42
0.0000001
 43
0.0000001
 44
0.0000000001
 40
0.0
 40
0.0
 40
0.0
 40
0.0
 40
0.062434219
 40
0.1300173196
 40
0.2010012712
 40
0.2743669149
 40
0.3494633766
 40
0.4258075393
 40
0.5029412275
 40
0.5416344644
 40
0.5802909783
 40
0.6187853826
 40
0.656964269
 40
0.6946474156
 40
0.7316025211
 40
0.7675761155
 40
0.8022660345
 40
0.835347722
 40
0.8664680587
 40
0.8952529312
 40
0.921318542
 40
0.9332083483
 40
0.944271033
 40
0.9544596931
 40
0.9637268251
 40
0.9720248695
 40
0.9793128833
 40
0.9855546536
 40
0.9882718448
 40
0.9907138186
 40
0.9928760752
 40
0.9947555917
 40
0.9963506441
 40
0.9976595503
 40
0.9982061724
 40
0.9986806262
 40
0.999082701
 40
0.9994121857
 40
0.9996688692
 40
0.9998525404
 40
0.9999169302
 40
0.9999629878
 40
1.0
 40
1.0
 40
1.0
 40
1.0
 10
3.2119273725
 20
4.4574349054
 30
0.0
 10
3.2176216676
 20
4.4558292492
 30
0.0
 10
3.2295074185
 20
4.4525821365
 30
0.0
 10
3.2479776228
 20
4.4479236579
 30
0.0
 10
3.267567893
 20
4.4434909627
 30
0.0
 10
3.2879839223
 20
4.4395187791
 30
0.0
 10
3.3090383627
 20
4.4362343333
 30
0.0
 10
3.330578756
 20
4.433879304
 30
0.0
 10
3.348776185
 20
4.4329125793
 30
0.0
 10
3.3634177547
 20
4.4328630773
 30
0.0
 10
3.3743920201
 20
4.4332220088
 30
0.0
 10
3.385296179
 20
4.4339957402
 30
0.0
 10
3.3960689686
 20
4.4351979841
 30
0.0
 10
3.4066376611
 20
4.4368291947
 30
0.0
 10
3.4169235378
 20
4.4388624466
 30
0.0
 10
3.4268369523
 20
4.4412678162
 30
0.0
 10
3.4362914031
 20
4.4439723977
 30
0.0
 10
3.4451936432
 20
4.4469068422
 30
0.0
 10
3.4534586537
 20
4.449966983
 30
0.0
 10
3.4610010213
 20
4.453049731
 30
0.0
 10
3.4667828822
 20
4.4556146504
 30
0.0
 10
3.4709911466
 20
4.457581253
 30
0.0
 10
3.4738205713
 20
4.4589441613
 30
0.0
 10
3.4764124194
 20
4.4602271638
 30
0.0
 10
3.4787580331
 20
4.4614167528
 30
0.0
 10
3.4808495511
 20
4.4624994579
 30
0.0
 10
3.4826794145
 20
4.4634638653
 30
0.0
 10
3.4840365925
 20
4.4641907888
 30
0.0
 10
3.4849867141
 20
4.4647050489
 30
0.0
 10
3.4855960626
 20
4.4650367651
 30
0.0
 10
3.4861351559
 20
4.4653315122
 30
0.0
 10
3.4866034484
 20
4.4655884582
 30
0.0
 10
3.4870005098
 20
4.465807119
 30
0.0
 10
3.4872866948
 20
4.4659652799
 30
0.0
 10
3.4874798106
 20
4.4660723107
 30
0.0
 10
3.4875977202
 20
4.4661377643
 30
0.0
 10
3.4876975888
 20
4.4661933303
 30
0.0
 10
3.4877794195
 20
4.46623885
 30
0.0
 10
3.4878430676
 20
4.4662745396
 30
0.0
 10
3.4878849366
 20
4.4662975781
 30
0.0
 10
3.4879091026
 20
4.4663115841
 30
0.0
 10
3.4879215722
 20
4.4663177093
 30
0.0
 10
3.4879279049
 20
4.4663229122
 30
0.0
 10
3.4879313088
 20
4.4663237578
 30
0.0
  0
ELLIPSE
  5
340
100
AcDbEntity
  8
ALL_ASSEMBLY_MEMBERS
100
AcDbEllipse
 62
7
  6
CONTINUOUS
 10
4.5721652216
 20
4.2788237578
 30
0.0
 11
0.0
 21
0.48475
 31
0.0
 40
0.2210555332
 41
6.3004893413
 42
6.3175170955
  0
ELLIPSE
  5
341
100
AcDbEntity
  8
ALL_ASSEMBLY_MEMBERS
100
AcDbEllipse
 62
7
  6
CONTINUOUS
 10
4.5769860106
 20
4.2788237578
 30
0.0
 11
-0.0
 21
0.48475
 31
0.0
 40
0.7957997678
 41
6.2863035852
 42
6.3004893413
  0
ELLIPSE
  5
342
100
AcDbEntity
  8
ALL_ASSEMBLY_MEMBERS
100
AcDbEllipse
 62
7
  6
CONTINUOUS
 10
4.6457164648
 20
4.2788237578
 30
0.0
 11
0.0
 21
0.48475
 31
0.0
 40
0.7957996981
 41
-0.0173040341
 42
-0.0031182781
  0
ELLIPSE
  5
343
100
AcDbEntity
  8
ALL_ASSEMBLY_MEMBERS
100
AcDbEllipse
 62
7
  6
CONTINUOUS
 10
4.6505372534
 20
4.2788237578
 30
0.0
 11
0.0
 21
0.48475
 31
0.0
 40
0.2210555139
 41
-0.0343317884
 42
-0.0173040341
  0
ELLIPSE
  5
344
100
AcDbEntity
  8
ALL_ASSEMBLY_MEMBERS
100
AcDbEllipse
 62
7
  6
CONTINUOUS
 10
4.7299199492
 20
4.2788237578
 30
0.0
 11
3.2147129739
 21
0.0
 31
0.0
 40
0.1507910672
 41
1.6102429677
 42
1.6130823074
  0
ELLIPSE
  5
345
100
AcDbEntity
  8
ALL_ASSEMBLY_MEMBERS
100
AcDbEllipse
 62
7
  6
CONTINUOUS
 10
4.6755607468
 20
4.2788237578
 30
0.0
 11
1.9288162072
 21
0.0
 31
0.0
 40
0.2513199538
 41
1.6130823074
 42
1.6159220045
  0
ELLIPSE
  5
346
100
AcDbEntity
  8
ALL_ASSEMBLY_MEMBERS
100
AcDbEllipse
 62
7
  6
CONTINUOUS
 10
4.6465577225
 20
4.2788237578
 30
0.0
 11
1.2858813755
 21
0.0
 31
0.0
 40
0.3769787861
 41
1.6159220045
 42
1.621602498
  0
ELLIPSE
  5
347
100
AcDbEntity
  8
ALL_ASSEMBLY_MEMBERS
100
AcDbEllipse
 62
7
  6
CONTINUOUS
 10
4.6139063859
 20
4.2788237578
 30
0.0
 11
0.6429400371
 21
0.0
 31
0.0
 40
0.7539583352
 41
1.621602498
 42
1.6301263818
  0
ELLIPSE
  5
348
100
AcDbEntity
  8
ALL_ASSEMBLY_MEMBERS
100
AcDbEllipse
 62
7
  6
CONTINUOUS
 10
4.5986570508
 20
4.2788237578
 30
0.0
 11
0.0
 21
0.48475
 31
0.0
 40
0.7957993124
 41
0.059330055
 42
0.0735464445
  0
ELLIPSE
  5
349
100
AcDbEntity
  8
ALL_ASSEMBLY_MEMBERS
100
AcDbEllipse
 62
7
  6
CONTINUOUS
 10
4.5781849606
 20
4.2788237578
 30
0.0
 11
0.0
 21
0.48475
 31
0.0
 40
0.2210555332
 41
0.0735464445
 42
0.0906260353
  0
ELLIPSE
  5
34A
100
AcDbEntity
  8
ALL_ASSEMBLY_MEMBERS
100
AcDbEllipse
 62
7
  6
CONTINUOUS
 10
4.6445175149
 20
4.2788237578
 30
0.0
 11
-0.0
 21
0.48475
 31
0.0
 40
0.2210555139
 41
-0.0906260353
 42
-0.0735464445
  0
ELLIPSE
  5
34B
100
AcDbEntity
  8
ALL_ASSEMBLY_MEMBERS
100
AcDbEllipse
 62
7
  6
CONTINUOUS
 10
4.6240454266
 20
4.2788237578
 30
0.0
 11
-0.0
 21
0.48475
 31
0.0
 40
0.7957992427
 41
-0.0735464445
 42
-0.059330055
  0
ELLIPSE
  5
34C
100
AcDbEntity
  8
ALL_ASSEMBLY_MEMBERS
100
AcDbEllipse
 62
7
  6
CONTINUOUS
 10
4.6087960939
 20
4.2788237578
 30
0.0
 11
0.642939962
 21
-0.0
 31
0.0
 40
0.7539584232
 41
7.794651579
 42
7.8031754627
  0
ELLIPSE
  5
34D
100
AcDbEntity
  8
ALL_ASSEMBLY_MEMBERS
100
AcDbEllipse
 62
7
  6
CONTINUOUS
 10
4.5761447649
 20
4.2788237578
 30
0.0
 11
1.2858811504
 21
-0.0
 31
0.0
 40
0.3769788521
 41
1.5199901556
 42
1.5256706491
  0
ELLIPSE
  5
34E
100
AcDbEntity
  8
ALL_ASSEMBLY_MEMBERS
100
AcDbEllipse
 62
7
  6
CONTINUOUS
 10
4.5471416492
 20
4.2788237578
 30
0.0
 11
1.9288180083
 21
0.0
 31
0.0
 40
0.2513197191
 41
1.5256706491
 42
1.5285103462
  0
ELLIPSE
  5
34F
100
AcDbEntity
  8
ALL_ASSEMBLY_MEMBERS
100
AcDbEllipse
 62
7
  6
CONTINUOUS
 10
4.492782561
 20
4.2788237578
 30
0.0
 11
3.2147120734
 21
0.0
 31
0.0
 40
0.1507911094
 41
1.5285103462
 42
1.5313496859
  0
ELLIPSE
  5
350
100
AcDbEntity
  8
ALL_ASSEMBLY_MEMBERS
100
AcDbEllipse
 62
7
  6
CONTINUOUS
 10
4.656732854
 20
4.2788237578
 30
0.0
 11
0.0
 21
0.48475
 31
0.0
 40
0.2652667178
 41
0.0906260353
 42
0.1048790886
  0
ELLIPSE
  5
351
100
AcDbEntity
  8
ALL_ASSEMBLY_MEMBERS
100
AcDbEllipse
 62
7
  6
CONTINUOUS
 10
4.6881429717
 20
4.2788237578
 30
0.0
 11
0.0
 21
0.48475
 31
0.0
 40
0.8842220554
 41
0.1048790886
 42
0.1134410125
  0
ELLIPSE
  5
352
100
AcDbEntity
  8
ALL_ASSEMBLY_MEMBERS
100
AcDbEllipse
 62
7
  6
CONTINUOUS
 10
4.7487924935
 20
4.2788237578
 30
0.0
 11
0.9644099335
 21
0.0
 31
0.0
 40
0.5026389538
 41
1.6842373393
 42
1.6956663613
  0
ELLIPSE
  5
353
100
AcDbEntity
  8
ALL_ASSEMBLY_MEMBERS
100
AcDbEllipse
 62
7
  6
CONTINUOUS
 10
5.1091338957
 20
4.2788237578
 30
0.0
 11
3.857654488
 21
0.0
 31
0.0
 40
0.1256592578
 41
1.6956663613
 42
1.6985261089
  0
ELLIPSE
  5
354
100
AcDbEntity
  8
ALL_ASSEMBLY_MEMBERS
100
AcDbEllipse
 62
7
  6
CONTINUOUS
 10
4.1135684643
 20
4.2788237578
 30
0.0
 11
3.8576553886
 21
0.0
 31
0.0
 40
0.1256592285
 41
1.4430665446
 42
1.4459262923
  0
ELLIPSE
  5
355
100
AcDbEntity
  8
ALL_ASSEMBLY_MEMBERS
100
AcDbEllipse
 62
7
  6
CONTINUOUS
 10
4.4739100207
 20
4.2788237578
 30
0.0
 11
0.9644095958
 21
0.0
 31
0.0
 40
0.5026391298
 41
1.4459262923
 42
1.4573553143
  0
ELLIPSE
  5
356
100
AcDbEntity
  8
ALL_ASSEMBLY_MEMBERS
100
AcDbEllipse
 62
7
  6
CONTINUOUS
 10
4.5345595043
 20
4.2788237578
 30
0.0
 11
-0.0
 21
0.48475
 31
0.0
 40
0.8842220554
 41
-0.1134410125
 42
-0.1048790886
  0
ELLIPSE
  5
357
100
AcDbEntity
  8
ALL_ASSEMBLY_MEMBERS
100
AcDbEllipse
 62
7
  6
CONTINUOUS
 10
4.565969622
 20
4.2788237578
 30
0.0
 11
-0.0
 21
0.48475
 31
0.0
 40
0.2652667178
 41
-0.1048790886
 42
-0.0906260353
  0
ELLIPSE
  5
358
100
AcDbEntity
  8
ALL_ASSEMBLY_MEMBERS
100
AcDbEllipse
 62
7
  6
CONTINUOUS
 10
4.7235381532
 20
4.2788237578
 30
0.0
 11
0.5716780154
 21
-0.4744956074
 31
0.0
 40
0.1734875795
 41
1.8341228243
 42
1.8564220296
  0
ELLIPSE
  5
359
100
AcDbEntity
  8
ALL_ASSEMBLY_MEMBERS
100
AcDbEllipse
 62
7
  6
CONTINUOUS
 10
4.6809779779
 20
4.2788237578
 30
0.0
 11
0.5716778757
 21
-0.4744956116
 31
0.0
 40
0.1734875871
 41
1.7601616376
 42
1.7823049235
  0
ELLIPSE
  5
35A
100
AcDbEntity
  8
ALL_ASSEMBLY_MEMBERS
100
AcDbEllipse
 62
7
  6
CONTINUOUS
 10
4.6243124836
 20
4.2788237578
 30
0.0
 11
0.117123106
 21
0.4846535957
 31
0.0
 40
0.0825387411
 41
1.3243861563
 42
1.3391838673
  0
ELLIPSE
  5
35B
100
AcDbEntity
  8
ALL_ASSEMBLY_MEMBERS
100
AcDbEllipse
 62
7
  6
CONTINUOUS
 10
4.6443945242
 20
4.2788237578
 30
0.0
 11
0.3205164298
 21
0.4819141273
 31
0.0
 40
0.1633544133
 41
1.4274608739
 42
1.438573063
  0
ELLIPSE
  5
35C
100
AcDbEntity
  8
ALL_ASSEMBLY_MEMBERS
100
AcDbEllipse
 62
7
  6
CONTINUOUS
 10
4.6891184927
 20
4.2788237578
 30
0.0
 11
0.7387483593
 21
0.4700085841
 31
0.0
 40
0.1605905019
 41
1.5775999118
 42
1.5850154544
  0
ELLIPSE
  5
35D
100
AcDbEntity
  8
ALL_ASSEMBLY_MEMBERS
100
AcDbEllipse
 62
7
  6
CONTINUOUS
 10
4.7750948444
 20
4.2788237578
 30
0.0
 11
1.4844556253
 21
0.4605286781
 31
0.0
 40
0.1019322549
 41
1.6552211679
 42
1.6589312972
  0
ELLIPSE
  5
35E
100
AcDbEntity
  8
ALL_ASSEMBLY_MEMBERS
100
AcDbEllipse
 62
7
  6
CONTINUOUS
 10
4.4165995864
 20
4.2788237578
 30
0.0
 11
1.4844549309
 21
-0.4605286823
 31
0.0
 40
0.1019322941
 41
1.4826613836
 42
1.4863715129
  0
ELLIPSE
  5
35F
100
AcDbEntity
  8
ALL_ASSEMBLY_MEMBERS
100
AcDbEllipse
 62
7
  6
CONTINUOUS
 10
4.5025758378
 20
4.2788237578
 30
0.0
 11
0.7387485344
 21
-0.47000858
 31
0.0
 40
0.1605904861
 41
1.5565771643
 42
1.5639927069
  0
ELLIPSE
  5
360
100
AcDbEntity
  8
ALL_ASSEMBLY_MEMBERS
100
AcDbEllipse
 62
7
  6
CONTINUOUS
 10
4.547299825
 20
4.2788237578
 30
0.0
 11
-0.3205164298
 21
0.4819141273
 31
0.0
 40
0.1633544133
 41
-1.438573063
 42
-1.4274608739
  0
ELLIPSE
  5
361
100
AcDbEntity
  8
ALL_ASSEMBLY_MEMBERS
100
AcDbEllipse
 62
7
  6
CONTINUOUS
 10
4.8118185297
 20
4.2788237578
 30
0.0
 11
3.8575848219
 21
0.456341581
 31
0.0
 40
0.0423861521
 41
-1.6322987713
 42
-1.629457479
  0
ELLIPSE
  5
362
100
AcDbEntity
  8
ALL_ASSEMBLY_MEMBERS
100
AcDbEllipse
 62
7
  6
CONTINUOUS
 10
4.5673818656
 20
4.2788237578
 30
0.0
 11
-0.117123106
 21
0.4846535957
 31
0.0
 40
0.0825387411
 41
-1.3391838673
 42
-1.3243861563
  0
ELLIPSE
  5
363
100
AcDbEntity
  8
ALL_ASSEMBLY_MEMBERS
100
AcDbEllipse
 62
7
  6
CONTINUOUS
 10
4.648472157
 20
4.2788237578
 30
0.0
 11
0.9622071635
 21
0.4656770005
 31
0.0
 40
0.1399266045
 41
-1.7062712763
 42
-1.6949013418
  0
ELLIPSE
  5
364
100
AcDbEntity
  8
ALL_ASSEMBLY_MEMBERS
100
AcDbEllipse
 62
7
  6
CONTINUOUS
 10
4.6121426623
 20
4.2788237578
 30
0.0
 11
0.4203531079
 21
0.479141308
 31
0.0
 40
0.1749164141
 41
-1.8439863269
 42
-1.8354531791
  0
ELLIPSE
  5
365
100
AcDbEntity
  8
ALL_ASSEMBLY_MEMBERS
100
AcDbEllipse
 62
7
  6
CONTINUOUS
 10
4.589244567
 20
4.2788237578
 30
0.0
 11
0.1217484006
 21
0.4846385345
 31
0.0
 40
0.0853799597
 41
-1.9890427863
 42
-1.9748081556
  0
ELLIPSE
  5
366
100
AcDbEntity
  8
ALL_ASSEMBLY_MEMBERS
100
AcDbEllipse
 62
7
  6
CONTINUOUS
 10
4.5955686466
 20
4.2788237578
 30
0.0
 11
0.9880542361
 21
0.465285186
 31
0.0
 40
0.1376303424
 41
1.5113205669
 42
1.5186896574
  0
ELLIPSE
  5
367
100
AcDbEntity
  8
ALL_ASSEMBLY_MEMBERS
100
AcDbEllipse
 62
7
  6
CONTINUOUS
 10
4.5914054752
 20
4.2788237578
 30
0.0
 11
0.6553159276
 21
0.4721187462
 31
0.0
 40
0.1677639688
 41
1.4631295299
 42
1.4741845703
  0
ELLIPSE
  5
368
100
AcDbEntity
  8
ALL_ASSEMBLY_MEMBERS
100
AcDbEllipse
 62
7
  6
CONTINUOUS
 10
4.5828131679
 20
4.2788237578
 30
0.0
 11
0.2873264341
 21
0.4826711449
 31
0.0
 40
0.1560789432
 41
1.3380452399
 42
1.356477401
  0
ELLIPSE
  5
369
100
AcDbEntity
  8
ALL_ASSEMBLY_MEMBERS
100
AcDbEllipse
 62
7
  6
CONTINUOUS
 10
4.5744784321
 20
4.2788237578
 30
0.0
 11
0.0934735408
 21
0.4847090996
 31
0.0
 40
0.0673658948
 41
1.2768224913
 42
1.2952689988
  0
ELLIPSE
  5
36A
100
AcDbEntity
  8
ALL_ASSEMBLY_MEMBERS
100
AcDbEllipse
 62
7
  6
CONTINUOUS
 10
4.6172159163
 20
4.2788237578
 30
0.0
 11
-0.0934735326
 21
0.4847090996
 31
0.0
 40
0.0673658893
 41
-1.2952689966
 42
-1.2768224891
  0
ELLIPSE
  5
36B
100
AcDbEntity
  8
ALL_ASSEMBLY_MEMBERS
100
AcDbEllipse
 62
7
  6
CONTINUOUS
 10
4.6088811813
 20
4.2788237578
 30
0.0
 11
-0.287326408
 21
0.4826711454
 31
0.0
 40
0.1560789367
 41
-1.3564773887
 42
-1.3380452276
  0
ELLIPSE
  5
36C
100
AcDbEntity
  8
ALL_ASSEMBLY_MEMBERS
100
AcDbEllipse
 62
7
  6
CONTINUOUS
 10
4.6334579089
 20
4.2788237578
 30
0.0
 11
-0.1217484006
 21
0.4846385345
 31
0.0
 40
0.0853799597
 41
-4.3083771516
 42
-4.2941425209
  0
ELLIPSE
  5
36D
100
AcDbEntity
  8
ALL_ASSEMBLY_MEMBERS
100
AcDbEllipse
 62
7
  6
CONTINUOUS
 10
4.6105598136
 20
4.2788237578
 30
0.0
 11
-0.4203531079
 21
0.479141308
 31
0.0
 40
0.1749164141
 41
-4.4477321281
 42
-4.4391989803
  0
ELLIPSE
  5
36E
100
AcDbEntity
  8
ALL_ASSEMBLY_MEMBERS
100
AcDbEllipse
 62
7
  6
CONTINUOUS
 10
4.5742302961
 20
4.2788237578
 30
0.0
 11
0.962207503
 21
-0.4656769952
 31
0.0
 40
0.1399265741
 41
-1.4466913509
 42
-1.4353214165
  0
ELLIPSE
  5
36F
100
AcDbEntity
  8
ALL_ASSEMBLY_MEMBERS
100
AcDbEllipse
 62
7
  6
CONTINUOUS
 10
4.4108839933
 20
4.2788237578
 30
0.0
 11
3.8575839213
 21
-0.4563415814
 31
0.0
 40
0.0423861617
 41
-1.5121351722
 42
-1.5092938799
  0
ELLIPSE
  5
370
100
AcDbEntity
  8
ALL_ASSEMBLY_MEMBERS
100
AcDbEllipse
 62
7
  6
CONTINUOUS
 10
4.7334667599
 20
4.2788237578
 30
0.0
 11
0.7463252756
 21
-0.4698307894
 31
0.0
 40
0.1599009769
 41
-1.6130857077
 42
-1.5959095904
  0
ELLIPSE
  5
371
100
AcDbEntity
  8
ALL_ASSEMBLY_MEMBERS
100
AcDbEllipse
 62
7
  6
CONTINUOUS
 10
4.6130790416
 20
4.2788237578
 30
0.0
 11
0.5597140252
 21
-0.4748533936
 31
0.0
 40
0.1741096516
 41
-1.4868806225
 42
-1.4159149133
  0
ELLIPSE
  5
372
100
AcDbEntity
  8
ALL_ASSEMBLY_MEMBERS
100
AcDbEllipse
 62
7
  6
CONTINUOUS
 10
4.6097985385
 20
4.2788237578
 30
0.0
 11
0.9622042765
 21
-0.4656770454
 31
0.0
 40
0.139926863
 41
-1.4949495759
 42
-1.489275252
  0
ELLIPSE
  5
373
100
AcDbEntity
  8
ALL_ASSEMBLY_MEMBERS
100
AcDbEllipse
 62
7
  6
CONTINUOUS
 10
4.5874504251
 20
4.2788237578
 30
0.0
 11
2.5716108227
 21
-0.4573304865
 31
0.0
 40
0.0624983615
 41
-1.5457781432
 42
-1.5429408411
  0
ELLIPSE
  5
374
100
AcDbEntity
  8
ALL_ASSEMBLY_MEMBERS
100
AcDbEllipse
 62
7
  6
CONTINUOUS
 10
4.6772042193
 20
4.2788237578
 30
0.0
 11
2.5716108227
 21
0.4573304865
 31
0.0
 40
0.0624983615
 41
-1.5986518125
 42
-1.5958145104
  0
ELLIPSE
  5
375
100
AcDbEntity
  8
ALL_ASSEMBLY_MEMBERS
100
AcDbEllipse
 62
7
  6
CONTINUOUS
 10
4.6503865368
 20
4.2788237578
 30
0.0
 11
0.6379530235
 21
0.4725921354
 31
0.0
 40
0.1691116546
 41
-1.7093280947
 42
-1.6979797282
  0
ELLIPSE
  5
376
100
AcDbEntity
  8
ALL_ASSEMBLY_MEMBERS
100
AcDbEllipse
 62
7
  6
CONTINUOUS
 10
4.6639133062
 20
4.2788237578
 30
0.0
 11
0.10123742
 21
0.4846944896
 31
0.0
 40
0.0724615456
 41
-2.012460577
 42
-1.9953544323
  0
ELLIPSE
  5
377
100
AcDbEntity
  8
ALL_ASSEMBLY_MEMBERS
100
AcDbEllipse
 62
7
  6
CONTINUOUS
 10
4.6938702692
 20
4.2788237578
 30
0.0
 11
0.3768576551
 21
0.4804196369
 31
0.0
 40
0.1715483869
 41
-1.9081086021
 42
-1.8938294856
  0
ELLIPSE
  5
378
100
AcDbEntity
  8
ALL_ASSEMBLY_MEMBERS
100
AcDbEllipse
 62
7
  6
CONTINUOUS
 10
4.6495649636
 20
4.2788237578
 30
0.0
 11
0.3118799231
 21
0.4821211713
 31
0.0
 40
0.1616508637
 41
-1.8182260229
 42
-1.8068779936
  0
ELLIPSE
  5
379
100
AcDbEntity
  8
ALL_ASSEMBLY_MEMBERS
100
AcDbEllipse
 62
7
  6
CONTINUOUS
 10
4.7251708309
 20
4.2788237578
 30
0.0
 11
0.6379533341
 21
0.4725921268
 31
0.0
 40
0.1691116311
 41
-1.8260145634
 42
-1.8174352631
  0
ELLIPSE
  5
37A
100
AcDbEntity
  8
ALL_ASSEMBLY_MEMBERS
100
AcDbEllipse
 62
7
  6
CONTINUOUS
 10
4.808893982
 20
4.2788237578
 30
0.0
 11
1.2847916974
 21
0.4619431809
 31
0.0
 40
0.1143679302
 41
-1.7482093125
 42
-1.7424844324
  0
ELLIPSE
  5
37B
100
AcDbEntity
  8
ALL_ASSEMBLY_MEMBERS
100
AcDbEllipse
 62
7
  6
CONTINUOUS
 10
4.651449257
 20
4.2788237578
 30
0.0
 11
0.10123742
 21
0.4846944896
 31
0.0
 40
0.0724615456
 41
-1.89593605
 42
-1.8789114217
  0
ELLIPSE
  5
37C
100
AcDbEntity
  8
ALL_ASSEMBLY_MEMBERS
100
AcDbEllipse
 62
7
  6
CONTINUOUS
 10
4.8962670516
 20
4.2788237578
 30
0.0
 11
1.9284678459
 21
0.4586391126
 31
0.0
 40
0.0813849018
 41
-1.7293289027
 42
-1.7264648042
  0
ELLIPSE
  5
37D
100
AcDbEntity
  8
ALL_ASSEMBLY_MEMBERS
100
AcDbEllipse
 62
7
  6
CONTINUOUS
 10
5.074658466
 20
4.2788237578
 30
0.0
 11
3.2146291591
 21
0.4566950122
 31
0.0
 40
0.0505558762
 41
-1.7200233845
 42
-1.7171581365
  0
ELLIPSE
  5
37E
100
AcDbEntity
  8
ALL_ASSEMBLY_MEMBERS
100
AcDbEllipse
 62
7
  6
CONTINUOUS
 10
4.1480438812
 20
4.2788237578
 30
0.0
 11
3.2146300597
 21
-0.4566950116
 31
0.0
 40
0.0505558626
 41
-1.4244345211
 42
-1.421569273
  0
ELLIPSE
  5
37F
100
AcDbEntity
  8
ALL_ASSEMBLY_MEMBERS
100
AcDbEllipse
 62
7
  6
CONTINUOUS
 10
4.3264356704
 20
4.2788237578
 30
0.0
 11
1.9284660439
 21
-0.458639118
 31
0.0
 40
0.0813849697
 41
-1.4151278149
 42
-1.4122637165
  0
ELLIPSE
  5
380
100
AcDbEntity
  8
ALL_ASSEMBLY_MEMBERS
100
AcDbEllipse
 62
7
  6
CONTINUOUS
 10
4.7000869377
 20
4.2788237578
 30
0.0
 11
0.9622070503
 21
-0.4656770023
 31
0.0
 40
0.1399266146
 41
-1.5716017881
 42
-1.5659156053
  0
ELLIPSE
  5
381
100
AcDbEntity
  8
ALL_ASSEMBLY_MEMBERS
100
AcDbEllipse
 62
7
  6
CONTINUOUS
 10
4.4138084647
 20
4.2788237578
 30
0.0
 11
1.2847919231
 21
-0.461943179
 31
0.0
 40
0.1143679148
 41
-1.3991082341
 42
-1.393383354
  0
ELLIPSE
  5
382
100
AcDbEntity
  8
ALL_ASSEMBLY_MEMBERS
100
AcDbEllipse
 62
7
  6
CONTINUOUS
 10
4.4975316353
 20
4.2788237578
 30
0.0
 11
0.6379534101
 21
-0.4725921247
 31
0.0
 40
0.1691116253
 41
-1.3241574099
 42
-1.3155781096
  0
ELLIPSE
  5
383
100
AcDbEntity
  8
ALL_ASSEMBLY_MEMBERS
100
AcDbEllipse
 62
7
  6
CONTINUOUS
 10
4.6664960319
 20
4.2788237578
 30
0.0
 11
-0.4203531079
 21
0.479141308
 31
0.0
 40
0.1749164141
 41
-4.5783263692
 42
-4.5698008357
  0
ELLIPSE
  5
384
100
AcDbEntity
  8
ALL_ASSEMBLY_MEMBERS
100
AcDbEllipse
 62
7
  6
CONTINUOUS
 10
4.528832202
 20
4.2788237578
 30
0.0
 11
-0.3768576893
 21
0.480419636
 31
0.0
 40
0.1715483905
 41
-4.3893558366
 42
-4.3750767201
  0
ELLIPSE
  5
385
100
AcDbEntity
  8
ALL_ASSEMBLY_MEMBERS
100
AcDbEllipse
 62
7
  6
CONTINUOUS
 10
4.6502387656
 20
4.2788237578
 30
0.0
 11
-0.1217484712
 21
0.4846385342
 31
0.0
 40
0.0853800028
 41
-4.4389790303
 42
-4.4247782581
  0
ELLIPSE
  5
386
100
AcDbEntity
  8
ALL_ASSEMBLY_MEMBERS
100
AcDbEllipse
 62
7
  6
CONTINUOUS
 10
4.5587891676
 20
4.2788237578
 30
0.0
 11
-0.101237429
 21
0.4846944896
 31
0.0
 40
0.0724615514
 41
-4.2878308774
 42
-4.2707247327
  0
ELLIPSE
  5
387
100
AcDbEntity
  8
ALL_ASSEMBLY_MEMBERS
100
AcDbEllipse
 62
7
  6
CONTINUOUS
 10
4.5672056762
 20
4.2788237578
 30
0.0
 11
1.9288162072
 21
0.0
 31
0.0
 40
0.2513199538
 41
7.8400775852
 42
7.8429147916
  0
ELLIPSE
  5
388
100
AcDbEntity
  8
ALL_ASSEMBLY_MEMBERS
100
AcDbEllipse
 62
7
  6
CONTINUOUS
 10
4.5493270808
 20
4.2788237578
 30
0.0
 11
3.2147129739
 21
0.0
 31
0.0
 40
0.1507910672
 41
7.837240283
 42
7.8400775852
  0
ELLIPSE
  5
389
100
AcDbEntity
  8
ALL_ASSEMBLY_MEMBERS
100
AcDbEllipse
 62
7
  6
CONTINUOUS
 10
4.6733753788
 20
4.2788237578
 30
0.0
 11
3.2147120734
 21
-0.0
 31
0.0
 40
0.1507911094
 41
1.5847003756
 42
1.5875376778
  0
ELLIPSE
  5
38A
100
AcDbEntity
  8
ALL_ASSEMBLY_MEMBERS
100
AcDbEllipse
 62
7
  6
CONTINUOUS
 10
4.589244567
 20
4.2788237578
 30
0.0
 11
0.0
 21
0.48475
 31
0.0
 40
0.2652664142
 41
0.0763914046
 42
0.0906260353
  0
ELLIPSE
  5
38B
100
AcDbEntity
  8
ALL_ASSEMBLY_MEMBERS
100
AcDbEllipse
 62
7
  6
CONTINUOUS
 10
4.6121426623
 20
4.2788237578
 30
0.0
 11
-0.0
 21
0.48475
 31
0.0
 40
0.8842220554
 41
0.0678582568
 42
0.0763914046
  0
ELLIPSE
  5
38C
100
AcDbEntity
  8
ALL_ASSEMBLY_MEMBERS
100
AcDbEllipse
 62
7
  6
CONTINUOUS
 10
4.648472157
 20
4.2788237578
 30
0.0
 11
0.9644109754
 21
0.0
 31
0.0
 40
0.5026384108
 41
1.6272846492
 42
1.6386545836
  0
ELLIPSE
  5
38D
100
AcDbEntity
  8
ALL_ASSEMBLY_MEMBERS
100
AcDbEllipse
 62
7
  6
CONTINUOUS
 10
4.648472157
 20
4.2788237578
 30
0.0
 11
0.9595037988
 21
0.0
 31
0.0
 40
0.5026384108
 41
1.6275738566
 42
1.6336193552
  0
ELLIPSE
  5
38E
100
AcDbEntity
  8
ALL_ASSEMBLY_MEMBERS
100
AcDbEllipse
 62
7
  6
CONTINUOUS
 10
4.8118185297
 20
4.2788237578
 30
0.0
 11
3.857633315
 21
0.0
 31
0.0
 40
0.1256599475
 41
1.6244433569
 42
1.6272846492
  0
ELLIPSE
  5
38F
100
AcDbEntity
  8
ALL_ASSEMBLY_MEMBERS
100
AcDbEllipse
 62
7
  6
CONTINUOUS
 10
4.8118185297
 20
4.2788237578
 30
0.0
 11
3.8380046625
 21
-0.0
 31
0.0
 40
0.1256599475
 41
1.6247179887
 42
1.6275738566
  0
ELLIPSE
  5
390
100
AcDbEntity
  8
ALL_ASSEMBLY_MEMBERS
100
AcDbEllipse
 62
7
  6
CONTINUOUS
 10
4.655496821
 20
4.2788237578
 30
0.0
 11
1.9288180083
 21
-0.0
 31
0.0
 40
0.2513197191
 41
1.5818631691
 42
1.5847003756
  0
ELLIPSE
  5
391
100
AcDbEntity
  8
ALL_ASSEMBLY_MEMBERS
100
AcDbEllipse
 62
7
  6
CONTINUOUS
 10
4.6483816854
 20
4.2788237578
 30
0.0
 11
1.2858811504
 21
-0.0
 31
0.0
 40
0.3769788521
 41
1.5761890168
 42
1.5818631691
  0
ELLIPSE
  5
392
100
AcDbEntity
  8
ALL_ASSEMBLY_MEMBERS
100
AcDbEllipse
 62
7
  6
CONTINUOUS
 10
4.7089461237
 20
4.2788237578
 30
0.0
 11
0.57167825
 21
-0.4744956005
 31
0.0
 40
0.1734875667
 41
1.8341227539
 42
1.8564219592
  0
ELLIPSE
  5
393
100
AcDbEntity
  8
ALL_ASSEMBLY_MEMBERS
100
AcDbEllipse
 62
7
  6
CONTINUOUS
 10
4.7089461237
 20
4.2788237578
 30
0.0
 11
0.5687694008
 21
-0.4720812421
 31
0.0
 40
0.1734875667
 41
8.1199044316
 42
8.140341655
  0
ELLIPSE
  5
394
100
AcDbEntity
  8
ALL_ASSEMBLY_MEMBERS
100
AcDbEllipse
 62
7
  6
CONTINUOUS
 10
4.6449145196
 20
4.2788237578
 30
0.0
 11
0.642939962
 21
0.0
 31
0.0
 40
0.7539584232
 41
7.8508633559
 42
7.859374324
  0
ELLIPSE
  5
395
100
AcDbEntity
  8
ALL_ASSEMBLY_MEMBERS
100
AcDbEllipse
 62
7
  6
CONTINUOUS
 10
4.6663859313
 20
4.2788237578
 30
0.0
 11
0.5716781103
 21
-0.4744956046
 31
0.0
 40
0.1734875743
 41
1.7601615672
 42
1.7823048532
  0
ELLIPSE
  5
396
100
AcDbEntity
  8
ALL_ASSEMBLY_MEMBERS
100
AcDbEllipse
 62
7
  6
CONTINUOUS
 10
4.6663859313
 20
4.2788237578
 30
0.0
 11
0.5687692618
 21
-0.4720812463
 31
0.0
 40
0.1734875743
 41
8.0454832217
 42
8.0658410218
  0
ELLIPSE
  5
397
100
AcDbEntity
  8
ALL_ASSEMBLY_MEMBERS
100
AcDbEllipse
 62
7
  6
CONTINUOUS
 10
4.5952676157
 20
4.2788237578
 30
0.0
 11
-0.3622025764
 21
0.4808294012
 31
0.0
 40
0.1698707729
 41
-1.3947898515
 42
-1.3800412872
  0
ELLIPSE
  5
398
100
AcDbEntity
  8
ALL_ASSEMBLY_MEMBERS
100
AcDbEllipse
 62
7
  6
CONTINUOUS
 10
4.5952676157
 20
4.2788237578
 30
0.0
 11
-0.3603595945
 21
0.4783828148
 31
0.0
 40
0.1698707729
 41
-1.3950241974
 42
-1.3802000911
  0
ELLIPSE
  5
399
100
AcDbEntity
  8
ALL_ASSEMBLY_MEMBERS
100
AcDbEllipse
 62
7
  6
CONTINUOUS
 10
4.6065980366
 20
4.2788237578
 30
0.0
 11
-0.1171229363
 21
0.4846535963
 31
0.0
 40
0.082538636
 41
-1.3022224851
 42
-1.2874639355
  0
ELLIPSE
  5
39A
100
AcDbEntity
  8
ALL_ASSEMBLY_MEMBERS
100
AcDbEllipse
 62
7
  6
CONTINUOUS
 10
4.6065980366
 20
4.2788237578
 30
0.0
 11
-0.116526984
 21
0.4821875514
 31
0.0
 40
0.082538636
 41
4.9806527798
 42
4.9954870257
  0
ELLIPSE
  5
39B
100
AcDbEntity
  8
ALL_ASSEMBLY_MEMBERS
100
AcDbEllipse
 62
7
  6
CONTINUOUS
 10
4.5587891676
 20
4.2788237578
 30
0.0
 11
-0.0
 21
0.48475
 31
0.0
 40
0.2210555332
 41
-0.10773218
 42
-0.0906260353
  0
ELLIPSE
  5
39C
100
AcDbEntity
  8
ALL_ASSEMBLY_MEMBERS
100
AcDbEllipse
 62
7
  6
CONTINUOUS
 10
4.5587891676
 20
4.2788237578
 30
0.0
 11
0.0
 21
0.4822834646
 31
0.0
 40
0.2210555332
 41
-0.1082853113
 42
-0.0910908057
  0
ELLIPSE
  5
39D
100
AcDbEntity
  8
ALL_ASSEMBLY_MEMBERS
100
AcDbEllipse
 62
7
  6
CONTINUOUS
 10
4.528832202
 20
4.2788237578
 30
0.0
 11
0.0
 21
0.48475
 31
0.0
 40
0.7958002231
 41
-0.1220112966
 42
-0.10773218
  0
ELLIPSE
  5
39E
100
AcDbEntity
  8
ALL_ASSEMBLY_MEMBERS
100
AcDbEllipse
 62
7
  6
CONTINUOUS
 10
4.528832202
 20
4.2788237578
 30
0.0
 11
0.0
 21
0.4822834646
 31
0.0
 40
0.7958002231
 41
-0.1226384364
 42
-0.1082853113
  0
ELLIPSE
  5
39F
100
AcDbEntity
  8
ALL_ASSEMBLY_MEMBERS
100
AcDbEllipse
 62
7
  6
CONTINUOUS
 10
4.4975316353
 20
4.2788237578
 30
0.0
 11
0.6429400371
 21
0.0
 31
0.0
 40
0.7539583352
 41
1.4402057299
 42
1.4487850302
  0
ELLIPSE
  5
3A0
100
AcDbEntity
  8
ALL_ASSEMBLY_MEMBERS
100
AcDbEllipse
 62
7
  6
CONTINUOUS
 10
4.4975316353
 20
4.2788237578
 30
0.0
 11
0.6396685892
 21
-0.0
 31
0.0
 40
0.7539583352
 41
1.4395339999
 42
1.4481578904
  0
ELLIPSE
  5
3A1
100
AcDbEntity
  8
ALL_ASSEMBLY_MEMBERS
100
AcDbEllipse
 62
7
  6
CONTINUOUS
 10
4.5850963127
 20
4.2788237578
 30
0.0
 11
0.1171229363
 21
0.4846535963
 31
0.0
 40
0.082538636
 41
1.2874639355
 42
1.3022224851
  0
ELLIPSE
  5
3A2
100
AcDbEntity
  8
ALL_ASSEMBLY_MEMBERS
100
AcDbEllipse
 62
7
  6
CONTINUOUS
 10
4.5850963127
 20
4.2788237578
 30
0.0
 11
0.116526984
 21
0.4821875514
 31
0.0
 40
0.082538636
 41
1.2876982814
 42
1.3025325273
  0
ELLIPSE
  5
3A3
100
AcDbEntity
  8
ALL_ASSEMBLY_MEMBERS
100
AcDbEllipse
 62
7
  6
CONTINUOUS
 10
4.565969622
 20
4.2788237578
 30
0.0
 11
-0.1211290532
 21
0.4821725657
 31
0.0
 40
0.0853800458
 41
-4.2918879649
 42
-4.2793511418
  0
ELLIPSE
  5
3A4
100
AcDbEntity
  8
ALL_ASSEMBLY_MEMBERS
100
AcDbEllipse
 62
7
  6
CONTINUOUS
 10
4.5945383272
 20
4.2788237578
 30
0.0
 11
0.3205164298
 21
0.4819141273
 31
0.0
 40
0.1633544133
 41
1.364678812
 42
1.3757409965
  0
ELLIPSE
  5
3A5
100
AcDbEntity
  8
ALL_ASSEMBLY_MEMBERS
100
AcDbEllipse
 62
7
  6
CONTINUOUS
 10
4.5945383272
 20
4.2788237578
 30
0.0
 11
0.318885558
 21
0.4794620215
 31
0.0
 40
0.1633544133
 41
1.3648564897
 42
1.3759753424
  0
ELLIPSE
  5
3A6
100
AcDbEntity
  8
ALL_ASSEMBLY_MEMBERS
100
AcDbEllipse
 62
7
  6
CONTINUOUS
 10
4.6174567258
 20
4.2788237578
 30
0.0
 11
0.9880542361
 21
0.465285186
 31
0.0
 40
0.1376303424
 41
1.533430284
 42
1.5408026323
  0
ELLIPSE
  5
3A7
100
AcDbEntity
  8
ALL_ASSEMBLY_MEMBERS
100
AcDbEllipse
 62
7
  6
CONTINUOUS
 10
4.6174567258
 20
4.2788237578
 30
0.0
 11
0.9830267564
 21
0.4629176926
 31
0.0
 40
0.1376303424
 41
1.5335702205
 42
1.5409803099
  0
ELLIPSE
  5
3A8
100
AcDbEntity
  8
ALL_ASSEMBLY_MEMBERS
100
AcDbEllipse
 62
7
  6
CONTINUOUS
 10
4.565969622
 20
4.2788237578
 30
0.0
 11
-0.1217485418
 21
0.484638534
 31
0.0
 40
0.0853800458
 41
-4.2941425674
 42
-4.2798895141
  0
ELLIPSE
  5
3A9
100
AcDbEntity
  8
ALL_ASSEMBLY_MEMBERS
100
AcDbEllipse
 62
7
  6
CONTINUOUS
 10
4.4138084647
 20
4.2788237578
 30
0.0
 11
1.2858776966
 21
-0.0
 31
0.0
 40
0.3769798646
 41
7.7176661569
 42
7.7233910371
  0
ELLIPSE
  5
3AA
100
AcDbEntity
  8
ALL_ASSEMBLY_MEMBERS
100
AcDbEllipse
 62
7
  6
CONTINUOUS
 10
4.4138084647
 20
4.2788237578
 30
0.0
 11
1.2793348128
 21
-0.0
 31
0.0
 40
0.3769798646
 41
1.4337793091
 42
1.4395339999
  0
ELLIPSE
  5
3AB
100
AcDbEntity
  8
ALL_ASSEMBLY_MEMBERS
100
AcDbEllipse
 62
7
  6
CONTINUOUS
 10
4.5345595043
 20
4.2788237578
 30
0.0
 11
-0.4182142408
 21
0.4767033111
 31
0.0
 40
0.1749164141
 41
-4.4101729241
 42
-4.4015666817
  0
ELLIPSE
  5
3AC
100
AcDbEntity
  8
ALL_ASSEMBLY_MEMBERS
100
AcDbEllipse
 62
7
  6
CONTINUOUS
 10
4.5345595043
 20
4.2788237578
 30
0.0
 11
-0.4203531079
 21
0.479141308
 31
0.0
 40
0.1749164141
 41
-4.4107112963
 42
-4.4021493725
  0
ELLIPSE
  5
3AD
100
AcDbEntity
  8
ALL_ASSEMBLY_MEMBERS
100
AcDbEllipse
 62
7
  6
CONTINUOUS
 10
4.3264356704
 20
4.2788237578
 30
0.0
 11
1.928827244
 21
-0.0
 31
0.0
 40
0.2513185157
 41
1.4316167513
 42
1.4344808497
  0
ELLIPSE
  5
3AE
100
AcDbEntity
  8
ALL_ASSEMBLY_MEMBERS
100
AcDbEllipse
 62
7
  6
CONTINUOUS
 10
4.4739100207
 20
4.2788237578
 30
0.0
 11
0.9573098206
 21
-0.463307535
 31
0.0
 40
0.1399267287
 41
-1.3891557708
 42
-1.3776674525
  0
ELLIPSE
  5
3AF
100
AcDbEntity
  8
ALL_ASSEMBLY_MEMBERS
100
AcDbEllipse
 62
7
  6
CONTINUOUS
 10
4.4739100207
 20
4.2788237578
 30
0.0
 11
0.9622057766
 21
-0.4656770221
 31
0.0
 40
0.1399267287
 41
-1.3897384615
 42
-1.3783094395
  0
ELLIPSE
  5
3B0
100
AcDbEntity
  8
ALL_ASSEMBLY_MEMBERS
100
AcDbEllipse
 62
7
  6
CONTINUOUS
 10
4.3264356704
 20
4.2788237578
 30
0.0
 11
1.9190128639
 21
0.0
 31
0.0
 40
0.2513185157
 41
1.4309002792
 42
1.4337793091
  0
ELLIPSE
  5
3B1
100
AcDbEntity
  8
ALL_ASSEMBLY_MEMBERS
100
AcDbEllipse
 62
7
  6
CONTINUOUS
 10
4.1135684643
 20
4.2788237578
 30
0.0
 11
3.8379783783
 21
-0.4540195858
 31
0.0
 40
0.0423859163
 41
-1.4402702398
 42
-1.4373956289
  0
ELLIPSE
  5
3B2
100
AcDbEntity
  8
ALL_ASSEMBLY_MEMBERS
100
AcDbEllipse
 62
7
  6
CONTINUOUS
 10
4.1135684643
 20
4.2788237578
 30
0.0
 11
3.8576068963
 21
-0.4563415717
 31
0.0
 40
0.0423859163
 41
-1.4409122269
 42
-1.4380524792
  0
ELLIPSE
  5
3B3
100
AcDbEntity
  8
ALL_ASSEMBLY_MEMBERS
100
AcDbEllipse
 62
7
  6
CONTINUOUS
 10
4.5603068796
 20
4.2788237578
 30
0.0
 11
-0.0934736487
 21
0.4847090994
 31
0.0
 40
0.0673659664
 41
-1.3359330152
 42
-1.3174326445
  0
ELLIPSE
  5
3B4
100
AcDbEntity
  8
ALL_ASSEMBLY_MEMBERS
100
AcDbEllipse
 62
7
  6
CONTINUOUS
 10
4.5603068796
 20
4.2788237578
 30
0.0
 11
-0.0929980302
 21
0.4822427721
 31
0.0
 40
0.0673659664
 41
-1.3364524313
 42
-1.3178566306
  0
ELLIPSE
  5
3B5
100
AcDbEntity
  8
ALL_ASSEMBLY_MEMBERS
100
AcDbEllipse
 62
7
  6
CONTINUOUS
 10
4.1480438812
 20
4.2788237578
 30
0.0
 11
3.2147129739
 21
0.0
 31
0.0
 40
0.1507910672
 41
1.4287515033
 42
1.4316167513
  0
ELLIPSE
  5
3B6
100
AcDbEntity
  8
ALL_ASSEMBLY_MEMBERS
100
AcDbEllipse
 62
7
  6
CONTINUOUS
 10
4.540298496
 20
4.2788237578
 30
0.0
 11
-0.2873264341
 21
0.4826711449
 31
0.0
 40
0.1560789432
 41
-1.4341230973
 42
-1.4155878961
  0
ELLIPSE
  5
3B7
100
AcDbEntity
  8
ALL_ASSEMBLY_MEMBERS
100
AcDbEllipse
 62
7
  6
CONTINUOUS
 10
4.540298496
 20
4.2788237578
 30
0.0
 11
-0.2858644416
 21
0.4802151872
 31
0.0
 40
0.1560789432
 41
-1.4347384861
 42
-1.4161073122
  0
ELLIPSE
  5
3B8
100
AcDbEntity
  8
ALL_ASSEMBLY_MEMBERS
100
AcDbEllipse
 62
7
  6
CONTINUOUS
 10
4.4969284627
 20
4.2788237578
 30
0.0
 11
0.6553159276
 21
-0.4721187462
 31
0.0
 40
0.1677639688
 41
1.5601896397
 42
1.5713302259
  0
ELLIPSE
  5
3B9
100
AcDbEntity
  8
ALL_ASSEMBLY_MEMBERS
100
AcDbEllipse
 62
7
  6
CONTINUOUS
 10
4.4969284627
 20
4.2788237578
 30
0.0
 11
0.6519815079
 21
-0.4697164819
 31
0.0
 40
0.1677639688
 41
1.5595163628
 42
1.5707148371
  0
ELLIPSE
  5
3BA
100
AcDbEntity
  8
ALL_ASSEMBLY_MEMBERS
100
AcDbEllipse
 62
7
  6
CONTINUOUS
 10
4.4215469348
 20
4.2788237578
 30
0.0
 11
1.2364591409
 21
-0.462368365
 31
0.0
 40
0.1177519922
 41
1.4764767822
 42
1.4839128544
  0
ELLIPSE
  5
3BB
100
AcDbEntity
  8
ALL_ASSEMBLY_MEMBERS
100
AcDbEllipse
 62
7
  6
CONTINUOUS
 10
4.4215469348
 20
4.2788237578
 30
0.0
 11
1.2301677117
 21
-0.4600157132
 31
0.0
 40
0.1177519922
 41
1.475764772
 42
1.4832395775
  0
ELLIPSE
  5
3BC
100
AcDbEntity
  8
ALL_ASSEMBLY_MEMBERS
100
AcDbEllipse
 62
7
  6
CONTINUOUS
 10
4.7701474371
 20
4.2788237578
 30
0.0
 11
1.2364593147
 21
0.4623683634
 31
0.0
 40
0.1177519797
 41
1.6576798102
 42
1.6651158823
  0
ELLIPSE
  5
3BD
100
AcDbEntity
  8
ALL_ASSEMBLY_MEMBERS
100
AcDbEllipse
 62
7
  6
CONTINUOUS
 10
4.7701474371
 20
4.2788237578
 30
0.0
 11
1.2301678846
 21
0.4600157117
 31
0.0
 40
0.1177519797
 41
1.6583530871
 42
1.6658278925
  0
ELLIPSE
  5
3BE
100
AcDbEntity
  8
ALL_ASSEMBLY_MEMBERS
100
AcDbEllipse
 62
7
  6
CONTINUOUS
 10
4.694765879
 20
4.2788237578
 30
0.0
 11
0.6553158691
 21
0.4721187478
 31
0.0
 40
0.1677639734
 41
1.5702624133
 42
1.5814029995
  0
ELLIPSE
  5
3BF
100
AcDbEntity
  8
ALL_ASSEMBLY_MEMBERS
100
AcDbEllipse
 62
7
  6
CONTINUOUS
 10
4.694765879
 20
4.2788237578
 30
0.0
 11
0.6519814497
 21
0.4697164835
 31
0.0
 40
0.1677639734
 41
1.5708778021
 42
1.5820762764
  0
ELLIPSE
  5
3C0
100
AcDbEntity
  8
ALL_ASSEMBLY_MEMBERS
100
AcDbEllipse
 62
7
  6
CONTINUOUS
 10
4.6513958495
 20
4.2788237578
 30
0.0
 11
0.287326408
 21
0.4826711454
 31
0.0
 40
0.1560789367
 41
1.4155878838
 42
1.434123085
  0
ELLIPSE
  5
3C1
100
AcDbEntity
  8
ALL_ASSEMBLY_MEMBERS
100
AcDbEllipse
 62
7
  6
CONTINUOUS
 10
4.6513958495
 20
4.2788237578
 30
0.0
 11
0.2858644157
 21
0.4802151878
 31
0.0
 40
0.1560789367
 41
1.4161072999
 42
1.4347384738
  0
ELLIPSE
  5
3C2
100
AcDbEntity
  8
ALL_ASSEMBLY_MEMBERS
100
AcDbEllipse
 62
7
  6
CONTINUOUS
 10
4.6313874676
 20
4.2788237578
 30
0.0
 11
0.0934736405
 21
0.4847090994
 31
0.0
 40
0.0673659609
 41
1.3174326423
 42
1.335933013
  0
ELLIPSE
  5
3C3
100
AcDbEntity
  8
ALL_ASSEMBLY_MEMBERS
100
AcDbEllipse
 62
7
  6
CONTINUOUS
 10
4.6313874676
 20
4.2788237578
 30
0.0
 11
0.092998022
 21
0.4822427721
 31
0.0
 40
0.0673659609
 41
1.3178566284
 42
1.3364524291
  0
ELLIPSE
  5
3C4
100
AcDbEntity
  8
ALL_ASSEMBLY_MEMBERS
100
AcDbEllipse
 62
7
  6
CONTINUOUS
 10
4.1480438812
 20
4.2788237578
 30
0.0
 11
3.1983556692
 21
0.0
 31
0.0
 40
0.1507910672
 41
1.4280200816
 42
1.4309002792
  0
ELLIPSE
  5
3C5
100
AcDbEntity
  8
ALL_ASSEMBLY_MEMBERS
100
AcDbEllipse
 62
7
  6
CONTINUOUS
 10
5.1091338957
 20
4.2788237578
 30
0.0
 11
3.8379774823
 21
0.4540195862
 31
0.0
 40
0.0423859259
 41
-1.704197027
 42
-1.7013224161
  0
ELLIPSE
  5
3C6
100
AcDbEntity
  8
ALL_ASSEMBLY_MEMBERS
100
AcDbEllipse
 62
7
  6
CONTINUOUS
 10
5.1091338957
 20
4.2788237578
 30
0.0
 11
3.8576059957
 21
0.4563415721
 31
0.0
 40
0.0423859259
 41
-1.7035401767
 42
-1.700680429
  0
ELLIPSE
  5
3C7
100
AcDbEntity
  8
ALL_ASSEMBLY_MEMBERS
100
AcDbEllipse
 62
7
  6
CONTINUOUS
 10
4.7487924935
 20
4.2788237578
 30
0.0
 11
0.9573101584
 21
0.4633075297
 31
0.0
 40
0.1399266983
 41
-1.7639251619
 42
-1.7524368436
  0
ELLIPSE
  5
3C8
100
AcDbEntity
  8
ALL_ASSEMBLY_MEMBERS
100
AcDbEllipse
 62
7
  6
CONTINUOUS
 10
4.7487924935
 20
4.2788237578
 30
0.0
 11
0.9622061161
 21
0.4656770168
 31
0.0
 40
0.1399266983
 41
-1.7632831748
 42
-1.7518541529
  0
ELLIPSE
  5
3C9
100
AcDbEntity
  8
ALL_ASSEMBLY_MEMBERS
100
AcDbEllipse
 62
7
  6
CONTINUOUS
 10
5.074658466
 20
4.2788237578
 30
0.0
 11
3.2147120734
 21
0.0
 31
0.0
 40
0.1507911094
 41
1.7099759023
 42
1.7128411503
  0
ELLIPSE
  5
3CA
100
AcDbEntity
  8
ALL_ASSEMBLY_MEMBERS
100
AcDbEllipse
 62
7
  6
CONTINUOUS
 10
5.074658466
 20
4.2788237578
 30
0.0
 11
3.1983547732
 21
-0.0
 31
0.0
 40
0.1507911094
 41
1.7106923744
 42
1.713572572
  0
ELLIPSE
  5
3CB
100
AcDbEntity
  8
ALL_ASSEMBLY_MEMBERS
100
AcDbEllipse
 62
7
  6
CONTINUOUS
 10
4.8962670516
 20
4.2788237578
 30
0.0
 11
1.9288290452
 21
-0.0
 31
0.0
 40
0.251318281
 41
1.7071118038
 42
1.7099759023
  0
ELLIPSE
  5
3CC
100
AcDbEntity
  8
ALL_ASSEMBLY_MEMBERS
100
AcDbEllipse
 62
7
  6
CONTINUOUS
 10
4.6881429717
 20
4.2788237578
 30
0.0
 11
0.4182142408
 21
0.4767033111
 31
0.0
 40
0.1749164141
 41
-1.8816186254
 42
-1.8730123831
  0
ELLIPSE
  5
3CD
100
AcDbEntity
  8
ALL_ASSEMBLY_MEMBERS
100
AcDbEllipse
 62
7
  6
CONTINUOUS
 10
4.6881429717
 20
4.2788237578
 30
0.0
 11
0.4203531079
 21
0.479141308
 31
0.0
 40
0.1749164141
 41
-1.8810359347
 42
-1.8724740109
  0
ELLIPSE
  5
3CE
100
AcDbEntity
  8
ALL_ASSEMBLY_MEMBERS
100
AcDbEllipse
 62
7
  6
CONTINUOUS
 10
4.8962670516
 20
4.2788237578
 30
0.0
 11
1.9190146559
 21
0.0
 31
0.0
 40
0.251318281
 41
1.7078133445
 42
1.7106923744
  0
ELLIPSE
  5
3CF
100
AcDbEntity
  8
ALL_ASSEMBLY_MEMBERS
100
AcDbEllipse
 62
7
  6
CONTINUOUS
 10
4.656732854
 20
4.2788237578
 30
0.0
 11
0.1211290532
 21
0.4821725657
 31
0.0
 40
0.0853800458
 41
-2.0038341653
 42
-1.9912973423
  0
ELLIPSE
  5
3D0
100
AcDbEntity
  8
ALL_ASSEMBLY_MEMBERS
100
AcDbEllipse
 62
7
  6
CONTINUOUS
 10
4.656732854
 20
4.2788237578
 30
0.0
 11
0.1217485418
 21
0.484638534
 31
0.0
 40
0.0853800458
 41
-2.0032957931
 42
-1.9890427398
  0
ELLIPSE
  5
3D1
100
AcDbEntity
  8
ALL_ASSEMBLY_MEMBERS
100
AcDbEllipse
 62
7
  6
CONTINUOUS
 10
4.808893982
 20
4.2788237578
 30
0.0
 11
1.2858774715
 21
-0.0
 31
0.0
 40
0.3769799306
 41
1.7013869237
 42
1.7071118038
  0
ELLIPSE
  5
3D2
100
AcDbEntity
  8
ALL_ASSEMBLY_MEMBERS
100
AcDbEllipse
 62
7
  6
CONTINUOUS
 10
4.808893982
 20
4.2788237578
 30
0.0
 11
1.2793345889
 21
0.0
 31
0.0
 40
0.3769799306
 41
1.7020586537
 42
1.7078133445
  0
ELLIPSE
  5
3D3
100
AcDbEntity
  8
ALL_ASSEMBLY_MEMBERS
100
AcDbEllipse
 62
7
  6
CONTINUOUS
 10
4.7251708309
 20
4.2788237578
 30
0.0
 11
0.642939962
 21
-0.0
 31
0.0
 40
0.7539584232
 41
1.6928076234
 42
1.7013869237
  0
ELLIPSE
  5
3D4
100
AcDbEntity
  8
ALL_ASSEMBLY_MEMBERS
100
AcDbEllipse
 62
7
  6
CONTINUOUS
 10
4.7251708309
 20
4.2788237578
 30
0.0
 11
0.6396685145
 21
0.0
 31
0.0
 40
0.7539584232
 41
1.6934347632
 42
1.7020586537
  0
ELLIPSE
  5
3D5
100
AcDbEntity
  8
ALL_ASSEMBLY_MEMBERS
100
AcDbEllipse
 62
7
  6
CONTINUOUS
 10
4.7480587796
 20
4.2788237578
 30
0.0
 11
0.7463249724
 21
-0.4698307965
 31
0.0
 40
0.1599010046
 41
-1.6130856485
 42
-1.5959095311
  0
ELLIPSE
  5
3D6
100
AcDbEntity
  8
ALL_ASSEMBLY_MEMBERS
100
AcDbEllipse
 62
7
  6
CONTINUOUS
 10
4.7480587796
 20
4.2788237578
 30
0.0
 11
0.7425274748
 21
-0.4674401739
 31
0.0
 40
0.1599010046
 41
-1.6138200371
 42
-1.5965544644
  0
ELLIPSE
  5
3D7
100
AcDbEntity
  8
ALL_ASSEMBLY_MEMBERS
100
AcDbEllipse
 62
7
  6
CONTINUOUS
 10
4.6938702692
 20
4.2788237578
 30
0.0
 11
0.0
 21
0.48475
 31
0.0
 40
0.7958001534
 41
0.10773218
 42
0.1220112966
  0
ELLIPSE
  5
3D8
100
AcDbEntity
  8
ALL_ASSEMBLY_MEMBERS
100
AcDbEllipse
 62
7
  6
CONTINUOUS
 10
4.6938702692
 20
4.2788237578
 30
0.0
 11
0.0
 21
0.4822834646
 31
0.0
 40
0.7958001534
 41
0.1082853113
 42
0.1226384364
  0
ELLIPSE
  5
3D9
100
AcDbEntity
  8
ALL_ASSEMBLY_MEMBERS
100
AcDbEllipse
 62
7
  6
CONTINUOUS
 10
4.492782561
 20
4.2788237578
 30
0.0
 11
3.1982722808
 21
-0.4543712279
 31
0.0
 40
0.0505558762
 41
-1.5239656048
 42
-1.5211117194
  0
ELLIPSE
  5
3DA
100
AcDbEntity
  8
ALL_ASSEMBLY_MEMBERS
100
AcDbEllipse
 62
7
  6
CONTINUOUS
 10
4.492782561
 20
4.2788237578
 30
0.0
 11
3.2146291591
 21
-0.4566950122
 31
0.0
 40
0.0505558762
 41
-1.5241674517
 42
-1.521328112
  0
ELLIPSE
  5
3DB
100
AcDbEntity
  8
ALL_ASSEMBLY_MEMBERS
100
AcDbEllipse
 62
7
  6
CONTINUOUS
 10
4.6639133062
 20
4.2788237578
 30
0.0
 11
-0.0
 21
0.48475
 31
0.0
 40
0.2210555139
 41
0.0906260353
 42
0.10773218
  0
ELLIPSE
  5
3DC
100
AcDbEntity
  8
ALL_ASSEMBLY_MEMBERS
100
AcDbEllipse
 62
7
  6
CONTINUOUS
 10
4.6639133062
 20
4.2788237578
 30
0.0
 11
0.0
 21
0.4822834646
 31
0.0
 40
0.2210555139
 41
0.0910908057
 42
0.1082853113
  0
ELLIPSE
  5
3DD
100
AcDbEntity
  8
ALL_ASSEMBLY_MEMBERS
100
AcDbEllipse
 62
7
  6
CONTINUOUS
 10
4.5471416492
 20
4.2788237578
 30
0.0
 11
1.9186443081
 21
-0.4563054692
 31
0.0
 40
0.0813853176
 41
-1.5089407422
 42
-1.5060864941
  0
ELLIPSE
  5
3DE
100
AcDbEntity
  8
ALL_ASSEMBLY_MEMBERS
100
AcDbEllipse
 62
7
  6
CONTINUOUS
 10
4.5471416492
 20
4.2788237578
 30
0.0
 11
1.9284568033
 21
-0.4586391457
 31
0.0
 40
0.0813853176
 41
-1.5091571348
 42
-1.5063174377
  0
ELLIPSE
  5
3DF
100
AcDbEntity
  8
ALL_ASSEMBLY_MEMBERS
100
AcDbEllipse
 62
7
  6
CONTINUOUS
 10
4.5761447649
 20
4.2788237578
 30
0.0
 11
1.2782580077
 21
-0.4595926617
 31
0.0
 40
0.114367678
 41
-1.484342408
 42
-1.4786327952
  0
ELLIPSE
  5
3E0
100
AcDbEntity
  8
ALL_ASSEMBLY_MEMBERS
100
AcDbEllipse
 62
7
  6
CONTINUOUS
 10
4.5761447649
 20
4.2788237578
 30
0.0
 11
1.2847953844
 21
-0.4619431499
 31
0.0
 40
0.114367678
 41
-1.4845733516
 42
-1.478892858
  0
ELLIPSE
  5
3E1
100
AcDbEntity
  8
ALL_ASSEMBLY_MEMBERS
100
AcDbEllipse
 62
7
  6
CONTINUOUS
 10
4.6087960939
 20
4.2788237578
 30
0.0
 11
0.6347072598
 21
-0.4701874538
 31
0.0
 40
0.1691116311
 41
-1.3951024531
 42
-1.386534842
  0
ELLIPSE
  5
3E2
100
AcDbEntity
  8
ALL_ASSEMBLY_MEMBERS
100
AcDbEllipse
 62
7
  6
CONTINUOUS
 10
4.6087960939
 20
4.2788237578
 30
0.0
 11
0.6379533341
 21
-0.4725921268
 31
0.0
 40
0.1691116311
 41
-1.3953625159
 42
-1.3868386321
  0
ELLIPSE
  5
3E3
100
AcDbEntity
  8
ALL_ASSEMBLY_MEMBERS
100
AcDbEllipse
 62
7
  6
CONTINUOUS
 10
4.6240454266
 20
4.2788237578
 30
0.0
 11
-0.3749396591
 21
0.4779751482
 31
0.0
 40
0.1715483401
 41
-4.4374539601
 42
-4.4231645383
  0
ELLIPSE
  5
3E4
100
AcDbEntity
  8
ALL_ASSEMBLY_MEMBERS
100
AcDbEllipse
 62
7
  6
CONTINUOUS
 10
4.6240454266
 20
4.2788237578
 30
0.0
 11
-0.3768572076
 21
0.4804196496
 31
0.0
 40
0.1715483401
 41
-4.4377577502
 42
-4.4235413607
  0
ELLIPSE
  5
3E5
100
AcDbEntity
  8
ALL_ASSEMBLY_MEMBERS
100
AcDbEllipse
 62
7
  6
CONTINUOUS
 10
4.6445175149
 20
4.2788237578
 30
0.0
 11
-0.1007222974
 21
0.4822282366
 31
0.0
 40
0.0724615456
 41
-4.3045336433
 42
-4.2873661045
  0
ELLIPSE
  5
3E6
100
AcDbEntity
  8
ALL_ASSEMBLY_MEMBERS
100
AcDbEllipse
 62
7
  6
CONTINUOUS
 10
4.6445175149
 20
4.2788237578
 30
0.0
 11
-0.10123742
 21
0.4846944896
 31
0.0
 40
0.0724615456
 41
-4.3049104657
 42
-4.2878308749
  0
ELLIPSE
  5
3E7
100
AcDbEntity
  8
ALL_ASSEMBLY_MEMBERS
100
AcDbEllipse
 62
7
  6
CONTINUOUS
 10
4.5777879559
 20
4.2788237578
 30
0.0
 11
0.6429400371
 21
-0.0
 31
0.0
 40
0.7539583352
 41
7.8485889439
 42
7.857099912
  0
ELLIPSE
  5
3E8
100
AcDbEntity
  8
ALL_ASSEMBLY_MEMBERS
100
AcDbEllipse
 62
7
  6
CONTINUOUS
 10
4.4108839933
 20
4.2788237578
 30
0.0
 11
3.8576324144
 21
0.0
 31
0.0
 40
0.1256599769
 41
1.5143080044
 42
1.5171492967
  0
ELLIPSE
  5
3E9
100
AcDbEntity
  8
ALL_ASSEMBLY_MEMBERS
100
AcDbEllipse
 62
7
  6
CONTINUOUS
 10
4.4108839933
 20
4.2788237578
 30
0.0
 11
3.8380037666
 21
0.0
 31
0.0
 40
0.1256599769
 41
7.7972041041
 42
7.8000599721
  0
ELLIPSE
  5
3EA
100
AcDbEntity
  8
ALL_ASSEMBLY_MEMBERS
100
AcDbEllipse
 62
7
  6
CONTINUOUS
 10
4.6576286901
 20
4.2788237578
 30
0.0
 11
-0.0866566919
 21
0.4847194462
 31
0.0
 40
0.0628055002
 41
-4.4316026612
 42
-4.4117214252
  0
ELLIPSE
  5
3EB
100
AcDbEntity
  8
ALL_ASSEMBLY_MEMBERS
100
AcDbEllipse
 62
7
  6
CONTINUOUS
 10
4.6576286901
 20
4.2788237578
 30
0.0
 11
-0.0862157599
 21
0.4822530662
 31
0.0
 40
0.0628055002
 41
-4.4318947599
 42
-4.4119116145
  0
ELLIPSE
  5
3EC
100
AcDbEntity
  8
ALL_ASSEMBLY_MEMBERS
100
AcDbEllipse
 62
7
  6
CONTINUOUS
 10
4.6707219087
 20
4.2788237578
 30
0.0
 11
-0.3118799231
 21
0.4821211713
 31
0.0
 40
0.1616508637
 41
-4.5359371337
 42
-4.5245667903
  0
ELLIPSE
  5
3ED
100
AcDbEntity
  8
ALL_ASSEMBLY_MEMBERS
100
AcDbEllipse
 62
7
  6
CONTINUOUS
 10
4.6707219087
 20
4.2788237578
 30
0.0
 11
-0.310292996
 21
0.4796680121
 31
0.0
 40
0.1616508637
 41
-4.5362876155
 42
-4.524858889
  0
ELLIPSE
  5
3EE
100
AcDbEntity
  8
ALL_ASSEMBLY_MEMBERS
100
AcDbEllipse
 62
7
  6
CONTINUOUS
 10
4.6927004125
 20
4.2788237578
 30
0.0
 11
0.6379532564
 21
-0.4725921289
 31
0.0
 40
0.169111637
 41
-1.525970049
 42
-1.5145908343
  0
ELLIPSE
  5
3EF
100
AcDbEntity
  8
ALL_ASSEMBLY_MEMBERS
100
AcDbEllipse
 62
7
  6
CONTINUOUS
 10
4.6927004125
 20
4.2788237578
 30
0.0
 11
0.6347071826
 21
-0.470187456
 31
0.0
 40
0.169111637
 41
-1.5263790513
 42
-1.5149413162
  0
ELLIPSE
  5
3F0
100
AcDbEntity
  8
ALL_ASSEMBLY_MEMBERS
100
AcDbEllipse
 62
7
  6
CONTINUOUS
 10
4.8464594951
 20
4.2788237578
 30
0.0
 11
2.5715997839
 21
-0.4573305014
 31
0.0
 40
0.0624986133
 41
-1.6423298464
 42
-1.639483481
  0
ELLIPSE
  5
3F1
100
AcDbEntity
  8
ALL_ASSEMBLY_MEMBERS
100
AcDbEllipse
 62
7
  6
CONTINUOUS
 10
4.8464594951
 20
4.2788237578
 30
0.0
 11
2.5585148082
 21
-0.4550034836
 31
0.0
 40
0.0624986133
 41
-1.6427535031
 42
-1.6398924833
  0
ELLIPSE
  5
3F2
100
AcDbEntity
  8
ALL_ASSEMBLY_MEMBERS
100
AcDbEllipse
 62
7
  6
CONTINUOUS
 10
4.5742302961
 20
4.2788237578
 30
0.0
 11
0.9644113131
 21
0.0
 31
0.0
 40
0.5026382348
 41
7.7861233771
 42
7.7974933116
  0
ELLIPSE
  5
3F3
100
AcDbEntity
  8
ALL_ASSEMBLY_MEMBERS
100
AcDbEllipse
 62
7
  6
CONTINUOUS
 10
4.5742302961
 20
4.2788237578
 30
0.0
 11
0.9595041348
 21
0.0
 31
0.0
 40
0.5026382348
 41
7.7911586055
 42
7.7972041041
  0
ELLIPSE
  5
3F4
100
AcDbEntity
  8
ALL_ASSEMBLY_MEMBERS
100
AcDbEllipse
 62
7
  6
CONTINUOUS
 10
4.6105598136
 20
4.2788237578
 30
0.0
 11
-0.0
 21
0.48475
 31
0.0
 40
0.8842220554
 41
6.2067939025
 42
6.2153270503
  0
ELLIPSE
  5
3F5
100
AcDbEntity
  8
ALL_ASSEMBLY_MEMBERS
100
AcDbEllipse
 62
7
  6
CONTINUOUS
 10
4.6334579089
 20
4.2788237578
 30
0.0
 11
-0.0
 21
0.48475
 31
0.0
 40
0.2652664142
 41
6.1925592719
 42
6.2067939025
  0
ELLIPSE
  5
3F6
100
AcDbEntity
  8
ALL_ASSEMBLY_MEMBERS
100
AcDbEllipse
 62
7
  6
CONTINUOUS
 10
4.5743207894
 20
4.2788237578
 30
0.0
 11
1.2858813755
 21
0.0
 31
0.0
 40
0.3769787861
 41
7.8429147916
 42
7.8485889439
  0
ELLIPSE
  5
3F7
100
AcDbEntity
  8
ALL_ASSEMBLY_MEMBERS
100
AcDbEllipse
 62
7
  6
CONTINUOUS
 10
4.5781849606
 20
4.2788237578
 30
0.0
 11
0.1007223063
 21
0.4822282366
 31
0.0
 40
0.0724615514
 41
-1.9958192001
 42
-1.9786516613
  0
ELLIPSE
  5
3F8
100
AcDbEntity
  8
ALL_ASSEMBLY_MEMBERS
100
AcDbEllipse
 62
7
  6
CONTINUOUS
 10
4.5781849606
 20
4.2788237578
 30
0.0
 11
0.101237429
 21
0.4846944896
 31
0.0
 40
0.0724615514
 41
-1.9953544298
 42
-1.9782748389
  0
ELLIPSE
  5
3F9
100
AcDbEntity
  8
ALL_ASSEMBLY_MEMBERS
100
AcDbEllipse
 62
7
  6
CONTINUOUS
 10
4.6414111891
 20
4.2788237578
 30
0.0
 11
0.1217484712
 21
0.4846385342
 31
0.0
 40
0.0853800028
 41
-1.8839500288
 42
-1.8697617145
  0
ELLIPSE
  5
3FA
100
AcDbEntity
  8
ALL_ASSEMBLY_MEMBERS
100
AcDbEllipse
 62
7
  6
CONTINUOUS
 10
4.6414111891
 20
4.2788237578
 30
0.0
 11
0.121128983
 21
0.482172566
 31
0.0
 40
0.0853800028
 41
-1.8838760368
 42
-1.8713258838
  0
ELLIPSE
  5
3FB
100
AcDbEntity
  8
ALL_ASSEMBLY_MEMBERS
100
AcDbEllipse
 62
7
  6
CONTINUOUS
 10
4.6370707714
 20
4.2788237578
 30
0.0
 11
0.4203531079
 21
0.479141308
 31
0.0
 40
0.1749164141
 41
-1.7616396296
 42
-1.7531282233
  0
ELLIPSE
  5
3FC
100
AcDbEntity
  8
ALL_ASSEMBLY_MEMBERS
100
AcDbEllipse
 62
7
  6
CONTINUOUS
 10
4.6370707714
 20
4.2788237578
 30
0.0
 11
0.4182142408
 21
0.4767033111
 31
0.0
 40
0.1749164141
 41
-1.7616091722
 42
-1.7530542313
  0
ELLIPSE
  5
3FD
100
AcDbEntity
  8
ALL_ASSEMBLY_MEMBERS
100
AcDbEllipse
 62
7
  6
CONTINUOUS
 10
4.6338800384
 20
4.2788237578
 30
0.0
 11
0.9622070503
 21
0.4656770023
 31
0.0
 40
0.1399266146
 41
-1.6381317277
 42
-1.6324577399
  0
ELLIPSE
  5
3FE
100
AcDbEntity
  8
ALL_ASSEMBLY_MEMBERS
100
AcDbEllipse
 62
7
  6
CONTINUOUS
 10
4.6338800384
 20
4.2788237578
 30
0.0
 11
0.9573110879
 21
0.4633075153
 31
0.0
 40
0.1399266146
 41
-1.638130289
 42
-1.6324272825
  0
ELLIPSE
  5
3FF
100
AcDbEntity
  8
ALL_ASSEMBLY_MEMBERS
100
AcDbEllipse
 62
7
  6
CONTINUOUS
 10
4.6308650371
 20
4.2788237578
 30
0.0
 11
1.2847953844
 21
-0.4619431499
 31
0.0
 40
0.114367678
 41
-1.5356543218
 42
-1.5299803341
  0
ELLIPSE
  5
400
100
AcDbEntity
  8
ALL_ASSEMBLY_MEMBERS
100
AcDbEllipse
 62
7
  6
CONTINUOUS
 10
4.6308650371
 20
4.2788237578
 30
0.0
 11
1.2782580077
 21
-0.4595926617
 31
0.0
 40
0.114367678
 41
-1.5356847793
 42
-1.5299817728
  0
ELLIPSE
  5
401
100
AcDbEntity
  8
ALL_ASSEMBLY_MEMBERS
100
AcDbEllipse
 62
7
  6
CONTINUOUS
 10
4.6266259207
 20
4.2788237578
 30
0.0
 11
0.5681047491
 21
-0.4746020763
 31
0.0
 40
0.1736797508
 41
-1.5122023158
 42
-1.4326628245
  0
ELLIPSE
  5
402
100
AcDbEntity
  8
ALL_ASSEMBLY_MEMBERS
100
AcDbEllipse
 62
7
  6
CONTINUOUS
 10
4.6266259207
 20
4.2788237578
 30
0.0
 11
0.5652140828
 21
-0.4721871761
 31
0.0
 40
0.1736797508
 41
-1.5126406373
 42
-1.4326932819
  0
ELLIPSE
  5
403
100
AcDbEntity
  8
ALL_ASSEMBLY_MEMBERS
100
AcDbEllipse
 62
7
  6
CONTINUOUS
 10
4.7299199492
 20
4.2788237578
 30
0.0
 11
3.2146300597
 21
0.4566950116
 31
0.0
 40
0.0505558626
 41
-1.6202645376
 42
-1.6174251979
  0
ELLIPSE
  5
404
100
AcDbEntity
  8
ALL_ASSEMBLY_MEMBERS
100
AcDbEllipse
 62
7
  6
CONTINUOUS
 10
4.7299199492
 20
4.2788237578
 30
0.0
 11
3.1982731769
 21
0.4543712273
 31
0.0
 40
0.0505558626
 41
-1.6204809302
 42
-1.6176270448
  0
ELLIPSE
  5
405
100
AcDbEntity
  8
ALL_ASSEMBLY_MEMBERS
100
AcDbEllipse
 62
7
  6
CONTINUOUS
 10
4.6755607468
 20
4.2788237578
 30
0.0
 11
1.9284550012
 21
0.4586391511
 31
0.0
 40
0.0813853855
 41
-1.6352752504
 42
-1.6324355533
  0
ELLIPSE
  5
406
100
AcDbEntity
  8
ALL_ASSEMBLY_MEMBERS
100
AcDbEllipse
 62
7
  6
CONTINUOUS
 10
4.6755607468
 20
4.2788237578
 30
0.0
 11
1.9186425152
 21
0.4563054746
 31
0.0
 40
0.0813853855
 41
-1.635506194
 42
-1.6326519458
  0
ELLIPSE
  5
407
100
AcDbEntity
  8
ALL_ASSEMBLY_MEMBERS
100
AcDbEllipse
 62
7
  6
CONTINUOUS
 10
4.6465577225
 20
4.2788237578
 30
0.0
 11
1.28479561
 21
0.461943148
 31
0.0
 40
0.1143676625
 41
-1.6626997827
 42
-1.6570192891
  0
ELLIPSE
  5
408
100
AcDbEntity
  8
ALL_ASSEMBLY_MEMBERS
100
AcDbEllipse
 62
7
  6
CONTINUOUS
 10
4.6465577225
 20
4.2788237578
 30
0.0
 11
1.2782582322
 21
0.4595926598
 31
0.0
 40
0.1143676625
 41
-1.6629598455
 42
-1.6572502327
  0
ELLIPSE
  5
409
100
AcDbEntity
  8
ALL_ASSEMBLY_MEMBERS
100
AcDbEllipse
 62
7
  6
CONTINUOUS
 10
4.6139063859
 20
4.2788237578
 30
0.0
 11
0.6379534101
 21
0.4725921247
 31
0.0
 40
0.1691116253
 41
-1.754754002
 42
-1.7462301183
  0
ELLIPSE
  5
40A
100
AcDbEntity
  8
ALL_ASSEMBLY_MEMBERS
100
AcDbEllipse
 62
7
  6
CONTINUOUS
 10
4.6139063859
 20
4.2788237578
 30
0.0
 11
0.6347073354
 21
0.4701874517
 31
0.0
 40
0.1691116253
 41
-1.7550577922
 42
-1.7464901811
  0
ELLIPSE
  5
40B
100
AcDbEntity
  8
ALL_ASSEMBLY_MEMBERS
100
AcDbEllipse
 62
7
  6
CONTINUOUS
 10
4.5986570508
 20
4.2788237578
 30
0.0
 11
0.3768572419
 21
0.4804196487
 31
0.0
 40
0.1715483437
 41
-1.8596439314
 42
-1.8454275419
  0
ELLIPSE
  5
40C
100
AcDbEntity
  8
ALL_ASSEMBLY_MEMBERS
100
AcDbEllipse
 62
7
  6
CONTINUOUS
 10
4.5986570508
 20
4.2788237578
 30
0.0
 11
0.3749396931
 21
0.4779751472
 31
0.0
 40
0.1715483437
 41
-1.8600207538
 42
-1.8457313321
  0
ENDSEC
  0
SECTION
  2
OBJECTS
  0
DICTIONARY
  5
C
100
AcDbDictionary
280
0
281
1
  3
ACAD_GROUP
350
D
  3
ACAD_MLINESTYLE
350
17
  3
ACAD_LAYOUT
350
1A
  3
ACAD_PLOTSETTINGS
350
19
  3
ACAD_PLOTSTYLENAME
350
E
  0
DICTIONARY
  5
D
102
{ACAD_REACTORS
330
C
102
}
100
AcDbDictionary
280
0
281
1
  0
ACDBDICTIONARYWDFLT
  5
E
102
{ACAD_REACTORS
330
C
102
}
100
AcDbDictionary
281
1
  3
Normal
350
F
100
AcDbDictionaryWithDefault
340
F
  0
DICTIONARY
  5
17
102
{ACAD_REACTORS
330
C
102
}
100
AcDbDictionary
280
0
281
1
  3
Standard
350
18
  0
DICTIONARY
  5
19
102
{ACAD_REACTORS
330
C
102
}
100
AcDbDictionary
281
1
  0
DICTIONARY
  5
1A
102
{ACAD_REACTORS
330
C
102
}
100
AcDbDictionary
281
1
  3
Model
350
40D
  3
Layout1
350
40E
  0
ACDBPLACEHOLDER
  5
F
102
{ACAD_REACTORS
330
E
102
}
  0
MLINESTYLE
  5
18
102
{ACAD_REACTORS
330
17
102
}
100
AcDbMlineStyle
  2
STANDARD
 70
0
  3

 62
256
 51
90.0
 52
90.0
 71
2
 49
0.5
 62
256
  6
BYLAYER
 49
-0.5
 62
256
  6
BYLAYER
  0
LAYOUT
  5
40D
102
{ACAD_REACTORS
330
1A
102
}
100
AcDbPlotSettings
  1

  2
none_device
  4
ANSI_A_(11.00_x_8.50_Inches)
  6

 40
0.0
 41
0.0
 42
0.0
 43
0.0
 44
279.4
 45
215.9
 46
0.0
 47
0.0
 48
0.0
 49
0.0
140
0.0
141
0.0
142
1.0
143
1.0
 70
1024
 72
0
 73
0
 74
0
  7

 75
0
147
1.0
148
0.0
149
0.0
100
AcDbLayout
  1
Model
 70
0
 71
0
 10
0.0
 20
0.0
 11
11.0
 21
8.5
 12
0.0
 22
0.0
 32
0.0
 14
0.0
 24
0.0
 34
0.0
 15
0.0
 25
0.0
 35
0.0
146
0.0
 13
0.0
 23
0.0
 33
0.0
 16
1.0
 26
0.0
 36
0.0
 17
0.0
 27
1.0
 37
0.0
 76
0
330
21D
345
0
346
0
  0
LAYOUT
  5
40E
102
{ACAD_REACTORS
330
1A
102
}
100
AcDbPlotSettings
  1

  2
none_device
  4
ANSI_A_(11.00_x_8.50_Inches)
  6

 40
0.0
 41
0.0
 42
0.0
 43
0.0
 44
279.4
 45
215.9
 46
0.0
 47
0.0
 48
0.0
 49
0.0
140
0.0
141
0.0
142
1.0
143
1.0
 70
0
 72
0
 73
0
 74
0
  7

 75
0
147
1.0
148
0.0
149
0.0
100
AcDbLayout
  1
Layout1
 70
0
 71
1
 10
0.0
 20
0.0
 11
11.0
 21
8.5
 12
0.0
 22
0.0
 32
0.0
 14
0.0
 24
0.0
 34
0.0
 15
0.0
 25
0.0
 35
0.0
146
0.0
 13
0.0
 23
0.0
 33
0.0
 16
1.0
 26
0.0
 36
0.0
 17
0.0
 27
1.0
 37
0.0
 76
0
330
21E
345
0
346
0
  0
ENDSEC
  0
EOF
